  0
SECTION
  2
HEADER
  9
$ACADVER
  1
AC1015
  9
$ACADMAINTVER
 70
     6
  9
$DWGCODEPAGE
  3
ANSI_1252
  9
$INSBASE
 10
0.0
 20
0.0
 30
0.0
  9
$EXTMIN
 10
0.0
 20
0.0
 30
0.0
  9
$EXTMAX
 10
420.0
 20
297.0
 30
0.0
  9
$LIMMIN
 10
0.0
 20
0.0
  9
$LIMMAX
 10
420.0
 20
297.0
  9
$ORTHOMODE
 70
     0
  9
$REGENMODE
 70
     1
  9
$FILLMODE
 70
     1
  9
$QTEXTMODE
 70
     0
  9
$MIRRTEXT
 70
     1
  9
$LTSCALE
 40
1.0
  9
$ATTMODE
 70
     1
  9
$TEXTSIZE
 40
3.5
  9
$TRACEWID
 40
1.0
  9
$TEXTSTYLE
  7
Standard
  9
$CLAYER
  8
0
  9
$CELTYPE
  6
ByLayer
  9
$CECOLOR
 62
   256
  9
$CELTSCALE
 40
1.0
  9
$DISPSILH
 70
     0
  9
$DIMSCALE
 40
1.0
  9
$DIMASZ
 40
3.302
  9
$DIMEXO
 40
1.0
  9
$DIMDLI
 40
3.75
  9
$DIMRND
 40
0.0
  9
$DIMDLE
 40
0.0
  9
$DIMEXE
 40
1.0
  9
$DIMTP
 40
0.0
  9
$DIMTM
 40
0.0
  9
$DIMTXT
 40
3.5
  9
$DIMCEN
 40
2.5
  9
$DIMTSZ
 40
0.0
  9
$DIMTOL
 70
     0
  9
$DIMLIM
 70
     0
  9
$DIMTIH
 70
     1
  9
$DIMTOH
 70
     1
  9
$DIMSE1
 70
     0
  9
$DIMSE2
 70
     0
  9
$DIMTAD
 70
     1
  9
$DIMZIN
 70
     0
  9
$DIMBLK
  1

  9
$DIMASO
 70
     1
  9
$DIMSHO
 70
     1
  9
$DIMPOST
  1

  9
$DIMAPOST
  1

  9
$DIMALT
 70
     0
  9
$DIMALTD
 70
     3
  9
$DIMALTF
 40
0.0393700787
  9
$DIMLFAC
 40
10.0
  9
$DIMTOFL
 70
     1
  9
$DIMTVP
 40
0.0
  9
$DIMTIX
 70
     0
  9
$DIMSOXD
 70
     0
  9
$DIMSAH
 70
     0
  9
$DIMBLK1
  1

  9
$DIMBLK2
  1

  9
$DIMSTYLE
  2
ISO-25
  9
$DIMCLRD
 70
     0
  9
$DIMCLRE
 70
     0
  9
$DIMCLRT
 70
     0
  9
$DIMTFAC
 40
1.0
  9
$DIMGAP
 40
1.524
  9
$DIMJUST
 70
     0
  9
$DIMSD1
 70
     0
  9
$DIMSD2
 70
     0
  9
$DIMTOLJ
 70
     0
  9
$DIMTZIN
 70
     0
  9
$DIMALTZ
 70
     0
  9
$DIMALTTZ
 70
     0
  9
$DIMUPT
 70
     0
  9
$DIMDEC
 70
     3
  9
$DIMTDEC
 70
     3
  9
$DIMALTU
 70
     2
  9
$DIMALTTD
 70
     3
  9
$DIMTXSTY
  7
Standard
  9
$DIMAUNIT
 70
     0
  9
$DIMADEC
 70
     2
  9
$DIMALTRND
 40
0.0
  9
$DIMAZIN
 70
     0
  9
$DIMDSEP
 70
    44
  9
$DIMATFIT
 70
     3
  9
$DIMFRAC
 70
     0
  9
$DIMLDRBLK
  1

  9
$DIMLUNIT
 70
     2
  9
$DIMLWD
 70
    -2
  9
$DIMLWE
 70
    -2
  9
$DIMTMOVE
 70
     0
  9
$LUNITS
 70
     2
  9
$LUPREC
 70
     8
  9
$SKETCHINC
 40
1.0
  9
$FILLETRAD
 40
10.0
  9
$AUNITS
 70
     0
  9
$AUPREC
 70
     8
  9
$MENU
  1
.
  9
$ELEVATION
 40
0.0
  9
$PELEVATION
 40
0.0
  9
$THICKNESS
 40
0.0
  9
$LIMCHECK
 70
     0
  9
$CHAMFERA
 40
10.0
  9
$CHAMFERB
 40
10.0
  9
$CHAMFERC
 40
20.0
  9
$CHAMFERD
 40
0.0
  9
$SKPOLY
 70
     0
  9
$TDCREATE
 40
2455855.519854548
  9
$TDUCREATE
 40
2455855.478187882
  9
$TDUPDATE
 40
2455855.51985456
  9
$TDUUPDATE
 40
2455855.478187894
  9
$TDINDWG
 40
0.0000000116
  9
$TDUSRTIMER
 40
0.0000000116
  9
$USRTIMER
 70
     1
  9
$ANGBASE
 50
0.0
  9
$ANGDIR
 70
     0
  9
$PDMODE
 70
     0
  9
$PDSIZE
 40
-1.0
  9
$PLINEWID
 40
0.0
  9
$SPLFRAME
 70
     0
  9
$SPLINETYPE
 70
     6
  9
$SPLINESEGS
 70
     8
  9
$HANDSEED
  5
104
  9
$SURFTAB1
 70
     6
  9
$SURFTAB2
 70
     6
  9
$SURFTYPE
 70
     6
  9
$SURFU
 70
     6
  9
$SURFV
 70
     6
  9
$UCSBASE
  2

  9
$UCSNAME
  2

  9
$UCSORG
 10
0.0
 20
0.0
 30
0.0
  9
$UCSXDIR
 10
1.0
 20
0.0
 30
0.0
  9
$UCSYDIR
 10
0.0
 20
1.0
 30
0.0
  9
$UCSORTHOREF
  2

  9
$UCSORTHOVIEW
 70
     0
  9
$UCSORGTOP
 10
0.0
 20
0.0
 30
0.0
  9
$UCSORGBOTTOM
 10
0.0
 20
0.0
 30
0.0
  9
$UCSORGLEFT
 10
0.0
 20
0.0
 30
0.0
  9
$UCSORGRIGHT
 10
0.0
 20
0.0
 30
0.0
  9
$UCSORGFRONT
 10
0.0
 20
0.0
 30
0.0
  9
$UCSORGBACK
 10
0.0
 20
0.0
 30
0.0
  9
$PUCSBASE
  2

  9
$PUCSNAME
  2

  9
$PUCSORG
 10
0.0
 20
0.0
 30
0.0
  9
$PUCSXDIR
 10
1.0
 20
0.0
 30
0.0
  9
$PUCSYDIR
 10
0.0
 20
1.0
 30
0.0
  9
$PUCSORTHOREF
  2

  9
$PUCSORTHOVIEW
 70
     0
  9
$PUCSORGTOP
 10
0.0
 20
0.0
 30
0.0
  9
$PUCSORGBOTTOM
 10
0.0
 20
0.0
 30
0.0
  9
$PUCSORGLEFT
 10
0.0
 20
0.0
 30
0.0
  9
$PUCSORGRIGHT
 10
0.0
 20
0.0
 30
0.0
  9
$PUCSORGFRONT
 10
0.0
 20
0.0
 30
0.0
  9
$PUCSORGBACK
 10
0.0
 20
0.0
 30
0.0
  9
$USERI1
 70
     0
  9
$USERI2
 70
     0
  9
$USERI3
 70
     0
  9
$USERI4
 70
     0
  9
$USERI5
 70
     0
  9
$USERR1
 40
0.0
  9
$USERR2
 40
0.0
  9
$USERR3
 40
0.0
  9
$USERR4
 40
0.0
  9
$USERR5
 40
0.0
  9
$WORLDVIEW
 70
     1
  9
$SHADEDGE
 70
     3
  9
$SHADEDIF
 70
    70
  9
$TILEMODE
 70
     1
  9
$MAXACTVP
 70
    64
  9
$PINSBASE
 10
0.0
 20
0.0
 30
0.0
  9
$PLIMCHECK
 70
     0
  9
$PEXTMIN
 10
1.0000000000E+20
 20
1.0000000000E+20
 30
1.0000000000E+20
  9
$PEXTMAX
 10
-1.0000000000E+20
 20
-1.0000000000E+20
 30
-1.0000000000E+20
  9
$PLIMMIN
 10
0.0
 20
0.0
  9
$PLIMMAX
 10
420.0
 20
297.0
  9
$UNITMODE
 70
     0
  9
$VISRETAIN
 70
     1
  9
$PLINEGEN
 70
     0
  9
$PSLTSCALE
 70
     1
  9
$TREEDEPTH
 70
  3020
  9
$CMLSTYLE
  2
Standard
  9
$CMLJUST
 70
     0
  9
$CMLSCALE
 40
20.0
  9
$PROXYGRAPHICS
 70
     1
  9
$MEASUREMENT
 70
     1
  9
$CELWEIGHT
370
    -1
  9
$ENDCAPS
280
     0
  9
$JOINSTYLE
280
     0
  9
$LWDISPLAY
290
     1
  9
$INSUNITS
 70
     4
  9
$HYPERLINKBASE
  1

  9
$STYLESHEET
  1

  9
$XEDIT
290
     1
  9
$CEPSNTYPE
380
     0
  9
$PSTYLEMODE
290
     1
  9
$FINGERPRINTGUID
  2
{B07E2E9D-4932-484B-B800-AF4BCB583A83}
  9
$VERSIONGUID
  2
{FAEB1C32-E019-11D5-929B-00C0DF256EC4}
  9
$EXTNAMES
290
     1
  9
$PSVPSCALE
 40
0.0
  9
$OLESTARTUP
290
     0
  0
ENDSEC
  0
SECTION
  2
CLASSES
  0
CLASS
  1
ACDBDICTIONARYWDFLT
  2
AcDbDictionaryWithDefault
  3
ObjectDBX Classes
 90
        0
280
     0
281
     0
  0
CLASS
  1
VISUALSTYLE
  2
AcDbVisualStyle
  3
ObjectDBX Classes
 90
     4095
280
     0
281
     0
  0
CLASS
  1
MATERIAL
  2
AcDbMaterial
  3
ObjectDBX Classes
 90
     1153
280
     0
281
     0
  0
CLASS
  1
ACDBPLACEHOLDER
  2
AcDbPlaceHolder
  3
ObjectDBX Classes
 90
        0
280
     0
281
     0
  0
CLASS
  1
LAYOUT
  2
AcDbLayout
  3
ObjectDBX Classes
 90
        0
280
     0
281
     0
  0
ENDSEC
  0
SECTION
  2
TABLES
  0
TABLE
  2
VPORT
  5
8
330
0
100
AcDbSymbolTable
 70
     1
  0
VPORT
  5
29
330
8
100
AcDbSymbolTableRecord
100
AcDbViewportTableRecord
  2
*Active
 70
     0
 10
0.0
 20
0.0
 11
1.0
 21
1.0
 12
210.0
 22
148.5
 13
0.0
 23
0.0
 14
10.0
 24
10.0
 15
10.0
 25
10.0
 16
0.0
 26
0.0
 36
1.0
 17
0.0
 27
0.0
 37
0.0
 40
297.0
 41
1.4141414141
 42
50.0
 43
0.0
 44
0.0
 50
0.0
 51
0.0
 71
     0
 72
  2000
 73
     1
 74
     3
 75
     0
 76
     0
 77
     0
 78
     0
281
     0
 65
     1
110
0.0
120
0.0
130
0.0
111
1.0
121
0.0
131
0.0
112
0.0
122
1.0
132
0.0
 79
     0
146
0.0
  0
ENDTAB
  0
TABLE
  2
LTYPE
  5
5
330
0
100
AcDbSymbolTable
 70
     6
  0
LTYPE
  5
14
330
5
100
AcDbSymbolTableRecord
100
AcDbLinetypeTableRecord
  2
ByBlock
 70
     0
  3

 72
    65
 73
     0
 40
0.0
  0
LTYPE
  5
15
330
5
100
AcDbSymbolTableRecord
100
AcDbLinetypeTableRecord
  2
ByLayer
 70
     0
  3

 72
    65
 73
     0
 40
0.0
  0
LTYPE
  5
16
330
5
100
AcDbSymbolTableRecord
100
AcDbLinetypeTableRecord
  2
Continuous
 70
     0
  3
Solid line
 72
    65
 73
     0
 40
0.0
  0
LTYPE
  5
3F
330
5
100
AcDbSymbolTableRecord
100
AcDbLinetypeTableRecord
  2
HIDDEN
 70
     0
  3
Hidden __ __ __ __ __ __ __ __ __ __ __ __ __ __
 72
    65
 73
     2
 40
1.905
 49
1.27
 74
     0
 49
-0.635
 74
     0
  0
LTYPE
  5
40
330
5
100
AcDbSymbolTableRecord
100
AcDbLinetypeTableRecord
  2
PHANTOM
 70
     0
  3
Phantom ______  __  __  ______  __  __  ______
 72
    65
 73
     6
 40
12.7
 49
6.35
 74
     0
 49
-1.27
 74
     0
 49
1.27
 74
     0
 49
-1.27
 74
     0
 49
1.27
 74
     0
 49
-1.27
 74
     0
  0
LTYPE
  5
41
330
5
100
AcDbSymbolTableRecord
100
AcDbLinetypeTableRecord
  2
CENTER
 70
     0
  3
Center ____ _ ____ _ ____ _ ____ _ ____ _ ____
 72
    65
 73
     4
 40
10.16
 49
6.35
 74
     0
 49
-1.27
 74
     0
 49
1.27
 74
     0
 49
-1.27
 74
     0
  0
LTYPE
  5
42
330
5
100
AcDbSymbolTableRecord
100
AcDbLinetypeTableRecord
  2
CENTERX2
 70
     0
  3
Center (2x) ________  __  ________  __  _____
 72
    65
 73
     4
 40
20.32
 49
12.7
 74
     0
 49
-2.54
 74
     0
 49
2.54
 74
     0
 49
-2.54
 74
     0
  0
LTYPE
  5
43
330
5
100
AcDbSymbolTableRecord
100
AcDbLinetypeTableRecord
  2
DOT2
 70
     0
  3
Dot (.5x) ........................................
 72
    65
 73
     2
 40
0.635
 49
0.0
 74
     0
 49
-0.635
 74
     0
  0
ENDTAB
  0
TABLE
  2
LAYER
  5
2
330
0
100
AcDbSymbolTable
 70
     4
  0
LAYER
  5
10
330
2
100
AcDbSymbolTableRecord
100
AcDbLayerTableRecord
  2
0
 70
     0
 62
     7
  6
Continuous
370
    -3
390
F
  0
LAYER
  5
44
330
2
100
AcDbSymbolTableRecord
100
AcDbLayerTableRecord
  2
FORMAT
 70
     0
 62
     7
  6
Continuous
370
    -3
390
F
  0
LAYER
  5
45
330
2
100
AcDbSymbolTableRecord
100
AcDbLayerTableRecord
  2
SLD-0
 70
     0
 62
     1
  6
Continuous
370
    -3
390
F
  0
LAYER
  5
46
330
2
100
AcDbSymbolTableRecord
100
AcDbLayerTableRecord
  2
WATERMARK
 70
     0
 62
    20
  6
Continuous
370
    -3
390
F
  0
ENDTAB
  0
TABLE
  2
STYLE
  5
3
330
0
100
AcDbSymbolTable
 70
     1
  0
STYLE
  5
11
330
3
100
AcDbSymbolTableRecord
100
AcDbTextStyleTableRecord
  2
Standard
 70
     0
 40
0.0
 41
1.0
 50
0.0
 71
     0
 42
2.5
  3
txt
  4

  0
ENDTAB
  0
TABLE
  2
VIEW
  5
6
330
0
100
AcDbSymbolTable
 70
     0
  0
ENDTAB
  0
TABLE
  2
UCS
  5
7
330
0
100
AcDbSymbolTable
 70
     0
  0
ENDTAB
  0
TABLE
  2
APPID
  5
9
330
0
100
AcDbSymbolTable
 70
     1
  0
APPID
  5
12
330
9
100
AcDbSymbolTableRecord
100
AcDbRegAppTableRecord
  2
ACAD
 70
     0
  0
ENDTAB
  0
TABLE
  2
DIMSTYLE
  5
A
330
0
100
AcDbSymbolTable
 70
     1
100
AcDbDimStyleTable
  0
DIMSTYLE
105
27
330
A
100
AcDbSymbolTableRecord
100
AcDbDimStyleTableRecord
  2
ISO-25
 70
     0
 41
2.5
 42
0.625
 43
3.75
 44
1.25
 73
     0
 74
     0
 77
     1
 78
     8
140
2.5
141
2.5
143
0.0393700787
147
0.625
171
     3
172
     1
178
     0
271
     2
272
     2
274
     3
278
    44
283
     0
284
     8
340
11
  0
ENDTAB
  0
TABLE
  2
BLOCK_RECORD
  5
1
330
0
100
AcDbSymbolTable
 70
     1
  0
BLOCK_RECORD
  5
1F
330
1
100
AcDbSymbolTableRecord
100
AcDbBlockTableRecord
  2
*Model_Space
340
22
  0
BLOCK_RECORD
  5
1B
330
1
100
AcDbSymbolTableRecord
100
AcDbBlockTableRecord
  2
*Paper_Space
340
1E
  0
BLOCK_RECORD
  5
23
330
1
100
AcDbSymbolTableRecord
100
AcDbBlockTableRecord
  2
*Paper_Space0
340
26
  0
ENDTAB
  0
ENDSEC
  0
SECTION
  2
BLOCKS
  0
BLOCK
  5
20
330
1F
100
AcDbEntity
  8
0
100
AcDbBlockBegin
  2
*Model_Space
 70
     0
 10
0.0
 20
0.0
 30
0.0
  3
*Model_Space
  1

  0
ENDBLK
  5
21
330
1F
100
AcDbEntity
  8
0
100
AcDbBlockEnd
  0
BLOCK
  5
1C
330
1B
100
AcDbEntity
 67
     1
  8
0
100
AcDbBlockBegin
  2
*Paper_Space
 70
     0
 10
0.0
 20
0.0
 30
0.0
  3
*Paper_Space
  1

  0
ENDBLK
  5
1D
330
1B
100
AcDbEntity
 67
     1
  8
0
100
AcDbBlockEnd
  0
BLOCK
  5
24
330
23
100
AcDbEntity
  8
0
100
AcDbBlockBegin
  2
*Paper_Space0
 70
     0
 10
0.0
 20
0.0
 30
0.0
  3
*Paper_Space0
  1

  0
ENDBLK
  5
25
330
23
100
AcDbEntity
  8
0
100
AcDbBlockEnd
  0
ENDSEC
  0
SECTION
  2
ENTITIES
  0
LINE
  5
47
330
1F
100
AcDbEntity
  8
0
  6
Continuous
 62
     7
370
    15
100
AcDbLine
 10
168.9241
 20
106.799009733
 30
0.0
 11
198.6841
 21
106.799009733
 31
0.0
  0
LINE
  5
48
330
1F
100
AcDbEntity
  8
0
  6
Continuous
 62
     7
370
    15
100
AcDbLine
 10
168.8031
 20
106.919009733
 30
0.0
 11
168.9231
 21
106.919009733
 31
0.0
  0
LINE
  5
49
330
1F
100
AcDbEntity
  8
0
  6
Continuous
 62
     7
370
    15
100
AcDbLine
 10
198.6851
 20
106.919009733
 30
0.0
 11
198.8051
 21
106.919009733
 31
0.0
  0
ARC
  5
4A
330
1F
100
AcDbEntity
  8
0
  6
Continuous
 62
     7
370
    15
100
AcDbCircle
 10
192.1511
 20
184.666390267
 30
0.0
 40
0.0250000000000059
100
AcDbArc
 50
0.0
 51
29.473426788
  0
LINE
  5
4B
330
1F
100
AcDbEntity
  8
0
  6
Continuous
 62
     7
370
    15
100
AcDbLine
 10
192.1761
 20
184.596390267
 30
0.0
 11
192.1761
 21
184.666390267
 31
0.0
  0
SPLINE
  5
4C
330
1F
100
AcDbEntity
  8
0
  6
Continuous
 62
     7
370
    15
100
AcDbSpline
210
0.0
220
0.0
230
1.0
 70
     8
 71
     3
 72
    13
 73
     9
 74
     0
 42
0.00000001
 43
0.00000001
 40
0.0
 40
0.0
 40
0.0
 40
0.0
 40
0.0546880530911317
 40
0.2134688124181323
 40
0.3745771152279607
 40
0.5445034158371231
 40
0.7475374221082515
 40
1.0
 40
1.0
 40
1.0
 40
1.0
 10
190.9106725089119
 20
184.5463994735542
 30
0.0
 10
190.9106231131232
 20
184.5473578462957
 30
0.0
 10
190.9104303020839
 20
184.5510987490969
 30
0.0
 10
190.9118337368957
 20
184.5574833223638
 30
0.0
 10
190.9145978113255
 20
184.5642224242616
 30
0.0
 10
190.9182884088828
 20
184.5689820258323
 30
0.0
 10
190.9217660991578
 20
184.57126947508
 30
0.0
 10
190.9229491164065
 20
184.5713148690838
 30
0.0
 10
190.9236048130564
 20
184.5713400290688
 30
0.0
  0
ARC
  5
4D
330
1F
100
AcDbEntity
  8
0
  6
Continuous
 62
     7
370
    15
100
AcDbCircle
 10
190.885485025
 20
184.036390267
 30
0.0
 40
0.0250000000000057
100
AcDbArc
 50
270.0
 51
0.0
  0
LINE
  5
4E
330
1F
100
AcDbEntity
  8
0
  6
Continuous
 62
     7
370
    15
100
AcDbLine
 10
190.910485025
 20
184.036390267
 30
0.0
 11
190.910485025
 21
184.546390267
 31
0.0
  0
ARC
  5
4F
330
1F
100
AcDbEntity
  8
0
  6
Continuous
 62
     7
370
    15
100
AcDbCircle
 10
190.4154879851
 20
184.036390267
 30
0.0
 40
0.0250000000000057
100
AcDbArc
 50
180.0
 51
270.0
  0
LINE
  5
50
330
1F
100
AcDbEntity
  8
0
  6
Continuous
 62
     7
370
    15
100
AcDbLine
 10
190.3904879851
 20
184.546390267
 30
0.0
 11
190.3904879851
 21
184.036390267
 31
0.0
  0
ARC
  5
51
330
1F
100
AcDbEntity
  8
0
  6
Continuous
 62
     7
370
    15
100
AcDbCircle
 10
190.4611
 20
184.666390267
 30
0.0
 40
0.0250000000000057
100
AcDbArc
 50
90.0
 51
180.0
  0
LINE
  5
52
330
1F
100
AcDbEntity
  8
0
  6
Continuous
 62
     7
370
    15
100
AcDbLine
 10
192.2217120149
 20
184.036390267
 30
0.0
 11
192.2217120149
 21
184.546390267
 31
0.0
  0
ARC
  5
53
330
1F
100
AcDbEntity
  8
0
  6
Continuous
 62
     7
370
    15
100
AcDbCircle
 10
192.1967120149
 20
184.036390267
 30
0.0
 40
0.0250000000000057
100
AcDbArc
 50
270.0
 51
0.0
  0
SPLINE
  5
54
330
1F
100
AcDbEntity
  8
0
  6
Continuous
 62
     7
370
    15
100
AcDbSpline
210
0.0
220
0.0
230
1.0
 70
     8
 71
     3
 72
    13
 73
     9
 74
     0
 42
0.00000001
 43
0.00000001
 40
0.0
 40
0.0
 40
0.0
 40
0.0
 40
0.0634888169712015
 40
0.2470479163485729
 40
0.4311284030706123
 40
0.6187780680209864
 40
0.8315552682017359
 40
1.0
 40
1.0
 40
1.0
 40
1.0
 10
191.6170156561284
 20
184.5963793780138
 30
0.0
 10
191.6170628893117
 20
184.5953567717984
 30
0.0
 10
191.6172466832467
 20
184.5913776027604
 30
0.0
 10
191.6159121815526
 20
184.5846216584114
 30
0.0
 10
191.6133173870417
 20
184.5776117070541
 30
0.0
 10
191.6101205756753
 20
184.5729648907154
 30
0.0
 10
191.6078190472596
 20
184.5713622281617
 30
0.0
 10
191.6078932963367
 20
184.5714322859467
 30
0.0
 10
191.6079261036462
 20
184.5714632413136
 30
0.0
  0
ARC
  5
55
330
1F
100
AcDbEntity
  8
0
  6
Continuous
 62
     7
370
    15
100
AcDbCircle
 10
191.6421951824
 20
185.106390267
 30
0.0
 40
0.0249999999999773
100
AcDbArc
 50
90.0
 51
180.0
  0
LINE
  5
56
330
1F
100
AcDbEntity
  8
0
  6
Continuous
 62
     7
370
    15
100
AcDbLine
 10
191.6171951824
 20
185.106390267
 30
0.0
 11
191.6171951824
 21
184.596390267
 31
0.0
  0
ARC
  5
57
330
1F
100
AcDbEntity
  8
0
  6
Continuous
 62
     7
370
    15
100
AcDbCircle
 10
192.1478645996
 20
185.106390267
 30
0.0
 40
0.0250000000000057
100
AcDbArc
 50
0.0
 51
90.0
  0
LINE
  5
58
330
1F
100
AcDbEntity
  8
0
  6
Continuous
 62
     7
370
    15
100
AcDbLine
 10
192.1728645996
 20
184.596390267
 30
0.0
 11
192.1728645996
 21
185.106390267
 31
0.0
  0
ARC
  5
59
330
1F
100
AcDbEntity
  8
0
  6
Continuous
 62
     7
370
    15
100
AcDbCircle
 10
192.1511
 20
184.476390267
 30
0.0
 40
0.0250000000000057
100
AcDbArc
 50
270.0
 51
0.0
  0
ARC
  5
5A
330
1F
100
AcDbEntity
  8
0
  6
Continuous
 62
     7
370
    15
100
AcDbCircle
 10
192.1511
 20
184.546390267
 30
0.0
 40
0.0250000000000057
100
AcDbArc
 50
0.0
 51
52.7089330724
  0
LINE
  5
5B
330
1F
100
AcDbEntity
  8
0
  6
Continuous
 62
     7
370
    15
100
AcDbLine
 10
192.1761
 20
184.476390267
 30
0.0
 11
192.1761
 21
184.546390267
 31
0.0
  0
LINE
  5
5C
330
1F
100
AcDbEntity
  8
0
  6
Continuous
 62
     7
370
    15
100
AcDbLine
 10
190.4393354004
 20
185.106390267
 30
0.0
 11
190.4393354004
 21
184.6786907632
 31
0.0
  0
ARC
  5
5D
330
1F
100
AcDbEntity
  8
0
  6
Continuous
 62
     7
370
    15
100
AcDbCircle
 10
190.4643354004
 20
185.106390267
 30
0.0
 40
0.0249999999999773
100
AcDbArc
 50
90.0
 51
180.0
  0
LINE
  5
5E
330
1F
100
AcDbEntity
  8
0
  6
Continuous
 62
     7
370
    15
100
AcDbLine
 10
191.815025115
 20
183.9012373495
 30
0.0
 11
191.8061
 21
183.906390267
 31
0.0
  0
LINE
  5
5F
330
1F
100
AcDbEntity
  8
0
  6
Continuous
 62
     7
370
    15
100
AcDbLine
 10
190.8061
 20
183.906390267
 30
0.0
 11
190.797174885
 21
183.9012373495
 31
0.0
  0
LINE
  5
60
330
1F
100
AcDbEntity
  8
0
  6
Continuous
 62
     7
370
    15
100
AcDbLine
 10
190.7813618947
 20
183.9456728188
 30
0.0
 11
190.8061
 21
183.931390267
 31
0.0
  0
LINE
  5
61
330
1F
100
AcDbEntity
  8
0
  6
Continuous
 62
     7
370
    15
100
AcDbLine
 10
191.8308381053
 20
184.4371077153
 30
0.0
 11
191.8061
 21
184.451390267
 31
0.0
  0
LINE
  5
62
330
1F
100
AcDbEntity
  8
0
  6
Continuous
 62
     7
370
    15
100
AcDbLine
 10
191.8061
 20
183.931390267
 30
0.0
 11
191.8308381053
 21
183.9456728188
 31
0.0
  0
LINE
  5
63
330
1F
100
AcDbEntity
  8
0
  6
Continuous
 62
     7
370
    15
100
AcDbLine
 10
191.8522691404
 20
185.1847345014
 30
0.0
 11
191.8061
 21
185.211390267
 31
0.0
  0
LINE
  5
64
330
1F
100
AcDbEntity
  8
0
  6
Continuous
 62
     7
370
    15
100
AcDbLine
 10
190.8061
 20
185.211390267
 30
0.0
 11
190.7599308596
 21
185.1847345014
 31
0.0
  0
LINE
  5
65
330
1F
100
AcDbEntity
  8
0
  6
Continuous
 62
     7
370
    15
100
AcDbLine
 10
190.7599308596
 20
184.7180460327
 30
0.0
 11
190.8061
 21
184.691390267
 31
0.0
  0
LINE
  5
66
330
1F
100
AcDbEntity
  8
0
  6
Continuous
 62
     7
370
    15
100
AcDbLine
 10
191.6061
 20
183.906390267
 30
0.0
 11
191.6061
 21
183.931390267
 31
0.0
  0
LINE
  5
67
330
1F
100
AcDbEntity
  8
0
  6
Continuous
 62
     7
370
    15
100
AcDbLine
 10
191.0061
 20
183.931390267
 30
0.0
 11
191.0061
 21
183.906390267
 31
0.0
  0
LINE
  5
68
330
1F
100
AcDbEntity
  8
0
  6
Continuous
 62
     7
370
    15
100
AcDbLine
 10
198.5641
 20
178.031390267
 30
0.0
 11
198.5601
 21
178.031390267
 31
0.0
  0
LINE
  5
69
330
1F
100
AcDbEntity
  8
0
  6
Continuous
 62
     7
370
    15
100
AcDbLine
 10
169.0441
 20
178.031390267
 30
0.0
 11
169.0481
 21
178.031390267
 31
0.0
  0
LINE
  5
6A
330
1F
100
AcDbEntity
  8
0
  6
Continuous
 62
     7
370
    15
100
AcDbLine
 10
198.5641
 20
178.076390267
 30
0.0
 11
198.5641
 21
178.031390267
 31
0.0
  0
LINE
  5
6B
330
1F
100
AcDbEntity
  8
0
  6
Continuous
 62
     7
370
    15
100
AcDbLine
 10
169.0441
 20
178.031390267
 30
0.0
 11
169.0441
 21
178.076390267
 31
0.0
  0
LINE
  5
6C
330
1F
100
AcDbEntity
  8
0
  6
Continuous
 62
     7
370
    15
100
AcDbLine
 10
198.5001
 20
109.2081684938
 30
0.0
 11
198.5601
 21
109.2081684938
 31
0.0
  0
LINE
  5
6D
330
1F
100
AcDbEntity
  8
0
  6
Continuous
 62
     7
370
    15
100
AcDbLine
 10
198.5001
 20
109.1481684938
 30
0.0
 11
198.5001
 21
109.2081684938
 31
0.0
  0
LINE
  5
6E
330
1F
100
AcDbEntity
  8
0
  6
Continuous
 62
     7
370
    15
100
AcDbLine
 10
198.6841
 20
109.1481684938
 30
0.0
 11
198.5001
 21
109.1481684938
 31
0.0
  0
LINE
  5
6F
330
1F
100
AcDbEntity
  8
0
  6
Continuous
 62
     7
370
    15
100
AcDbLine
 10
198.6841
 20
109.129009733
 30
0.0
 11
198.6841
 21
109.1481684938
 31
0.0
  0
LINE
  5
70
330
1F
100
AcDbEntity
  8
0
  6
Continuous
 62
     7
370
    15
100
AcDbLine
 10
168.9241
 20
109.129009733
 30
0.0
 11
168.9241
 21
109.1481684938
 31
0.0
  0
LINE
  5
71
330
1F
100
AcDbEntity
  8
0
  6
Continuous
 62
     7
370
    15
100
AcDbLine
 10
169.1081
 20
109.1481684938
 30
0.0
 11
168.9241
 21
109.1481684938
 31
0.0
  0
LINE
  5
72
330
1F
100
AcDbEntity
  8
0
  6
Continuous
 62
     7
370
    15
100
AcDbLine
 10
169.1081
 20
109.2081684938
 30
0.0
 11
169.1081
 21
109.1481684938
 31
0.0
  0
LINE
  5
73
330
1F
100
AcDbEntity
  8
0
  6
Continuous
 62
     7
370
    15
100
AcDbLine
 10
169.0481
 20
109.2081684938
 30
0.0
 11
169.1081
 21
109.2081684938
 31
0.0
  0
SPLINE
  5
74
330
1F
100
AcDbEntity
  8
0
  6
Continuous
 62
     7
370
    15
100
AcDbSpline
210
0.0
220
0.0
230
1.0
 70
     8
 71
     3
 72
    11
 73
     7
 74
     0
 42
0.00000001
 43
0.00000001
 40
0.0
 40
0.0
 40
0.0
 40
0.0
 40
0.2708332923929947
 40
0.5189845831281545
 40
0.7564221509576545
 40
1.0
 40
1.0
 40
1.0
 40
1.0
 10
169.0480999999999
 20
109.2081684938208
 30
0.0
 10
169.0133144911522
 20
109.1348559409547
 30
0.0
 10
168.9466567230147
 20
108.9943706839499
 30
0.0
 10
168.8667628933723
 20
108.7896755056233
 30
0.0
 10
168.8134779702506
 20
108.5923756834827
 30
0.0
 10
168.8065886380952
 20
108.4622072310094
 30
0.0
 10
168.8030999999999
 20
108.3962921884671
 30
0.0
  0
LINE
  5
75
330
1F
100
AcDbEntity
  8
0
  6
Continuous
 62
     7
370
    15
100
AcDbLine
 10
168.8031
 20
108.3962921885
 30
0.0
 11
168.8031
 21
178.031390267
 31
0.0
  0
LINE
  5
76
330
1F
100
AcDbEntity
  8
0
  6
Continuous
 62
     7
370
    15
100
AcDbLine
 10
168.8031
 20
178.031390267
 30
0.0
 11
169.0441
 21
178.031390267
 31
0.0
  0
LINE
  5
77
330
1F
100
AcDbEntity
  8
0
  6
Continuous
 62
     7
370
    15
100
AcDbLine
 10
198.5641
 20
178.031390267
 30
0.0
 11
198.8051
 21
178.031390267
 31
0.0
  0
LINE
  5
78
330
1F
100
AcDbEntity
  8
0
  6
Continuous
 62
     7
370
    15
100
AcDbLine
 10
198.8051
 20
178.031390267
 30
0.0
 11
198.8051
 21
108.3962921885
 31
0.0
  0
SPLINE
  5
79
330
1F
100
AcDbEntity
  8
0
  6
Continuous
 62
     7
370
    15
100
AcDbSpline
210
0.0
220
0.0
230
1.0
 70
     8
 71
     3
 72
    11
 73
     7
 74
     0
 42
0.00000001
 43
0.00000001
 40
0.0
 40
0.0
 40
0.0
 40
0.0
 40
0.2708332923929787
 40
0.5189845831281508
 40
0.7564221509576308
 40
1.0
 40
1.0
 40
1.0
 40
1.0
 10
198.8050999999999
 20
108.3962921884671
 30
0.0
 10
198.8007915461848
 20
108.4696047413332
 30
0.0
 10
198.7925354670026
 20
108.610089998338
 30
0.0
 10
198.7327555879223
 20
108.8147851766646
 30
0.0
 10
198.6531476306329
 20
109.0120849988052
 30
0.0
 10
198.5913787087517
 20
109.1422534512785
 30
0.0
 10
198.5600999999999
 20
109.2081684938208
 30
0.0
  0
LINE
  5
7A
330
1F
100
AcDbEntity
  8
0
  6
Continuous
 62
     7
370
    15
100
AcDbLine
 10
198.6841
 20
106.799009733
 30
0.0
 11
198.6841
 21
109.129009733
 31
0.0
  0
LINE
  5
7B
330
1F
100
AcDbEntity
  8
0
  6
Continuous
 62
     7
370
    15
100
AcDbLine
 10
168.9241
 20
106.799009733
 30
0.0
 11
168.9241
 21
109.129009733
 31
0.0
  0
LINE
  5
7C
330
1F
100
AcDbEntity
  8
0
  6
Continuous
 62
     7
370
    15
100
AcDbLine
 10
198.6851
 20
108.3962921885
 30
0.0
 11
198.8051
 21
108.3962921885
 31
0.0
  0
LINE
  5
7D
330
1F
100
AcDbEntity
  8
0
  6
Continuous
 62
     7
370
    15
100
AcDbLine
 10
198.6851
 20
108.3962921885
 30
0.0
 11
198.6841
 21
108.4145663242
 31
0.0
  0
LINE
  5
7E
330
1F
100
AcDbEntity
  8
0
  6
Continuous
 62
     7
370
    15
100
AcDbLine
 10
198.5736117878
 20
109.1481684938
 30
0.0
 11
198.5601
 21
109.2081684938
 31
0.0
  0
LINE
  5
7F
330
1F
100
AcDbEntity
  8
0
  6
Continuous
 62
     7
370
    15
100
AcDbLine
 10
169.0481
 20
109.2081684938
 30
0.0
 11
169.0340969887
 21
109.1481684938
 31
0.0
  0
LINE
  5
80
330
1F
100
AcDbEntity
  8
0
  6
Continuous
 62
     7
370
    15
100
AcDbLine
 10
168.9231
 20
108.3962921885
 30
0.0
 11
168.8031
 21
108.3962921885
 31
0.0
  0
LINE
  5
81
330
1F
100
AcDbEntity
  8
0
  6
Continuous
 62
     7
370
    15
100
AcDbLine
 10
168.8041
 20
183.2285036114
 30
0.0
 11
168.8031
 21
183.206390267
 31
0.0
  0
LINE
  5
82
330
1F
100
AcDbEntity
  8
0
  6
Continuous
 62
     7
370
    15
100
AcDbLine
 10
198.8051
 20
183.206390267
 30
0.0
 11
198.8041
 21
183.2285036114
 31
0.0
  0
LINE
  5
83
330
1F
100
AcDbEntity
  8
0
  6
Continuous
 62
     7
370
    15
100
AcDbLine
 10
198.7241
 20
178.081390267
 30
0.0
 11
198.8051
 21
178.081390267
 31
0.0
  0
LINE
  5
84
330
1F
100
AcDbEntity
  8
0
  6
Continuous
 62
     7
370
    15
100
AcDbLine
 10
198.8051
 20
183.206390267
 30
0.0
 11
198.8051
 21
178.081390267
 31
0.0
  0
LINE
  5
85
330
1F
100
AcDbEntity
  8
0
  6
Continuous
 62
     7
370
    15
100
AcDbLine
 10
168.8841
 20
178.081390267
 30
0.0
 11
168.8031
 21
178.081390267
 31
0.0
  0
LINE
  5
86
330
1F
100
AcDbEntity
  8
0
  6
Continuous
 62
     7
370
    15
100
AcDbLine
 10
168.8031
 20
183.206390267
 30
0.0
 11
168.8031
 21
178.081390267
 31
0.0
  0
LINE
  5
87
330
1F
100
AcDbEntity
  8
0
  6
Continuous
 62
     7
370
    15
100
AcDbLine
 10
168.9231
 20
178.076390267
 30
0.0
 11
168.9231
 21
178.031390267
 31
0.0
  0
LINE
  5
88
330
1F
100
AcDbEntity
  8
0
  6
Continuous
 62
     7
370
    15
100
AcDbLine
 10
168.8031
 20
178.081390267
 30
0.0
 11
168.8031
 21
178.031390267
 31
0.0
  0
LINE
  5
89
330
1F
100
AcDbEntity
  8
0
  6
Continuous
 62
     7
370
    15
100
AcDbLine
 10
198.8051
 20
178.081390267
 30
0.0
 11
198.8051
 21
178.031390267
 31
0.0
  0
LINE
  5
8A
330
1F
100
AcDbEntity
  8
0
  6
Continuous
 62
     7
370
    15
100
AcDbLine
 10
198.6851
 20
178.076390267
 30
0.0
 11
198.6851
 21
178.031390267
 31
0.0
  0
LINE
  5
8B
330
1F
100
AcDbEntity
  8
0
  6
Continuous
 62
     7
370
    15
100
AcDbLine
 10
168.9231
 20
108.3962921885
 30
0.0
 11
168.9231
 21
106.919009733
 31
0.0
  0
LINE
  5
8C
330
1F
100
AcDbEntity
  8
0
  6
Continuous
 62
     7
370
    15
100
AcDbLine
 10
168.8031
 20
108.3962921885
 30
0.0
 11
168.8031
 21
106.919009733
 31
0.0
  0
LINE
  5
8D
330
1F
100
AcDbEntity
  8
0
  6
Continuous
 62
     7
370
    15
100
AcDbLine
 10
198.8051
 20
108.3962921885
 30
0.0
 11
198.8051
 21
106.919009733
 31
0.0
  0
LINE
  5
8E
330
1F
100
AcDbEntity
  8
0
  6
Continuous
 62
     7
370
    15
100
AcDbLine
 10
198.6851
 20
108.3962921885
 30
0.0
 11
198.6851
 21
106.919009733
 31
0.0
  0
LINE
  5
8F
330
1F
100
AcDbEntity
  8
0
  6
Continuous
 62
     7
370
    15
100
AcDbLine
 10
169.0091
 20
183.576390267
 30
0.0
 11
168.8841
 21
183.576390267
 31
0.0
  0
LINE
  5
90
330
1F
100
AcDbEntity
  8
0
  6
Continuous
 62
     7
370
    15
100
AcDbLine
 10
198.5991
 20
183.576390267
 30
0.0
 11
169.0091
 21
183.576390267
 31
0.0
  0
LINE
  5
91
330
1F
100
AcDbEntity
  8
0
  6
Continuous
 62
     7
370
    15
100
AcDbLine
 10
198.7241
 20
183.576390267
 30
0.0
 11
198.5991
 21
183.576390267
 31
0.0
  0
LINE
  5
92
330
1F
100
AcDbEntity
  8
0
  6
Continuous
 62
     7
370
    15
100
AcDbLine
 10
198.7241
 20
183.576390267
 30
0.0
 11
198.7241
 21
183.3183323628
 31
0.0
  0
LINE
  5
93
330
1F
100
AcDbEntity
  8
0
  6
Continuous
 62
     7
370
    15
100
AcDbLine
 10
168.8841
 20
183.576390267
 30
0.0
 11
168.8841
 21
183.3183323628
 31
0.0
  0
LINE
  5
94
330
1F
100
AcDbEntity
  8
0
  6
Continuous
 62
     7
370
    15
100
AcDbLine
 10
198.7241
 20
183.3183323628
 30
0.0
 11
198.7241
 21
179.9886371307
 31
0.0
  0
LINE
  5
95
330
1F
100
AcDbEntity
  8
0
  6
Continuous
 62
     7
370
    15
100
AcDbLine
 10
168.8841
 20
183.3183323628
 30
0.0
 11
168.8841
 21
179.9886371307
 31
0.0
  0
LINE
  5
96
330
1F
100
AcDbEntity
  8
0
  6
Continuous
 62
     7
370
    15
100
AcDbLine
 10
198.8041
 20
183.3290378864
 30
0.0
 11
198.7241
 21
183.3290378864
 31
0.0
  0
LINE
  5
97
330
1F
100
AcDbEntity
  8
0
  6
Continuous
 62
     7
370
    15
100
AcDbLine
 10
198.8041
 20
183.3290378864
 30
0.0
 11
198.8041
 21
180.0119308447
 31
0.0
  0
LINE
  5
98
330
1F
100
AcDbEntity
  8
0
  6
Continuous
 62
     7
370
    15
100
AcDbLine
 10
168.8041
 20
183.3290378864
 30
0.0
 11
168.8841
 21
183.3290378864
 31
0.0
  0
LINE
  5
99
330
1F
100
AcDbEntity
  8
0
  6
Continuous
 62
     7
370
    15
100
AcDbLine
 10
168.8041
 20
183.3290378864
 30
0.0
 11
168.8041
 21
180.0119308447
 31
0.0
  0
LINE
  5
9A
330
1F
100
AcDbEntity
  8
0
  6
Continuous
 62
     7
370
    15
100
AcDbLine
 10
168.8041
 20
183.371390267
 30
0.0
 11
168.8041
 21
183.3290378864
 31
0.0
  0
ARC
  5
9B
330
1F
100
AcDbEntity
  8
0
  6
Continuous
 62
     7
370
    15
100
AcDbCircle
 10
198.5991
 20
183.371390267
 30
0.0
 40
0.2050000000000125
100
AcDbArc
 50
0.0
 51
52.4281306803
  0
ARC
  5
9C
330
1F
100
AcDbEntity
  8
0
  6
Continuous
 62
     7
370
    15
100
AcDbCircle
 10
169.0091
 20
183.371390267
 30
0.0
 40
0.2049999999999841
100
AcDbArc
 50
127.5718693197
 51
180.0
  0
LINE
  5
9D
330
1F
100
AcDbEntity
  8
0
  6
Continuous
 62
     7
370
    15
100
AcDbLine
 10
198.8041
 20
183.371390267
 30
0.0
 11
198.8041
 21
183.3290378864
 31
0.0
  0
LINE
  5
9E
330
1F
100
AcDbEntity
  8
0
  6
Continuous
 62
     7
370
    15
100
AcDbLine
 10
198.7241
 20
179.9886371307
 30
0.0
 11
198.7241
 21
178.076390267
 31
0.0
  0
LINE
  5
9F
330
1F
100
AcDbEntity
  8
0
  6
Continuous
 62
     7
370
    15
100
AcDbLine
 10
198.7241
 20
178.076390267
 30
0.0
 11
168.8841
 21
178.076390267
 31
0.0
  0
LINE
  5
A0
330
1F
100
AcDbEntity
  8
0
  6
Continuous
 62
     7
370
    15
100
AcDbLine
 10
168.8841
 20
179.9886371307
 30
0.0
 11
168.8841
 21
178.076390267
 31
0.0
  0
LINE
  5
A1
330
1F
100
AcDbEntity
  8
0
  6
Continuous
 62
     7
370
    15
100
AcDbLine
 10
198.8041
 20
178.166390267
 30
0.0
 11
198.7241
 21
178.166390267
 31
0.0
  0
LINE
  5
A2
330
1F
100
AcDbEntity
  8
0
  6
Continuous
 62
     7
370
    15
100
AcDbLine
 10
198.8041
 20
180.0119308447
 30
0.0
 11
198.8041
 21
178.166390267
 31
0.0
  0
LINE
  5
A3
330
1F
100
AcDbEntity
  8
0
  6
Continuous
 62
     7
370
    15
100
AcDbLine
 10
168.8041
 20
178.166390267
 30
0.0
 11
168.8841
 21
178.166390267
 31
0.0
  0
LINE
  5
A4
330
1F
100
AcDbEntity
  8
0
  6
Continuous
 62
     7
370
    15
100
AcDbLine
 10
168.8041
 20
180.0119308447
 30
0.0
 11
168.8041
 21
178.166390267
 31
0.0
  0
SPLINE
  5
A5
330
1F
100
AcDbEntity
  8
0
  6
Continuous
 62
     7
370
    15
100
AcDbSpline
210
0.0
220
0.0
230
1.0
 70
     8
 71
     3
 72
    13
 73
     9
 74
     0
 42
0.00000001
 43
0.00000001
 40
0.0
 40
0.0
 40
0.0
 40
0.0
 40
0.1695411050602176
 40
0.3386458383077821
 40
0.518480458426919
 40
0.7277236211486956
 40
0.9924537768855786
 40
0.9999999999999999
 40
0.9999999999999999
 40
0.9999999999999999
 40
0.9999999999999999
 10
190.9517404456761
 20
184.6663902670452
 30
0.0
 10
190.9516954465524
 20
184.6688513817738
 30
0.0
 10
190.9516055641258
 20
184.6737672767137
 30
0.0
 10
190.950925649913
 20
184.6803808560517
 30
0.0
 10
190.9499070807518
 20
184.6859480163621
 30
0.0
 10
190.9484573292741
 20
184.6902198942894
 30
0.0
 10
190.9472958334309
 20
184.6913784602505
 30
0.0
 10
190.9466515109122
 20
184.6913899486409
 30
0.0
 10
190.9466336533166
 20
184.6913902670452
 30
0.0
  0
LINE
  5
A6
330
1F
100
AcDbEntity
  8
0
  6
Continuous
 62
     7
370
    15
100
AcDbLine
 10
190.9466336533
 20
184.691390267
 30
0.0
 11
191.6061
 21
184.691390267
 31
0.0
  0
SPLINE
  5
A7
330
1F
100
AcDbEntity
  8
0
  6
Continuous
 62
     7
370
    15
100
AcDbSpline
210
0.0
220
0.0
230
1.0
 70
     8
 71
     3
 72
    13
 73
     9
 74
     0
 42
0.00000001
 43
0.00000001
 40
0.0
 40
0.0
 40
0.0
 40
0.0
 40
0.007546223114431
 40
0.2722763788513233
 40
0.4815195415730819
 40
0.6613541616921975
 40
0.8304588949397778
 40
1.0
 40
1.0
 40
1.0
 40
1.0
 10
190.9466336533166
 20
184.5713902670452
 30
0.0
 10
190.9466515109122
 20
184.5713905854494
 30
0.0
 10
190.947295833431
 20
184.5714020738397
 30
0.0
 10
190.9484573292741
 20
184.572560639801
 30
0.0
 10
190.9499070807518
 20
184.5768325177281
 30
0.0
 10
190.9509256499131
 20
184.5823996780386
 30
0.0
 10
190.9516055641258
 20
184.5890132573766
 30
0.0
 10
190.9516954465524
 20
184.5939291523165
 30
0.0
 10
190.9517404456761
 20
184.5963902670452
 30
0.0
  0
LINE
  5
A8
330
1F
100
AcDbEntity
  8
0
  6
Continuous
 62
     7
370
    15
100
AcDbLine
 10
191.5884241467
 20
184.571390267
 30
0.0
 11
190.9466336533
 21
184.571390267
 31
0.0
  0
LINE
  5
A9
330
1F
100
AcDbEntity
  8
0
  6
Continuous
 62
     7
370
    15
100
AcDbLine
 10
190.9517404457
 20
184.596390267
 30
0.0
 11
190.9517404457
 21
184.666390267
 31
0.0
  0
SPLINE
  5
AA
330
1F
100
AcDbEntity
  8
0
  6
Continuous
 62
     7
370
    15
100
AcDbSpline
210
0.0
220
0.0
230
1.0
 70
     8
 71
     3
 72
    12
 73
     8
 74
     0
 42
0.00000001
 43
0.00000001
 40
0.0
 40
0.0
 40
0.0
 40
0.0
 40
0.2289440738516481
 40
0.4594214300241578
 40
0.6825355698158165
 40
0.8947175231628809
 40
1.0
 40
1.0
 40
1.0
 40
1.0
 10
190.5066078053084
 20
184.6913902670452
 30
0.0
 10
190.4931986036464
 20
184.6896568185874
 30
0.0
 10
190.4662903963302
 20
184.6861783124355
 30
0.0
 10
190.431029690786
 20
184.6587913278543
 30
0.0
 10
190.4057287339193
 20
184.619087674406
 30
0.0
 10
190.3943944494328
 20
184.5790000754707
 30
0.0
 10
190.3934304839747
 20
184.554511536162
 30
0.0
 10
190.3931107988026
 20
184.5463902670452
 30
0.0
  0
LINE
  5
AB
330
1F
100
AcDbEntity
  8
0
  6
Continuous
 62
     7
370
    15
100
AcDbLine
 10
190.5066078053
 20
184.691390267
 30
0.0
 11
190.9236175158
 21
184.691390267
 31
0.0
  0
LINE
  5
AC
330
1F
100
AcDbEntity
  8
0
  6
Continuous
 62
     7
370
    15
100
AcDbLine
 10
190.8324976956
 20
184.011390267
 30
0.0
 11
190.4154879851
 21
184.011390267
 31
0.0
  0
LINE
  5
AD
330
1F
100
AcDbEntity
  8
0
  6
Continuous
 62
     7
370
    15
100
AcDbLine
 10
190.885485025
 20
184.011390267
 30
0.0
 11
190.8324976956
 21
184.011390267
 31
0.0
  0
LINE
  5
AE
330
1F
100
AcDbEntity
  8
0
  6
Continuous
 62
     7
370
    15
100
AcDbLine
 10
190.9236175158
 20
184.691390267
 30
0.0
 11
190.9466336533
 21
184.691390267
 31
0.0
  0
LINE
  5
AF
330
1F
100
AcDbEntity
  8
0
  6
Continuous
 62
     7
370
    15
100
AcDbLine
 10
190.9466336533
 20
184.571390267
 30
0.0
 11
190.9236175158
 21
184.571390267
 31
0.0
  0
LINE
  5
B0
330
1F
100
AcDbEntity
  8
0
  6
Continuous
 62
     7
370
    15
100
AcDbLine
 10
190.3931107988
 20
184.546390267
 30
0.0
 11
190.3904879851
 21
184.546390267
 31
0.0
  0
LINE
  5
B1
330
1F
100
AcDbEntity
  8
0
  6
Continuous
 62
     7
370
    15
100
AcDbLine
 10
190.4611
 20
184.691390267
 30
0.0
 11
190.5066078053
 21
184.691390267
 31
0.0
  0
SPLINE
  5
B2
330
1F
100
AcDbEntity
  8
0
  6
Continuous
 62
     7
370
    15
100
AcDbSpline
210
0.0
220
0.0
230
1.0
 70
     8
 71
     3
 72
    11
 73
     7
 74
     0
 42
0.00000001
 43
0.00000001
 40
0.0
 40
0.0
 40
0.0
 40
0.0
 40
0.079633295975326
 40
0.4594981978905049
 40
0.8207504115405396
 40
1.0
 40
1.0
 40
1.0
 40
1.0
 10
192.1728645995865
 20
184.6615412040478
 30
0.0
 10
192.1752709160425
 20
184.6598449310057
 30
0.0
 10
192.189155787459
 20
184.6500571356315
 30
0.0
 10
192.2060803169971
 20
184.6182230279274
 30
0.0
 10
192.2178476390264
 20
184.5790931608364
 30
0.0
 10
192.2187799978928
 20
184.5545347184909
 30
0.0
 10
192.2190892011969
 20
184.5463902670452
 30
0.0
  0
ARC
  5
B3
330
1F
100
AcDbEntity
  8
0
  6
Continuous
 62
     7
370
    15
100
AcDbCircle
 10
192.1449670167
 20
184.0352652861
 30
0.0
 40
0.0239073194567931
100
AcDbArc
 50
177.3028984185
 51
267.0213133889
  0
LINE
  5
B4
330
1F
100
AcDbEntity
  8
0
  6
Continuous
 62
     7
370
    15
100
AcDbLine
 10
192.1967120149
 20
184.011390267
 30
0.0
 11
192.1437246854
 21
184.011390267
 31
0.0
  0
LINE
  5
B5
330
1F
100
AcDbEntity
  8
0
  6
Continuous
 62
     7
370
    15
100
AcDbLine
 10
192.1437246854
 20
184.011390267
 30
0.0
 11
191.8701185257
 21
184.011390267
 31
0.0
  0
SPLINE
  5
B6
330
1F
100
AcDbEntity
  8
0
  6
Continuous
 62
     7
370
    15
100
AcDbSpline
210
0.0
220
0.0
230
1.0
 70
     8
 71
     3
 72
    13
 73
     9
 74
     0
 42
0.00000001
 43
0.00000001
 40
0.0
 40
0.0
 40
0.0
 40
0.0
 40
0.169541105060202
 40
0.3386458383077778
 40
0.5184804584269096
 40
0.7277236211488258
 40
0.9924537768855849
 40
1.0
 40
1.0
 40
1.0
 40
1.0
 10
191.5792005254617
 20
184.5463902670452
 30
0.0
 10
191.5792708058013
 20
184.5488513817738
 30
0.0
 10
191.5794111855899
 20
184.5537672767137
 30
0.0
 10
191.5804749781591
 20
184.5603808560517
 30
0.0
 10
191.5820742445921
 20
184.5659480163621
 30
0.0
 10
191.5843618691
 20
184.5702198942894
 30
0.0
 10
191.5862083290185
 20
184.5713784602506
 30
0.0
 10
191.5872375632825
 20
184.5713899486409
 30
0.0
 10
191.5872660888249
 20
184.5713902670452
 30
0.0
  0
LINE
  5
B7
330
1F
100
AcDbEntity
  8
0
  6
Continuous
 62
     7
370
    15
100
AcDbLine
 10
190.9466336533
 20
184.571390267
 30
0.0
 11
191.5872660888
 21
184.571390267
 31
0.0
  0
SPLINE
  5
B8
330
1F
100
AcDbEntity
  8
0
  6
Continuous
 62
     7
370
    15
100
AcDbSpline
210
0.0
220
0.0
230
1.0
 70
     8
 71
     3
 72
    13
 73
     9
 74
     0
 42
0.00000001
 43
0.00000001
 40
0.0
 40
0.0
 40
0.0
 40
0.0
 40
0.007546223114432
 40
0.2722763788513261
 40
0.4815195415732257
 40
0.6613541616924222
 40
0.8304588949397553
 40
1.0
 40
1.0
 40
1.0
 40
1.0
 10
191.5872660888249
 20
184.4513902670452
 30
0.0
 10
191.5872375632825
 20
184.4513905854494
 30
0.0
 10
191.5862083290185
 20
184.4514020738397
 30
0.0
 10
191.5843618691
 20
184.4525606398009
 30
0.0
 10
191.5820742445921
 20
184.4568325177282
 30
0.0
 10
191.5804749781591
 20
184.4623996780386
 30
0.0
 10
191.5794111855899
 20
184.4690132573767
 30
0.0
 10
191.5792708058013
 20
184.4739291523165
 30
0.0
 10
191.5792005254617
 20
184.4763902670452
 30
0.0
  0
LINE
  5
B9
330
1F
100
AcDbEntity
  8
0
  6
Continuous
 62
     7
370
    15
100
AcDbLine
 10
191.5872660888
 20
184.451390267
 30
0.0
 11
190.910485025
 21
184.451390267
 31
0.0
  0
LINE
  5
BA
330
1F
100
AcDbEntity
  8
0
  6
Continuous
 62
     7
370
    15
100
AcDbLine
 10
191.5792005255
 20
184.546390267
 30
0.0
 11
191.5792005255
 21
184.476390267
 31
0.0
  0
SPLINE
  5
BB
330
1F
100
AcDbEntity
  8
0
  6
Continuous
 62
     7
370
    15
100
AcDbSpline
210
0.0
220
0.0
230
1.0
 70
     8
 71
     3
 72
    12
 73
     8
 74
     0
 42
0.00000001
 43
0.00000001
 40
0.0
 40
0.0
 40
0.0
 40
0.0
 40
0.228944073851641
 40
0.459421430024162
 40
0.6825355698157872
 40
0.8947175231628383
 40
1.0
 40
1.0
 40
1.0
 40
1.0
 10
192.0660127368774
 20
184.4513902670452
 30
0.0
 10
192.0781938283138
 20
184.4531237155029
 30
0.0
 10
192.1026375902895
 20
184.4566022216548
 30
0.0
 10
192.1346315664288
 20
184.4839892062361
 30
0.0
 10
192.1575762154782
 20
184.5236928596844
 30
0.0
 10
192.1678508364154
 20
184.5637804586196
 30
0.0
 10
192.1687246697409
 20
184.5882689979283
 30
0.0
 10
192.1690144638977
 20
184.5963902670452
 30
0.0
  0
LINE
  5
BC
330
1F
100
AcDbEntity
  8
0
  6
Continuous
 62
     7
370
    15
100
AcDbLine
 10
192.0660127369
 20
184.451390267
 30
0.0
 11
191.6079412145
 21
184.451390267
 31
0.0
  0
LINE
  5
BD
330
1F
100
AcDbEntity
  8
0
  6
Continuous
 62
     7
370
    15
100
AcDbLine
 10
191.6897930772
 20
185.131390267
 30
0.0
 11
192.1478645996
 21
185.131390267
 31
0.0
  0
LINE
  5
BE
330
1F
100
AcDbEntity
  8
0
  6
Continuous
 62
     7
370
    15
100
AcDbLine
 10
191.6421951824
 20
185.131390267
 30
0.0
 11
191.6897930772
 21
185.131390267
 31
0.0
  0
LINE
  5
BF
330
1F
100
AcDbEntity
  8
0
  6
Continuous
 62
     7
370
    15
100
AcDbLine
 10
191.5872660888
 20
184.571390267
 30
0.0
 11
191.6079412145
 21
184.571390267
 31
0.0
  0
LINE
  5
C0
330
1F
100
AcDbEntity
  8
0
  6
Continuous
 62
     7
370
    15
100
AcDbLine
 10
191.6079412145
 20
184.451390267
 30
0.0
 11
191.5872660888
 21
184.451390267
 31
0.0
  0
LINE
  5
C1
330
1F
100
AcDbEntity
  8
0
  6
Continuous
 62
     7
370
    15
100
AcDbLine
 10
192.1690144639
 20
184.596390267
 30
0.0
 11
192.1728645996
 21
184.596390267
 31
0.0
  0
LINE
  5
C2
330
1F
100
AcDbEntity
  8
0
  6
Continuous
 62
     7
370
    15
100
AcDbLine
 10
192.1511
 20
184.451390267
 30
0.0
 11
192.0660127369
 21
184.451390267
 31
0.0
  0
ARC
  5
C3
330
1F
100
AcDbEntity
  8
0
  6
Continuous
 62
     7
370
    15
100
AcDbCircle
 10
190.5100196436
 20
185.1080332491
 30
0.0
 40
0.0234352800129191
100
AcDbArc
 50
355.9798550466
 51
85.3161909111
  0
LINE
  5
C4
330
1F
100
AcDbEntity
  8
0
  6
Continuous
 62
     7
370
    15
100
AcDbLine
 10
190.5119332952
 20
185.131390267
 30
0.0
 11
190.7331211964
 21
185.131390267
 31
0.0
  0
LINE
  5
C5
330
1F
100
AcDbEntity
  8
0
  6
Continuous
 62
     7
370
    15
100
AcDbLine
 10
190.4643354004
 20
185.131390267
 30
0.0
 11
190.5119332952
 21
185.131390267
 31
0.0
  0
LINE
  5
C6
330
1F
100
AcDbEntity
  8
0
  6
Continuous
 62
     7
370
    15
100
AcDbLine
 10
190.8686945642
 20
183.576390267
 30
0.0
 11
190.8686945642
 21
183.8617320683
 31
0.0
  0
SPLINE
  5
C7
330
1F
100
AcDbEntity
  8
0
  6
Continuous
 62
     7
370
    15
100
AcDbSpline
210
0.0
220
0.0
230
1.0
 70
     8
 71
     3
 72
     9
 73
     5
 74
     0
 42
0.00000001
 43
0.00000001
 40
0.0
 40
0.0
 40
0.0
 40
0.0
 40
0.0702005767034226
 40
1.0
 40
1.0
 40
1.0
 40
1.0
 10
191.1412232526881
 20
183.9063902670452
 30
0.0
 10
191.1347627102349
 20
183.9063456554184
 30
0.0
 10
191.0427329469964
 20
183.9057101673804
 30
0.0
 10
190.9525482465943
 20
183.8829212191908
 30
0.0
 10
190.8686945641702
 20
183.8617320683067
 30
0.0
  0
LINE
  5
C8
330
1F
100
AcDbEntity
  8
0
  6
Continuous
 62
     7
370
    15
100
AcDbLine
 10
191.4137519412
 20
183.8617320683
 30
0.0
 11
191.1412232527
 21
183.906390267
 31
0.0
  0
LINE
  5
C9
330
1F
100
AcDbEntity
  8
0
  6
Continuous
 62
     7
370
    15
100
AcDbLine
 10
191.4137519412
 20
183.576390267
 30
0.0
 11
191.4137519412
 21
183.8617320683
 31
0.0
  0
SPLINE
  5
CA
330
1F
100
AcDbEntity
  8
0
  6
Continuous
 62
     7
370
    15
100
AcDbSpline
210
0.0
220
0.0
230
1.0
 70
     8
 71
     3
 72
     9
 73
     5
 74
     0
 42
0.00000001
 43
0.00000001
 40
0.0
 40
0.0
 40
0.0
 40
0.0
 40
0.0702005767034252
 40
1.0
 40
1.0
 40
1.0
 40
1.0
 10
191.6324546591209
 20
183.9063902670452
 30
0.0
 10
191.6272701106559
 20
183.9063456554184
 30
0.0
 10
191.5534167506344
 20
183.9057101673804
 30
0.0
 10
191.481044043014
 20
183.8829212191908
 30
0.0
 10
191.4137519412061
 20
183.8617320683067
 30
0.0
  0
LINE
  5
CB
330
1F
100
AcDbEntity
  8
0
  6
Continuous
 62
     7
370
    15
100
AcDbLine
 10
191.1412232527
 20
183.906390267
 30
0.0
 11
191.6324546591
 21
183.906390267
 31
0.0
  0
LINE
  5
CC
330
1F
100
AcDbEntity
  8
0
  6
Continuous
 62
     7
370
    15
100
AcDbLine
 10
191.851157377
 20
183.8617320683
 30
0.0
 11
191.6324546591
 21
183.906390267
 31
0.0
  0
LINE
  5
CD
330
1F
100
AcDbEntity
  8
0
  6
Continuous
 62
     7
370
    15
100
AcDbLine
 10
191.851157377
 20
183.576390267
 30
0.0
 11
191.851157377
 21
183.8617320683
 31
0.0
  0
SPLINE
  5
CE
330
1F
100
AcDbEntity
  8
0
  6
Continuous
 62
     7
370
    15
100
AcDbSpline
210
0.0
220
0.0
230
1.0
 70
     8
 71
     3
 72
     9
 73
     5
 74
     0
 42
0.00000001
 43
0.00000001
 40
0.0
 40
0.0
 40
0.0
 40
0.0
 40
0.2686336050555618
 40
1.0
 40
1.0
 40
1.0
 40
1.0
 10
190.814868593567
 20
183.9063902670452
 30
0.0
 10
190.8197628804445
 20
183.9057273717867
 30
0.0
 10
190.8379820711392
 20
183.9032597160431
 30
0.0
 10
190.8557209467005
 20
183.8792742396831
 30
0.0
 10
190.8686945641702
 20
183.8617320683067
 30
0.0
  0
LINE
  5
CF
330
1F
100
AcDbEntity
  8
0
  6
Continuous
 62
     7
370
    15
100
AcDbLine
 10
190.8148685936
 20
183.906390267
 30
0.0
 11
191.1412232527
 21
183.906390267
 31
0.0
  0
SPLINE
  5
D0
330
1F
100
AcDbEntity
  8
0
  6
Continuous
 62
     7
370
    15
100
AcDbSpline
210
0.0
220
0.0
230
1.0
 70
     8
 71
     3
 72
     9
 73
     5
 74
     0
 42
0.00000001
 43
0.00000001
 40
0.0
 40
0.0
 40
0.0
 40
0.0
 40
0.2686336050555614
 40
1.0
 40
1.0
 40
1.0
 40
1.0
 10
191.7973314064325
 20
183.9063902670452
 30
0.0
 10
191.80222569331
 20
183.9057273717867
 30
0.0
 10
191.8204448840046
 20
183.9032597160431
 30
0.0
 10
191.838183759566
 20
183.8792742396831
 30
0.0
 10
191.8511573770357
 20
183.8617320683067
 30
0.0
  0
LINE
  5
D1
330
1F
100
AcDbEntity
  8
0
  6
Continuous
 62
     7
370
    15
100
AcDbLine
 10
191.6324546591
 20
183.906390267
 30
0.0
 11
191.8052977213
 21
183.906390267
 31
0.0
  0
LINE
  5
D2
330
1F
100
AcDbEntity
  8
0
  6
Continuous
 62
     7
370
    15
100
AcDbLine
 10
190.761042623
 20
183.576390267
 30
0.0
 11
190.761042623
 21
183.8617320683
 31
0.0
  0
LINE
  5
D3
330
1F
100
AcDbEntity
  8
0
  6
Continuous
 62
     7
370
    15
100
AcDbLine
 10
190.761042623
 20
183.8617320683
 30
0.0
 11
190.7746442927
 21
183.8806673198
 31
0.0
  0
LINE
  5
D4
330
1F
100
AcDbEntity
  8
0
  6
Continuous
 62
     7
370
    15
100
AcDbLine
 10
190.7977288704
 20
183.8954296242
 30
0.0
 11
190.8148685936
 21
183.906390267
 31
0.0
  0
LINE
  5
D5
330
1F
100
AcDbEntity
  8
0
  6
Continuous
 62
     7
370
    15
100
AcDbLine
 10
190.8061
 20
183.906390267
 30
0.0
 11
190.8148685936
 21
183.906390267
 31
0.0
  0
LINE
  5
D6
330
1F
100
AcDbEntity
  8
0
  6
Continuous
 62
     7
370
    15
100
AcDbLine
 10
191.6949377561
 20
183.9760484658
 30
0.0
 11
191.4129284932
 21
183.931390267
 31
0.0
  0
SPLINE
  5
D7
330
1F
100
AcDbEntity
  8
0
  6
Continuous
 62
     7
370
    15
100
AcDbSpline
210
0.0
220
0.0
230
1.0
 70
     8
 71
     3
 72
     9
 73
     5
 74
     0
 42
0.00000001
 43
0.00000001
 40
0.0
 40
0.0
 40
0.0
 40
0.0
 40
0.0702005767034281
 40
1.0
 40
1.0
 40
1.0
 40
1.0
 10
191.4129284932211
 20
183.9313902670452
 30
0.0
 10
191.4062432050598
 20
183.9314348786719
 30
0.0
 10
191.3110119623078
 20
183.93207036671
 30
0.0
 10
191.2176899673978
 20
183.9548593148995
 30
0.0
 10
191.1309192303496
 20
183.9760484657837
 30
0.0
  0
LINE
  5
D8
330
1F
100
AcDbEntity
  8
0
  6
Continuous
 62
     7
370
    15
100
AcDbLine
 10
191.1309192303
 20
183.9760484658
 30
0.0
 11
191.1309192303
 21
184.4067320683
 31
0.0
  0
SPLINE
  5
D9
330
1F
100
AcDbEntity
  8
0
  6
Continuous
 62
     7
370
    15
100
AcDbSpline
210
0.0
220
0.0
230
1.0
 70
     8
 71
     3
 72
     9
 73
     5
 74
     0
 42
0.00000001
 43
0.00000001
 40
0.0
 40
0.0
 40
0.0
 40
0.0
 40
0.0702005767034278
 40
1.0
 40
1.0
 40
1.0
 40
1.0
 10
191.4129284932211
 20
184.4513902670452
 30
0.0
 10
191.4062432050598
 20
184.4513456554184
 30
0.0
 10
191.3110119623078
 20
184.4507101673804
 30
0.0
 10
191.2176899673978
 20
184.4279212191908
 30
0.0
 10
191.1309192303496
 20
184.4067320683067
 30
0.0
  0
LINE
  5
DA
330
1F
100
AcDbEntity
  8
0
  6
Continuous
 62
     7
370
    15
100
AcDbLine
 10
191.6949377561
 20
184.4067320683
 30
0.0
 11
191.4129284932
 21
184.451390267
 31
0.0
  0
LINE
  5
DB
330
1F
100
AcDbEntity
  8
0
  6
Continuous
 62
     7
370
    15
100
AcDbLine
 10
191.6949377561
 20
183.9760484658
 30
0.0
 11
191.6949377561
 21
184.4067320683
 31
0.0
  0
LINE
  5
DC
330
1F
100
AcDbEntity
  8
0
  6
Continuous
 62
     7
370
    15
100
AcDbLine
 10
191.1309192303
 20
183.9760484658
 30
0.0
 11
190.9365003523
 21
183.931390267
 31
0.0
  0
LINE
  5
DD
330
1F
100
AcDbEntity
  8
0
  6
Continuous
 62
     7
370
    15
100
AcDbLine
 10
191.4129284932
 20
183.931390267
 30
0.0
 11
190.9365003523
 21
183.931390267
 31
0.0
  0
LINE
  5
DE
330
1F
100
AcDbEntity
  8
0
  6
Continuous
 62
     7
370
    15
100
AcDbLine
 10
191.1309192303
 20
184.4067320683
 30
0.0
 11
190.9365003523
 21
184.451390267
 31
0.0
  0
SPLINE
  5
DF
330
1F
100
AcDbEntity
  8
0
  6
Continuous
 62
     7
370
    15
100
AcDbSpline
210
0.0
220
0.0
230
1.0
 70
     8
 71
     3
 72
     9
 73
     5
 74
     0
 42
0.00000001
 43
0.00000001
 40
0.0
 40
0.0
 40
0.0
 40
0.0
 40
0.2686336050555613
 40
1.0
 40
1.0
 40
1.0
 40
1.0
 10
191.7825281409177
 20
183.9313902670452
 30
0.0
 10
191.7745637239971
 20
183.9320531623036
 30
0.0
 10
191.7449158438704
 20
183.9345208180472
 30
0.0
 10
191.7160495750531
 20
183.9585062944072
 30
0.0
 10
191.6949377560927
 20
183.9760484657837
 30
0.0
  0
LINE
  5
E0
330
1F
100
AcDbEntity
  8
0
  6
Continuous
 62
     7
370
    15
100
AcDbLine
 10
191.7825281409
 20
183.931390267
 30
0.0
 11
191.4129284932
 21
183.931390267
 31
0.0
  0
SPLINE
  5
E1
330
1F
100
AcDbEntity
  8
0
  6
Continuous
 62
     7
370
    15
100
AcDbSpline
210
0.0
220
0.0
230
1.0
 70
     8
 71
     3
 72
     9
 73
     5
 74
     0
 42
0.00000001
 43
0.00000001
 40
0.0
 40
0.0
 40
0.0
 40
0.0
 40
0.2686336050555611
 40
1.0
 40
1.0
 40
1.0
 40
1.0
 10
191.7825281409177
 20
184.4513902670452
 30
0.0
 10
191.7745637239971
 20
184.4507273717867
 30
0.0
 10
191.7449158438704
 20
184.4482597160431
 30
0.0
 10
191.7160495750531
 20
184.4242742396831
 30
0.0
 10
191.6949377560927
 20
184.4067320683066
 30
0.0
  0
SPLINE
  5
E2
330
1F
100
AcDbEntity
  8
0
  6
Continuous
 62
     7
370
    15
100
AcDbSpline
210
0.0
220
0.0
230
1.0
 70
     8
 71
     3
 72
     9
 73
     5
 74
     0
 42
0.00000001
 43
0.00000001
 40
0.0
 40
0.0
 40
0.0
 40
0.0
 40
0.0702005767034228
 40
1.0
 40
1.0
 40
1.0
 40
1.0
 10
190.9365003523031
 20
183.9313902670452
 30
0.0
 10
190.931891474529
 20
183.9314348786719
 30
0.0
 10
190.8662384843319
 20
183.93207036671
 30
0.0
 10
190.8019017410536
 20
183.9548593148996
 30
0.0
 10
190.7420814742567
 20
183.9760484657837
 30
0.0
  0
LINE
  5
E3
330
1F
100
AcDbEntity
  8
0
  6
Continuous
 62
     7
370
    15
100
AcDbLine
 10
190.7420814743
 20
183.9760484658
 30
0.0
 11
190.7420814743
 21
184.011390267
 31
0.0
  0
SPLINE
  5
E4
330
1F
100
AcDbEntity
  8
0
  6
Continuous
 62
     7
370
    15
100
AcDbSpline
210
0.0
220
0.0
230
1.0
 70
     8
 71
     3
 72
     9
 73
     5
 74
     0
 42
0.00000001
 43
0.00000001
 40
0.0
 40
0.0
 40
0.0
 40
0.0
 40
0.5278771639355526
 40
1.0
 40
1.0
 40
1.0
 40
1.0
 10
190.9365003523031
 20
184.4513902670452
 30
0.0
 10
190.9318773778928
 20
184.4515829127764
 30
0.0
 10
190.92311970712
 20
184.4519478570179
 30
0.0
 10
190.9145370795184
 20
184.4493666884421
 30
0.0
 10
190.9104850250342
 20
184.4481480598138
 30
0.0
  0
SPLINE
  5
E5
330
1F
100
AcDbEntity
  8
0
  6
Continuous
 62
     7
370
    15
100
AcDbSpline
210
0.0
220
0.0
230
1.0
 70
     8
 71
     3
 72
     9
 73
     5
 74
     0
 42
0.00000001
 43
0.00000001
 40
0.0
 40
0.0
 40
0.0
 40
0.0
 40
0.2575513451038043
 40
1.0
 40
1.0
 40
1.0
 40
1.0
 10
191.8701185257428
 20
183.9760484657837
 30
0.0
 10
191.8627651607548
 20
183.9693069435062
 30
0.0
 10
191.8342140965582
 20
183.9431314938118
 30
0.0
 10
191.8045512680466
 20
183.9363931450326
 30
0.0
 10
191.7825281409177
 20
183.9313902670452
 30
0.0
  0
SPLINE
  5
E6
330
1F
100
AcDbEntity
  8
0
  6
Continuous
 62
     7
370
    15
100
AcDbSpline
210
0.0
220
0.0
230
1.0
 70
     8
 71
     3
 72
     9
 73
     5
 74
     0
 42
0.00000001
 43
0.00000001
 40
0.0
 40
0.0
 40
0.0
 40
0.0
 40
0.5569342110492091
 40
1.0
 40
1.0
 40
1.0
 40
1.0
 10
191.8701185257428
 20
184.4067320683066
 30
0.0
 10
191.8627937354917
 20
184.4139731659311
 30
0.0
 10
191.8496417507404
 20
184.4269748768706
 30
0.0
 10
191.8359756363324
 20
184.4309880010323
 30
0.0
 10
191.8299206485704
 20
184.4327660790552
 30
0.0
  0
LINE
  5
E7
330
1F
100
AcDbEntity
  8
0
  6
Continuous
 62
     7
370
    15
100
AcDbLine
 10
191.8701185257
 20
183.9760484658
 30
0.0
 11
191.8701185257
 21
184.4067320683
 31
0.0
  0
LINE
  5
E8
330
1F
100
AcDbEntity
  8
0
  6
Continuous
 62
     7
370
    15
100
AcDbLine
 10
190.7824738126
 20
183.9499981519
 30
0.0
 11
190.7420814743
 21
183.9760484658
 31
0.0
  0
LINE
  5
E9
330
1F
100
AcDbEntity
  8
0
  6
Continuous
 62
     7
370
    15
100
AcDbLine
 10
190.8061
 20
183.931390267
 30
0.0
 11
190.9365003523
 21
183.931390267
 31
0.0
  0
LINE
  5
EA
330
1F
100
AcDbEntity
  8
0
  6
Continuous
 62
     7
370
    15
100
AcDbLine
 10
191.8061
 20
183.931390267
 30
0.0
 11
191.7825281409
 21
183.931390267
 31
0.0
  0
LINE
  5
EB
330
1F
100
AcDbEntity
  8
0
  6
Continuous
 62
     7
370
    15
100
AcDbLine
 10
191.5311771235
 20
184.7360484658
 30
0.0
 11
191.2446877216
 21
184.691390267
 31
0.0
  0
SPLINE
  5
EC
330
1F
100
AcDbEntity
  8
0
  6
Continuous
 62
     7
370
    15
100
AcDbSpline
210
0.0
220
0.0
230
1.0
 70
     8
 71
     3
 72
     9
 73
     5
 74
     0
 42
0.00000001
 43
0.00000001
 40
0.0
 40
0.0
 40
0.0
 40
0.0
 40
0.0702005767034281
 40
0.9999999999999999
 40
0.9999999999999999
 40
0.9999999999999999
 40
0.9999999999999999
 10
191.2446877216371
 20
184.6913902670452
 30
0.0
 10
191.237896227674
 20
184.6914348786719
 30
0.0
 10
191.1411520941912
 20
184.6920703667099
 30
0.0
 10
191.046347539808
 20
184.7148593148995
 30
0.0
 10
190.9581983198167
 20
184.7360484657837
 30
0.0
  0
LINE
  5
ED
330
1F
100
AcDbEntity
  8
0
  6
Continuous
 62
     7
370
    15
100
AcDbLine
 10
190.9581983198
 20
184.7360484658
 30
0.0
 11
190.9581983198
 21
185.1667320683
 31
0.0
  0
SPLINE
  5
EE
330
1F
100
AcDbEntity
  8
0
  6
Continuous
 62
     7
370
    15
100
AcDbSpline
210
0.0
220
0.0
230
1.0
 70
     8
 71
     3
 72
     9
 73
     5
 74
     0
 42
0.00000001
 43
0.00000001
 40
0.0
 40
0.0
 40
0.0
 40
0.0
 40
0.0702005767034278
 40
1.0
 40
1.0
 40
1.0
 40
1.0
 10
191.2446877216371
 20
185.2113902670452
 30
0.0
 10
191.237896227674
 20
185.2113456554184
 30
0.0
 10
191.1411520941912
 20
185.2107101673804
 30
0.0
 10
191.046347539808
 20
185.1879212191908
 30
0.0
 10
190.9581983198167
 20
185.1667320683066
 30
0.0
  0
LINE
  5
EF
330
1F
100
AcDbEntity
  8
0
  6
Continuous
 62
     7
370
    15
100
AcDbLine
 10
191.5311771235
 20
185.1667320683
 30
0.0
 11
191.2446877216
 21
185.211390267
 31
0.0
  0
LINE
  5
F0
330
1F
100
AcDbEntity
  8
0
  6
Continuous
 62
     7
370
    15
100
AcDbLine
 10
191.5311771235
 20
184.7360484658
 30
0.0
 11
191.5311771235
 21
185.1667320683
 31
0.0
  0
SPLINE
  5
F1
330
1F
100
AcDbEntity
  8
0
  6
Continuous
 62
     7
370
    15
100
AcDbSpline
210
0.0
220
0.0
230
1.0
 70
     8
 71
     3
 72
     9
 73
     5
 74
     0
 42
0.00000001
 43
0.00000001
 40
0.0
 40
0.0
 40
0.0
 40
0.0
 40
0.2686336050555614
 40
1.0
 40
1.0
 40
1.0
 40
1.0
 10
191.7051279635491
 20
185.2113902670452
 30
0.0
 10
191.6893109647203
 20
185.2107273717867
 30
0.0
 10
191.6304315150493
 20
185.2082597160431
 30
0.0
 10
191.5731043127416
 20
185.1842742396831
 30
0.0
 10
191.5311771234576
 20
185.1667320683066
 30
0.0
  0
LINE
  5
F2
330
1F
100
AcDbEntity
  8
0
  6
Continuous
 62
     7
370
    15
100
AcDbLine
 10
191.2446877216
 20
185.211390267
 30
0.0
 11
191.7051279635
 21
185.211390267
 31
0.0
  0
LINE
  5
F3
330
1F
100
AcDbEntity
  8
0
  6
Continuous
 62
     7
370
    15
100
AcDbLine
 10
191.6171951824
 20
184.7081144414
 30
0.0
 11
191.5311771235
 21
184.7360484658
 31
0.0
  0
LINE
  5
F4
330
1F
100
AcDbEntity
  8
0
  6
Continuous
 62
     7
370
    15
100
AcDbLine
 10
190.9581983198
 20
185.1667320683
 30
0.0
 11
190.8456597581
 21
185.211390267
 31
0.0
  0
LINE
  5
F5
330
1F
100
AcDbEntity
  8
0
  6
Continuous
 62
     7
370
    15
100
AcDbLine
 10
190.8456597581
 20
185.211390267
 30
0.0
 11
191.2446877216
 21
185.211390267
 31
0.0
  0
LINE
  5
F6
330
1F
100
AcDbEntity
  8
0
  6
Continuous
 62
     7
370
    15
100
AcDbLine
 10
190.9581983198
 20
184.7360484658
 30
0.0
 11
190.8456597581
 21
184.691390267
 31
0.0
  0
SPLINE
  5
F7
330
1F
100
AcDbEntity
  8
0
  6
Continuous
 62
     7
370
    15
100
AcDbSpline
210
0.0
220
0.0
230
1.0
 70
     8
 71
     3
 72
     9
 73
     5
 74
     0
 42
0.00000001
 43
0.00000001
 40
0.0
 40
0.0
 40
0.0
 40
0.0
 40
0.2575513451038082
 40
1.0
 40
1.0
 40
1.0
 40
1.0
 10
191.8790788036407
 20
185.1667320683066
 30
0.0
 10
191.864475328388
 20
185.1734735905841
 30
0.0
 10
191.8077741092709
 20
185.1996490402785
 30
0.0
 10
191.7488649727329
 20
185.2063873890578
 30
0.0
 10
191.7051279635491
 20
185.2113902670452
 30
0.0
  0
LINE
  5
F8
330
1F
100
AcDbEntity
  8
0
  6
Continuous
 62
     7
370
    15
100
AcDbLine
 10
191.8790788036
 20
185.131390267
 30
0.0
 11
191.8790788036
 21
185.1667320683
 31
0.0
  0
LINE
  5
F9
330
1F
100
AcDbEntity
  8
0
  6
Continuous
 62
     7
370
    15
100
AcDbLine
 10
190.7331211964
 20
184.7360484658
 30
0.0
 11
190.7331211964
 21
185.1667320683
 31
0.0
  0
SPLINE
  5
FA
330
1F
100
AcDbEntity
  8
0
  6
Continuous
 62
     7
370
    15
100
AcDbSpline
210
0.0
220
0.0
230
1.0
 70
     8
 71
     3
 72
     9
 73
     5
 74
     0
 42
0.00000001
 43
0.00000001
 40
0.0
 40
0.0
 40
0.0
 40
0.0
 40
0.0702005767034226
 40
1.0
 40
1.0
 40
1.0
 40
1.0
 10
190.8456597580878
 20
185.2113902670452
 30
0.0
 10
190.8429919282911
 20
185.2113456554184
 30
0.0
 10
190.8049889670343
 20
185.2107101673804
 30
0.0
 10
190.7677479098509
 20
185.1879212191908
 30
0.0
 10
190.7331211963589
 20
185.1667320683066
 30
0.0
  0
LINE
  5
FB
330
1F
100
AcDbEntity
  8
0
  6
Continuous
 62
     7
370
    15
100
AcDbLine
 10
191.8492037172
 20
185.1794250327
 30
0.0
 11
191.8790788036
 21
185.1667320683
 31
0.0
  0
LINE
  5
FC
330
1F
100
AcDbEntity
  8
0
  6
Continuous
 62
     7
370
    15
100
AcDbLine
 10
191.7051279635
 20
185.211390267
 30
0.0
 11
191.8061
 21
185.211390267
 31
0.0
  0
LINE
  5
FD
330
1F
100
AcDbEntity
  8
0
  6
Continuous
 62
     7
370
    15
100
AcDbLine
 10
190.8061
 20
185.211390267
 30
0.0
 11
190.8456597581
 21
185.211390267
 31
0.0
  0
LINE
  5
FE
330
1F
100
AcDbEntity
  8
0
  6
Continuous
 62
     7
370
    15
100
AcDbLine
 10
198.8061
 20
183.031390267
 30
0.0
 11
198.8061
 21
112.856390267
 31
0.0
  0
LINE
  5
FF
330
1F
100
AcDbEntity
  8
0
  6
Continuous
 62
     7
370
    15
100
AcDbLine
 10
198.8051
 20
183.031390267
 30
0.0
 11
198.8061
 21
183.031390267
 31
0.0
  0
LINE
  5
100
330
1F
100
AcDbEntity
  8
0
  6
Continuous
 62
     7
370
    15
100
AcDbLine
 10
198.8051
 20
112.856390267
 30
0.0
 11
198.8061
 21
112.856390267
 31
0.0
  0
LINE
  5
101
330
1F
100
AcDbEntity
  8
0
  6
Continuous
 62
     7
370
    15
100
AcDbLine
 10
198.8051
 20
112.8361665186
 30
0.0
 11
198.8061
 21
112.856390267
 31
0.0
  0
LINE
  5
102
330
1F
100
AcDbEntity
  8
0
  6
Continuous
 62
     7
370
    15
100
AcDbLine
 10
198.8061
 20
183.206390267
 30
0.0
 11
198.8061
 21
183.031390267
 31
0.0
  0
LINE
  5
103
330
1F
100
AcDbEntity
  8
0
  6
Continuous
 62
     7
370
    15
100
AcDbLine
 10
198.8061
 20
183.206390267
 30
0.0
 11
198.8041
 21
183.2349559808
 31
0.0
  0
ENDSEC
  0
SECTION
  2
OBJECTS
  0
DICTIONARY
  5
C
330
0
100
AcDbDictionary
281
     1
  3
ACAD_GROUP
350
D
  3
ACAD_LAYOUT
350
1A
  3
ACAD_MLINESTYLE
350
17
  3
ACAD_PLOTSETTINGS
350
19
  3
ACAD_PLOTSTYLENAME
350
E
  0
DICTIONARY
  5
D
102
{ACAD_REACTORS
330
C
102
}
330
C
100
AcDbDictionary
281
     1
  0
DICTIONARY
  5
1A
102
{ACAD_REACTORS
330
C
102
}
330
C
100
AcDbDictionary
281
     1
  3
Layout1
350
1E
  3
Layout2
350
26
  3
Model
350
22
  0
DICTIONARY
  5
17
102
{ACAD_REACTORS
330
C
102
}
330
C
100
AcDbDictionary
281
     1
  3
Standard
350
18
  0
DICTIONARY
  5
19
102
{ACAD_REACTORS
330
C
102
}
330
C
100
AcDbDictionary
281
     1
  0
ACDBDICTIONARYWDFLT
  5
E
102
{ACAD_REACTORS
330
C
102
}
330
C
100
AcDbDictionary
281
     1
  3
Normal
350
F
100
AcDbDictionaryWithDefault
340
F
  0
LAYOUT
  5
1E
102
{ACAD_REACTORS
330
1A
102
}
330
1A
100
AcDbPlotSettings
  1

  2
none_device
  4

  6

 40
0.0
 41
0.0
 42
0.0
 43
0.0
 44
0.0
 45
0.0
 46
0.0
 47
0.0
 48
0.0
 49
0.0
140
0.0
141
0.0
142
1.0
143
1.0
 70
   688
 72
     0
 73
     0
 74
     5
  7

 75
    16
147
1.0
148
0.0
149
0.0
100
AcDbLayout
  1
Layout1
 70
     1
 71
     1
 10
0.0
 20
0.0
 11
420.0
 21
297.0
 12
0.0
 22
0.0
 32
0.0
 14
1.0000000000E+20
 24
1.0000000000E+20
 34
1.0000000000E+20
 15
-1.0000000000E+20
 25
-1.0000000000E+20
 35
-1.0000000000E+20
146
0.0
 13
0.0
 23
0.0
 33
0.0
 16
1.0
 26
0.0
 36
0.0
 17
0.0
 27
1.0
 37
0.0
 76
     0
330
1B
  0
LAYOUT
  5
26
102
{ACAD_REACTORS
330
1A
102
}
330
1A
100
AcDbPlotSettings
  1

  2
none_device
  4

  6

 40
0.0
 41
0.0
 42
0.0
 43
0.0
 44
0.0
 45
0.0
 46
0.0
 47
0.0
 48
0.0
 49
0.0
140
0.0
141
0.0
142
1.0
143
1.0
 70
   688
 72
     0
 73
     0
 74
     5
  7

 75
    16
147
1.0
148
0.0
149
0.0
100
AcDbLayout
  1
Layout2
 70
     1
 71
     2
 10
0.0
 20
0.0
 11
0.0
 21
0.0
 12
0.0
 22
0.0
 32
0.0
 14
0.0
 24
0.0
 34
0.0
 15
0.0
 25
0.0
 35
0.0
146
0.0
 13
0.0
 23
0.0
 33
0.0
 16
1.0
 26
0.0
 36
0.0
 17
0.0
 27
1.0
 37
0.0
 76
     0
330
23
  0
LAYOUT
  5
22
102
{ACAD_REACTORS
330
1A
102
}
330
1A
100
AcDbPlotSettings
  1

  2
none_device
  4

  6

 40
0.0
 41
0.0
 42
0.0
 43
0.0
 44
0.0
 45
0.0
 46
0.0
 47
0.0
 48
0.0
 49
0.0
140
0.0
141
0.0
142
1.0
143
1.0
 70
  1712
 72
     0
 73
     0
 74
     0
  7

 75
     0
147
1.0
148
0.0
149
0.0
100
AcDbLayout
  1
Model
 70
     1
 71
     0
 10
0.0
 20
0.0
 11
420.0
 21
297.0
 12
0.0
 22
0.0
 32
0.0
 14
0.0
 24
0.0
 34
0.0
 15
420.0
 25
297.0
 35
0.0
146
0.0
 13
0.0
 23
0.0
 33
0.0
 16
1.0
 26
0.0
 36
0.0
 17
0.0
 27
1.0
 37
0.0
 76
     0
330
1F
331
29
  0
MLINESTYLE
  5
18
102
{ACAD_REACTORS
330
17
102
}
330
17
100
AcDbMlineStyle
  2
Standard
 70
     0
  3

 62
   256
 51
90.0
 52
90.0
 71
     2
 49
0.5
 62
   256
  6
BYLAYER
 49
-0.5
 62
   256
  6
BYLAYER
  0
ACDBPLACEHOLDER
  5
F
102
{ACAD_REACTORS
330
E
102
}
330
E
  0
ENDSEC
  0
EOF
