  0
SECTION
  2
HEADER
  9
$ACADVER
  1
AC1015
  9
$ACADMAINTVER
 70
     6
  9
$DWGCODEPAGE
  3
ANSI_1252
  9
$INSBASE
 10
0.0
 20
0.0
 30
0.0
  9
$EXTMIN
 10
0.0
 20
0.0
 30
0.0
  9
$EXTMAX
 10
420.0
 20
297.0
 30
0.0
  9
$LIMMIN
 10
0.0
 20
0.0
  9
$LIMMAX
 10
420.0
 20
297.0
  9
$ORTHOMODE
 70
     0
  9
$REGENMODE
 70
     1
  9
$FILLMODE
 70
     1
  9
$QTEXTMODE
 70
     0
  9
$MIRRTEXT
 70
     1
  9
$LTSCALE
 40
1.0
  9
$ATTMODE
 70
     1
  9
$TEXTSIZE
 40
3.5
  9
$TRACEWID
 40
1.0
  9
$TEXTSTYLE
  7
Standard
  9
$CLAYER
  8
0
  9
$CELTYPE
  6
ByLayer
  9
$CECOLOR
 62
   256
  9
$CELTSCALE
 40
1.0
  9
$DISPSILH
 70
     0
  9
$DIMSCALE
 40
1.0
  9
$DIMASZ
 40
3.302
  9
$DIMEXO
 40
1.0
  9
$DIMDLI
 40
3.75
  9
$DIMRND
 40
0.0
  9
$DIMDLE
 40
0.0
  9
$DIMEXE
 40
1.0
  9
$DIMTP
 40
0.0
  9
$DIMTM
 40
0.0
  9
$DIMTXT
 40
3.5
  9
$DIMCEN
 40
2.5
  9
$DIMTSZ
 40
0.0
  9
$DIMTOL
 70
     0
  9
$DIMLIM
 70
     0
  9
$DIMTIH
 70
     1
  9
$DIMTOH
 70
     1
  9
$DIMSE1
 70
     0
  9
$DIMSE2
 70
     0
  9
$DIMTAD
 70
     1
  9
$DIMZIN
 70
     0
  9
$DIMBLK
  1

  9
$DIMASO
 70
     1
  9
$DIMSHO
 70
     1
  9
$DIMPOST
  1

  9
$DIMAPOST
  1

  9
$DIMALT
 70
     0
  9
$DIMALTD
 70
     3
  9
$DIMALTF
 40
0.0393700787
  9
$DIMLFAC
 40
10.0
  9
$DIMTOFL
 70
     1
  9
$DIMTVP
 40
0.0
  9
$DIMTIX
 70
     0
  9
$DIMSOXD
 70
     0
  9
$DIMSAH
 70
     0
  9
$DIMBLK1
  1

  9
$DIMBLK2
  1

  9
$DIMSTYLE
  2
ISO-25
  9
$DIMCLRD
 70
     0
  9
$DIMCLRE
 70
     0
  9
$DIMCLRT
 70
     0
  9
$DIMTFAC
 40
1.0
  9
$DIMGAP
 40
1.524
  9
$DIMJUST
 70
     0
  9
$DIMSD1
 70
     0
  9
$DIMSD2
 70
     0
  9
$DIMTOLJ
 70
     0
  9
$DIMTZIN
 70
     0
  9
$DIMALTZ
 70
     0
  9
$DIMALTTZ
 70
     0
  9
$DIMUPT
 70
     0
  9
$DIMDEC
 70
     3
  9
$DIMTDEC
 70
     3
  9
$DIMALTU
 70
     2
  9
$DIMALTTD
 70
     3
  9
$DIMTXSTY
  7
Standard
  9
$DIMAUNIT
 70
     0
  9
$DIMADEC
 70
     2
  9
$DIMALTRND
 40
0.0
  9
$DIMAZIN
 70
     0
  9
$DIMDSEP
 70
    44
  9
$DIMATFIT
 70
     3
  9
$DIMFRAC
 70
     0
  9
$DIMLDRBLK
  1

  9
$DIMLUNIT
 70
     2
  9
$DIMLWD
 70
    -2
  9
$DIMLWE
 70
    -2
  9
$DIMTMOVE
 70
     0
  9
$LUNITS
 70
     2
  9
$LUPREC
 70
     8
  9
$SKETCHINC
 40
1.0
  9
$FILLETRAD
 40
10.0
  9
$AUNITS
 70
     0
  9
$AUPREC
 70
     8
  9
$MENU
  1
.
  9
$ELEVATION
 40
0.0
  9
$PELEVATION
 40
0.0
  9
$THICKNESS
 40
0.0
  9
$LIMCHECK
 70
     0
  9
$CHAMFERA
 40
10.0
  9
$CHAMFERB
 40
10.0
  9
$CHAMFERC
 40
20.0
  9
$CHAMFERD
 40
0.0
  9
$SKPOLY
 70
     0
  9
$TDCREATE
 40
2455855.52259735
  9
$TDUCREATE
 40
2455855.480930683
  9
$TDUPDATE
 40
2455855.522597361
  9
$TDUUPDATE
 40
2455855.480930694
  9
$TDINDWG
 40
0.0000000116
  9
$TDUSRTIMER
 40
0.0000000116
  9
$USRTIMER
 70
     1
  9
$ANGBASE
 50
0.0
  9
$ANGDIR
 70
     0
  9
$PDMODE
 70
     0
  9
$PDSIZE
 40
-1.0
  9
$PLINEWID
 40
0.0
  9
$SPLFRAME
 70
     0
  9
$SPLINETYPE
 70
     6
  9
$SPLINESEGS
 70
     8
  9
$HANDSEED
  5
1A8
  9
$SURFTAB1
 70
     6
  9
$SURFTAB2
 70
     6
  9
$SURFTYPE
 70
     6
  9
$SURFU
 70
     6
  9
$SURFV
 70
     6
  9
$UCSBASE
  2

  9
$UCSNAME
  2

  9
$UCSORG
 10
0.0
 20
0.0
 30
0.0
  9
$UCSXDIR
 10
1.0
 20
0.0
 30
0.0
  9
$UCSYDIR
 10
0.0
 20
1.0
 30
0.0
  9
$UCSORTHOREF
  2

  9
$UCSORTHOVIEW
 70
     0
  9
$UCSORGTOP
 10
0.0
 20
0.0
 30
0.0
  9
$UCSORGBOTTOM
 10
0.0
 20
0.0
 30
0.0
  9
$UCSORGLEFT
 10
0.0
 20
0.0
 30
0.0
  9
$UCSORGRIGHT
 10
0.0
 20
0.0
 30
0.0
  9
$UCSORGFRONT
 10
0.0
 20
0.0
 30
0.0
  9
$UCSORGBACK
 10
0.0
 20
0.0
 30
0.0
  9
$PUCSBASE
  2

  9
$PUCSNAME
  2

  9
$PUCSORG
 10
0.0
 20
0.0
 30
0.0
  9
$PUCSXDIR
 10
1.0
 20
0.0
 30
0.0
  9
$PUCSYDIR
 10
0.0
 20
1.0
 30
0.0
  9
$PUCSORTHOREF
  2

  9
$PUCSORTHOVIEW
 70
     0
  9
$PUCSORGTOP
 10
0.0
 20
0.0
 30
0.0
  9
$PUCSORGBOTTOM
 10
0.0
 20
0.0
 30
0.0
  9
$PUCSORGLEFT
 10
0.0
 20
0.0
 30
0.0
  9
$PUCSORGRIGHT
 10
0.0
 20
0.0
 30
0.0
  9
$PUCSORGFRONT
 10
0.0
 20
0.0
 30
0.0
  9
$PUCSORGBACK
 10
0.0
 20
0.0
 30
0.0
  9
$USERI1
 70
     0
  9
$USERI2
 70
     0
  9
$USERI3
 70
     0
  9
$USERI4
 70
     0
  9
$USERI5
 70
     0
  9
$USERR1
 40
0.0
  9
$USERR2
 40
0.0
  9
$USERR3
 40
0.0
  9
$USERR4
 40
0.0
  9
$USERR5
 40
0.0
  9
$WORLDVIEW
 70
     1
  9
$SHADEDGE
 70
     3
  9
$SHADEDIF
 70
    70
  9
$TILEMODE
 70
     1
  9
$MAXACTVP
 70
    64
  9
$PINSBASE
 10
0.0
 20
0.0
 30
0.0
  9
$PLIMCHECK
 70
     0
  9
$PEXTMIN
 10
1.0000000000E+20
 20
1.0000000000E+20
 30
1.0000000000E+20
  9
$PEXTMAX
 10
-1.0000000000E+20
 20
-1.0000000000E+20
 30
-1.0000000000E+20
  9
$PLIMMIN
 10
0.0
 20
0.0
  9
$PLIMMAX
 10
420.0
 20
297.0
  9
$UNITMODE
 70
     0
  9
$VISRETAIN
 70
     1
  9
$PLINEGEN
 70
     0
  9
$PSLTSCALE
 70
     1
  9
$TREEDEPTH
 70
  3020
  9
$CMLSTYLE
  2
Standard
  9
$CMLJUST
 70
     0
  9
$CMLSCALE
 40
20.0
  9
$PROXYGRAPHICS
 70
     1
  9
$MEASUREMENT
 70
     1
  9
$CELWEIGHT
370
    -1
  9
$ENDCAPS
280
     0
  9
$JOINSTYLE
280
     0
  9
$LWDISPLAY
290
     1
  9
$INSUNITS
 70
     4
  9
$HYPERLINKBASE
  1

  9
$STYLESHEET
  1

  9
$XEDIT
290
     1
  9
$CEPSNTYPE
380
     0
  9
$PSTYLEMODE
290
     1
  9
$FINGERPRINTGUID
  2
{22472541-49D0-44ED-8880-8C211435D643}
  9
$VERSIONGUID
  2
{FAEB1C32-E019-11D5-929B-00C0DF256EC4}
  9
$EXTNAMES
290
     1
  9
$PSVPSCALE
 40
0.0
  9
$OLESTARTUP
290
     0
  0
ENDSEC
  0
SECTION
  2
CLASSES
  0
CLASS
  1
ACDBDICTIONARYWDFLT
  2
AcDbDictionaryWithDefault
  3
ObjectDBX Classes
 90
        0
280
     0
281
     0
  0
CLASS
  1
VISUALSTYLE
  2
AcDbVisualStyle
  3
ObjectDBX Classes
 90
     4095
280
     0
281
     0
  0
CLASS
  1
MATERIAL
  2
AcDbMaterial
  3
ObjectDBX Classes
 90
     1153
280
     0
281
     0
  0
CLASS
  1
ACDBPLACEHOLDER
  2
AcDbPlaceHolder
  3
ObjectDBX Classes
 90
        0
280
     0
281
     0
  0
CLASS
  1
LAYOUT
  2
AcDbLayout
  3
ObjectDBX Classes
 90
        0
280
     0
281
     0
  0
ENDSEC
  0
SECTION
  2
TABLES
  0
TABLE
  2
VPORT
  5
8
330
0
100
AcDbSymbolTable
 70
     1
  0
VPORT
  5
29
330
8
100
AcDbSymbolTableRecord
100
AcDbViewportTableRecord
  2
*Active
 70
     0
 10
0.0
 20
0.0
 11
1.0
 21
1.0
 12
210.0
 22
148.5
 13
0.0
 23
0.0
 14
10.0
 24
10.0
 15
10.0
 25
10.0
 16
0.0
 26
0.0
 36
1.0
 17
0.0
 27
0.0
 37
0.0
 40
297.0
 41
1.4141414141
 42
50.0
 43
0.0
 44
0.0
 50
0.0
 51
0.0
 71
     0
 72
  2000
 73
     1
 74
     3
 75
     0
 76
     0
 77
     0
 78
     0
281
     0
 65
     1
110
0.0
120
0.0
130
0.0
111
1.0
121
0.0
131
0.0
112
0.0
122
1.0
132
0.0
 79
     0
146
0.0
  0
ENDTAB
  0
TABLE
  2
LTYPE
  5
5
330
0
100
AcDbSymbolTable
 70
     6
  0
LTYPE
  5
14
330
5
100
AcDbSymbolTableRecord
100
AcDbLinetypeTableRecord
  2
ByBlock
 70
     0
  3

 72
    65
 73
     0
 40
0.0
  0
LTYPE
  5
15
330
5
100
AcDbSymbolTableRecord
100
AcDbLinetypeTableRecord
  2
ByLayer
 70
     0
  3

 72
    65
 73
     0
 40
0.0
  0
LTYPE
  5
16
330
5
100
AcDbSymbolTableRecord
100
AcDbLinetypeTableRecord
  2
Continuous
 70
     0
  3
Solid line
 72
    65
 73
     0
 40
0.0
  0
LTYPE
  5
3F
330
5
100
AcDbSymbolTableRecord
100
AcDbLinetypeTableRecord
  2
HIDDEN
 70
     0
  3
Hidden __ __ __ __ __ __ __ __ __ __ __ __ __ __
 72
    65
 73
     2
 40
1.905
 49
1.27
 74
     0
 49
-0.635
 74
     0
  0
LTYPE
  5
40
330
5
100
AcDbSymbolTableRecord
100
AcDbLinetypeTableRecord
  2
PHANTOM
 70
     0
  3
Phantom ______  __  __  ______  __  __  ______
 72
    65
 73
     6
 40
12.7
 49
6.35
 74
     0
 49
-1.27
 74
     0
 49
1.27
 74
     0
 49
-1.27
 74
     0
 49
1.27
 74
     0
 49
-1.27
 74
     0
  0
LTYPE
  5
41
330
5
100
AcDbSymbolTableRecord
100
AcDbLinetypeTableRecord
  2
CENTER
 70
     0
  3
Center ____ _ ____ _ ____ _ ____ _ ____ _ ____
 72
    65
 73
     4
 40
10.16
 49
6.35
 74
     0
 49
-1.27
 74
     0
 49
1.27
 74
     0
 49
-1.27
 74
     0
  0
LTYPE
  5
42
330
5
100
AcDbSymbolTableRecord
100
AcDbLinetypeTableRecord
  2
CENTERX2
 70
     0
  3
Center (2x) ________  __  ________  __  _____
 72
    65
 73
     4
 40
20.32
 49
12.7
 74
     0
 49
-2.54
 74
     0
 49
2.54
 74
     0
 49
-2.54
 74
     0
  0
LTYPE
  5
43
330
5
100
AcDbSymbolTableRecord
100
AcDbLinetypeTableRecord
  2
DOT2
 70
     0
  3
Dot (.5x) ........................................
 72
    65
 73
     2
 40
0.635
 49
0.0
 74
     0
 49
-0.635
 74
     0
  0
ENDTAB
  0
TABLE
  2
LAYER
  5
2
330
0
100
AcDbSymbolTable
 70
     4
  0
LAYER
  5
10
330
2
100
AcDbSymbolTableRecord
100
AcDbLayerTableRecord
  2
0
 70
     0
 62
     7
  6
Continuous
370
    -3
390
F
  0
LAYER
  5
44
330
2
100
AcDbSymbolTableRecord
100
AcDbLayerTableRecord
  2
FORMAT
 70
     0
 62
     7
  6
Continuous
370
    -3
390
F
  0
LAYER
  5
45
330
2
100
AcDbSymbolTableRecord
100
AcDbLayerTableRecord
  2
SLD-0
 70
     0
 62
     1
  6
Continuous
370
    -3
390
F
  0
LAYER
  5
46
330
2
100
AcDbSymbolTableRecord
100
AcDbLayerTableRecord
  2
WATERMARK
 70
     0
 62
    20
  6
Continuous
370
    -3
390
F
  0
ENDTAB
  0
TABLE
  2
STYLE
  5
3
330
0
100
AcDbSymbolTable
 70
     1
  0
STYLE
  5
11
330
3
100
AcDbSymbolTableRecord
100
AcDbTextStyleTableRecord
  2
Standard
 70
     0
 40
0.0
 41
1.0
 50
0.0
 71
     0
 42
2.5
  3
txt
  4

  0
ENDTAB
  0
TABLE
  2
VIEW
  5
6
330
0
100
AcDbSymbolTable
 70
     0
  0
ENDTAB
  0
TABLE
  2
UCS
  5
7
330
0
100
AcDbSymbolTable
 70
     0
  0
ENDTAB
  0
TABLE
  2
APPID
  5
9
330
0
100
AcDbSymbolTable
 70
     1
  0
APPID
  5
12
330
9
100
AcDbSymbolTableRecord
100
AcDbRegAppTableRecord
  2
ACAD
 70
     0
  0
ENDTAB
  0
TABLE
  2
DIMSTYLE
  5
A
330
0
100
AcDbSymbolTable
 70
     1
100
AcDbDimStyleTable
  0
DIMSTYLE
105
27
330
A
100
AcDbSymbolTableRecord
100
AcDbDimStyleTableRecord
  2
ISO-25
 70
     0
 41
2.5
 42
0.625
 43
3.75
 44
1.25
 73
     0
 74
     0
 77
     1
 78
     8
140
2.5
141
2.5
143
0.0393700787
147
0.625
171
     3
172
     1
178
     0
271
     2
272
     2
274
     3
278
    44
283
     0
284
     8
340
11
  0
ENDTAB
  0
TABLE
  2
BLOCK_RECORD
  5
1
330
0
100
AcDbSymbolTable
 70
     1
  0
BLOCK_RECORD
  5
1F
330
1
100
AcDbSymbolTableRecord
100
AcDbBlockTableRecord
  2
*Model_Space
340
22
  0
BLOCK_RECORD
  5
1B
330
1
100
AcDbSymbolTableRecord
100
AcDbBlockTableRecord
  2
*Paper_Space
340
1E
  0
BLOCK_RECORD
  5
23
330
1
100
AcDbSymbolTableRecord
100
AcDbBlockTableRecord
  2
*Paper_Space0
340
26
  0
ENDTAB
  0
ENDSEC
  0
SECTION
  2
BLOCKS
  0
BLOCK
  5
20
330
1F
100
AcDbEntity
  8
0
100
AcDbBlockBegin
  2
*Model_Space
 70
     0
 10
0.0
 20
0.0
 30
0.0
  3
*Model_Space
  1

  0
ENDBLK
  5
21
330
1F
100
AcDbEntity
  8
0
100
AcDbBlockEnd
  0
BLOCK
  5
1C
330
1B
100
AcDbEntity
 67
     1
  8
0
100
AcDbBlockBegin
  2
*Paper_Space
 70
     0
 10
0.0
 20
0.0
 30
0.0
  3
*Paper_Space
  1

  0
ENDBLK
  5
1D
330
1B
100
AcDbEntity
 67
     1
  8
0
100
AcDbBlockEnd
  0
BLOCK
  5
24
330
23
100
AcDbEntity
  8
0
100
AcDbBlockBegin
  2
*Paper_Space0
 70
     0
 10
0.0
 20
0.0
 30
0.0
  3
*Paper_Space0
  1

  0
ENDBLK
  5
25
330
23
100
AcDbEntity
  8
0
100
AcDbBlockEnd
  0
ENDSEC
  0
SECTION
  2
ENTITIES
  0
LINE
  5
47
330
1F
100
AcDbEntity
  8
0
  6
Continuous
 62
     7
370
    15
100
AcDbLine
 10
215.5066
 20
196.254272758
 30
0.0
 11
155.6666
 21
196.254272758
 31
0.0
  0
ARC
  5
48
330
1F
100
AcDbEntity
  8
0
  6
Continuous
 62
     7
370
    15
100
AcDbCircle
 10
205.0766
 20
119.396327242
 30
0.0
 40
0.0500000000000199
100
AcDbArc
 50
0.0
 51
44.4270039981
  0
ARC
  5
49
330
1F
100
AcDbEntity
  8
0
  6
Continuous
 62
     7
370
    15
100
AcDbCircle
 10
203.8966
 20
119.396327242
 30
0.0
 40
0.0499999999999996
100
AcDbArc
 50
135.5729960019
 51
180.0
  0
ARC
  5
4A
330
1F
100
AcDbEntity
  8
0
  6
Continuous
 62
     7
370
    15
100
AcDbCircle
 10
205.0766
 20
119.371327242
 30
0.0
 40
0.0500000000000114
100
AcDbArc
 50
270.0
 51
0.0
  0
ARC
  5
4B
330
1F
100
AcDbEntity
  8
0
  6
Continuous
 62
     7
370
    15
100
AcDbCircle
 10
203.8966
 20
119.371327242
 30
0.0
 40
0.0499999999999972
100
AcDbArc
 50
180.0
 51
270.0
  0
LINE
  5
4C
330
1F
100
AcDbEntity
  8
0
  6
Continuous
 62
     7
370
    15
100
AcDbLine
 10
205.1266
 20
119.371327242
 30
0.0
 11
205.1266
 21
119.396327242
 31
0.0
  0
LINE
  5
4D
330
1F
100
AcDbEntity
  8
0
  6
Continuous
 62
     7
370
    15
100
AcDbLine
 10
203.8466
 20
119.396327242
 30
0.0
 11
203.8466
 21
119.371327242
 31
0.0
  0
LINE
  5
4E
330
1F
100
AcDbEntity
  8
0
  6
Continuous
 62
     7
370
    15
100
AcDbLine
 10
167.3266
 20
119.371327242
 30
0.0
 11
167.3266
 21
119.396327242
 31
0.0
  0
LINE
  5
4F
330
1F
100
AcDbEntity
  8
0
  6
Continuous
 62
     7
370
    15
100
AcDbLine
 10
166.0466
 20
119.396327242
 30
0.0
 11
166.0466
 21
119.371327242
 31
0.0
  0
ARC
  5
50
330
1F
100
AcDbEntity
  8
0
  6
Continuous
 62
     7
370
    15
100
AcDbCircle
 10
167.2766
 20
119.371327242
 30
0.0
 40
0.0499999999999972
100
AcDbArc
 50
270.0
 51
0.0
  0
ARC
  5
51
330
1F
100
AcDbEntity
  8
0
  6
Continuous
 62
     7
370
    15
100
AcDbCircle
 10
166.0966
 20
119.371327242
 30
0.0
 40
0.0500000000000114
100
AcDbArc
 50
180.0
 51
270.0
  0
ARC
  5
52
330
1F
100
AcDbEntity
  8
0
  6
Continuous
 62
     7
370
    15
100
AcDbCircle
 10
167.2766
 20
119.396327242
 30
0.0
 40
0.0499999999999996
100
AcDbArc
 50
0.0
 51
44.4270039981
  0
ARC
  5
53
330
1F
100
AcDbEntity
  8
0
  6
Continuous
 62
     7
370
    15
100
AcDbCircle
 10
166.0966
 20
119.396327242
 30
0.0
 40
0.0500000000000199
100
AcDbArc
 50
135.5729960019
 51
180.0
  0
ARC
  5
54
330
1F
100
AcDbEntity
  8
0
  6
Continuous
 62
     7
370
    15
100
AcDbCircle
 10
210.6366
 20
102.371327242
 30
0.0
 40
0.2000000000000028
100
AcDbArc
 50
270.0
 51
0.0
  0
ARC
  5
55
330
1F
100
AcDbEntity
  8
0
  6
Continuous
 62
     7
370
    15
100
AcDbCircle
 10
205.3366
 20
102.371327242
 30
0.0
 40
0.2000000000000028
100
AcDbArc
 50
180.0
 51
270.0
  0
LINE
  5
56
330
1F
100
AcDbEntity
  8
0
  6
Continuous
 62
     7
370
    15
100
AcDbLine
 10
210.8366
 20
102.371327242
 30
0.0
 11
210.8366
 21
102.771327242
 31
0.0
  0
LINE
  5
57
330
1F
100
AcDbEntity
  8
0
  6
Continuous
 62
     7
370
    15
100
AcDbLine
 10
205.1366
 20
102.771327242
 30
0.0
 11
205.1366
 21
102.371327242
 31
0.0
  0
LINE
  5
58
330
1F
100
AcDbEntity
  8
0
  6
Continuous
 62
     7
370
    15
100
AcDbLine
 10
166.0366
 20
102.371327242
 30
0.0
 11
166.0366
 21
102.771327242
 31
0.0
  0
LINE
  5
59
330
1F
100
AcDbEntity
  8
0
  6
Continuous
 62
     7
370
    15
100
AcDbLine
 10
160.3366
 20
102.771327242
 30
0.0
 11
160.3366
 21
102.371327242
 31
0.0
  0
ARC
  5
5A
330
1F
100
AcDbEntity
  8
0
  6
Continuous
 62
     7
370
    15
100
AcDbCircle
 10
165.8366
 20
102.371327242
 30
0.0
 40
0.2000000000000171
100
AcDbArc
 50
270.0
 51
0.0
  0
ARC
  5
5B
330
1F
100
AcDbEntity
  8
0
  6
Continuous
 62
     7
370
    15
100
AcDbCircle
 10
160.5366
 20
102.371327242
 30
0.0
 40
0.2000000000000028
100
AcDbArc
 50
180.0
 51
270.0
  0
LINE
  5
5C
330
1F
100
AcDbEntity
  8
0
  6
Continuous
 62
     7
370
    15
100
AcDbLine
 10
210.8166
 20
102.771327242
 30
0.0
 11
210.8166
 21
109.571327242
 31
0.0
  0
LINE
  5
5D
330
1F
100
AcDbEntity
  8
0
  6
Continuous
 62
     7
370
    15
100
AcDbLine
 10
205.1566
 20
109.571327242
 30
0.0
 11
205.1566
 21
102.771327242
 31
0.0
  0
LINE
  5
5E
330
1F
100
AcDbEntity
  8
0
  6
Continuous
 62
     7
370
    15
100
AcDbLine
 10
166.0166
 20
102.771327242
 30
0.0
 11
166.0166
 21
109.571327242
 31
0.0
  0
LINE
  5
5F
330
1F
100
AcDbEntity
  8
0
  6
Continuous
 62
     7
370
    15
100
AcDbLine
 10
160.3566
 20
109.571327242
 30
0.0
 11
160.3566
 21
102.771327242
 31
0.0
  0
LINE
  5
60
330
1F
100
AcDbEntity
  8
0
  6
Continuous
 62
     7
370
    15
100
AcDbLine
 10
166.3766
 20
110.1745838366
 30
0.0
 11
166.3766
 21
117.271327242
 31
0.0
  0
LINE
  5
61
330
1F
100
AcDbEntity
  8
0
  6
Continuous
 62
     7
370
    15
100
AcDbLine
 10
159.9966
 20
117.271327242
 30
0.0
 11
159.9966
 21
110.1745838366
 31
0.0
  0
ARC
  5
62
330
1F
100
AcDbEntity
  8
0
  6
Continuous
 62
     7
370
    15
100
AcDbCircle
 10
165.9066
 20
110.1745838366
 30
0.0
 40
0.4700000000000047
100
AcDbArc
 50
350.5402980318
 51
0.0
  0
ARC
  5
63
330
1F
100
AcDbEntity
  8
0
  6
Continuous
 62
     7
370
    15
100
AcDbCircle
 10
160.4666
 20
110.1745838366
 30
0.0
 40
0.4700000000000047
100
AcDbArc
 50
180.0
 51
189.4597019682
  0
LINE
  5
64
330
1F
100
AcDbEntity
  8
0
  6
Continuous
 62
     7
370
    15
100
AcDbLine
 10
160.0029913227
 20
110.0973375141
 30
0.0
 11
160.090634978
 21
109.571327242
 31
0.0
  0
LINE
  5
65
330
1F
100
AcDbEntity
  8
0
  6
Continuous
 62
     7
370
    15
100
AcDbLine
 10
166.282565022
 20
109.571327242
 30
0.0
 11
166.3702086773
 21
110.0973375141
 31
0.0
  0
ARC
  5
66
330
1F
100
AcDbEntity
  8
0
  6
Continuous
 62
     7
370
    15
100
AcDbCircle
 10
210.7066
 20
110.1745838366
 30
0.0
 40
0.4700000000000047
100
AcDbArc
 50
350.5402980318
 51
0.0
  0
ARC
  5
67
330
1F
100
AcDbEntity
  8
0
  6
Continuous
 62
     7
370
    15
100
AcDbCircle
 10
205.2666
 20
110.1745838366
 30
0.0
 40
0.4700000000000328
100
AcDbArc
 50
180.0
 51
189.4597019682
  0
LINE
  5
68
330
1F
100
AcDbEntity
  8
0
  6
Continuous
 62
     7
370
    15
100
AcDbLine
 10
211.1766
 20
110.1745838366
 30
0.0
 11
211.1766
 21
117.271327242
 31
0.0
  0
LINE
  5
69
330
1F
100
AcDbEntity
  8
0
  6
Continuous
 62
     7
370
    15
100
AcDbLine
 10
204.7966
 20
117.271327242
 30
0.0
 11
204.7966
 21
110.1745838366
 31
0.0
  0
LINE
  5
6A
330
1F
100
AcDbEntity
  8
0
  6
Continuous
 62
     7
370
    15
100
AcDbLine
 10
204.8029913227
 20
110.0973375141
 30
0.0
 11
204.890634978
 21
109.571327242
 31
0.0
  0
LINE
  5
6B
330
1F
100
AcDbEntity
  8
0
  6
Continuous
 62
     7
370
    15
100
AcDbLine
 10
211.082565022
 20
109.571327242
 30
0.0
 11
211.1702086773
 21
110.0973375141
 31
0.0
  0
ARC
  5
6C
330
1F
100
AcDbEntity
  8
0
  6
Continuous
 62
     7
370
    15
100
AcDbCircle
 10
212.0766
 20
119.451327242
 30
0.0
 40
0.0499999999999972
100
AcDbArc
 50
270.0
 51
336.421821522
  0
ARC
  5
6D
330
1F
100
AcDbEntity
  8
0
  6
Continuous
 62
     7
370
    15
100
AcDbCircle
 10
210.8966
 20
119.451327242
 30
0.0
 40
0.0499999999999972
100
AcDbArc
 50
203.578178478
 51
270.0
  0
ARC
  5
6E
330
1F
100
AcDbEntity
  8
0
  6
Continuous
 62
     7
370
    15
100
AcDbCircle
 10
160.2766
 20
119.451327242
 30
0.0
 40
0.0500000000000247
100
AcDbArc
 50
270.0
 51
336.4218215227
  0
ARC
  5
6F
330
1F
100
AcDbEntity
  8
0
  6
Continuous
 62
     7
370
    15
100
AcDbCircle
 10
159.0966
 20
119.451327242
 30
0.0
 40
0.0500000000000114
100
AcDbArc
 50
203.5781784773
 51
270.0
  0
LINE
  5
70
330
1F
100
AcDbEntity
  8
0
  6
Continuous
 62
     7
370
    15
100
AcDbLine
 10
215.4666
 20
191.171327242
 30
0.0
 11
155.7066
 21
191.171327242
 31
0.0
  0
LINE
  5
71
330
1F
100
AcDbEntity
  8
0
  6
Continuous
 62
     7
370
    15
100
AcDbLine
 10
155.7066
 20
186.7045772687
 30
0.0
 11
155.7066
 21
191.171327242
 31
0.0
  0
LINE
  5
72
330
1F
100
AcDbEntity
  8
0
  6
Continuous
 62
     7
370
    15
100
AcDbLine
 10
215.4666
 20
186.7045772687
 30
0.0
 11
215.4666
 21
191.171327242
 31
0.0
  0
LINE
  5
73
330
1F
100
AcDbEntity
  8
0
  6
Continuous
 62
     7
370
    15
100
AcDbLine
 10
155.7056
 20
190.926327242
 30
0.0
 11
155.5856
 21
190.926327242
 31
0.0
  0
LINE
  5
74
330
1F
100
AcDbEntity
  8
0
  6
Continuous
 62
     7
370
    15
100
AcDbLine
 10
155.5856
 20
190.926327242
 30
0.0
 11
155.5856
 21
186.8146244776
 31
0.0
  0
LINE
  5
75
330
1F
100
AcDbEntity
  8
0
  6
Continuous
 62
     7
370
    15
100
AcDbLine
 10
155.7056
 20
190.926327242
 30
0.0
 11
155.7056
 21
186.8146244776
 31
0.0
  0
LINE
  5
76
330
1F
100
AcDbEntity
  8
0
  6
Continuous
 62
     7
370
    15
100
AcDbLine
 10
215.5876
 20
190.926327242
 30
0.0
 11
215.5876
 21
186.8146244776
 31
0.0
  0
LINE
  5
77
330
1F
100
AcDbEntity
  8
0
  6
Continuous
 62
     7
370
    15
100
AcDbLine
 10
215.4676
 20
190.926327242
 30
0.0
 11
215.5876
 21
190.926327242
 31
0.0
  0
LINE
  5
78
330
1F
100
AcDbEntity
  8
0
  6
Continuous
 62
     7
370
    15
100
AcDbLine
 10
215.4676
 20
190.926327242
 30
0.0
 11
215.4676
 21
186.8146244776
 31
0.0
  0
LINE
  5
79
330
1F
100
AcDbEntity
  8
0
  6
Continuous
 62
     7
370
    15
100
AcDbLine
 10
215.4666
 20
185.6970690468
 30
0.0
 11
215.4666
 21
186.7045772687
 31
0.0
  0
LINE
  5
7A
330
1F
100
AcDbEntity
  8
0
  6
Continuous
 62
     7
370
    15
100
AcDbLine
 10
215.4666
 20
185.6970690468
 30
0.0
 11
155.7066
 21
185.6970690468
 31
0.0
  0
LINE
  5
7B
330
1F
100
AcDbEntity
  8
0
  6
Continuous
 62
     7
370
    15
100
AcDbLine
 10
155.7066
 20
185.6970690468
 30
0.0
 11
155.7066
 21
186.7045772687
 31
0.0
  0
LINE
  5
7C
330
1F
100
AcDbEntity
  8
0
  6
Continuous
 62
     7
370
    15
100
AcDbLine
 10
215.5876
 20
185.791327242
 30
0.0
 11
215.4676
 21
185.791327242
 31
0.0
  0
LINE
  5
7D
330
1F
100
AcDbEntity
  8
0
  6
Continuous
 62
     7
370
    15
100
AcDbLine
 10
215.5876
 20
186.8146244776
 30
0.0
 11
215.5876
 21
185.791327242
 31
0.0
  0
LINE
  5
7E
330
1F
100
AcDbEntity
  8
0
  6
Continuous
 62
     7
370
    15
100
AcDbLine
 10
215.4676
 20
186.8146244776
 30
0.0
 11
215.4676
 21
185.791327242
 31
0.0
  0
LINE
  5
7F
330
1F
100
AcDbEntity
  8
0
  6
Continuous
 62
     7
370
    15
100
AcDbLine
 10
155.5856
 20
185.791327242
 30
0.0
 11
155.7056
 21
185.791327242
 31
0.0
  0
LINE
  5
80
330
1F
100
AcDbEntity
  8
0
  6
Continuous
 62
     7
370
    15
100
AcDbLine
 10
155.5856
 20
186.8146244776
 30
0.0
 11
155.5856
 21
185.791327242
 31
0.0
  0
LINE
  5
81
330
1F
100
AcDbEntity
  8
0
  6
Continuous
 62
     7
370
    15
100
AcDbLine
 10
155.7056
 20
186.8146244776
 30
0.0
 11
155.7056
 21
185.791327242
 31
0.0
  0
SPLINE
  5
82
330
1F
100
AcDbEntity
  8
0
  6
Continuous
 62
     7
370
    15
100
AcDbSpline
210
0.0
220
0.0
230
1.0
 70
     8
 71
     3
 72
    10
 73
     6
 74
     0
 42
0.00000001
 43
0.00000001
 40
0.0
 40
0.0
 40
0.0
 40
0.0
 40
0.2471006413548212
 40
0.6187448470637763
 40
1.0
 40
1.0
 40
1.0
 40
1.0
 10
155.7013778135866
 20
191.1294095050806
 30
0.0
 10
155.6841867255649
 20
191.1186962096481
 30
0.0
 10
155.6411399043566
 20
191.0918699079938
 30
0.0
 10
155.5964344348217
 20
191.018553831246
 30
0.0
 10
155.5892420823289
 20
190.9573299511002
 30
0.0
 10
155.5855999999999
 20
190.9263272420125
 30
0.0
  0
SPLINE
  5
83
330
1F
100
AcDbEntity
  8
0
  6
Continuous
 62
     7
370
    15
100
AcDbSpline
210
0.0
220
0.0
230
1.0
 70
     8
 71
     3
 72
    10
 73
     6
 74
     0
 42
0.00000001
 43
0.00000001
 40
0.0
 40
0.0
 40
0.0
 40
0.0
 40
0.4238374500504898
 40
0.8121789621393339
 40
1.0
 40
1.0
 40
1.0
 40
1.0
 10
215.5875999999999
 20
190.9263272420125
 30
0.0
 10
215.5830836777613
 20
190.9607264522274
 30
0.0
 10
215.5744292704925
 20
191.0266439752009
 30
0.0
 10
215.5262580182461
 20
191.0984640470668
 30
0.0
 10
215.4852680226712
 20
191.1218017395029
 30
0.0
 10
215.471905849945
 20
191.1294095050806
 30
0.0
  0
LINE
  5
84
330
1F
100
AcDbEntity
  8
0
  6
Continuous
 62
     7
370
    15
100
AcDbLine
 10
155.7056
 20
185.916327242
 30
0.0
 11
155.7066
 21
185.9005475082
 31
0.0
  0
ARC
  5
85
330
1F
100
AcDbEntity
  8
0
  6
Continuous
 62
     7
370
    15
100
AcDbCircle
 10
155.8306
 20
185.916327242
 30
0.0
 40
0.2449999999999757
100
AcDbArc
 50
210.6774244726
 51
239.5941085903
  0
ARC
  5
86
330
1F
100
AcDbEntity
  8
0
  6
Continuous
 62
     7
370
    15
100
AcDbCircle
 10
155.8306
 20
185.916327242
 30
0.0
 40
0.2449999999999766
100
AcDbArc
 50
243.4996208414
 51
270.0
  0
ARC
  5
87
330
1F
100
AcDbEntity
  8
0
  6
Continuous
 62
     7
370
    15
100
AcDbCircle
 10
215.3426
 20
185.916327242
 30
0.0
 40
0.2449999999999766
100
AcDbArc
 50
270.0
 51
296.5003791586
  0
ARC
  5
88
330
1F
100
AcDbEntity
  8
0
  6
Continuous
 62
     7
370
    15
100
AcDbCircle
 10
215.3426
 20
185.916327242
 30
0.0
 40
0.2449999999999757
100
AcDbArc
 50
300.4058914097
 51
329.3225755274
  0
LINE
  5
89
330
1F
100
AcDbEntity
  8
0
  6
Continuous
 62
     7
370
    15
100
AcDbLine
 10
215.4666
 20
185.9005475082
 30
0.0
 11
215.4676
 21
185.916327242
 31
0.0
  0
LINE
  5
8A
330
1F
100
AcDbEntity
  8
0
  6
Continuous
 62
     7
370
    15
100
AcDbLine
 10
214.2176
 20
185.671327242
 30
0.0
 11
214.2176
 21
185.6970690468
 31
0.0
  0
LINE
  5
8B
330
1F
100
AcDbEntity
  8
0
  6
Continuous
 62
     7
370
    15
100
AcDbLine
 10
215.3426
 20
185.671327242
 30
0.0
 11
214.2176
 21
185.671327242
 31
0.0
  0
LINE
  5
8C
330
1F
100
AcDbEntity
  8
0
  6
Continuous
 62
     7
370
    15
100
AcDbLine
 10
155.8306
 20
185.671327242
 30
0.0
 11
156.9556
 21
185.671327242
 31
0.0
  0
LINE
  5
8D
330
1F
100
AcDbEntity
  8
0
  6
Continuous
 62
     7
370
    15
100
AcDbLine
 10
156.9556
 20
185.671327242
 30
0.0
 11
156.9556
 21
185.6970690468
 31
0.0
  0
LINE
  5
8E
330
1F
100
AcDbEntity
  8
0
  6
Continuous
 62
     7
370
    15
100
AcDbLine
 10
215.3466
 20
191.296327242
 30
0.0
 11
215.3466
 21
191.171327242
 31
0.0
  0
LINE
  5
8F
330
1F
100
AcDbEntity
  8
0
  6
Continuous
 62
     7
370
    15
100
AcDbLine
 10
155.8266
 20
191.171327242
 30
0.0
 11
155.8266
 21
191.296327242
 31
0.0
  0
LINE
  5
90
330
1F
100
AcDbEntity
  8
0
  6
Continuous
 62
     7
370
    15
100
AcDbLine
 10
215.530836291
 20
191.076327242
 30
0.0
 11
215.5876
 21
191.076327242
 31
0.0
  0
LINE
  5
91
330
1F
100
AcDbEntity
  8
0
  6
Continuous
 62
     7
370
    15
100
AcDbLine
 10
215.5876
 20
191.076327242
 30
0.0
 11
215.5876
 21
190.926327242
 31
0.0
  0
LINE
  5
92
330
1F
100
AcDbEntity
  8
0
  6
Continuous
 62
     7
370
    15
100
AcDbLine
 10
155.6407541767
 20
191.076327242
 30
0.0
 11
155.5856
 21
191.076327242
 31
0.0
  0
LINE
  5
93
330
1F
100
AcDbEntity
  8
0
  6
Continuous
 62
     7
370
    15
100
AcDbLine
 10
155.5856
 20
191.076327242
 30
0.0
 11
155.5856
 21
190.926327242
 31
0.0
  0
LINE
  5
94
330
1F
100
AcDbEntity
  8
0
  6
Continuous
 62
     7
370
    15
100
AcDbLine
 10
155.7056
 20
186.171327242
 30
0.0
 11
155.7066
 21
186.171327242
 31
0.0
  0
LINE
  5
95
330
1F
100
AcDbEntity
  8
0
  6
Continuous
 62
     7
370
    15
100
AcDbLine
 10
215.4666
 20
186.171327242
 30
0.0
 11
215.4676
 21
186.171327242
 31
0.0
  0
LINE
  5
96
330
1F
100
AcDbEntity
  8
0
  6
Continuous
 62
     7
370
    15
100
AcDbLine
 10
215.5066
 20
191.296327242
 30
0.0
 11
155.6666
 21
191.296327242
 31
0.0
  0
LINE
  5
97
330
1F
100
AcDbEntity
  8
0
  6
Continuous
 62
     7
370
    15
100
AcDbLine
 10
155.6666
 20
192.8630097721
 30
0.0
 11
155.6666
 21
191.296327242
 31
0.0
  0
CIRCLE
  5
98
330
1F
100
AcDbEntity
  8
0
  6
Continuous
 62
     7
370
    15
100
AcDbCircle
 10
167.0866
 20
191.771327242
 30
0.0
 40
0.2699999999999818
  0
LINE
  5
99
330
1F
100
AcDbEntity
  8
0
  6
Continuous
 62
     7
370
    15
100
AcDbLine
 10
215.5066
 20
192.8630097721
 30
0.0
 11
215.5066
 21
191.296327242
 31
0.0
  0
CIRCLE
  5
9A
330
1F
100
AcDbEntity
  8
0
  6
Continuous
 62
     7
370
    15
100
AcDbCircle
 10
185.5866
 20
191.771327242
 30
0.0
 40
0.2699999999999818
  0
CIRCLE
  5
9B
330
1F
100
AcDbEntity
  8
0
  6
Continuous
 62
     7
370
    15
100
AcDbCircle
 10
204.0866
 20
191.771327242
 30
0.0
 40
0.2700000000000102
  0
LINE
  5
9C
330
1F
100
AcDbEntity
  8
0
  6
Continuous
 62
     7
370
    15
100
AcDbLine
 10
215.5066
 20
195.3550984039
 30
0.0
 11
215.5066
 21
192.8630097721
 31
0.0
  0
LINE
  5
9D
330
1F
100
AcDbEntity
  8
0
  6
Continuous
 62
     7
370
    15
100
AcDbLine
 10
155.6666
 20
195.3550984039
 30
0.0
 11
155.6666
 21
192.8630097721
 31
0.0
  0
LINE
  5
9E
330
1F
100
AcDbEntity
  8
0
  6
Continuous
 62
     7
370
    15
100
AcDbLine
 10
155.5866
 20
192.8630097721
 30
0.0
 11
155.5866
 21
191.3744095051
 31
0.0
  0
LINE
  5
9F
330
1F
100
AcDbEntity
  8
0
  6
Continuous
 62
     7
370
    15
100
AcDbLine
 10
155.6666
 20
191.3744095051
 30
0.0
 11
155.5866
 21
191.3744095051
 31
0.0
  0
LINE
  5
A0
330
1F
100
AcDbEntity
  8
0
  6
Continuous
 62
     7
370
    15
100
AcDbLine
 10
215.5066
 20
191.3744095051
 30
0.0
 11
215.5866
 21
191.3744095051
 31
0.0
  0
LINE
  5
A1
330
1F
100
AcDbEntity
  8
0
  6
Continuous
 62
     7
370
    15
100
AcDbLine
 10
215.5866
 20
192.8630097721
 30
0.0
 11
215.5866
 21
191.3744095051
 31
0.0
  0
LINE
  5
A2
330
1F
100
AcDbEntity
  8
0
  6
Continuous
 62
     7
370
    15
100
AcDbLine
 10
155.5866
 20
195.2681650795
 30
0.0
 11
155.5866
 21
192.8630097721
 31
0.0
  0
LINE
  5
A3
330
1F
100
AcDbEntity
  8
0
  6
Continuous
 62
     7
370
    15
100
AcDbLine
 10
215.5866
 20
195.2681650795
 30
0.0
 11
215.5866
 21
192.8630097721
 31
0.0
  0
ARC
  5
A4
330
1F
100
AcDbEntity
  8
0
  6
Continuous
 62
     7
370
    15
100
AcDbCircle
 10
155.7916
 20
191.3744095051
 30
0.0
 40
0.2050000000000125
100
AcDbArc
 50
180.0
 51
262.1567806704
  0
ARC
  5
A5
330
1F
100
AcDbEntity
  8
0
  6
Continuous
 62
     7
370
    15
100
AcDbCircle
 10
155.7916
 20
191.3744095051
 30
0.0
 40
0.1250000000000077
100
AcDbArc
 50
218.6570976348
 51
270.0
  0
LINE
  5
A6
330
1F
100
AcDbEntity
  8
0
  6
Continuous
 62
     7
370
    15
100
AcDbLine
 10
155.7916
 20
191.2494095051
 30
0.0
 11
155.8266
 21
191.2494095051
 31
0.0
  0
LINE
  5
A7
330
1F
100
AcDbEntity
  8
0
  6
Continuous
 62
     7
370
    15
100
AcDbLine
 10
215.3816
 20
191.2494095051
 30
0.0
 11
215.3466
 21
191.2494095051
 31
0.0
  0
ARC
  5
A8
330
1F
100
AcDbEntity
  8
0
  6
Continuous
 62
     7
370
    15
100
AcDbCircle
 10
215.3816
 20
191.3744095051
 30
0.0
 40
0.1250000000000077
100
AcDbArc
 50
270.0
 51
321.3429023652
  0
ARC
  5
A9
330
1F
100
AcDbEntity
  8
0
  6
Continuous
 62
     7
370
    15
100
AcDbCircle
 10
215.3816
 20
191.3744095051
 30
0.0
 40
0.2049999999999974
100
AcDbArc
 50
277.8432193295
 51
0.0
  0
LINE
  5
AA
330
1F
100
AcDbEntity
  8
0
  6
Continuous
 62
     7
370
    15
100
AcDbLine
 10
215.5066
 20
196.2472875524
 30
0.0
 11
215.5066
 21
195.3550984039
 31
0.0
  0
LINE
  5
AB
330
1F
100
AcDbEntity
  8
0
  6
Continuous
 62
     7
370
    15
100
AcDbLine
 10
155.6666
 20
196.2472875524
 30
0.0
 11
155.6666
 21
195.3550984039
 31
0.0
  0
LINE
  5
AC
330
1F
100
AcDbEntity
  8
0
  6
Continuous
 62
     7
370
    15
100
AcDbLine
 10
155.5866
 20
196.1569812325
 30
0.0
 11
155.6666
 21
196.1569812325
 31
0.0
  0
LINE
  5
AD
330
1F
100
AcDbEntity
  8
0
  6
Continuous
 62
     7
370
    15
100
AcDbLine
 10
155.5866
 20
196.1569812325
 30
0.0
 11
155.5866
 21
195.2681650795
 31
0.0
  0
LINE
  5
AE
330
1F
100
AcDbEntity
  8
0
  6
Continuous
 62
     7
370
    15
100
AcDbLine
 10
215.5866
 20
196.1569812325
 30
0.0
 11
215.5066
 21
196.1569812325
 31
0.0
  0
LINE
  5
AF
330
1F
100
AcDbEntity
  8
0
  6
Continuous
 62
     7
370
    15
100
AcDbLine
 10
215.5866
 20
196.1569812325
 30
0.0
 11
215.5866
 21
195.2681650795
 31
0.0
  0
LINE
  5
B0
330
1F
100
AcDbEntity
  8
0
  6
Continuous
 62
     7
370
    15
100
AcDbLine
 10
155.6666
 20
196.254272758
 30
0.0
 11
155.6666
 21
196.2472875524
 31
0.0
  0
LINE
  5
B1
330
1F
100
AcDbEntity
  8
0
  6
Continuous
 62
     7
370
    15
100
AcDbLine
 10
215.5066
 20
196.254272758
 30
0.0
 11
215.5066
 21
196.2472875524
 31
0.0
  0
LINE
  5
B2
330
1F
100
AcDbEntity
  8
0
  6
Continuous
 62
     7
370
    15
100
AcDbLine
 10
215.4666
 20
191.1294095051
 30
0.0
 11
215.5066
 21
191.1294095051
 31
0.0
  0
LINE
  5
B3
330
1F
100
AcDbEntity
  8
0
  6
Continuous
 62
     7
370
    15
100
AcDbLine
 10
215.5066
 20
191.1072183531
 30
0.0
 11
215.5066
 21
191.1294095051
 31
0.0
  0
LINE
  5
B4
330
1F
100
AcDbEntity
  8
0
  6
Continuous
 62
     7
370
    15
100
AcDbLine
 10
155.6666
 20
191.104560382
 30
0.0
 11
155.6666
 21
191.1294095051
 31
0.0
  0
LINE
  5
B5
330
1F
100
AcDbEntity
  8
0
  6
Continuous
 62
     7
370
    15
100
AcDbLine
 10
215.3816
 20
191.296327242
 30
0.0
 11
215.3816
 21
191.2494095051
 31
0.0
  0
LINE
  5
B6
330
1F
100
AcDbEntity
  8
0
  6
Continuous
 62
     7
370
    15
100
AcDbLine
 10
155.7916
 20
191.2494095051
 30
0.0
 11
155.7916
 21
191.296327242
 31
0.0
  0
LINE
  5
B7
330
1F
100
AcDbEntity
  8
0
  6
Continuous
 62
     7
370
    15
100
AcDbLine
 10
155.6666
 20
191.1294095051
 30
0.0
 11
155.7013778136
 21
191.1294095051
 31
0.0
  0
LINE
  5
B8
330
1F
100
AcDbEntity
  8
0
  6
Continuous
 62
     7
370
    15
100
AcDbLine
 10
188.9305585054
 20
117.9036491755
 30
0.0
 11
188.9305585054
 21
118.7036491755
 31
0.0
  0
ARC
  5
B9
330
1F
100
AcDbEntity
  8
0
  6
Continuous
 62
     7
370
    15
100
AcDbCircle
 10
188.8305585054
 20
117.9036491755
 30
0.0
 40
0.0999999999999943
100
AcDbArc
 50
270.0
 51
0.0
  0
LINE
  5
BA
330
1F
100
AcDbEntity
  8
0
  6
Continuous
 62
     7
370
    15
100
AcDbLine
 10
185.0305585054
 20
117.8036491755
 30
0.0
 11
188.8305585054
 21
117.8036491755
 31
0.0
  0
ARC
  5
BB
330
1F
100
AcDbEntity
  8
0
  6
Continuous
 62
     7
370
    15
100
AcDbCircle
 10
185.0305585054
 20
117.9036491755
 30
0.0
 40
0.0999999999999943
100
AcDbArc
 50
180.0
 51
270.0
  0
ARC
  5
BC
330
1F
100
AcDbEntity
  8
0
  6
Continuous
 62
     7
370
    15
100
AcDbCircle
 10
188.8305585054
 20
118.7036491755
 30
0.0
 40
0.1000000000000085
100
AcDbArc
 50
0.0
 51
90.0
  0
LINE
  5
BD
330
1F
100
AcDbEntity
  8
0
  6
Continuous
 62
     7
370
    15
100
AcDbLine
 10
188.8305585054
 20
118.8036491755
 30
0.0
 11
185.0305585054
 21
118.8036491755
 31
0.0
  0
ARC
  5
BE
330
1F
100
AcDbEntity
  8
0
  6
Continuous
 62
     7
370
    15
100
AcDbCircle
 10
185.0305585054
 20
118.7036491755
 30
0.0
 40
0.1000000000000227
100
AcDbArc
 50
90.0
 51
180.0
  0
LINE
  5
BF
330
1F
100
AcDbEntity
  8
0
  6
Continuous
 62
     7
370
    15
100
AcDbLine
 10
184.9305585054
 20
118.7036491755
 30
0.0
 11
184.9305585054
 21
117.9036491755
 31
0.0
  0
LINE
  5
C0
330
1F
100
AcDbEntity
  8
0
  6
Continuous
 62
     7
370
    15
100
AcDbLine
 10
212.7916
 20
122.966327242
 30
0.0
 11
212.7916
 21
119.931327242
 31
0.0
  0
ARC
  5
C1
330
1F
100
AcDbEntity
  8
0
  6
Continuous
 62
     7
370
    15
100
AcDbCircle
 10
212.2916
 20
119.931327242
 30
0.0
 40
0.5
100
AcDbArc
 50
270.0
 51
0.0
  0
ARC
  5
C2
330
1F
100
AcDbEntity
  8
0
  6
Continuous
 62
     7
370
    15
100
AcDbCircle
 10
158.8816
 20
119.931327242
 30
0.0
 40
0.5000000000000284
100
AcDbArc
 50
180.0
 51
270.0
  0
LINE
  5
C3
330
1F
100
AcDbEntity
  8
0
  6
Continuous
 62
     7
370
    15
100
AcDbLine
 10
158.3816
 20
119.931327242
 30
0.0
 11
158.3816
 21
122.966327242
 31
0.0
  0
LINE
  5
C4
330
1F
100
AcDbEntity
  8
0
  6
Continuous
 62
     7
370
    15
100
AcDbLine
 10
212.2916
 20
119.431327242
 30
0.0
 11
158.8816
 21
119.431327242
 31
0.0
  0
LINE
  5
C5
330
1F
100
AcDbEntity
  8
0
  6
Continuous
 62
     7
370
    15
100
AcDbLine
 10
158.3816
 20
123.211327242
 30
0.0
 11
212.7916
 21
123.211327242
 31
0.0
  0
LINE
  5
C6
330
1F
100
AcDbEntity
  8
0
  6
Continuous
 62
     7
370
    15
100
AcDbLine
 10
158.3816
 20
122.966327242
 30
0.0
 11
158.3816
 21
123.1770403171
 31
0.0
  0
LINE
  5
C7
330
1F
100
AcDbEntity
  8
0
  6
Continuous
 62
     7
370
    15
100
AcDbLine
 10
212.7916
 20
123.1770403171
 30
0.0
 11
212.7916
 21
122.966327242
 31
0.0
  0
LINE
  5
C8
330
1F
100
AcDbEntity
  8
0
  6
Continuous
 62
     7
370
    15
100
AcDbLine
 10
158.2566
 20
123.336327242
 30
0.0
 11
158.2566
 21
124.591327242
 31
0.0
  0
LINE
  5
C9
330
1F
100
AcDbEntity
  8
0
  6
Continuous
 62
     7
370
    15
100
AcDbLine
 10
158.1366
 20
123.336327242
 30
0.0
 11
158.1366
 21
124.591327242
 31
0.0
  0
ARC
  5
CA
330
1F
100
AcDbEntity
  8
0
  6
Continuous
 62
     7
370
    15
100
AcDbCircle
 10
212.7916
 20
123.336327242
 30
0.0
 40
0.245000000000033
100
AcDbArc
 50
270.0
 51
0.0
  0
LINE
  5
CB
330
1F
100
AcDbEntity
  8
0
  6
Continuous
 62
     7
370
    15
100
AcDbLine
 10
212.7916
 20
123.211327242
 30
0.0
 11
212.7916
 21
123.1770403171
 31
0.0
  0
ARC
  5
CC
330
1F
100
AcDbEntity
  8
0
  6
Continuous
 62
     7
370
    15
100
AcDbCircle
 10
212.7916
 20
123.336327242
 30
0.0
 40
0.1250000000000284
100
AcDbArc
 50
270.0
 51
0.0
  0
LINE
  5
CD
330
1F
100
AcDbEntity
  8
0
  6
Continuous
 62
     7
370
    15
100
AcDbLine
 10
212.9166
 20
124.591327242
 30
0.0
 11
212.9166
 21
123.336327242
 31
0.0
  0
LINE
  5
CE
330
1F
100
AcDbEntity
  8
0
  6
Continuous
 62
     7
370
    15
100
AcDbLine
 10
213.0366
 20
124.591327242
 30
0.0
 11
213.0366
 21
123.336327242
 31
0.0
  0
LINE
  5
CF
330
1F
100
AcDbEntity
  8
0
  6
Continuous
 62
     7
370
    15
100
AcDbLine
 10
212.9166
 20
125.091327242
 30
0.0
 11
213.0366
 21
125.091327242
 31
0.0
  0
LINE
  5
D0
330
1F
100
AcDbEntity
  8
0
  6
Continuous
 62
     7
370
    15
100
AcDbLine
 10
212.9166
 20
124.591327242
 30
0.0
 11
212.9166
 21
125.091327242
 31
0.0
  0
LINE
  5
D1
330
1F
100
AcDbEntity
  8
0
  6
Continuous
 62
     7
370
    15
100
AcDbLine
 10
213.0366
 20
125.091327242
 30
0.0
 11
213.0366
 21
124.591327242
 31
0.0
  0
LINE
  5
D2
330
1F
100
AcDbEntity
  8
0
  6
Continuous
 62
     7
370
    15
100
AcDbLine
 10
158.1366
 20
125.091327242
 30
0.0
 11
158.2566
 21
125.091327242
 31
0.0
  0
LINE
  5
D3
330
1F
100
AcDbEntity
  8
0
  6
Continuous
 62
     7
370
    15
100
AcDbLine
 10
158.2566
 20
125.091327242
 30
0.0
 11
158.2566
 21
124.591327242
 31
0.0
  0
LINE
  5
D4
330
1F
100
AcDbEntity
  8
0
  6
Continuous
 62
     7
370
    15
100
AcDbLine
 10
158.1366
 20
124.591327242
 30
0.0
 11
158.1366
 21
125.091327242
 31
0.0
  0
ARC
  5
D5
330
1F
100
AcDbEntity
  8
0
  6
Continuous
 62
     7
370
    15
100
AcDbCircle
 10
158.3816
 20
123.336327242
 30
0.0
 40
0.125
100
AcDbArc
 50
180.0
 51
270.0
  0
ARC
  5
D6
330
1F
100
AcDbEntity
  8
0
  6
Continuous
 62
     7
370
    15
100
AcDbCircle
 10
158.3816
 20
123.336327242
 30
0.0
 40
0.2450000000000045
100
AcDbArc
 50
180.0
 51
270.0
  0
LINE
  5
D7
330
1F
100
AcDbEntity
  8
0
  6
Continuous
 62
     7
370
    15
100
AcDbLine
 10
158.3816
 20
123.211327242
 30
0.0
 11
158.3816
 21
123.1770403171
 31
0.0
  0
SPLINE
  5
D8
330
1F
100
AcDbEntity
  8
0
  6
Continuous
 62
     7
370
    15
100
AcDbSpline
210
0.0
220
0.0
230
1.0
 70
     8
 71
     3
 72
     9
 73
     5
 74
     0
 42
0.00000001
 43
0.00000001
 40
0.0
 40
0.0
 40
0.0
 40
0.0
 40
0.5592384655986204
 40
1.0
 40
1.0
 40
1.0
 40
1.0
 10
212.8823849663929
 20
123.2509205078722
 30
0.0
 10
212.8874587124449
 20
123.2662137748721
 30
0.0
 10
212.8965313109232
 20
123.2935603683928
 30
0.0
 10
212.9055526659193
 20
123.3232438882521
 30
0.0
 10
212.9095289321897
 20
123.3363272420117
 30
0.0
  0
LINE
  5
D9
330
1F
100
AcDbEntity
  8
0
  6
Continuous
 62
     7
370
    15
100
AcDbLine
 10
158.2636710678
 20
123.336327242
 30
0.0
 11
158.2893562553
 21
123.2542358708
 31
0.0
  0
SPLINE
  5
DA
330
1F
100
AcDbEntity
  8
0
  6
Continuous
 62
     7
370
    15
100
AcDbSpline
210
0.0
220
0.0
230
1.0
 70
     8
 71
     3
 72
    11
 73
     7
 74
     0
 42
0.00000001
 43
0.00000001
 40
0.0
 40
0.0
 40
0.0
 40
0.0
 40
0.2726962473694352
 40
0.5235847753928957
 40
0.7744195977108715
 40
1.0
 40
1.0
 40
1.0
 40
1.0
 10
212.7916000000015
 20
123.2113272420117
 30
0.0
 10
212.802331425465
 20
123.2135628022691
 30
0.0
 10
212.8229360764094
 20
123.2178551433869
 30
0.0
 10
212.8533661017503
 20
123.2493158579956
 30
0.0
 10
212.8819667577315
 20
123.2903825234441
 30
0.0
 10
212.900672058779
 20
123.321563292351
 30
0.0
 10
212.9095289321897
 20
123.3363272420117
 30
0.0
  0
SPLINE
  5
DB
330
1F
100
AcDbEntity
  8
0
  6
Continuous
 62
     7
370
    15
100
AcDbSpline
210
0.0
220
0.0
230
1.0
 70
     8
 71
     3
 72
    11
 73
     7
 74
     0
 42
0.00000001
 43
0.00000001
 40
0.0
 40
0.0
 40
0.0
 40
0.0
 40
0.2726962473693934
 40
0.5235847753929374
 40
0.7744195977108885
 40
1.0
 40
1.0
 40
1.0
 40
1.0
 10
158.2636710678134
 20
123.3363272420117
 30
0.0
 10
158.2744024932768
 20
123.3184442481055
 30
0.0
 10
158.2950071442214
 20
123.2841083764606
 30
0.0
 10
158.3254371695621
 20
123.2425200161963
 30
0.0
 10
158.3540378255434
 20
123.2160942062146
 30
0.0
 10
158.3727431265908
 20
123.2128590659453
 30
0.0
 10
158.3816000000015
 20
123.2113272420117
 30
0.0
  0
LINE
  5
DC
330
1F
100
AcDbEntity
  8
0
  6
Continuous
 62
     7
370
    15
100
AcDbLine
 10
212.9095289322
 20
123.336327242
 30
0.0
 11
212.9095289322
 21
125.091327242
 31
0.0
  0
LINE
  5
DD
330
1F
100
AcDbEntity
  8
0
  6
Continuous
 62
     7
370
    15
100
AcDbLine
 10
158.2636710678
 20
123.336327242
 30
0.0
 11
158.2636710678
 21
125.091327242
 31
0.0
  0
LINE
  5
DE
330
1F
100
AcDbEntity
  8
0
  6
Continuous
 62
     7
370
    15
100
AcDbLine
 10
158.2636710678
 20
125.091327242
 30
0.0
 11
212.9095289322
 21
125.091327242
 31
0.0
  0
LINE
  5
DF
330
1F
100
AcDbEntity
  8
0
  6
Continuous
 62
     7
370
    15
100
AcDbLine
 10
212.7916
 20
152.971327242
 30
0.0
 11
212.7916
 21
154.226327242
 31
0.0
  0
ARC
  5
E0
330
1F
100
AcDbEntity
  8
0
  6
Continuous
 62
     7
370
    15
100
AcDbCircle
 10
212.2916
 20
152.971327242
 30
0.0
 40
0.5000000000000284
100
AcDbArc
 50
270.0
 51
0.0
  0
LINE
  5
E1
330
1F
100
AcDbEntity
  8
0
  6
Continuous
 62
     7
370
    15
100
AcDbLine
 10
212.2916
 20
152.471327242
 30
0.0
 11
158.8816
 21
152.471327242
 31
0.0
  0
LINE
  5
E2
330
1F
100
AcDbEntity
  8
0
  6
Continuous
 62
     7
370
    15
100
AcDbLine
 10
158.3816
 20
152.971327242
 30
0.0
 11
158.3816
 21
154.226327242
 31
0.0
  0
ARC
  5
E3
330
1F
100
AcDbEntity
  8
0
  6
Continuous
 62
     7
370
    15
100
AcDbCircle
 10
158.8816
 20
152.971327242
 30
0.0
 40
0.5
100
AcDbArc
 50
180.0
 51
270.0
  0
LINE
  5
E4
330
1F
100
AcDbEntity
  8
0
  6
Continuous
 62
     7
370
    15
100
AcDbLine
 10
158.3816
 20
154.471327242
 30
0.0
 11
212.7916
 21
154.471327242
 31
0.0
  0
LINE
  5
E5
330
1F
100
AcDbEntity
  8
0
  6
Continuous
 62
     7
370
    15
100
AcDbLine
 10
212.7916
 20
154.471327242
 30
0.0
 11
212.7916
 21
154.226327242
 31
0.0
  0
LINE
  5
E6
330
1F
100
AcDbEntity
  8
0
  6
Continuous
 62
     7
370
    15
100
AcDbLine
 10
158.3816
 20
154.226327242
 30
0.0
 11
158.3816
 21
154.471327242
 31
0.0
  0
ARC
  5
E7
330
1F
100
AcDbEntity
  8
0
  6
Continuous
 62
     7
370
    15
100
AcDbCircle
 10
158.3816
 20
154.596327242
 30
0.0
 40
0.2450000000000045
100
AcDbArc
 50
180.0
 51
270.0
  0
ARC
  5
E8
330
1F
100
AcDbEntity
  8
0
  6
Continuous
 62
     7
370
    15
100
AcDbCircle
 10
158.3816
 20
154.596327242
 30
0.0
 40
0.125
100
AcDbArc
 50
180.0
 51
270.0
  0
LINE
  5
E9
330
1F
100
AcDbEntity
  8
0
  6
Continuous
 62
     7
370
    15
100
AcDbLine
 10
158.1366
 20
156.351327242
 30
0.0
 11
158.2566
 21
156.351327242
 31
0.0
  0
LINE
  5
EA
330
1F
100
AcDbEntity
  8
0
  6
Continuous
 62
     7
370
    15
100
AcDbLine
 10
158.2566
 20
156.351327242
 30
0.0
 11
158.2566
 21
155.851327242
 31
0.0
  0
LINE
  5
EB
330
1F
100
AcDbEntity
  8
0
  6
Continuous
 62
     7
370
    15
100
AcDbLine
 10
158.1366
 20
155.851327242
 30
0.0
 11
158.1366
 21
156.351327242
 31
0.0
  0
ARC
  5
EC
330
1F
100
AcDbEntity
  8
0
  6
Continuous
 62
     7
370
    15
100
AcDbCircle
 10
212.7916
 20
154.596327242
 30
0.0
 40
0.2449999999999761
100
AcDbArc
 50
270.0
 51
0.0
  0
ARC
  5
ED
330
1F
100
AcDbEntity
  8
0
  6
Continuous
 62
     7
370
    15
100
AcDbCircle
 10
212.7916
 20
154.596327242
 30
0.0
 40
0.125
100
AcDbArc
 50
270.0
 51
0.0
  0
LINE
  5
EE
330
1F
100
AcDbEntity
  8
0
  6
Continuous
 62
     7
370
    15
100
AcDbLine
 10
212.9166
 20
154.596327242
 30
0.0
 11
212.9166
 21
155.851327242
 31
0.0
  0
LINE
  5
EF
330
1F
100
AcDbEntity
  8
0
  6
Continuous
 62
     7
370
    15
100
AcDbLine
 10
213.0366
 20
155.851327242
 30
0.0
 11
213.0366
 21
154.596327242
 31
0.0
  0
LINE
  5
F0
330
1F
100
AcDbEntity
  8
0
  6
Continuous
 62
     7
370
    15
100
AcDbLine
 10
212.9166
 20
156.351327242
 30
0.0
 11
213.0366
 21
156.351327242
 31
0.0
  0
LINE
  5
F1
330
1F
100
AcDbEntity
  8
0
  6
Continuous
 62
     7
370
    15
100
AcDbLine
 10
212.9166
 20
155.851327242
 30
0.0
 11
212.9166
 21
156.351327242
 31
0.0
  0
LINE
  5
F2
330
1F
100
AcDbEntity
  8
0
  6
Continuous
 62
     7
370
    15
100
AcDbLine
 10
213.0366
 20
156.351327242
 30
0.0
 11
213.0366
 21
155.851327242
 31
0.0
  0
LINE
  5
F3
330
1F
100
AcDbEntity
  8
0
  6
Continuous
 62
     7
370
    15
100
AcDbLine
 10
158.2566
 20
154.596327242
 30
0.0
 11
158.2566
 21
155.851327242
 31
0.0
  0
LINE
  5
F4
330
1F
100
AcDbEntity
  8
0
  6
Continuous
 62
     7
370
    15
100
AcDbLine
 10
158.1366
 20
155.851327242
 30
0.0
 11
158.1366
 21
154.596327242
 31
0.0
  0
SPLINE
  5
F5
330
1F
100
AcDbEntity
  8
0
  6
Continuous
 62
     7
370
    15
100
AcDbSpline
210
0.0
220
0.0
230
1.0
 70
     8
 71
     3
 72
     9
 73
     5
 74
     0
 42
0.00000001
 43
0.00000001
 40
0.0
 40
0.0
 40
0.0
 40
0.0
 40
0.5592384655988687
 40
1.0
 40
1.0
 40
1.0
 40
1.0
 10
212.8823849663928
 20
154.5109205078724
 30
0.0
 10
212.8874587124448
 20
154.5262137748723
 30
0.0
 10
212.8965313109232
 20
154.5535603683931
 30
0.0
 10
212.9055526659192
 20
154.5832438882523
 30
0.0
 10
212.9095289321896
 20
154.5963272420119
 30
0.0
  0
SPLINE
  5
F6
330
1F
100
AcDbEntity
  8
0
  6
Continuous
 62
     7
370
    15
100
AcDbSpline
210
0.0
220
0.0
230
1.0
 70
     8
 71
     3
 72
    11
 73
     7
 74
     0
 42
0.00000001
 43
0.00000001
 40
0.0
 40
0.0
 40
0.0
 40
0.0
 40
0.2726962473693862
 40
0.5235847753929107
 40
0.7744195977108199
 40
0.9999999999999999
 40
0.9999999999999999
 40
0.9999999999999999
 40
0.9999999999999999
 10
212.7916000000014
 20
154.4713272420119
 30
0.0
 10
212.8023314254649
 20
154.4735628022694
 30
0.0
 10
212.8229360764094
 20
154.4778551433872
 30
0.0
 10
212.8533661017502
 20
154.5093158579958
 30
0.0
 10
212.8819667577314
 20
154.5503825234444
 30
0.0
 10
212.900672058779
 20
154.5815632923512
 30
0.0
 10
212.9095289321896
 20
154.5963272420119
 30
0.0
  0
LINE
  5
F7
330
1F
100
AcDbEntity
  8
0
  6
Continuous
 62
     7
370
    15
100
AcDbLine
 10
158.2636710678
 20
154.596327242
 30
0.0
 11
158.2893562553
 21
154.5142358708
 31
0.0
  0
SPLINE
  5
F8
330
1F
100
AcDbEntity
  8
0
  6
Continuous
 62
     7
370
    15
100
AcDbSpline
210
0.0
220
0.0
230
1.0
 70
     8
 71
     3
 72
    11
 73
     7
 74
     0
 42
0.00000001
 43
0.00000001
 40
0.0
 40
0.0
 40
0.0
 40
0.0
 40
0.2726962473693954
 40
0.5235847753929411
 40
0.7744195977108832
 40
1.0
 40
1.0
 40
1.0
 40
1.0
 10
158.2636710678133
 20
154.5963272420119
 30
0.0
 10
158.2744024932767
 20
154.5784442481057
 30
0.0
 10
158.2950071442213
 20
154.5441083764608
 30
0.0
 10
158.325437169562
 20
154.5025200161965
 30
0.0
 10
158.3540378255433
 20
154.4760942062149
 30
0.0
 10
158.3727431265908
 20
154.4728590659456
 30
0.0
 10
158.3816000000014
 20
154.4713272420119
 30
0.0
  0
LINE
  5
F9
330
1F
100
AcDbEntity
  8
0
  6
Continuous
 62
     7
370
    15
100
AcDbLine
 10
158.2636710678
 20
154.596327242
 30
0.0
 11
158.2636710678
 21
156.351327242
 31
0.0
  0
LINE
  5
FA
330
1F
100
AcDbEntity
  8
0
  6
Continuous
 62
     7
370
    15
100
AcDbLine
 10
158.2636710678
 20
156.351327242
 30
0.0
 11
212.9095289322
 21
156.351327242
 31
0.0
  0
LINE
  5
FB
330
1F
100
AcDbEntity
  8
0
  6
Continuous
 62
     7
370
    15
100
AcDbLine
 10
212.9095289322
 20
154.596327242
 30
0.0
 11
212.9095289322
 21
156.351327242
 31
0.0
  0
CIRCLE
  5
FC
330
1F
100
AcDbEntity
  8
0
  6
Continuous
 62
     7
370
    15
100
AcDbCircle
 10
158.8866
 20
174.521327242
 30
0.0
 40
0.2199999999999989
  0
CIRCLE
  5
FD
330
1F
100
AcDbEntity
  8
0
  6
Continuous
 62
     7
370
    15
100
AcDbCircle
 10
212.2866
 20
174.521327242
 30
0.0
 40
0.2199999999999989
  0
LINE
  5
FE
330
1F
100
AcDbEntity
  8
0
  6
Continuous
 62
     7
370
    15
100
AcDbLine
 10
215.0866
 20
119.046327242
 30
0.0
 11
215.0866
 21
118.771327242
 31
0.0
  0
LINE
  5
FF
330
1F
100
AcDbEntity
  8
0
  6
Continuous
 62
     7
370
    15
100
AcDbLine
 10
213.5866
 20
117.271327242
 30
0.0
 11
215.0866
 21
118.771327242
 31
0.0
  0
LINE
  5
100
330
1F
100
AcDbEntity
  8
0
  6
Continuous
 62
     7
370
    15
100
AcDbLine
 10
156.0866
 20
118.771327242
 30
0.0
 11
156.0866
 21
119.046327242
 31
0.0
  0
LINE
  5
101
330
1F
100
AcDbEntity
  8
0
  6
Continuous
 62
     7
370
    15
100
AcDbLine
 10
213.5866
 20
117.271327242
 30
0.0
 11
157.5866
 21
117.271327242
 31
0.0
  0
LINE
  5
102
330
1F
100
AcDbEntity
  8
0
  6
Continuous
 62
     7
370
    15
100
AcDbLine
 10
156.0866
 20
118.771327242
 30
0.0
 11
157.5866
 21
117.271327242
 31
0.0
  0
LINE
  5
103
330
1F
100
AcDbEntity
  8
0
  6
Continuous
 62
     7
370
    15
100
AcDbLine
 10
157.5666
 20
119.321327242
 30
0.0
 11
158.2116
 21
119.321327242
 31
0.0
  0
LINE
  5
104
330
1F
100
AcDbEntity
  8
0
  6
Continuous
 62
     7
370
    15
100
AcDbLine
 10
161.0866
 20
119.321327242
 30
0.0
 11
210.0866
 21
119.321327242
 31
0.0
  0
LINE
  5
105
330
1F
100
AcDbEntity
  8
0
  6
Continuous
 62
     7
370
    15
100
AcDbLine
 10
212.9616
 20
119.321327242
 30
0.0
 11
213.6066
 21
119.321327242
 31
0.0
  0
LINE
  5
106
330
1F
100
AcDbEntity
  8
0
  6
Continuous
 62
     7
370
    15
100
AcDbLine
 10
156.0866
 20
119.046327242
 30
0.0
 11
156.0866
 21
119.321327242
 31
0.0
  0
LINE
  5
107
330
1F
100
AcDbEntity
  8
0
  6
Continuous
 62
     7
370
    15
100
AcDbLine
 10
215.0866
 20
119.321327242
 30
0.0
 11
215.0866
 21
119.046327242
 31
0.0
  0
LINE
  5
108
330
1F
100
AcDbEntity
  8
0
  6
Continuous
 62
     7
370
    15
100
AcDbLine
 10
156.0866
 20
119.446327242
 30
0.0
 11
156.0866
 21
119.401327242
 31
0.0
  0
LINE
  5
109
330
1F
100
AcDbEntity
  8
0
  6
Continuous
 62
     7
370
    15
100
AcDbLine
 10
215.0866
 20
119.401327242
 30
0.0
 11
215.0866
 21
119.4083983098
 31
0.0
  0
LINE
  5
10A
330
1F
100
AcDbEntity
  8
0
  6
Continuous
 62
     7
370
    15
100
AcDbLine
 10
156.4553559525
 20
121.221327242
 30
0.0
 11
156.7178440475
 21
121.221327242
 31
0.0
  0
LINE
  5
10B
330
1F
100
AcDbEntity
  8
0
  6
Continuous
 62
     7
370
    15
100
AcDbLine
 10
158.0866
 20
121.221327242
 30
0.0
 11
158.3816
 21
121.221327242
 31
0.0
  0
LINE
  5
10C
330
1F
100
AcDbEntity
  8
0
  6
Continuous
 62
     7
370
    15
100
AcDbLine
 10
212.7916
 20
121.221327242
 30
0.0
 11
213.0866
 21
121.221327242
 31
0.0
  0
LINE
  5
10D
330
1F
100
AcDbEntity
  8
0
  6
Continuous
 62
     7
370
    15
100
AcDbLine
 10
214.4553559525
 20
121.221327242
 30
0.0
 11
214.7178440475
 21
121.221327242
 31
0.0
  0
LINE
  5
10E
330
1F
100
AcDbEntity
  8
0
  6
Continuous
 62
     7
370
    15
100
AcDbLine
 10
156.0866
 20
119.446327242
 30
0.0
 11
156.0866
 21
119.4720379201
 31
0.0
  0
LINE
  5
10F
330
1F
100
AcDbEntity
  8
0
  6
Continuous
 62
     7
370
    15
100
AcDbLine
 10
211.1585289322
 20
185.6970690468
 30
0.0
 11
211.1585289322
 21
185.671327242
 31
0.0
  0
LINE
  5
110
330
1F
100
AcDbEntity
  8
0
  6
Continuous
 62
     7
370
    15
100
AcDbLine
 10
160.0056
 20
185.671327242
 30
0.0
 11
211.1585289322
 21
185.671327242
 31
0.0
  0
LINE
  5
111
330
1F
100
AcDbEntity
  8
0
  6
Continuous
 62
     7
370
    15
100
AcDbLine
 10
160.0056
 20
185.671327242
 30
0.0
 11
160.0056
 21
185.6970690468
 31
0.0
  0
LINE
  5
112
330
1F
100
AcDbEntity
  8
0
  6
Continuous
 62
     7
370
    15
100
AcDbLine
 10
159.8856
 20
185.671327242
 30
0.0
 11
159.8856
 21
185.6970690468
 31
0.0
  0
LINE
  5
113
330
1F
100
AcDbEntity
  8
0
  6
Continuous
 62
     7
370
    15
100
AcDbLine
 10
157.9306
 20
185.671327242
 30
0.0
 11
159.8856
 21
185.671327242
 31
0.0
  0
ARC
  5
114
330
1F
100
AcDbEntity
  8
0
  6
Continuous
 62
     7
370
    15
100
AcDbCircle
 10
157.9306
 20
185.916327242
 30
0.0
 40
0.2449999999999865
100
AcDbArc
 50
243.4996208408
 51
270.0
  0
LINE
  5
115
330
1F
100
AcDbEntity
  8
0
  6
Continuous
 62
     7
370
    15
100
AcDbLine
 10
211.2856
 20
185.671327242
 30
0.0
 11
211.2856
 21
185.6970690468
 31
0.0
  0
LINE
  5
116
330
1F
100
AcDbEntity
  8
0
  6
Continuous
 62
     7
370
    15
100
AcDbLine
 10
211.2856
 20
185.671327242
 30
0.0
 11
213.2406
 21
185.671327242
 31
0.0
  0
ARC
  5
117
330
1F
100
AcDbEntity
  8
0
  6
Continuous
 62
     7
370
    15
100
AcDbCircle
 10
213.2406
 20
185.916327242
 30
0.0
 40
0.2449999999999991
100
AcDbArc
 50
270.0
 51
296.5003791592
  0
LINE
  5
118
330
1F
100
AcDbEntity
  8
0
  6
Continuous
 62
     7
370
    15
100
AcDbLine
 10
211.1585289322
 20
185.671327242
 30
0.0
 11
211.1656
 21
185.671327242
 31
0.0
  0
LINE
  5
119
330
1F
100
AcDbEntity
  8
0
  6
Continuous
 62
     7
370
    15
100
AcDbLine
 10
211.1656
 20
185.671327242
 30
0.0
 11
211.1656
 21
185.6970690468
 31
0.0
  0
CIRCLE
  5
11A
330
1F
100
AcDbEntity
  8
0
  6
Continuous
 62
     7
370
    15
100
AcDbCircle
 10
167.0866
 20
191.771327242
 30
0.0
 40
0.2599999999999625
  0
CIRCLE
  5
11B
330
1F
100
AcDbEntity
  8
0
  6
Continuous
 62
     7
370
    15
100
AcDbCircle
 10
167.0866
 20
191.771327242
 30
0.0
 40
0.1649999999999636
  0
CIRCLE
  5
11C
330
1F
100
AcDbEntity
  8
0
  6
Continuous
 62
     7
370
    15
100
AcDbCircle
 10
185.5866
 20
191.771327242
 30
0.0
 40
0.2599999999999625
  0
CIRCLE
  5
11D
330
1F
100
AcDbEntity
  8
0
  6
Continuous
 62
     7
370
    15
100
AcDbCircle
 10
185.5866
 20
191.771327242
 30
0.0
 40
0.1649999999999636
  0
CIRCLE
  5
11E
330
1F
100
AcDbEntity
  8
0
  6
Continuous
 62
     7
370
    15
100
AcDbCircle
 10
204.0866
 20
191.771327242
 30
0.0
 40
0.2599999999999625
  0
CIRCLE
  5
11F
330
1F
100
AcDbEntity
  8
0
  6
Continuous
 62
     7
370
    15
100
AcDbCircle
 10
204.0866
 20
191.771327242
 30
0.0
 40
0.1649999999999636
  0
LINE
  5
120
330
1F
100
AcDbEntity
  8
0
  6
Continuous
 62
     7
370
    15
100
AcDbLine
 10
210.6366
 20
102.171327242
 30
0.0
 11
205.3366
 21
102.171327242
 31
0.0
  0
LINE
  5
121
330
1F
100
AcDbEntity
  8
0
  6
Continuous
 62
     7
370
    15
100
AcDbLine
 10
210.8366
 20
102.771327242
 30
0.0
 11
205.1366
 21
102.771327242
 31
0.0
  0
LINE
  5
122
330
1F
100
AcDbEntity
  8
0
  6
Continuous
 62
     7
370
    15
100
AcDbLine
 10
166.0366
 20
102.771327242
 30
0.0
 11
160.3366
 21
102.771327242
 31
0.0
  0
LINE
  5
123
330
1F
100
AcDbEntity
  8
0
  6
Continuous
 62
     7
370
    15
100
AcDbLine
 10
165.8366
 20
102.171327242
 30
0.0
 11
160.5366
 21
102.171327242
 31
0.0
  0
LINE
  5
124
330
1F
100
AcDbEntity
  8
0
  6
Continuous
 62
     7
370
    15
100
AcDbLine
 10
166.282565022
 20
109.571327242
 30
0.0
 11
160.090634978
 21
109.571327242
 31
0.0
  0
LINE
  5
125
330
1F
100
AcDbEntity
  8
0
  6
Continuous
 62
     7
370
    15
100
AcDbLine
 10
211.082565022
 20
109.571327242
 30
0.0
 11
204.890634978
 21
109.571327242
 31
0.0
  0
SPLINE
  5
126
330
1F
100
AcDbEntity
  8
0
  6
Continuous
 62
     7
370
    15
100
AcDbSpline
210
0.0
220
0.0
230
1.0
 70
     8
 71
     3
 72
    10
 73
     6
 74
     0
 42
0.00000001
 43
0.00000001
 40
0.0
 40
0.0
 40
0.0
 40
0.0
 40
0.1978450752445574
 40
0.7502002599696305
 40
0.9999999999999999
 40
0.9999999999999999
 40
0.9999999999999999
 40
0.9999999999999999
 10
212.7916000000015
 20
122.9901486251784
 30
0.0
 10
212.7947631840268
 20
122.9824554952006
 30
0.0
 10
212.8067575259391
 20
122.9532842454126
 30
0.0
 10
212.8227814469644
 20
122.9006854267603
 30
0.0
 10
212.8355520331895
 20
122.8592352701546
 30
0.0
 10
212.8395289321907
 20
122.8463272420109
 30
0.0
  0
LINE
  5
127
330
1F
100
AcDbEntity
  8
0
  6
Continuous
 62
     7
370
    15
100
AcDbLine
 10
212.7916
 20
121.771327242
 30
0.0
 11
212.8395289322
 21
121.771327242
 31
0.0
  0
LINE
  5
128
330
1F
100
AcDbEntity
  8
0
  6
Continuous
 62
     7
370
    15
100
AcDbLine
 10
212.8395289322
 20
122.846327242
 30
0.0
 11
212.8395289322
 21
121.771327242
 31
0.0
  0
SPLINE
  5
129
330
1F
100
AcDbEntity
  8
0
  6
Continuous
 62
     7
370
    15
100
AcDbSpline
210
0.0
220
0.0
230
1.0
 70
     8
 71
     3
 72
     9
 73
     5
 74
     0
 42
0.00000001
 43
0.00000001
 40
0.0
 40
0.0
 40
0.0
 40
0.0
 40
0.5270601609718099
 40
1.0
 40
1.0
 40
1.0
 40
1.0
 10
212.8466000000026
 20
122.8463272420109
 30
0.0
 10
212.8449727350105
 20
122.8629121052138
 30
0.0
 10
212.8418852981057
 20
122.89437884171
 30
0.0
 10
212.8221189915183
 20
122.9189369641786
 30
0.0
 10
212.8127707176627
 20
122.9305514786657
 30
0.0
  0
LINE
  5
12A
330
1F
100
AcDbEntity
  8
0
  6
Continuous
 62
     7
370
    15
100
AcDbLine
 10
212.9666
 20
122.846327242
 30
0.0
 11
212.8466
 21
122.846327242
 31
0.0
  0
SPLINE
  5
12B
330
1F
100
AcDbEntity
  8
0
  6
Continuous
 62
     7
370
    15
100
AcDbSpline
210
0.0
220
0.0
230
1.0
 70
     8
 71
     3
 72
    11
 73
     7
 74
     0
 42
0.00000001
 43
0.00000001
 40
0.0
 40
0.0
 40
0.0
 40
0.0
 40
0.3044300612507588
 40
0.6088601225014982
 40
0.9132901837522442
 40
1.0
 40
1.0
 40
1.0
 40
1.0
 10
212.9666000000026
 20
122.8463272420109
 30
0.0
 10
212.9629525254477
 20
122.878536229867
 30
0.0
 10
212.9556575763378
 20
122.9429542055791
 30
0.0
 10
212.8984726074532
 20
123.0223640333145
 30
0.0
 10
212.838325575806
 20
123.0700682055756
 30
0.0
 10
212.7976663533053
 20
123.0765522030359
 30
0.0
 10
212.7886528164234
 20
123.0779896075571
 30
0.0
  0
LINE
  5
12C
330
1F
100
AcDbEntity
  8
0
  6
Continuous
 62
     7
370
    15
100
AcDbLine
 10
212.8466
 20
122.846327242
 30
0.0
 11
212.8466
 21
121.771327242
 31
0.0
  0
LINE
  5
12D
330
1F
100
AcDbEntity
  8
0
  6
Continuous
 62
     7
370
    15
100
AcDbLine
 10
212.9666
 20
121.771327242
 30
0.0
 11
212.8466
 21
121.771327242
 31
0.0
  0
LINE
  5
12E
330
1F
100
AcDbEntity
  8
0
  6
Continuous
 62
     7
370
    15
100
AcDbLine
 10
212.9666
 20
122.846327242
 30
0.0
 11
212.9666
 21
121.771327242
 31
0.0
  0
LINE
  5
12F
330
1F
100
AcDbEntity
  8
0
  6
Continuous
 62
     7
370
    15
100
AcDbLine
 10
213.0416
 20
122.971327242
 30
0.0
 11
213.0866
 21
122.9754953504
 31
0.0
  0
LWPOLYLINE
  5
130
330
1F
100
AcDbEntity
  8
0
  6
Continuous
 62
     7
370
    15
100
AcDbPolyline
 90
        3
 70
   128
 43
0.0
 10
213.0416
 20
123.091327242
 10
213.0659862903
 20
123.093729082
 10
213.0866
 20
123.0997082041
  0
LINE
  5
131
330
1F
100
AcDbEntity
  8
0
  6
Continuous
 62
     7
370
    15
100
AcDbLine
 10
212.7916
 20
123.091327242
 30
0.0
 11
213.0416
 21
123.091327242
 31
0.0
  0
LINE
  5
132
330
1F
100
AcDbEntity
  8
0
  6
Continuous
 62
     7
370
    15
100
AcDbLine
 10
212.9270748749
 20
122.971327242
 30
0.0
 11
213.0416
 21
122.971327242
 31
0.0
  0
SPLINE
  5
133
330
1F
100
AcDbEntity
  8
0
  6
Continuous
 62
     7
370
    15
100
AcDbSpline
210
0.0
220
0.0
230
1.0
 70
     8
 71
     3
 72
     9
 73
     5
 74
     0
 42
0.00000001
 43
0.00000001
 40
0.0
 40
0.0
 40
0.0
 40
0.0
 40
0.5527790483088685
 40
0.9999999999999999
 40
0.9999999999999999
 40
0.9999999999999999
 40
0.9999999999999999
 10
158.3336710678124
 20
122.8463272420119
 30
0.0
 10
158.3425024343899
 20
122.875514441614
 30
0.0
 10
158.3584787392163
 20
122.9283152843581
 30
0.0
 10
158.3744550562798
 20
122.9716749691979
 30
0.0
 10
158.3816000000015
 20
122.9910663287169
 30
0.0
  0
LINE
  5
134
330
1F
100
AcDbEntity
  8
0
  6
Continuous
 62
     7
370
    15
100
AcDbLine
 10
158.3336710678
 20
121.771327242
 30
0.0
 11
158.3816
 21
121.771327242
 31
0.0
  0
LINE
  5
135
330
1F
100
AcDbEntity
  8
0
  6
Continuous
 62
     7
370
    15
100
AcDbLine
 10
158.3336710678
 20
122.846327242
 30
0.0
 11
158.3336710678
 21
121.771327242
 31
0.0
  0
LINE
  5
136
330
1F
100
AcDbEntity
  8
0
  6
Continuous
 62
     7
370
    15
100
AcDbLine
 10
158.2066
 20
122.846327242
 30
0.0
 11
158.3266
 21
122.846327242
 31
0.0
  0
SPLINE
  5
137
330
1F
100
AcDbEntity
  8
0
  6
Continuous
 62
     7
370
    15
100
AcDbSpline
210
0.0
220
0.0
230
1.0
 70
     8
 71
     3
 72
    11
 73
     7
 74
     0
 42
0.00000001
 43
0.00000001
 40
0.0
 40
0.0
 40
0.0
 40
0.0
 40
0.0895693796837074
 40
0.3930462531224853
 40
0.6965231265612299
 40
1.0
 40
1.0
 40
1.0
 40
1.0
 10
158.3855145056338
 20
123.0781820198779
 30
0.0
 10
158.3761713354111
 20
123.0767018783758
 30
0.0
 10
158.3351718547706
 20
123.0702067561188
 30
0.0
 10
158.2747175850433
 20
123.0223932137935
 30
0.0
 10
158.217544875542
 20
122.9429469104607
 30
0.0
 10
158.2102482918478
 20
122.8785337981615
 30
0.0
 10
158.2066000000006
 20
122.8463272420119
 30
0.0
  0
SPLINE
  5
138
330
1F
100
AcDbEntity
  8
0
  6
Continuous
 62
     7
370
    15
100
AcDbSpline
210
0.0
220
0.0
230
1.0
 70
     8
 71
     3
 72
     9
 73
     5
 74
     0
 42
0.00000001
 43
0.00000001
 40
0.0
 40
0.0
 40
0.0
 40
0.0
 40
0.4650003374328954
 40
1.0
 40
1.0
 40
1.0
 40
1.0
 10
158.3596663355601
 20
122.9294096481185
 30
0.0
 10
158.3506316184429
 20
122.9181512053284
 30
0.0
 10
158.3312021333655
 20
122.893939517973
 30
0.0
 10
158.3282040002211
 20
122.8629217417987
 30
0.0
 10
158.3266000000006
 20
122.8463272420119
 30
0.0
  0
LINE
  5
139
330
1F
100
AcDbEntity
  8
0
  6
Continuous
 62
     7
370
    15
100
AcDbLine
 10
158.2066
 20
121.771327242
 30
0.0
 11
158.3266
 21
121.771327242
 31
0.0
  0
LINE
  5
13A
330
1F
100
AcDbEntity
  8
0
  6
Continuous
 62
     7
370
    15
100
AcDbLine
 10
158.3266
 20
122.846327242
 30
0.0
 11
158.3266
 21
121.771327242
 31
0.0
  0
LINE
  5
13B
330
1F
100
AcDbEntity
  8
0
  6
Continuous
 62
     7
370
    15
100
AcDbLine
 10
158.2066
 20
122.846327242
 30
0.0
 11
158.2066
 21
121.771327242
 31
0.0
  0
LINE
  5
13C
330
1F
100
AcDbEntity
  8
0
  6
Continuous
 62
     7
370
    15
100
AcDbLine
 10
158.1316
 20
123.091327242
 30
0.0
 11
158.3816
 21
123.091327242
 31
0.0
  0
LINE
  5
13D
330
1F
100
AcDbEntity
  8
0
  6
Continuous
 62
     7
370
    15
100
AcDbLine
 10
158.1316
 20
122.971327242
 30
0.0
 11
158.2461251251
 21
122.971327242
 31
0.0
  0
LINE
  5
13E
330
1F
100
AcDbEntity
  8
0
  6
Continuous
 62
     7
370
    15
100
AcDbLine
 10
158.0866
 20
122.9754953504
 30
0.0
 11
158.1316
 21
122.971327242
 31
0.0
  0
LWPOLYLINE
  5
13F
330
1F
100
AcDbEntity
  8
0
  6
Continuous
 62
     7
370
    15
100
AcDbPolyline
 90
        3
 70
   128
 43
0.0
 10
158.0866
 20
123.0997082041
 10
158.1072137097
 20
123.093729082
 10
158.1316
 20
123.091327242
  0
SPLINE
  5
140
330
1F
100
AcDbEntity
  8
0
  6
Continuous
 62
     7
370
    15
100
AcDbSpline
210
0.0
220
0.0
230
1.0
 70
     8
 71
     3
 72
     9
 73
     5
 74
     0
 42
0.00000001
 43
0.00000001
 40
0.0
 40
0.0
 40
0.0
 40
0.0
 40
0.5527790483156384
 40
1.0
 40
1.0
 40
1.0
 40
1.0
 10
158.333671067813
 20
154.1063272420117
 30
0.0
 10
158.3425024343905
 20
154.1355144416137
 30
0.0
 10
158.3584787392167
 20
154.1883152843573
 30
0.0
 10
158.37445505628
 20
154.2316749691965
 30
0.0
 10
158.3816000000014
 20
154.251066328715
 30
0.0
  0
LINE
  5
141
330
1F
100
AcDbEntity
  8
0
  6
Continuous
 62
     7
370
    15
100
AcDbLine
 10
158.3336710678
 20
154.106327242
 30
0.0
 11
158.3336710678
 21
153.031327242
 31
0.0
  0
LINE
  5
142
330
1F
100
AcDbEntity
  8
0
  6
Continuous
 62
     7
370
    15
100
AcDbLine
 10
158.3336710678
 20
153.031327242
 30
0.0
 11
158.3816
 21
153.031327242
 31
0.0
  0
LINE
  5
143
330
1F
100
AcDbEntity
  8
0
  6
Continuous
 62
     7
370
    15
100
AcDbLine
 10
158.2066
 20
154.106327242
 30
0.0
 11
158.3266
 21
154.106327242
 31
0.0
  0
SPLINE
  5
144
330
1F
100
AcDbEntity
  8
0
  6
Continuous
 62
     7
370
    15
100
AcDbSpline
210
0.0
220
0.0
230
1.0
 70
     8
 71
     3
 72
     9
 73
     5
 74
     0
 42
0.00000001
 43
0.00000001
 40
0.0
 40
0.0
 40
0.0
 40
0.0
 40
0.4650003374328354
 40
1.0
 40
1.0
 40
1.0
 40
1.0
 10
158.3596663355606
 20
154.1894096481182
 30
0.0
 10
158.3506316184434
 20
154.1781512053282
 30
0.0
 10
158.331202133366
 20
154.1539395179727
 30
0.0
 10
158.3282040002217
 20
154.1229217417985
 30
0.0
 10
158.3266000000011
 20
154.1063272420116
 30
0.0
  0
SPLINE
  5
145
330
1F
100
AcDbEntity
  8
0
  6
Continuous
 62
     7
370
    15
100
AcDbSpline
210
0.0
220
0.0
230
1.0
 70
     8
 71
     3
 72
    11
 73
     7
 74
     0
 42
0.00000001
 43
0.00000001
 40
0.0
 40
0.0
 40
0.0
 40
0.0
 40
0.0895693796828308
 40
0.3930462531219016
 40
0.6965231265609527
 40
1.0
 40
1.0
 40
1.0
 40
1.0
 10
158.385514505634
 20
154.3381820198776
 30
0.0
 10
158.3761713354114
 20
154.3367018783754
 30
0.0
 10
158.3351718547711
 20
154.3302067561185
 30
0.0
 10
158.2747175850438
 20
154.2823932137932
 30
0.0
 10
158.2175448755425
 20
154.2029469104604
 30
0.0
 10
158.2102482918483
 20
154.1385337981612
 30
0.0
 10
158.2066000000011
 20
154.1063272420116
 30
0.0
  0
LINE
  5
146
330
1F
100
AcDbEntity
  8
0
  6
Continuous
 62
     7
370
    15
100
AcDbLine
 10
158.2066
 20
153.031327242
 30
0.0
 11
158.3266
 21
153.031327242
 31
0.0
  0
LINE
  5
147
330
1F
100
AcDbEntity
  8
0
  6
Continuous
 62
     7
370
    15
100
AcDbLine
 10
158.3266
 20
154.106327242
 30
0.0
 11
158.3266
 21
153.031327242
 31
0.0
  0
LINE
  5
148
330
1F
100
AcDbEntity
  8
0
  6
Continuous
 62
     7
370
    15
100
AcDbLine
 10
158.2066
 20
154.106327242
 30
0.0
 11
158.2066
 21
153.031327242
 31
0.0
  0
LINE
  5
149
330
1F
100
AcDbEntity
  8
0
  6
Continuous
 62
     7
370
    15
100
AcDbLine
 10
158.1316
 20
154.231327242
 30
0.0
 11
158.2461251251
 21
154.231327242
 31
0.0
  0
LINE
  5
14A
330
1F
100
AcDbEntity
  8
0
  6
Continuous
 62
     7
370
    15
100
AcDbLine
 10
158.1316
 20
154.351327242
 30
0.0
 11
158.3816
 21
154.351327242
 31
0.0
  0
LWPOLYLINE
  5
14B
330
1F
100
AcDbEntity
  8
0
  6
Continuous
 62
     7
370
    15
100
AcDbPolyline
 90
        3
 70
   128
 43
0.0
 10
158.0866
 20
154.3597082041
 10
158.1072137097
 20
154.353729082
 10
158.1316
 20
154.351327242
  0
LINE
  5
14C
330
1F
100
AcDbEntity
  8
0
  6
Continuous
 62
     7
370
    15
100
AcDbLine
 10
158.0866
 20
154.2354953504
 30
0.0
 11
158.1316
 21
154.231327242
 31
0.0
  0
SPLINE
  5
14D
330
1F
100
AcDbEntity
  8
0
  6
Continuous
 62
     7
370
    15
100
AcDbSpline
210
0.0
220
0.0
230
1.0
 70
     8
 71
     3
 72
    10
 73
     6
 74
     0
 42
0.00000001
 43
0.00000001
 40
0.0
 40
0.0
 40
0.0
 40
0.0
 40
0.1978450752359075
 40
0.7502002599669368
 40
1.0
 40
1.0
 40
1.0
 40
1.0
 10
212.7916000000015
 20
154.2501486251762
 30
0.0
 10
212.7947631840266
 20
154.2424554951989
 30
0.0
 10
212.8067575259387
 20
154.2132842454112
 30
0.0
 10
212.8227814469638
 20
154.1606854267594
 30
0.0
 10
212.835552033189
 20
154.1192352701537
 30
0.0
 10
212.8395289321902
 20
154.10632724201
 30
0.0
  0
LINE
  5
14E
330
1F
100
AcDbEntity
  8
0
  6
Continuous
 62
     7
370
    15
100
AcDbLine
 10
212.8395289322
 20
154.106327242
 30
0.0
 11
212.8395289322
 21
153.031327242
 31
0.0
  0
LINE
  5
14F
330
1F
100
AcDbEntity
  8
0
  6
Continuous
 62
     7
370
    15
100
AcDbLine
 10
212.7916
 20
153.031327242
 30
0.0
 11
212.8395289322
 21
153.031327242
 31
0.0
  0
LINE
  5
150
330
1F
100
AcDbEntity
  8
0
  6
Continuous
 62
     7
370
    15
100
AcDbLine
 10
212.8466
 20
154.106327242
 30
0.0
 11
212.8466
 21
153.031327242
 31
0.0
  0
LINE
  5
151
330
1F
100
AcDbEntity
  8
0
  6
Continuous
 62
     7
370
    15
100
AcDbLine
 10
212.9666
 20
154.106327242
 30
0.0
 11
212.8466
 21
154.106327242
 31
0.0
  0
LINE
  5
152
330
1F
100
AcDbEntity
  8
0
  6
Continuous
 62
     7
370
    15
100
AcDbLine
 10
212.9666
 20
154.106327242
 30
0.0
 11
212.9666
 21
153.031327242
 31
0.0
  0
LINE
  5
153
330
1F
100
AcDbEntity
  8
0
  6
Continuous
 62
     7
370
    15
100
AcDbLine
 10
212.9666
 20
153.031327242
 30
0.0
 11
212.8466
 21
153.031327242
 31
0.0
  0
SPLINE
  5
154
330
1F
100
AcDbEntity
  8
0
  6
Continuous
 62
     7
370
    15
100
AcDbSpline
210
0.0
220
0.0
230
1.0
 70
     8
 71
     3
 72
     9
 73
     5
 74
     0
 42
0.00000001
 43
0.00000001
 40
0.0
 40
0.0
 40
0.0
 40
0.0
 40
0.5270601609717432
 40
1.0
 40
1.0
 40
1.0
 40
1.0
 10
212.846600000002
 20
154.10632724201
 30
0.0
 10
212.84497273501
 20
154.1229121052129
 30
0.0
 10
212.8418852981052
 20
154.1543788417091
 30
0.0
 10
212.8221189915177
 20
154.1789369641777
 30
0.0
 10
212.8127707176621
 20
154.1905514786648
 30
0.0
  0
SPLINE
  5
155
330
1F
100
AcDbEntity
  8
0
  6
Continuous
 62
     7
370
    15
100
AcDbSpline
210
0.0
220
0.0
230
1.0
 70
     8
 71
     3
 72
    11
 73
     7
 74
     0
 42
0.00000001
 43
0.00000001
 40
0.0
 40
0.0
 40
0.0
 40
0.0
 40
0.304430061251077
 40
0.6088601225022037
 40
0.9132901837533575
 40
1.0
 40
1.0
 40
1.0
 40
1.0
 10
212.966600000002
 20
154.10632724201
 30
0.0
 10
212.9629525254471
 20
154.1385362298661
 30
0.0
 10
212.9556575763372
 20
154.2029542055782
 30
0.0
 10
212.8984726074526
 20
154.2823640333136
 30
0.0
 10
212.8383255758055
 20
154.3300682055747
 30
0.0
 10
212.7976663533049
 20
154.336552203035
 30
0.0
 10
212.7886528164232
 20
154.3379896075562
 30
0.0
  0
LINE
  5
156
330
1F
100
AcDbEntity
  8
0
  6
Continuous
 62
     7
370
    15
100
AcDbLine
 10
212.9270748749
 20
154.231327242
 30
0.0
 11
213.0416
 21
154.231327242
 31
0.0
  0
LINE
  5
157
330
1F
100
AcDbEntity
  8
0
  6
Continuous
 62
     7
370
    15
100
AcDbLine
 10
212.7916
 20
154.351327242
 30
0.0
 11
213.0416
 21
154.351327242
 31
0.0
  0
LINE
  5
158
330
1F
100
AcDbEntity
  8
0
  6
Continuous
 62
     7
370
    15
100
AcDbLine
 10
213.0416
 20
154.231327242
 30
0.0
 11
213.0866
 21
154.2354953504
 31
0.0
  0
LWPOLYLINE
  5
159
330
1F
100
AcDbEntity
  8
0
  6
Continuous
 62
     7
370
    15
100
AcDbPolyline
 90
        3
 70
   128
 43
0.0
 10
213.0416
 20
154.351327242
 10
213.0659862903
 20
154.353729082
 10
213.0866
 20
154.3597082041
  0
SPLINE
  5
15A
330
1F
100
AcDbEntity
  8
0
  6
Continuous
 62
     7
370
    15
100
AcDbSpline
210
0.0
220
0.0
230
1.0
 70
     8
 71
     3
 72
    12
 73
     8
 74
     0
 42
0.00000001
 43
0.00000001
 40
0.0
 40
0.0
 40
0.0
 40
0.0
 40
0.2286697549031896
 40
0.457413428452385
 40
0.6861574263647269
 40
0.9149012395109383
 40
0.9999999999999999
 40
0.9999999999999999
 40
0.9999999999999999
 40
0.9999999999999999
 10
213.0866000000016
 20
185.3763272420128
 30
0.0
 10
213.0891736148258
 20
185.3853189914197
 30
0.0
 10
213.094321676408
 20
185.4033053968615
 30
0.0
 10
213.1342828960711
 20
185.4302912933881
 30
0.0
 10
213.192419529471
 20
185.457261102928
 30
0.0
 10
213.2489698233197
 20
185.4786419338809
 30
0.0
 10
213.2825064945542
 20
185.4909254777211
 30
0.0
 10
213.2916000000015
 20
185.4942561742009
 30
0.0
  0
LINE
  5
15B
330
1F
100
AcDbEntity
  8
0
  6
Continuous
 62
     7
370
    15
100
AcDbLine
 10
213.2916
 20
119.526327242
 30
0.0
 11
213.0866
 21
119.526327242
 31
0.0
  0
LINE
  5
15C
330
1F
100
AcDbEntity
  8
0
  6
Continuous
 62
     7
370
    15
100
AcDbLine
 10
213.0866
 20
119.526327242
 30
0.0
 11
213.0866
 21
185.376327242
 31
0.0
  0
CIRCLE
  5
15D
330
1F
100
AcDbEntity
  8
0
  6
Continuous
 62
     7
370
    15
100
AcDbCircle
 10
214.5866
 20
121.321327242
 30
0.0
 40
0.164999999999992
  0
CIRCLE
  5
15E
330
1F
100
AcDbEntity
  8
0
  6
Continuous
 62
     7
370
    15
100
AcDbCircle
 10
214.5866
 20
183.671327242
 30
0.0
 40
0.164999999999992
  0
LINE
  5
15F
330
1F
100
AcDbEntity
  8
0
  6
Continuous
 62
     7
370
    15
100
AcDbLine
 10
213.2916
 20
119.526327242
 30
0.0
 11
213.6066
 21
119.526327242
 31
0.0
  0
LINE
  5
160
330
1F
100
AcDbEntity
  8
0
  6
Continuous
 62
     7
370
    15
100
AcDbLine
 10
213.2916
 20
185.4942561742
 30
0.0
 11
213.6066
 21
185.4942561742
 31
0.0
  0
LINE
  5
161
330
1F
100
AcDbEntity
  8
0
  6
Continuous
 62
     7
370
    15
100
AcDbLine
 10
213.2916
 20
185.581327242
 30
0.0
 11
213.2916
 21
185.501327242
 31
0.0
  0
SPLINE
  5
162
330
1F
100
AcDbEntity
  8
0
  6
Continuous
 62
     7
370
    15
100
AcDbSpline
210
0.0
220
0.0
230
1.0
 70
     8
 71
     3
 72
    10
 73
     6
 74
     0
 42
0.00000001
 43
0.00000001
 40
0.0
 40
0.0
 40
0.0
 40
0.0
 40
0.4688817609106938
 40
0.9380344098844923
 40
1.0
 40
1.0
 40
1.0
 40
1.0
 10
213.2916000000016
 20
185.5013272420128
 30
0.0
 10
213.275487324302
 20
185.4992350599904
 30
0.0
 10
213.2432526640921
 20
185.4950494872249
 30
0.0
 10
213.2105081694863
 20
185.4765519191852
 30
0.0
 10
213.2005864377805
 20
185.4609433148535
 30
0.0
 10
213.1994288688724
 20
185.4591222582466
 30
0.0
  0
SPLINE
  5
163
330
1F
100
AcDbEntity
  8
0
  6
Continuous
 62
     7
370
    15
100
AcDbSpline
210
0.0
220
0.0
230
1.0
 70
     8
 71
     3
 72
    12
 73
     8
 74
     0
 42
0.00000001
 43
0.00000001
 40
0.0
 40
0.0
 40
0.0
 40
0.0
 40
0.2286697549031819
 40
0.4574134284524643
 40
0.6861574263647939
 40
0.9149012395111078
 40
1.0
 40
1.0
 40
1.0
 40
1.0
 10
213.2916000000015
 20
185.5813272420127
 30
0.0
 10
213.2670528145809
 20
185.5787536271886
 30
0.0
 10
213.2179505087387
 20
185.5736055656063
 30
0.0
 10
213.1536339548377
 20
185.5336443459431
 30
0.0
 10
213.1072171411541
 20
185.4755077125432
 30
0.0
 10
213.0883390859127
 20
185.4189574186946
 30
0.0
 10
213.0869709669653
 20
185.3854207474602
 30
0.0
 10
213.0866000000015
 20
185.3763272420128
 30
0.0
  0
LINE
  5
164
330
1F
100
AcDbEntity
  8
0
  6
Continuous
 62
     7
370
    15
100
AcDbLine
 10
213.2916
 20
185.581327242
 30
0.0
 11
213.6066
 21
185.581327242
 31
0.0
  0
LINE
  5
165
330
1F
100
AcDbEntity
  8
0
  6
Continuous
 62
     7
370
    15
100
AcDbLine
 10
213.2916
 20
185.501327242
 30
0.0
 11
213.6066
 21
185.501327242
 31
0.0
  0
ARC
  5
166
330
1F
100
AcDbEntity
  8
0
  6
Continuous
 62
     7
370
    15
100
AcDbCircle
 10
212.9616
 20
119.526327242
 30
0.0
 40
0.125
100
AcDbArc
 50
270.0
 51
0.0
  0
ARC
  5
167
330
1F
100
AcDbEntity
  8
0
  6
Continuous
 62
     7
370
    15
100
AcDbCircle
 10
212.9616
 20
119.526327242
 30
0.0
 40
0.2049999999999983
100
AcDbArc
 50
270.0
 51
0.0
  0
LINE
  5
168
330
1F
100
AcDbEntity
  8
0
  6
Continuous
 62
     7
370
    15
100
AcDbLine
 10
210.0866
 20
119.321327242
 30
0.0
 11
210.0866
 21
119.401327242
 31
0.0
  0
LINE
  5
169
330
1F
100
AcDbEntity
  8
0
  6
Continuous
 62
     7
370
    15
100
AcDbLine
 10
210.0866
 20
119.321327242
 30
0.0
 11
212.9616
 21
119.321327242
 31
0.0
  0
LINE
  5
16A
330
1F
100
AcDbEntity
  8
0
  6
Continuous
 62
     7
370
    15
100
AcDbLine
 10
210.0866
 20
119.401327242
 30
0.0
 11
212.9616
 21
119.401327242
 31
0.0
  0
LINE
  5
16B
330
1F
100
AcDbEntity
  8
0
  6
Continuous
 62
     7
370
    15
100
AcDbLine
 10
214.7470386884
 20
121.2827989763
 30
0.0
 11
214.4261613116
 21
121.2827989763
 31
0.0
  0
LINE
  5
16C
330
1F
100
AcDbEntity
  8
0
  6
Continuous
 62
     7
370
    15
100
AcDbLine
 10
213.6066
 20
185.591327242
 30
0.0
 11
215.3816
 21
185.591327242
 31
0.0
  0
LINE
  5
16D
330
1F
100
AcDbEntity
  8
0
  6
Continuous
 62
     7
370
    15
100
AcDbLine
 10
213.6066
 20
119.4083983098
 30
0.0
 11
213.6066
 21
185.591327242
 31
0.0
  0
CIRCLE
  5
16E
330
1F
100
AcDbEntity
  8
0
  6
Continuous
 62
     7
370
    15
100
AcDbCircle
 10
214.5866
 20
183.671327242
 30
0.0
 40
0.210000000000008
  0
CIRCLE
  5
16F
330
1F
100
AcDbEntity
  8
0
  6
Continuous
 62
     7
370
    15
100
AcDbCircle
 10
214.5866
 20
121.321327242
 30
0.0
 40
0.210000000000008
  0
LINE
  5
170
330
1F
100
AcDbEntity
  8
0
  6
Continuous
 62
     7
370
    15
100
AcDbLine
 10
213.6066
 20
119.4083983098
 30
0.0
 11
215.3816
 21
119.4083983098
 31
0.0
  0
LINE
  5
171
330
1F
100
AcDbEntity
  8
0
  6
Continuous
 62
     7
370
    15
100
AcDbLine
 10
215.5866
 20
185.466327242
 30
0.0
 11
215.5866
 21
119.526327242
 31
0.0
  0
SPLINE
  5
172
330
1F
100
AcDbEntity
  8
0
  6
Continuous
 62
     7
370
    15
100
AcDbSpline
210
0.0
220
0.0
230
1.0
 70
     8
 71
     3
 72
    12
 73
     8
 74
     0
 42
0.00000001
 43
0.00000001
 40
0.0
 40
0.0
 40
0.0
 40
0.0
 40
0.22866975490325
 40
0.4574134284524602
 40
0.6861574263648292
 40
0.9149012395110222
 40
1.0
 40
1.0
 40
1.0
 40
1.0
 10
215.586600000002
 20
119.526327242012
 30
0.0
 10
215.5840263851779
 20
119.5173354926051
 30
0.0
 10
215.5788783235956
 20
119.4993490871633
 30
0.0
 10
215.5389171039324
 20
119.4723631906367
 30
0.0
 10
215.4807804705325
 20
119.4453933810968
 30
0.0
 10
215.4242301766838
 20
119.4240125501438
 30
0.0
 10
215.3906935054494
 20
119.4117290063036
 30
0.0
 10
215.381600000002
 20
119.4083983098238
 30
0.0
  0
LINE
  5
173
330
1F
100
AcDbEntity
  8
0
  6
Continuous
 62
     7
370
    15
100
AcDbLine
 10
215.3816
 20
185.591327242
 30
0.0
 11
215.5866
 21
185.591327242
 31
0.0
  0
LINE
  5
174
330
1F
100
AcDbEntity
  8
0
  6
Continuous
 62
     7
370
    15
100
AcDbLine
 10
215.5866
 20
185.591327242
 30
0.0
 11
215.5866
 21
185.466327242
 31
0.0
  0
LINE
  5
175
330
1F
100
AcDbEntity
  8
0
  6
Continuous
 62
     7
370
    15
100
AcDbLine
 10
215.3816
 20
119.321327242
 30
0.0
 11
215.3816
 21
119.401327242
 31
0.0
  0
SPLINE
  5
176
330
1F
100
AcDbEntity
  8
0
  6
Continuous
 62
     7
370
    15
100
AcDbSpline
210
0.0
220
0.0
230
1.0
 70
     8
 71
     3
 72
    10
 73
     6
 74
     0
 42
0.00000001
 43
0.00000001
 40
0.0
 40
0.0
 40
0.0
 40
0.0
 40
0.4688817609109007
 40
0.9380344098847981
 40
1.0
 40
1.0
 40
1.0
 40
1.0
 10
215.381600000002
 20
119.401327242012
 30
0.0
 10
215.3977126757017
 20
119.4034194240343
 30
0.0
 10
215.4299473359115
 20
119.4076049967999
 30
0.0
 10
215.4626918305171
 20
119.4261025648395
 30
0.0
 10
215.472613562223
 20
119.4417111691713
 30
0.0
 10
215.4737711311312
 20
119.4435322257781
 30
0.0
  0
SPLINE
  5
177
330
1F
100
AcDbEntity
  8
0
  6
Continuous
 62
     7
370
    15
100
AcDbSpline
210
0.0
220
0.0
230
1.0
 70
     8
 71
     3
 72
    12
 73
     8
 74
     0
 42
0.00000001
 43
0.00000001
 40
0.0
 40
0.0
 40
0.0
 40
0.0
 40
0.2286697549032505
 40
0.4574134284524909
 40
0.6861574263647185
 40
0.9149012395109951
 40
0.9999999999999999
 40
0.9999999999999999
 40
0.9999999999999999
 40
0.9999999999999999
 10
215.381600000002
 20
119.321327242012
 30
0.0
 10
215.4061471854227
 20
119.3239008568362
 30
0.0
 10
215.4552494912649
 20
119.3290489184185
 30
0.0
 10
215.5195660451658
 20
119.3690101380816
 30
0.0
 10
215.5659828588496
 20
119.4271467714815
 30
0.0
 10
215.5848609140909
 20
119.4836970653302
 30
0.0
 10
215.5862290330383
 20
119.5172337365646
 30
0.0
 10
215.586600000002
 20
119.526327242012
 30
0.0
  0
LINE
  5
178
330
1F
100
AcDbEntity
  8
0
  6
Continuous
 62
     7
370
    15
100
AcDbLine
 10
213.6066
 20
119.401327242
 30
0.0
 11
213.6066
 21
119.321327242
 31
0.0
  0
LINE
  5
179
330
1F
100
AcDbEntity
  8
0
  6
Continuous
 62
     7
370
    15
100
AcDbLine
 10
215.3816
 20
119.401327242
 30
0.0
 11
213.6066
 21
119.401327242
 31
0.0
  0
LINE
  5
17A
330
1F
100
AcDbEntity
  8
0
  6
Continuous
 62
     7
370
    15
100
AcDbLine
 10
215.3816
 20
119.321327242
 30
0.0
 11
213.6066
 21
119.321327242
 31
0.0
  0
ARC
  5
17B
330
1F
100
AcDbEntity
  8
0
  6
Continuous
 62
     7
370
    15
100
AcDbCircle
 10
215.3816
 20
185.466327242
 30
0.0
 40
0.2050000000000125
100
AcDbArc
 50
37.5718693197
 51
90.0
  0
LINE
  5
17C
330
1F
100
AcDbEntity
  8
0
  6
Continuous
 62
     7
370
    15
100
AcDbLine
 10
211.1866
 20
185.671327242
 30
0.0
 11
211.1866
 21
185.591327242
 31
0.0
  0
LINE
  5
17D
330
1F
100
AcDbEntity
  8
0
  6
Continuous
 62
     7
370
    15
100
AcDbLine
 10
215.3816
 20
185.671327242
 30
0.0
 11
215.3426
 21
185.671327242
 31
0.0
  0
LINE
  5
17E
330
1F
100
AcDbEntity
  8
0
  6
Continuous
 62
     7
370
    15
100
AcDbLine
 10
214.2176
 20
185.671327242
 30
0.0
 11
213.2406
 21
185.671327242
 31
0.0
  0
LINE
  5
17F
330
1F
100
AcDbEntity
  8
0
  6
Continuous
 62
     7
370
    15
100
AcDbLine
 10
211.2856
 20
185.671327242
 30
0.0
 11
211.1866
 21
185.671327242
 31
0.0
  0
LINE
  5
180
330
1F
100
AcDbEntity
  8
0
  6
Continuous
 62
     7
370
    15
100
AcDbLine
 10
213.6066
 20
185.591327242
 30
0.0
 11
211.1866
 21
185.591327242
 31
0.0
  0
LINE
  5
181
330
1F
100
AcDbEntity
  8
0
  6
Continuous
 62
     7
370
    15
100
AcDbLine
 10
155.5866
 20
185.591327242
 30
0.0
 11
155.5866
 21
185.466327242
 31
0.0
  0
LINE
  5
182
330
1F
100
AcDbEntity
  8
0
  6
Continuous
 62
     7
370
    15
100
AcDbLine
 10
155.5866
 20
185.591327242
 30
0.0
 11
155.7916
 21
185.591327242
 31
0.0
  0
SPLINE
  5
183
330
1F
100
AcDbEntity
  8
0
  6
Continuous
 62
     7
370
    15
100
AcDbSpline
210
0.0
220
0.0
230
1.0
 70
     8
 71
     3
 72
    11
 73
     7
 74
     0
 42
0.00000001
 43
0.00000001
 40
0.0
 40
0.0
 40
0.0
 40
0.0
 40
0.2499999999999888
 40
0.4999999999999815
 40
0.7499999999999714
 40
0.9999999999999999
 40
0.9999999999999999
 40
0.9999999999999999
 40
0.9999999999999999
 10
155.7916000000022
 20
119.4720379201309
 30
0.0
 10
155.7647374060219
 20
119.4765620302877
 30
0.0
 10
155.7110122180613
 20
119.4856102506013
 30
0.0
 10
155.6432505059565
 20
119.4991825810716
 30
0.0
 10
155.5958444172664
 20
119.5127549115419
 30
0.0
 10
155.5896814724236
 20
119.5218031318555
 30
0.0
 10
155.5866000000022
 20
119.5263272420123
 30
0.0
  0
LINE
  5
184
330
1F
100
AcDbEntity
  8
0
  6
Continuous
 62
     7
370
    15
100
AcDbLine
 10
155.5866
 20
119.526327242
 30
0.0
 11
155.5866
 21
185.466327242
 31
0.0
  0
LINE
  5
185
330
1F
100
AcDbEntity
  8
0
  6
Continuous
 62
     7
370
    15
100
AcDbLine
 10
157.5666
 20
185.591327242
 30
0.0
 11
155.7916
 21
185.591327242
 31
0.0
  0
CIRCLE
  5
186
330
1F
100
AcDbEntity
  8
0
  6
Continuous
 62
     7
370
    15
100
AcDbCircle
 10
156.5866
 20
183.671327242
 30
0.0
 40
0.210000000000008
  0
LINE
  5
187
330
1F
100
AcDbEntity
  8
0
  6
Continuous
 62
     7
370
    15
100
AcDbLine
 10
155.7916
 20
119.4720379201
 30
0.0
 11
157.5666
 21
119.4720379201
 31
0.0
  0
CIRCLE
  5
188
330
1F
100
AcDbEntity
  8
0
  6
Continuous
 62
     7
370
    15
100
AcDbCircle
 10
156.5866
 20
121.321327242
 30
0.0
 40
0.210000000000008
  0
LINE
  5
189
330
1F
100
AcDbEntity
  8
0
  6
Continuous
 62
     7
370
    15
100
AcDbLine
 10
157.5666
 20
119.4720379201
 30
0.0
 11
157.5666
 21
185.591327242
 31
0.0
  0
SPLINE
  5
18A
330
1F
100
AcDbEntity
  8
0
  6
Continuous
 62
     7
370
    15
100
AcDbSpline
210
0.0
220
0.0
230
1.0
 70
     8
 71
     3
 72
    11
 73
     7
 74
     0
 42
0.00000001
 43
0.00000001
 40
0.0
 40
0.0
 40
0.0
 40
0.0
 40
0.2499999999999941
 40
0.499999999999997
 40
0.7499999999999978
 40
1.0
 40
1.0
 40
1.0
 40
1.0
 10
155.5866000000022
 20
119.5263272420123
 30
0.0
 10
155.5896814724236
 20
119.499464648032
 30
0.0
 10
155.5958444172664
 20
119.4457394600714
 30
0.0
 10
155.6432505059565
 20
119.3779777479666
 30
0.0
 10
155.7110122180613
 20
119.3305716592765
 30
0.0
 10
155.7647374060219
 20
119.3244087144337
 30
0.0
 10
155.7916000000022
 20
119.3213272420123
 30
0.0
  0
SPLINE
  5
18B
330
1F
100
AcDbEntity
  8
0
  6
Continuous
 62
     7
370
    15
100
AcDbSpline
210
0.0
220
0.0
230
1.0
 70
     8
 71
     3
 72
    11
 73
     7
 74
     0
 42
0.00000001
 43
0.00000001
 40
0.0
 40
0.0
 40
0.0
 40
0.0
 40
0.0963281961544445
 40
0.3975521307696568
 40
0.6987760653847895
 40
1.0
 40
1.0
 40
1.0
 40
1.0
 10
155.6730722444049
 20
119.4937890721241
 30
0.0
 10
155.6738785201829
 20
119.4886200787986
 30
0.0
 10
155.6772060677375
 20
119.4672873393464
 30
0.0
 10
155.7017359069868
 20
119.4360695113084
 30
0.0
 10
155.7423128796876
 20
119.4069142623424
 30
0.0
 10
155.7751709598973
 20
119.4031895821223
 30
0.0
 10
155.7916000000022
 20
119.4013272420123
 30
0.0
  0
LINE
  5
18C
330
1F
100
AcDbEntity
  8
0
  6
Continuous
 62
     7
370
    15
100
AcDbLine
 10
155.7916
 20
119.321327242
 30
0.0
 11
155.7916
 21
119.401327242
 31
0.0
  0
LINE
  5
18D
330
1F
100
AcDbEntity
  8
0
  6
Continuous
 62
     7
370
    15
100
AcDbLine
 10
157.5666
 20
119.321327242
 30
0.0
 11
155.7916
 21
119.321327242
 31
0.0
  0
LINE
  5
18E
330
1F
100
AcDbEntity
  8
0
  6
Continuous
 62
     7
370
    15
100
AcDbLine
 10
157.5666
 20
119.321327242
 30
0.0
 11
157.5666
 21
119.401327242
 31
0.0
  0
LINE
  5
18F
330
1F
100
AcDbEntity
  8
0
  6
Continuous
 62
     7
370
    15
100
AcDbLine
 10
155.7916
 20
119.401327242
 30
0.0
 11
157.5666
 21
119.401327242
 31
0.0
  0
LINE
  5
190
330
1F
100
AcDbEntity
  8
0
  6
Continuous
 62
     7
370
    15
100
AcDbLine
 10
159.9866
 20
185.671327242
 30
0.0
 11
159.9866
 21
185.591327242
 31
0.0
  0
LINE
  5
191
330
1F
100
AcDbEntity
  8
0
  6
Continuous
 62
     7
370
    15
100
AcDbLine
 10
157.5666
 20
185.591327242
 30
0.0
 11
159.9866
 21
185.591327242
 31
0.0
  0
LINE
  5
192
330
1F
100
AcDbEntity
  8
0
  6
Continuous
 62
     7
370
    15
100
AcDbLine
 10
155.7916
 20
185.671327242
 30
0.0
 11
155.8306
 21
185.671327242
 31
0.0
  0
LINE
  5
193
330
1F
100
AcDbEntity
  8
0
  6
Continuous
 62
     7
370
    15
100
AcDbLine
 10
156.9556
 20
185.671327242
 30
0.0
 11
157.9306
 21
185.671327242
 31
0.0
  0
LINE
  5
194
330
1F
100
AcDbEntity
  8
0
  6
Continuous
 62
     7
370
    15
100
AcDbLine
 10
159.8856
 20
185.671327242
 30
0.0
 11
159.9866
 21
185.671327242
 31
0.0
  0
ARC
  5
195
330
1F
100
AcDbEntity
  8
0
  6
Continuous
 62
     7
370
    15
100
AcDbCircle
 10
155.7916
 20
185.466327242
 30
0.0
 40
0.2050000000000123
100
AcDbArc
 50
90.0
 51
142.4281306803
  0
LINE
  5
196
330
1F
100
AcDbEntity
  8
0
  6
Continuous
 62
     7
370
    15
100
AcDbLine
 10
158.0866
 20
119.526327242
 30
0.0
 11
157.8816
 21
119.526327242
 31
0.0
  0
LINE
  5
197
330
1F
100
AcDbEntity
  8
0
  6
Continuous
 62
     7
370
    15
100
AcDbLine
 10
158.0866
 20
185.376327242
 30
0.0
 11
157.8816
 21
185.376327242
 31
0.0
  0
LINE
  5
198
330
1F
100
AcDbEntity
  8
0
  6
Continuous
 62
     7
370
    15
100
AcDbLine
 10
158.0866
 20
185.376327242
 30
0.0
 11
158.0866
 21
119.526327242
 31
0.0
  0
LINE
  5
199
330
1F
100
AcDbEntity
  8
0
  6
Continuous
 62
     7
370
    15
100
AcDbLine
 10
157.5666
 20
185.501327242
 30
0.0
 11
157.8816
 21
185.501327242
 31
0.0
  0
LINE
  5
19A
330
1F
100
AcDbEntity
  8
0
  6
Continuous
 62
     7
370
    15
100
AcDbLine
 10
157.8816
 20
185.376327242
 30
0.0
 11
157.8816
 21
185.501327242
 31
0.0
  0
LINE
  5
19B
330
1F
100
AcDbEntity
  8
0
  6
Continuous
 62
     7
370
    15
100
AcDbLine
 10
157.5666
 20
119.526327242
 30
0.0
 11
157.8816
 21
119.526327242
 31
0.0
  0
CIRCLE
  5
19C
330
1F
100
AcDbEntity
  8
0
  6
Continuous
 62
     7
370
    15
100
AcDbCircle
 10
156.5866
 20
121.321327242
 30
0.0
 40
0.1649999999995941
  0
CIRCLE
  5
19D
330
1F
100
AcDbEntity
  8
0
  6
Continuous
 62
     7
370
    15
100
AcDbCircle
 10
156.5866
 20
183.671327242
 30
0.0
 40
0.1649999999995941
  0
LINE
  5
19E
330
1F
100
AcDbEntity
  8
0
  6
Continuous
 62
     7
370
    15
100
AcDbLine
 10
161.0866
 20
119.321327242
 30
0.0
 11
161.0866
 21
119.401327242
 31
0.0
  0
LINE
  5
19F
330
1F
100
AcDbEntity
  8
0
  6
Continuous
 62
     7
370
    15
100
AcDbLine
 10
161.0866
 20
119.321327242
 30
0.0
 11
158.2116
 21
119.321327242
 31
0.0
  0
LINE
  5
1A0
330
1F
100
AcDbEntity
  8
0
  6
Continuous
 62
     7
370
    15
100
AcDbLine
 10
158.2116
 20
119.401327242
 30
0.0
 11
161.0866
 21
119.401327242
 31
0.0
  0
ARC
  5
1A1
330
1F
100
AcDbEntity
  8
0
  6
Continuous
 62
     7
370
    15
100
AcDbCircle
 10
158.2116
 20
119.526327242
 30
0.0
 40
0.1250000000000284
100
AcDbArc
 50
180.0
 51
270.0
  0
ARC
  5
1A2
330
1F
100
AcDbEntity
  8
0
  6
Continuous
 62
     7
370
    15
100
AcDbCircle
 10
158.2116
 20
119.526327242
 30
0.0
 40
0.2050000000000125
100
AcDbArc
 50
180.0
 51
270.0
  0
ARC
  5
1A3
330
1F
100
AcDbEntity
  8
0
  6
Continuous
 62
     7
370
    15
100
AcDbCircle
 10
157.8816
 20
185.376327242
 30
0.0
 40
0.2050000000000125
100
AcDbArc
 50
0.0
 51
90.0
  0
ARC
  5
1A4
330
1F
100
AcDbEntity
  8
0
  6
Continuous
 62
     7
370
    15
100
AcDbCircle
 10
157.8816
 20
185.376327242
 30
0.0
 40
0.1250000000000284
100
AcDbArc
 50
0.0
 51
90.0
  0
LINE
  5
1A5
330
1F
100
AcDbEntity
  8
0
  6
Continuous
 62
     7
370
    15
100
AcDbLine
 10
157.8816
 20
185.581327242
 30
0.0
 11
157.5666
 21
185.581327242
 31
0.0
  0
LINE
  5
1A6
330
1F
100
AcDbEntity
  8
0
  6
Continuous
 62
     7
370
    15
100
AcDbLine
 10
158.0065674239
 20
185.3791808312
 30
0.0
 11
157.8816
 21
185.3791808312
 31
0.0
  0
LINE
  5
1A7
330
1F
100
AcDbEntity
  8
0
  6
Continuous
 62
     7
370
    15
100
AcDbLine
 10
156.4275704279
 20
121.2773432087
 30
0.0
 11
156.7456295722
 21
121.2773432087
 31
0.0
  0
ENDSEC
  0
SECTION
  2
OBJECTS
  0
DICTIONARY
  5
C
330
0
100
AcDbDictionary
281
     1
  3
ACAD_GROUP
350
D
  3
ACAD_LAYOUT
350
1A
  3
ACAD_MLINESTYLE
350
17
  3
ACAD_PLOTSETTINGS
350
19
  3
ACAD_PLOTSTYLENAME
350
E
  0
DICTIONARY
  5
D
102
{ACAD_REACTORS
330
C
102
}
330
C
100
AcDbDictionary
281
     1
  0
DICTIONARY
  5
1A
102
{ACAD_REACTORS
330
C
102
}
330
C
100
AcDbDictionary
281
     1
  3
Layout1
350
1E
  3
Layout2
350
26
  3
Model
350
22
  0
DICTIONARY
  5
17
102
{ACAD_REACTORS
330
C
102
}
330
C
100
AcDbDictionary
281
     1
  3
Standard
350
18
  0
DICTIONARY
  5
19
102
{ACAD_REACTORS
330
C
102
}
330
C
100
AcDbDictionary
281
     1
  0
ACDBDICTIONARYWDFLT
  5
E
102
{ACAD_REACTORS
330
C
102
}
330
C
100
AcDbDictionary
281
     1
  3
Normal
350
F
100
AcDbDictionaryWithDefault
340
F
  0
LAYOUT
  5
1E
102
{ACAD_REACTORS
330
1A
102
}
330
1A
100
AcDbPlotSettings
  1

  2
none_device
  4

  6

 40
0.0
 41
0.0
 42
0.0
 43
0.0
 44
0.0
 45
0.0
 46
0.0
 47
0.0
 48
0.0
 49
0.0
140
0.0
141
0.0
142
1.0
143
1.0
 70
   688
 72
     0
 73
     0
 74
     5
  7

 75
    16
147
1.0
148
0.0
149
0.0
100
AcDbLayout
  1
Layout1
 70
     1
 71
     1
 10
0.0
 20
0.0
 11
420.0
 21
297.0
 12
0.0
 22
0.0
 32
0.0
 14
1.0000000000E+20
 24
1.0000000000E+20
 34
1.0000000000E+20
 15
-1.0000000000E+20
 25
-1.0000000000E+20
 35
-1.0000000000E+20
146
0.0
 13
0.0
 23
0.0
 33
0.0
 16
1.0
 26
0.0
 36
0.0
 17
0.0
 27
1.0
 37
0.0
 76
     0
330
1B
  0
LAYOUT
  5
26
102
{ACAD_REACTORS
330
1A
102
}
330
1A
100
AcDbPlotSettings
  1

  2
none_device
  4

  6

 40
0.0
 41
0.0
 42
0.0
 43
0.0
 44
0.0
 45
0.0
 46
0.0
 47
0.0
 48
0.0
 49
0.0
140
0.0
141
0.0
142
1.0
143
1.0
 70
   688
 72
     0
 73
     0
 74
     5
  7

 75
    16
147
1.0
148
0.0
149
0.0
100
AcDbLayout
  1
Layout2
 70
     1
 71
     2
 10
0.0
 20
0.0
 11
0.0
 21
0.0
 12
0.0
 22
0.0
 32
0.0
 14
0.0
 24
0.0
 34
0.0
 15
0.0
 25
0.0
 35
0.0
146
0.0
 13
0.0
 23
0.0
 33
0.0
 16
1.0
 26
0.0
 36
0.0
 17
0.0
 27
1.0
 37
0.0
 76
     0
330
23
  0
LAYOUT
  5
22
102
{ACAD_REACTORS
330
1A
102
}
330
1A
100
AcDbPlotSettings
  1

  2
none_device
  4

  6

 40
0.0
 41
0.0
 42
0.0
 43
0.0
 44
0.0
 45
0.0
 46
0.0
 47
0.0
 48
0.0
 49
0.0
140
0.0
141
0.0
142
1.0
143
1.0
 70
  1712
 72
     0
 73
     0
 74
     0
  7

 75
     0
147
1.0
148
0.0
149
0.0
100
AcDbLayout
  1
Model
 70
     1
 71
     0
 10
0.0
 20
0.0
 11
420.0
 21
297.0
 12
0.0
 22
0.0
 32
0.0
 14
0.0
 24
0.0
 34
0.0
 15
420.0
 25
297.0
 35
0.0
146
0.0
 13
0.0
 23
0.0
 33
0.0
 16
1.0
 26
0.0
 36
0.0
 17
0.0
 27
1.0
 37
0.0
 76
     0
330
1F
331
29
  0
MLINESTYLE
  5
18
102
{ACAD_REACTORS
330
17
102
}
330
17
100
AcDbMlineStyle
  2
Standard
 70
     0
  3

 62
   256
 51
90.0
 52
90.0
 71
     2
 49
0.5
 62
   256
  6
BYLAYER
 49
-0.5
 62
   256
  6
BYLAYER
  0
ACDBPLACEHOLDER
  5
F
102
{ACAD_REACTORS
330
E
102
}
330
E
  0
ENDSEC
  0
EOF
