  0
SECTION
  2
HEADER
  9
$ACADVER
  1
AC1015
  9
$ACADMAINTVER
 70
     6
  9
$DWGCODEPAGE
  3
ANSI_1252
  9
$INSBASE
 10
0.0
 20
0.0
 30
0.0
  9
$EXTMIN
 10
0.0
 20
0.0
 30
0.0
  9
$EXTMAX
 10
420.0
 20
297.0
 30
0.0
  9
$LIMMIN
 10
0.0
 20
0.0
  9
$LIMMAX
 10
420.0
 20
297.0
  9
$ORTHOMODE
 70
     0
  9
$REGENMODE
 70
     1
  9
$FILLMODE
 70
     1
  9
$QTEXTMODE
 70
     0
  9
$MIRRTEXT
 70
     1
  9
$LTSCALE
 40
1.0
  9
$ATTMODE
 70
     1
  9
$TEXTSIZE
 40
3.5
  9
$TRACEWID
 40
1.0
  9
$TEXTSTYLE
  7
Standard
  9
$CLAYER
  8
0
  9
$CELTYPE
  6
ByLayer
  9
$CECOLOR
 62
   256
  9
$CELTSCALE
 40
1.0
  9
$DISPSILH
 70
     0
  9
$DIMSCALE
 40
1.0
  9
$DIMASZ
 40
3.302
  9
$DIMEXO
 40
1.0
  9
$DIMDLI
 40
3.75
  9
$DIMRND
 40
0.0
  9
$DIMDLE
 40
0.0
  9
$DIMEXE
 40
1.0
  9
$DIMTP
 40
0.0
  9
$DIMTM
 40
0.0
  9
$DIMTXT
 40
3.5
  9
$DIMCEN
 40
2.5
  9
$DIMTSZ
 40
0.0
  9
$DIMTOL
 70
     0
  9
$DIMLIM
 70
     0
  9
$DIMTIH
 70
     1
  9
$DIMTOH
 70
     1
  9
$DIMSE1
 70
     0
  9
$DIMSE2
 70
     0
  9
$DIMTAD
 70
     1
  9
$DIMZIN
 70
     0
  9
$DIMBLK
  1

  9
$DIMASO
 70
     1
  9
$DIMSHO
 70
     1
  9
$DIMPOST
  1

  9
$DIMAPOST
  1

  9
$DIMALT
 70
     0
  9
$DIMALTD
 70
     3
  9
$DIMALTF
 40
0.0393700787
  9
$DIMLFAC
 40
10.0
  9
$DIMTOFL
 70
     1
  9
$DIMTVP
 40
0.0
  9
$DIMTIX
 70
     0
  9
$DIMSOXD
 70
     0
  9
$DIMSAH
 70
     0
  9
$DIMBLK1
  1

  9
$DIMBLK2
  1

  9
$DIMSTYLE
  2
ISO-25
  9
$DIMCLRD
 70
     0
  9
$DIMCLRE
 70
     0
  9
$DIMCLRT
 70
     0
  9
$DIMTFAC
 40
1.0
  9
$DIMGAP
 40
1.524
  9
$DIMJUST
 70
     0
  9
$DIMSD1
 70
     0
  9
$DIMSD2
 70
     0
  9
$DIMTOLJ
 70
     0
  9
$DIMTZIN
 70
     0
  9
$DIMALTZ
 70
     0
  9
$DIMALTTZ
 70
     0
  9
$DIMUPT
 70
     0
  9
$DIMDEC
 70
     3
  9
$DIMTDEC
 70
     3
  9
$DIMALTU
 70
     2
  9
$DIMALTTD
 70
     3
  9
$DIMTXSTY
  7
Standard
  9
$DIMAUNIT
 70
     0
  9
$DIMADEC
 70
     2
  9
$DIMALTRND
 40
0.0
  9
$DIMAZIN
 70
     0
  9
$DIMDSEP
 70
    44
  9
$DIMATFIT
 70
     3
  9
$DIMFRAC
 70
     0
  9
$DIMLDRBLK
  1

  9
$DIMLUNIT
 70
     2
  9
$DIMLWD
 70
    -2
  9
$DIMLWE
 70
    -2
  9
$DIMTMOVE
 70
     0
  9
$LUNITS
 70
     2
  9
$LUPREC
 70
     8
  9
$SKETCHINC
 40
1.0
  9
$FILLETRAD
 40
10.0
  9
$AUNITS
 70
     0
  9
$AUPREC
 70
     8
  9
$MENU
  1
.
  9
$ELEVATION
 40
0.0
  9
$PELEVATION
 40
0.0
  9
$THICKNESS
 40
0.0
  9
$LIMCHECK
 70
     0
  9
$CHAMFERA
 40
10.0
  9
$CHAMFERB
 40
10.0
  9
$CHAMFERC
 40
20.0
  9
$CHAMFERD
 40
0.0
  9
$SKPOLY
 70
     0
  9
$TDCREATE
 40
2455855.524488935
  9
$TDUCREATE
 40
2455855.482822269
  9
$TDUPDATE
 40
2455855.524488947
  9
$TDUUPDATE
 40
2455855.48282228
  9
$TDINDWG
 40
0.0000000116
  9
$TDUSRTIMER
 40
0.0000000116
  9
$USRTIMER
 70
     1
  9
$ANGBASE
 50
0.0
  9
$ANGDIR
 70
     0
  9
$PDMODE
 70
     0
  9
$PDSIZE
 40
-1.0
  9
$PLINEWID
 40
0.0
  9
$SPLFRAME
 70
     0
  9
$SPLINETYPE
 70
     6
  9
$SPLINESEGS
 70
     8
  9
$HANDSEED
  5
17F
  9
$SURFTAB1
 70
     6
  9
$SURFTAB2
 70
     6
  9
$SURFTYPE
 70
     6
  9
$SURFU
 70
     6
  9
$SURFV
 70
     6
  9
$UCSBASE
  2

  9
$UCSNAME
  2

  9
$UCSORG
 10
0.0
 20
0.0
 30
0.0
  9
$UCSXDIR
 10
1.0
 20
0.0
 30
0.0
  9
$UCSYDIR
 10
0.0
 20
1.0
 30
0.0
  9
$UCSORTHOREF
  2

  9
$UCSORTHOVIEW
 70
     0
  9
$UCSORGTOP
 10
0.0
 20
0.0
 30
0.0
  9
$UCSORGBOTTOM
 10
0.0
 20
0.0
 30
0.0
  9
$UCSORGLEFT
 10
0.0
 20
0.0
 30
0.0
  9
$UCSORGRIGHT
 10
0.0
 20
0.0
 30
0.0
  9
$UCSORGFRONT
 10
0.0
 20
0.0
 30
0.0
  9
$UCSORGBACK
 10
0.0
 20
0.0
 30
0.0
  9
$PUCSBASE
  2

  9
$PUCSNAME
  2

  9
$PUCSORG
 10
0.0
 20
0.0
 30
0.0
  9
$PUCSXDIR
 10
1.0
 20
0.0
 30
0.0
  9
$PUCSYDIR
 10
0.0
 20
1.0
 30
0.0
  9
$PUCSORTHOREF
  2

  9
$PUCSORTHOVIEW
 70
     0
  9
$PUCSORGTOP
 10
0.0
 20
0.0
 30
0.0
  9
$PUCSORGBOTTOM
 10
0.0
 20
0.0
 30
0.0
  9
$PUCSORGLEFT
 10
0.0
 20
0.0
 30
0.0
  9
$PUCSORGRIGHT
 10
0.0
 20
0.0
 30
0.0
  9
$PUCSORGFRONT
 10
0.0
 20
0.0
 30
0.0
  9
$PUCSORGBACK
 10
0.0
 20
0.0
 30
0.0
  9
$USERI1
 70
     0
  9
$USERI2
 70
     0
  9
$USERI3
 70
     0
  9
$USERI4
 70
     0
  9
$USERI5
 70
     0
  9
$USERR1
 40
0.0
  9
$USERR2
 40
0.0
  9
$USERR3
 40
0.0
  9
$USERR4
 40
0.0
  9
$USERR5
 40
0.0
  9
$WORLDVIEW
 70
     1
  9
$SHADEDGE
 70
     3
  9
$SHADEDIF
 70
    70
  9
$TILEMODE
 70
     1
  9
$MAXACTVP
 70
    64
  9
$PINSBASE
 10
0.0
 20
0.0
 30
0.0
  9
$PLIMCHECK
 70
     0
  9
$PEXTMIN
 10
1.0000000000E+20
 20
1.0000000000E+20
 30
1.0000000000E+20
  9
$PEXTMAX
 10
-1.0000000000E+20
 20
-1.0000000000E+20
 30
-1.0000000000E+20
  9
$PLIMMIN
 10
0.0
 20
0.0
  9
$PLIMMAX
 10
420.0
 20
297.0
  9
$UNITMODE
 70
     0
  9
$VISRETAIN
 70
     1
  9
$PLINEGEN
 70
     0
  9
$PSLTSCALE
 70
     1
  9
$TREEDEPTH
 70
  3020
  9
$CMLSTYLE
  2
Standard
  9
$CMLJUST
 70
     0
  9
$CMLSCALE
 40
20.0
  9
$PROXYGRAPHICS
 70
     1
  9
$MEASUREMENT
 70
     1
  9
$CELWEIGHT
370
    -1
  9
$ENDCAPS
280
     0
  9
$JOINSTYLE
280
     0
  9
$LWDISPLAY
290
     1
  9
$INSUNITS
 70
     4
  9
$HYPERLINKBASE
  1

  9
$STYLESHEET
  1

  9
$XEDIT
290
     1
  9
$CEPSNTYPE
380
     0
  9
$PSTYLEMODE
290
     1
  9
$FINGERPRINTGUID
  2
{2071124D-63D3-452A-8365-723CABA81D1B}
  9
$VERSIONGUID
  2
{FAEB1C32-E019-11D5-929B-00C0DF256EC4}
  9
$EXTNAMES
290
     1
  9
$PSVPSCALE
 40
0.0
  9
$OLESTARTUP
290
     0
  0
ENDSEC
  0
SECTION
  2
CLASSES
  0
CLASS
  1
ACDBDICTIONARYWDFLT
  2
AcDbDictionaryWithDefault
  3
ObjectDBX Classes
 90
        0
280
     0
281
     0
  0
CLASS
  1
VISUALSTYLE
  2
AcDbVisualStyle
  3
ObjectDBX Classes
 90
     4095
280
     0
281
     0
  0
CLASS
  1
MATERIAL
  2
AcDbMaterial
  3
ObjectDBX Classes
 90
     1153
280
     0
281
     0
  0
CLASS
  1
ACDBPLACEHOLDER
  2
AcDbPlaceHolder
  3
ObjectDBX Classes
 90
        0
280
     0
281
     0
  0
CLASS
  1
LAYOUT
  2
AcDbLayout
  3
ObjectDBX Classes
 90
        0
280
     0
281
     0
  0
ENDSEC
  0
SECTION
  2
TABLES
  0
TABLE
  2
VPORT
  5
8
330
0
100
AcDbSymbolTable
 70
     1
  0
VPORT
  5
29
330
8
100
AcDbSymbolTableRecord
100
AcDbViewportTableRecord
  2
*Active
 70
     0
 10
0.0
 20
0.0
 11
1.0
 21
1.0
 12
210.0
 22
148.5
 13
0.0
 23
0.0
 14
10.0
 24
10.0
 15
10.0
 25
10.0
 16
0.0
 26
0.0
 36
1.0
 17
0.0
 27
0.0
 37
0.0
 40
297.0
 41
1.4141414141
 42
50.0
 43
0.0
 44
0.0
 50
0.0
 51
0.0
 71
     0
 72
  2000
 73
     1
 74
     3
 75
     0
 76
     0
 77
     0
 78
     0
281
     0
 65
     1
110
0.0
120
0.0
130
0.0
111
1.0
121
0.0
131
0.0
112
0.0
122
1.0
132
0.0
 79
     0
146
0.0
  0
ENDTAB
  0
TABLE
  2
LTYPE
  5
5
330
0
100
AcDbSymbolTable
 70
     6
  0
LTYPE
  5
14
330
5
100
AcDbSymbolTableRecord
100
AcDbLinetypeTableRecord
  2
ByBlock
 70
     0
  3

 72
    65
 73
     0
 40
0.0
  0
LTYPE
  5
15
330
5
100
AcDbSymbolTableRecord
100
AcDbLinetypeTableRecord
  2
ByLayer
 70
     0
  3

 72
    65
 73
     0
 40
0.0
  0
LTYPE
  5
16
330
5
100
AcDbSymbolTableRecord
100
AcDbLinetypeTableRecord
  2
Continuous
 70
     0
  3
Solid line
 72
    65
 73
     0
 40
0.0
  0
LTYPE
  5
3F
330
5
100
AcDbSymbolTableRecord
100
AcDbLinetypeTableRecord
  2
HIDDEN
 70
     0
  3
Hidden __ __ __ __ __ __ __ __ __ __ __ __ __ __
 72
    65
 73
     2
 40
1.905
 49
1.27
 74
     0
 49
-0.635
 74
     0
  0
LTYPE
  5
40
330
5
100
AcDbSymbolTableRecord
100
AcDbLinetypeTableRecord
  2
PHANTOM
 70
     0
  3
Phantom ______  __  __  ______  __  __  ______
 72
    65
 73
     6
 40
12.7
 49
6.35
 74
     0
 49
-1.27
 74
     0
 49
1.27
 74
     0
 49
-1.27
 74
     0
 49
1.27
 74
     0
 49
-1.27
 74
     0
  0
LTYPE
  5
41
330
5
100
AcDbSymbolTableRecord
100
AcDbLinetypeTableRecord
  2
CENTER
 70
     0
  3
Center ____ _ ____ _ ____ _ ____ _ ____ _ ____
 72
    65
 73
     4
 40
10.16
 49
6.35
 74
     0
 49
-1.27
 74
     0
 49
1.27
 74
     0
 49
-1.27
 74
     0
  0
LTYPE
  5
42
330
5
100
AcDbSymbolTableRecord
100
AcDbLinetypeTableRecord
  2
CENTERX2
 70
     0
  3
Center (2x) ________  __  ________  __  _____
 72
    65
 73
     4
 40
20.32
 49
12.7
 74
     0
 49
-2.54
 74
     0
 49
2.54
 74
     0
 49
-2.54
 74
     0
  0
LTYPE
  5
43
330
5
100
AcDbSymbolTableRecord
100
AcDbLinetypeTableRecord
  2
DOT2
 70
     0
  3
Dot (.5x) ........................................
 72
    65
 73
     2
 40
0.635
 49
0.0
 74
     0
 49
-0.635
 74
     0
  0
ENDTAB
  0
TABLE
  2
LAYER
  5
2
330
0
100
AcDbSymbolTable
 70
     4
  0
LAYER
  5
10
330
2
100
AcDbSymbolTableRecord
100
AcDbLayerTableRecord
  2
0
 70
     0
 62
     7
  6
Continuous
370
    -3
390
F
  0
LAYER
  5
44
330
2
100
AcDbSymbolTableRecord
100
AcDbLayerTableRecord
  2
FORMAT
 70
     0
 62
     7
  6
Continuous
370
    -3
390
F
  0
LAYER
  5
45
330
2
100
AcDbSymbolTableRecord
100
AcDbLayerTableRecord
  2
SLD-0
 70
     0
 62
     1
  6
Continuous
370
    -3
390
F
  0
LAYER
  5
46
330
2
100
AcDbSymbolTableRecord
100
AcDbLayerTableRecord
  2
WATERMARK
 70
     0
 62
    20
  6
Continuous
370
    -3
390
F
  0
ENDTAB
  0
TABLE
  2
STYLE
  5
3
330
0
100
AcDbSymbolTable
 70
     1
  0
STYLE
  5
11
330
3
100
AcDbSymbolTableRecord
100
AcDbTextStyleTableRecord
  2
Standard
 70
     0
 40
0.0
 41
1.0
 50
0.0
 71
     0
 42
2.5
  3
txt
  4

  0
ENDTAB
  0
TABLE
  2
VIEW
  5
6
330
0
100
AcDbSymbolTable
 70
     0
  0
ENDTAB
  0
TABLE
  2
UCS
  5
7
330
0
100
AcDbSymbolTable
 70
     0
  0
ENDTAB
  0
TABLE
  2
APPID
  5
9
330
0
100
AcDbSymbolTable
 70
     1
  0
APPID
  5
12
330
9
100
AcDbSymbolTableRecord
100
AcDbRegAppTableRecord
  2
ACAD
 70
     0
  0
ENDTAB
  0
TABLE
  2
DIMSTYLE
  5
A
330
0
100
AcDbSymbolTable
 70
     1
100
AcDbDimStyleTable
  0
DIMSTYLE
105
27
330
A
100
AcDbSymbolTableRecord
100
AcDbDimStyleTableRecord
  2
ISO-25
 70
     0
 41
2.5
 42
0.625
 43
3.75
 44
1.25
 73
     0
 74
     0
 77
     1
 78
     8
140
2.5
141
2.5
143
0.0393700787
147
0.625
171
     3
172
     1
178
     0
271
     2
272
     2
274
     3
278
    44
283
     0
284
     8
340
11
  0
ENDTAB
  0
TABLE
  2
BLOCK_RECORD
  5
1
330
0
100
AcDbSymbolTable
 70
     1
  0
BLOCK_RECORD
  5
1F
330
1
100
AcDbSymbolTableRecord
100
AcDbBlockTableRecord
  2
*Model_Space
340
22
  0
BLOCK_RECORD
  5
1B
330
1
100
AcDbSymbolTableRecord
100
AcDbBlockTableRecord
  2
*Paper_Space
340
1E
  0
BLOCK_RECORD
  5
23
330
1
100
AcDbSymbolTableRecord
100
AcDbBlockTableRecord
  2
*Paper_Space0
340
26
  0
ENDTAB
  0
ENDSEC
  0
SECTION
  2
BLOCKS
  0
BLOCK
  5
20
330
1F
100
AcDbEntity
  8
0
100
AcDbBlockBegin
  2
*Model_Space
 70
     0
 10
0.0
 20
0.0
 30
0.0
  3
*Model_Space
  1

  0
ENDBLK
  5
21
330
1F
100
AcDbEntity
  8
0
100
AcDbBlockEnd
  0
BLOCK
  5
1C
330
1B
100
AcDbEntity
 67
     1
  8
0
100
AcDbBlockBegin
  2
*Paper_Space
 70
     0
 10
0.0
 20
0.0
 30
0.0
  3
*Paper_Space
  1

  0
ENDBLK
  5
1D
330
1B
100
AcDbEntity
 67
     1
  8
0
100
AcDbBlockEnd
  0
BLOCK
  5
24
330
23
100
AcDbEntity
  8
0
100
AcDbBlockBegin
  2
*Paper_Space0
 70
     0
 10
0.0
 20
0.0
 30
0.0
  3
*Paper_Space0
  1

  0
ENDBLK
  5
25
330
23
100
AcDbEntity
  8
0
100
AcDbBlockEnd
  0
ENDSEC
  0
SECTION
  2
ENTITIES
  0
SPLINE
  5
47
330
1F
100
AcDbEntity
  8
0
  6
Continuous
 62
     7
370
    15
100
AcDbSpline
210
0.0
220
0.0
230
1.0
 70
     8
 71
     3
 72
    13
 73
     9
 74
     0
 42
0.00000001
 43
0.00000001
 40
0.0
 40
0.0
 40
0.0
 40
0.0
 40
0.1537005146062832
 40
0.4677837651354488
 40
0.6522647620333358
 40
0.8142558356667845
 40
0.9817880838980685
 40
1.0
 40
1.0
 40
1.0
 40
1.0
 10
157.7121711392261
 20
127.0335325678431
 30
0.0
 10
157.7122075332396
 20
127.0328246960804
 30
0.0
 10
157.7123182975315
 20
127.0306703056464
 30
0.0
 10
157.7100915846628
 20
127.0266115428274
 30
0.0
 10
157.7038778402987
 20
127.0218012008979
 30
0.0
 10
157.6967308269537
 20
127.019040047744
 30
0.0
 10
157.6908596956753
 20
127.0179229916885
 30
0.0
 10
157.687745250785
 20
127.0181108766114
 30
0.0
 10
157.6874398844805
 20
127.0181292984255
 30
0.0
  0
LINE
  5
48
330
1F
100
AcDbEntity
  8
0
  6
Continuous
 62
     7
370
    15
100
AcDbLine
 10
157.687409733
 20
127.0180654525
 30
0.0
 11
157.177409733
 21
127.0180654525
 31
0.0
  0
ARC
  5
49
330
1F
100
AcDbEntity
  8
0
  6
Continuous
 62
     7
370
    15
100
AcDbCircle
 10
157.177409733
 20
126.9930654525
 30
0.0
 40
0.0249999999999915
100
AcDbArc
 50
90.0
 51
180.0
  0
ARC
  5
4A
330
1F
100
AcDbEntity
  8
0
  6
Continuous
 62
     7
370
    15
100
AcDbCircle
 10
157.177409733
 20
126.549283331
 30
0.0
 40
0.0249999999999915
100
AcDbArc
 50
180.0
 51
270.0
  0
LINE
  5
4B
330
1F
100
AcDbEntity
  8
0
  6
Continuous
 62
     7
370
    15
100
AcDbLine
 10
157.177409733
 20
126.524283331
 30
0.0
 11
157.687409733
 21
126.524283331
 31
0.0
  0
ARC
  5
4C
330
1F
100
AcDbEntity
  8
0
  6
Continuous
 62
     7
370
    15
100
AcDbCircle
 10
157.807409733
 20
126.622327242
 30
0.0
 40
0.0250000000000057
100
AcDbArc
 50
301.0756875734
 51
0.0
  0
LINE
  5
4D
330
1F
100
AcDbEntity
  8
0
  6
Continuous
 62
     7
370
    15
100
AcDbLine
 10
157.687409733
 20
128.410371153
 30
0.0
 11
157.177409733
 21
128.410371153
 31
0.0
  0
ARC
  5
4E
330
1F
100
AcDbEntity
  8
0
  6
Continuous
 62
     7
370
    15
100
AcDbCircle
 10
157.177409733
 20
128.385371153
 30
0.0
 40
0.0249999999999773
100
AcDbArc
 50
90.0
 51
180.0
  0
SPLINE
  5
4F
330
1F
100
AcDbEntity
  8
0
  6
Continuous
 62
     7
370
    15
100
AcDbSpline
210
0.0
220
0.0
230
1.0
 70
     8
 71
     3
 72
    13
 73
     9
 74
     0
 42
0.00000001
 43
0.00000001
 40
0.0
 40
0.0
 40
0.0
 40
0.0
 40
0.1560186113418207
 40
0.4086735129032565
 40
0.5953335874298749
 40
0.7561090603156315
 40
0.9249103809750039
 40
1.0
 40
1.0
 40
1.0
 40
1.0
 10
157.7125143383649
 20
127.8229319076627
 30
0.0
 10
157.7124886942831
 20
127.8231537345627
 30
0.0
 10
157.7124215224442
 20
127.8237347856164
 30
0.0
 10
157.7134574067047
 20
127.826039836782
 30
0.0
 10
157.7180294544172
 20
127.8300154871387
 30
0.0
 10
157.7248069022541
 20
127.8330692471872
 30
0.0
 10
157.7316924383191
 20
127.8347289620864
 30
0.0
 10
157.7360638304815
 20
127.8346143315261
 30
0.0
 10
157.7374097032413
 20
127.8345790388453
 30
0.0
  0
LINE
  5
50
330
1F
100
AcDbEntity
  8
0
  6
Continuous
 62
     7
370
    15
100
AcDbLine
 10
157.737409733
 20
127.8347681756
 30
0.0
 11
158.247409733
 21
127.8347681756
 31
0.0
  0
ARC
  5
51
330
1F
100
AcDbEntity
  8
0
  6
Continuous
 62
     7
370
    15
100
AcDbCircle
 10
158.247409733
 20
127.8597681756
 30
0.0
 40
0.0250000000000057
100
AcDbArc
 50
270.0
 51
0.0
  0
ARC
  5
52
330
1F
100
AcDbEntity
  8
0
  6
Continuous
 62
     7
370
    15
100
AcDbCircle
 10
158.247409733
 20
128.3423848728
 30
0.0
 40
0.0250000000000057
100
AcDbArc
 50
0.0
 51
90.0
  0
LINE
  5
53
330
1F
100
AcDbEntity
  8
0
  6
Continuous
 62
     7
370
    15
100
AcDbLine
 10
158.247409733
 20
128.3673848728
 30
0.0
 11
157.737409733
 21
128.3673848728
 31
0.0
  0
ARC
  5
54
330
1F
100
AcDbEntity
  8
0
  6
Continuous
 62
     7
370
    15
100
AcDbCircle
 10
157.617409733
 20
128.312327242
 30
0.0
 40
0.0250000000000057
100
AcDbArc
 50
90.0
 51
180.0
  0
LINE
  5
55
330
1F
100
AcDbEntity
  8
0
  6
Continuous
 62
     7
370
    15
100
AcDbLine
 10
157.6437317742
 20
128.337327242
 30
0.0
 11
157.617409733
 21
128.337327242
 31
0.0
  0
LINE
  5
56
330
1F
100
AcDbEntity
  8
0
  6
Continuous
 62
     7
370
    15
100
AcDbLine
 10
157.7945618346
 20
126.5672696112
 30
0.0
 11
158.247409733
 21
126.5672696112
 31
0.0
  0
ARC
  5
57
330
1F
100
AcDbEntity
  8
0
  6
Continuous
 62
     7
370
    15
100
AcDbCircle
 10
158.247409733
 20
126.5922696112
 30
0.0
 40
0.0250000000000199
100
AcDbArc
 50
270.0
 51
0.0
  0
LINE
  5
58
330
1F
100
AcDbEntity
  8
0
  6
Continuous
 62
     7
370
    15
100
AcDbLine
 10
158.377409733
 20
126.967327242
 30
0.0
 11
158.3970454263
 21
126.9333172234
 31
0.0
  0
LINE
  5
59
330
1F
100
AcDbEntity
  8
0
  6
Continuous
 62
     7
370
    15
100
AcDbLine
 10
158.3970454263
 20
128.0013372606
 30
0.0
 11
158.377409733
 21
127.967327242
 31
0.0
  0
LINE
  5
5A
330
1F
100
AcDbEntity
  8
0
  6
Continuous
 62
     7
370
    15
100
AcDbLine
 10
158.352409733
 20
127.967327242
 30
0.0
 11
158.3435891213
 21
127.9826049896
 31
0.0
  0
LINE
  5
5B
330
1F
100
AcDbEntity
  8
0
  6
Continuous
 62
     7
370
    15
100
AcDbLine
 10
157.832409733
 20
126.967327242
 30
0.0
 11
157.8412303447
 21
126.9520494944
 31
0.0
  0
LINE
  5
5C
330
1F
100
AcDbEntity
  8
0
  6
Continuous
 62
     7
370
    15
100
AcDbLine
 10
158.3435891213
 20
126.9520494944
 30
0.0
 11
158.352409733
 21
126.967327242
 31
0.0
  0
LINE
  5
5D
330
1F
100
AcDbEntity
  8
0
  6
Continuous
 62
     7
370
    15
100
AcDbLine
 10
158.377409733
 20
127.767327242
 30
0.0
 11
158.352409733
 21
127.767327242
 31
0.0
  0
LINE
  5
5E
330
1F
100
AcDbEntity
  8
0
  6
Continuous
 62
     7
370
    15
100
AcDbLine
 10
158.352409733
 20
127.167327242
 30
0.0
 11
158.377409733
 21
127.167327242
 31
0.0
  0
LINE
  5
5F
330
1F
100
AcDbEntity
  8
0
  6
Continuous
 62
     7
370
    15
100
AcDbLine
 10
168.952409733
 20
107.717327242
 30
0.0
 11
168.952409733
 21
108.117327242
 31
0.0
  0
LINE
  5
60
330
1F
100
AcDbEntity
  8
0
  6
Continuous
 62
     7
370
    15
100
AcDbLine
 10
163.252409733
 20
108.117327242
 30
0.0
 11
163.252409733
 21
107.717327242
 31
0.0
  0
ARC
  5
61
330
1F
100
AcDbEntity
  8
0
  6
Continuous
 62
     7
370
    15
100
AcDbCircle
 10
168.752409733
 20
107.717327242
 30
0.0
 40
0.2000000000000028
100
AcDbArc
 50
270.0
 51
0.0
  0
ARC
  5
62
330
1F
100
AcDbEntity
  8
0
  6
Continuous
 62
     7
370
    15
100
AcDbCircle
 10
163.452409733
 20
107.717327242
 30
0.0
 40
0.2000000000000171
100
AcDbArc
 50
180.0
 51
270.0
  0
ARC
  5
63
330
1F
100
AcDbEntity
  8
0
  6
Continuous
 62
     7
370
    15
100
AcDbCircle
 10
227.652409733
 20
107.717327242
 30
0.0
 40
0.1999999999999886
100
AcDbArc
 50
270.0
 51
0.0
  0
ARC
  5
64
330
1F
100
AcDbEntity
  8
0
  6
Continuous
 62
     7
370
    15
100
AcDbCircle
 10
222.352409733
 20
107.717327242
 30
0.0
 40
0.1999999999999886
100
AcDbArc
 50
180.0
 51
270.0
  0
LINE
  5
65
330
1F
100
AcDbEntity
  8
0
  6
Continuous
 62
     7
370
    15
100
AcDbLine
 10
227.852409733
 20
107.717327242
 30
0.0
 11
227.852409733
 21
108.117327242
 31
0.0
  0
LINE
  5
66
330
1F
100
AcDbEntity
  8
0
  6
Continuous
 62
     7
370
    15
100
AcDbLine
 10
222.152409733
 20
108.117327242
 30
0.0
 11
222.152409733
 21
107.717327242
 31
0.0
  0
LINE
  5
67
330
1F
100
AcDbEntity
  8
0
  6
Continuous
 62
     7
370
    15
100
AcDbLine
 10
227.832409733
 20
108.117327242
 30
0.0
 11
227.832409733
 21
114.917327242
 31
0.0
  0
LINE
  5
68
330
1F
100
AcDbEntity
  8
0
  6
Continuous
 62
     7
370
    15
100
AcDbLine
 10
222.172409733
 20
114.917327242
 30
0.0
 11
222.172409733
 21
108.117327242
 31
0.0
  0
LINE
  5
69
330
1F
100
AcDbEntity
  8
0
  6
Continuous
 62
     7
370
    15
100
AcDbLine
 10
168.932409733
 20
108.117327242
 30
0.0
 11
168.932409733
 21
114.917327242
 31
0.0
  0
LINE
  5
6A
330
1F
100
AcDbEntity
  8
0
  6
Continuous
 62
     7
370
    15
100
AcDbLine
 10
163.272409733
 20
114.917327242
 30
0.0
 11
163.272409733
 21
108.117327242
 31
0.0
  0
ARC
  5
6B
330
1F
100
AcDbEntity
  8
0
  6
Continuous
 62
     7
370
    15
100
AcDbCircle
 10
228.342409733
 20
124.167327242
 30
0.0
 40
0.1499999999999915
100
AcDbArc
 50
90.0
 51
180.0
  0
ARC
  5
6C
330
1F
100
AcDbEntity
  8
0
  6
Continuous
 62
     7
370
    15
100
AcDbCircle
 10
221.662409733
 20
124.167327242
 30
0.0
 40
0.1500000000000057
100
AcDbArc
 50
0.0
 51
90.0
  0
LINE
  5
6D
330
1F
100
AcDbEntity
  8
0
  6
Continuous
 62
     7
370
    15
100
AcDbLine
 10
228.192409733
 20
115.5205838366
 30
0.0
 11
228.192409733
 21
124.167327242
 31
0.0
  0
LINE
  5
6E
330
1F
100
AcDbEntity
  8
0
  6
Continuous
 62
     7
370
    15
100
AcDbLine
 10
221.812409733
 20
124.167327242
 30
0.0
 11
221.812409733
 21
115.5205838366
 31
0.0
  0
ARC
  5
6F
330
1F
100
AcDbEntity
  8
0
  6
Continuous
 62
     7
370
    15
100
AcDbCircle
 10
227.722409733
 20
115.5205838366
 30
0.0
 40
0.4700000000000001
100
AcDbArc
 50
350.5402980318
 51
0.0
  0
ARC
  5
70
330
1F
100
AcDbEntity
  8
0
  6
Continuous
 62
     7
370
    15
100
AcDbCircle
 10
222.282409733
 20
115.5205838366
 30
0.0
 40
0.4700000000000001
100
AcDbArc
 50
180.0
 51
189.4597019682
  0
LINE
  5
71
330
1F
100
AcDbEntity
  8
0
  6
Continuous
 62
     7
370
    15
100
AcDbLine
 10
221.8188010557
 20
115.4433375141
 30
0.0
 11
221.9064447109
 21
114.917327242
 31
0.0
  0
LINE
  5
72
330
1F
100
AcDbEntity
  8
0
  6
Continuous
 62
     7
370
    15
100
AcDbLine
 10
228.098374755
 20
114.917327242
 30
0.0
 11
228.1860184103
 21
115.4433375141
 31
0.0
  0
ARC
  5
73
330
1F
100
AcDbEntity
  8
0
  6
Continuous
 62
     7
370
    15
100
AcDbCircle
 10
169.442409733
 20
124.167327242
 30
0.0
 40
0.1499999999999915
100
AcDbArc
 50
90.0
 51
180.0
  0
ARC
  5
74
330
1F
100
AcDbEntity
  8
0
  6
Continuous
 62
     7
370
    15
100
AcDbCircle
 10
162.762409733
 20
124.167327242
 30
0.0
 40
0.1499999999999915
100
AcDbArc
 50
0.0
 51
90.0
  0
LINE
  5
75
330
1F
100
AcDbEntity
  8
0
  6
Continuous
 62
     7
370
    15
100
AcDbLine
 10
169.292409733
 20
115.5205838366
 30
0.0
 11
169.292409733
 21
124.167327242
 31
0.0
  0
LINE
  5
76
330
1F
100
AcDbEntity
  8
0
  6
Continuous
 62
     7
370
    15
100
AcDbLine
 10
162.912409733
 20
124.167327242
 30
0.0
 11
162.912409733
 21
115.5205838366
 31
0.0
  0
ARC
  5
77
330
1F
100
AcDbEntity
  8
0
  6
Continuous
 62
     7
370
    15
100
AcDbCircle
 10
168.822409733
 20
115.5205838366
 30
0.0
 40
0.4700000000000024
100
AcDbArc
 50
350.5402980318
 51
0.0
  0
ARC
  5
78
330
1F
100
AcDbEntity
  8
0
  6
Continuous
 62
     7
370
    15
100
AcDbCircle
 10
163.382409733
 20
115.5205838366
 30
0.0
 40
0.4699999999999989
100
AcDbArc
 50
180.0
 51
189.4597019682
  0
LINE
  5
79
330
1F
100
AcDbEntity
  8
0
  6
Continuous
 62
     7
370
    15
100
AcDbLine
 10
162.9188010557
 20
115.4433375141
 30
0.0
 11
163.0064447109
 21
114.917327242
 31
0.0
  0
LINE
  5
7A
330
1F
100
AcDbEntity
  8
0
  6
Continuous
 62
     7
370
    15
100
AcDbLine
 10
169.198374755
 20
114.917327242
 30
0.0
 11
169.2860184103
 21
115.4433375141
 31
0.0
  0
LINE
  5
7B
330
1F
100
AcDbEntity
  8
0
  6
Continuous
 62
     7
370
    15
100
AcDbLine
 10
158.912409733
 20
201.395272758
 30
0.0
 11
158.9547621136
 21
201.395272758
 31
0.0
  0
LINE
  5
7C
330
1F
100
AcDbEntity
  8
0
  6
Continuous
 62
     7
370
    15
100
AcDbLine
 10
158.9547621136
 20
201.395272758
 30
0.0
 11
158.9547621136
 21
201.5029812325
 31
0.0
  0
LINE
  5
7D
330
1F
100
AcDbEntity
  8
0
  6
Continuous
 62
     7
370
    15
100
AcDbLine
 10
158.9547621136
 20
201.5029812325
 30
0.0
 11
162.2718691553
 21
200.6141650795
 31
0.0
  0
ARC
  5
7E
330
1F
100
AcDbEntity
  8
0
  6
Continuous
 62
     7
370
    15
100
AcDbCircle
 10
161.627409733
 20
198.2090097721
 30
0.0
 40
2.490000000000009
100
AcDbArc
 50
0.0
 51
75.0
  0
LINE
  5
7F
330
1F
100
AcDbEntity
  8
0
  6
Continuous
 62
     7
370
    15
100
AcDbLine
 10
164.117409733
 20
198.2090097721
 30
0.0
 11
164.117409733
 21
196.7204095051
 31
0.0
  0
LINE
  5
80
330
1F
100
AcDbEntity
  8
0
  6
Continuous
 62
     7
370
    15
100
AcDbLine
 10
163.992409733
 20
196.7204095051
 30
0.0
 11
164.117409733
 21
196.7204095051
 31
0.0
  0
LINE
  5
81
330
1F
100
AcDbEntity
  8
0
  6
Continuous
 62
     7
370
    15
100
AcDbLine
 10
163.992409733
 20
196.5154095051
 30
0.0
 11
163.992409733
 21
196.7204095051
 31
0.0
  0
LINE
  5
82
330
1F
100
AcDbEntity
  8
0
  6
Continuous
 62
     7
370
    15
100
AcDbLine
 10
163.992409733
 20
196.5154095051
 30
0.0
 11
158.912409733
 21
196.5154095051
 31
0.0
  0
LINE
  5
83
330
1F
100
AcDbEntity
  8
0
  6
Continuous
 62
     7
370
    15
100
AcDbLine
 10
158.912409733
 20
196.5154095051
 30
0.0
 11
158.912409733
 21
196.7204095051
 31
0.0
  0
LINE
  5
84
330
1F
100
AcDbEntity
  8
0
  6
Continuous
 62
     7
370
    15
100
AcDbLine
 10
158.7499289649
 20
201.395272758
 30
0.0
 11
158.912409733
 21
201.395272758
 31
0.0
  0
LINE
  5
85
330
1F
100
AcDbEntity
  8
0
  6
Continuous
 62
     7
370
    15
100
AcDbLine
 10
158.707409733
 20
196.7204095051
 30
0.0
 11
158.707409733
 21
201.395272758
 31
0.0
  0
LINE
  5
86
330
1F
100
AcDbEntity
  8
0
  6
Continuous
 62
     7
370
    15
100
AcDbLine
 10
158.707409733
 20
196.7204095051
 30
0.0
 11
158.912409733
 21
196.7204095051
 31
0.0
  0
LINE
  5
87
330
1F
100
AcDbEntity
  8
0
  6
Continuous
 62
     7
370
    15
100
AcDbLine
 10
164.127409733
 20
196.642327242
 30
0.0
 11
164.207409733
 21
196.642327242
 31
0.0
  0
LINE
  5
88
330
1F
100
AcDbEntity
  8
0
  6
Continuous
 62
     7
370
    15
100
AcDbLine
 10
164.127409733
 20
198.2090097721
 30
0.0
 11
164.127409733
 21
196.642327242
 31
0.0
  0
LINE
  5
89
330
1F
100
AcDbEntity
  8
0
  6
Continuous
 62
     7
370
    15
100
AcDbLine
 10
164.207409733
 20
198.2090097721
 30
0.0
 11
164.207409733
 21
196.642327242
 31
0.0
  0
LINE
  5
8A
330
1F
100
AcDbEntity
  8
0
  6
Continuous
 62
     7
370
    15
100
AcDbLine
 10
158.787409733
 20
190.8581759296
 30
0.0
 11
158.707409733
 21
190.8581759296
 31
0.0
  0
LINE
  5
8B
330
1F
100
AcDbEntity
  8
0
  6
Continuous
 62
     7
370
    15
100
AcDbLine
 10
158.707409733
 20
190.8581759296
 30
0.0
 11
158.707409733
 21
191.3581759296
 31
0.0
  0
LINE
  5
8C
330
1F
100
AcDbEntity
  8
0
  6
Continuous
 62
     7
370
    15
100
AcDbLine
 10
158.787409733
 20
191.3581759296
 30
0.0
 11
158.787409733
 21
190.8581759296
 31
0.0
  0
LINE
  5
8D
330
1F
100
AcDbEntity
  8
0
  6
Continuous
 62
     7
370
    15
100
AcDbLine
 10
158.9654676372
 20
201.5932875524
 30
0.0
 11
162.2951628693
 21
200.7010984039
 31
0.0
  0
LINE
  5
8E
330
1F
100
AcDbEntity
  8
0
  6
Continuous
 62
     7
370
    15
100
AcDbLine
 10
158.9447621136
 20
201.5160134863
 30
0.0
 11
162.2744573457
 21
200.6238243378
 31
0.0
  0
ARC
  5
8F
330
1F
100
AcDbEntity
  8
0
  6
Continuous
 62
     7
370
    15
100
AcDbCircle
 10
161.627409733
 20
198.2090097721
 30
0.0
 40
2.580000000000031
100
AcDbArc
 50
0.0
 51
75.0
  0
ARC
  5
90
330
1F
100
AcDbEntity
  8
0
  6
Continuous
 62
     7
370
    15
100
AcDbCircle
 10
161.627409733
 20
198.2090097721
 30
0.0
 40
2.500000000000014
100
AcDbArc
 50
0.0
 51
75.0
  0
ARC
  5
91
330
1F
100
AcDbEntity
  8
0
  6
Continuous
 62
     7
370
    15
100
AcDbCircle
 10
158.912409733
 20
201.395272758
 30
0.0
 40
0.2049999999999841
100
AcDbArc
 50
75.0
 51
180.0
  0
ARC
  5
92
330
1F
100
AcDbEntity
  8
0
  6
Continuous
 62
     7
370
    15
100
AcDbCircle
 10
158.912409733
 20
201.395272758
 30
0.0
 40
0.1250000000000075
100
AcDbArc
 50
75.0
 51
180.0
  0
LINE
  5
93
330
1F
100
AcDbEntity
  8
0
  6
Continuous
 62
     7
370
    15
100
AcDbLine
 10
158.7499289649
 20
201.395272758
 30
0.0
 11
158.707409733
 21
201.395272758
 31
0.0
  0
LINE
  5
94
330
1F
100
AcDbEntity
  8
0
  6
Continuous
 62
     7
370
    15
100
AcDbLine
 10
158.707409733
 20
191.3581759296
 30
0.0
 11
158.707409733
 21
196.4754095051
 31
0.0
  0
LINE
  5
95
330
1F
100
AcDbEntity
  8
0
  6
Continuous
 62
     7
370
    15
100
AcDbLine
 10
158.787409733
 20
196.4754095051
 30
0.0
 11
158.707409733
 21
196.4754095051
 31
0.0
  0
LINE
  5
96
330
1F
100
AcDbEntity
  8
0
  6
Continuous
 62
     7
370
    15
100
AcDbLine
 10
158.787409733
 20
191.3581759296
 30
0.0
 11
158.787409733
 21
196.4754095051
 31
0.0
  0
LINE
  5
97
330
1F
100
AcDbEntity
  8
0
  6
Continuous
 62
     7
370
    15
100
AcDbLine
 10
158.787409733
 20
196.5154095051
 30
0.0
 11
158.707409733
 21
196.5154095051
 31
0.0
  0
LINE
  5
98
330
1F
100
AcDbEntity
  8
0
  6
Continuous
 62
     7
370
    15
100
AcDbLine
 10
158.707409733
 20
196.5154095051
 30
0.0
 11
158.707409733
 21
196.7204095051
 31
0.0
  0
LINE
  5
99
330
1F
100
AcDbEntity
  8
0
  6
Continuous
 62
     7
370
    15
100
AcDbLine
 10
158.787409733
 20
196.5154095051
 30
0.0
 11
158.787409733
 21
196.7204095051
 31
0.0
  0
LINE
  5
9A
330
1F
100
AcDbEntity
  8
0
  6
Continuous
 62
     7
370
    15
100
AcDbLine
 10
158.707409733
 20
196.5154095051
 30
0.0
 11
158.707409733
 21
196.4754095051
 31
0.0
  0
LINE
  5
9B
330
1F
100
AcDbEntity
  8
0
  6
Continuous
 62
     7
370
    15
100
AcDbLine
 10
158.787409733
 20
196.4754095051
 30
0.0
 11
158.787409733
 21
196.5154095051
 31
0.0
  0
LINE
  5
9C
330
1F
100
AcDbEntity
  8
0
  6
Continuous
 62
     7
370
    15
100
AcDbLine
 10
164.202409733
 20
196.422327242
 30
0.0
 11
164.202409733
 21
196.272327242
 31
0.0
  0
LINE
  5
9D
330
1F
100
AcDbEntity
  8
0
  6
Continuous
 62
     7
370
    15
100
AcDbLine
 10
164.202409733
 20
196.272327242
 30
0.0
 11
164.252409733
 21
196.272327242
 31
0.0
  0
ARC
  5
9E
330
1F
100
AcDbEntity
  8
0
  6
Continuous
 62
     7
370
    15
100
AcDbCircle
 10
233.154790267
 20
194.187327242
 30
0.0
 40
2.210000000000029
100
AcDbArc
 50
293.5
 51
70.6373374103
  0
LINE
  5
9F
330
1F
100
AcDbEntity
  8
0
  6
Continuous
 62
     7
370
    15
100
AcDbLine
 10
234.0360257094
 20
192.1606244776
 30
0.0
 11
231.6826031884
 21
191.137327242
 31
0.0
  0
LINE
  5
A0
330
1F
100
AcDbEntity
  8
0
  6
Continuous
 62
     7
370
    15
100
AcDbLine
 10
231.6826031884
 20
191.137327242
 30
0.0
 11
231.5919965233
 21
191.137327242
 31
0.0
  0
LINE
  5
A1
330
1F
100
AcDbEntity
  8
0
  6
Continuous
 62
     7
370
    15
100
AcDbLine
 10
231.5919965233
 20
191.322327242
 30
0.0
 11
231.5919965233
 21
191.137327242
 31
0.0
  0
LINE
  5
A2
330
1F
100
AcDbEntity
  8
0
  6
Continuous
 62
     7
370
    15
100
AcDbLine
 10
231.5319965233
 20
191.322327242
 30
0.0
 11
231.5919965233
 21
191.322327242
 31
0.0
  0
LINE
  5
A3
330
1F
100
AcDbEntity
  8
0
  6
Continuous
 62
     7
370
    15
100
AcDbLine
 10
231.5319965233
 20
191.262327242
 30
0.0
 11
231.5319965233
 21
191.322327242
 31
0.0
  0
LINE
  5
A4
330
1F
100
AcDbEntity
  8
0
  6
Continuous
 62
     7
370
    15
100
AcDbLine
 10
159.332409733
 20
191.262327242
 30
0.0
 11
159.332409733
 21
191.517327242
 31
0.0
  0
LINE
  5
A5
330
1F
100
AcDbEntity
  8
0
  6
Continuous
 62
     7
370
    15
100
AcDbLine
 10
159.332409733
 20
191.517327242
 30
0.0
 11
159.077409733
 21
191.517327242
 31
0.0
  0
LINE
  5
A6
330
1F
100
AcDbEntity
  8
0
  6
Continuous
 62
     7
370
    15
100
AcDbLine
 10
159.077409733
 20
196.422327242
 30
0.0
 11
164.202409733
 21
196.422327242
 31
0.0
  0
ARC
  5
A7
330
1F
100
AcDbEntity
  8
0
  6
Continuous
 62
     7
370
    15
100
AcDbCircle
 10
231.953790267
 20
193.2170681936
 30
0.0
 40
0.0240000000000293
100
AcDbArc
 50
180.0
 51
260.0647455692
  0
ARC
  5
A8
330
1F
100
AcDbEntity
  8
0
  6
Continuous
 62
     7
370
    15
100
AcDbCircle
 10
231.904790267
 20
192.937327242
 30
0.0
 40
0.310000000000015
100
AcDbArc
 50
279.8650797973
 51
80.1349202027
  0
ARC
  5
A9
330
1F
100
AcDbEntity
  8
0
  6
Continuous
 62
     7
370
    15
100
AcDbCircle
 10
231.953790267
 20
192.6555560582
 30
0.0
 40
0.0240000000000293
100
AcDbArc
 50
180.0
 51
279.8650797973
  0
LINE
  5
AA
330
1F
100
AcDbEntity
  8
0
  6
Continuous
 62
     7
370
    15
100
AcDbLine
 10
231.929790267
 20
193.2170681936
 30
0.0
 11
231.929790267
 21
193.2190984258
 31
0.0
  0
ARC
  5
AB
330
1F
100
AcDbEntity
  8
0
  6
Continuous
 62
     7
370
    15
100
AcDbCircle
 10
231.953790267
 20
193.2190984258
 30
0.0
 40
0.0240000000000293
100
AcDbArc
 50
80.1349202027
 51
180.0
  0
ARC
  5
AC
330
1F
100
AcDbEntity
  8
0
  6
Continuous
 62
     7
370
    15
100
AcDbCircle
 10
231.904790267
 20
192.937327242
 30
0.0
 40
0.3100000000000101
100
AcDbArc
 50
99.8650797973
 51
260.1349202027
  0
ARC
  5
AD
330
1F
100
AcDbEntity
  8
0
  6
Continuous
 62
     7
370
    15
100
AcDbCircle
 10
231.855790267
 20
193.2190984258
 30
0.0
 40
0.0240000000000097
100
AcDbArc
 50
0.0
 51
99.8650797974
  0
LINE
  5
AE
330
1F
100
AcDbEntity
  8
0
  6
Continuous
 62
     7
370
    15
100
AcDbLine
 10
231.879790267
 20
193.2190984258
 30
0.0
 11
231.879790267
 21
193.2170681936
 31
0.0
  0
ARC
  5
AF
330
1F
100
AcDbEntity
  8
0
  6
Continuous
 62
     7
370
    15
100
AcDbCircle
 10
231.855790267
 20
193.2170681936
 30
0.0
 40
0.0239999999999911
100
AcDbArc
 50
279.9352544307
 51
0.0
  0
ARC
  5
B0
330
1F
100
AcDbEntity
  8
0
  6
Continuous
 62
     7
370
    15
100
AcDbCircle
 10
231.904790267
 20
192.937327242
 30
0.0
 40
0.2600000000000067
100
AcDbArc
 50
99.9352544307
 51
260.0647455693
  0
ARC
  5
B1
330
1F
100
AcDbEntity
  8
0
  6
Continuous
 62
     7
370
    15
100
AcDbCircle
 10
231.855790267
 20
192.6575862904
 30
0.0
 40
0.0239999999999911
100
AcDbArc
 50
0.0
 51
80.0647455693
  0
LINE
  5
B2
330
1F
100
AcDbEntity
  8
0
  6
Continuous
 62
     7
370
    15
100
AcDbLine
 10
231.879790267
 20
192.6575862904
 30
0.0
 11
231.879790267
 21
192.6555560582
 31
0.0
  0
ARC
  5
B3
330
1F
100
AcDbEntity
  8
0
  6
Continuous
 62
     7
370
    15
100
AcDbCircle
 10
231.855790267
 20
192.6555560582
 30
0.0
 40
0.0240000000000097
100
AcDbArc
 50
260.1349202026
 51
0.0
  0
LINE
  5
B4
330
1F
100
AcDbEntity
  8
0
  6
Continuous
 62
     7
370
    15
100
AcDbLine
 10
231.929790267
 20
192.6555560582
 30
0.0
 11
231.929790267
 21
192.6575862904
 31
0.0
  0
ARC
  5
B5
330
1F
100
AcDbEntity
  8
0
  6
Continuous
 62
     7
370
    15
100
AcDbCircle
 10
231.953790267
 20
192.6575862904
 30
0.0
 40
0.0240000000000293
100
AcDbArc
 50
99.9352544308
 51
179.9999999985
  0
ARC
  5
B6
330
1F
100
AcDbEntity
  8
0
  6
Continuous
 62
     7
370
    15
100
AcDbCircle
 10
231.904790267
 20
192.937327242
 30
0.0
 40
0.2600000000000067
100
AcDbArc
 50
279.9352544307
 51
80.0647455693
  0
LINE
  5
B7
330
1F
100
AcDbEntity
  8
0
  6
Continuous
 62
     7
370
    15
100
AcDbLine
 10
229.427409733
 20
191.017327242
 30
0.0
 11
231.5319965233
 21
191.017327242
 31
0.0
  0
LINE
  5
B8
330
1F
100
AcDbEntity
  8
0
  6
Continuous
 62
     7
370
    15
100
AcDbLine
 10
159.332409733
 20
191.017327242
 30
0.0
 11
159.332409733
 21
191.262327242
 31
0.0
  0
LINE
  5
B9
330
1F
100
AcDbEntity
  8
0
  6
Continuous
 62
     7
370
    15
100
AcDbLine
 10
231.5319965233
 20
191.262327242
 30
0.0
 11
231.5319965233
 21
191.017327242
 31
0.0
  0
LINE
  5
BA
330
1F
100
AcDbEntity
  8
0
  6
Continuous
 62
     7
370
    15
100
AcDbLine
 10
158.832409733
 20
191.517327242
 30
0.0
 11
158.832409733
 21
196.422327242
 31
0.0
  0
LINE
  5
BB
330
1F
100
AcDbEntity
  8
0
  6
Continuous
 62
     7
370
    15
100
AcDbLine
 10
158.832409733
 20
196.422327242
 30
0.0
 11
159.077409733
 21
196.422327242
 31
0.0
  0
LINE
  5
BC
330
1F
100
AcDbEntity
  8
0
  6
Continuous
 62
     7
370
    15
100
AcDbLine
 10
159.077409733
 20
191.517327242
 30
0.0
 11
158.832409733
 21
191.517327242
 31
0.0
  0
LINE
  5
BD
330
1F
100
AcDbEntity
  8
0
  6
Continuous
 62
     7
370
    15
100
AcDbLine
 10
233.0756315062
 20
196.517327242
 30
0.0
 11
233.1448701115
 21
196.5104493266
 31
0.0
  0
SPLINE
  5
BE
330
1F
100
AcDbEntity
  8
0
  6
Continuous
 62
     7
370
    15
100
AcDbSpline
210
0.0
220
0.0
230
1.0
 70
     8
 71
     3
 72
    11
 73
     7
 74
     0
 42
0.00000001
 43
0.00000001
 40
0.0
 40
0.0
 40
0.0
 40
0.0
 40
0.1475890256494289
 40
0.4376830210487636
 40
0.7152524526060331
 40
1.0
 40
1.0
 40
1.0
 40
1.0
 10
233.1930380010568
 20
196.5056645007479
 30
0.0
 10
233.2272123610732
 20
196.5031903195163
 30
0.0
 10
233.3285582238065
 20
196.4958530048932
 30
0.0
 10
233.494123436425
 20
196.444176648685
 30
0.0
 10
233.6914245839843
 20
196.3655786876786
 30
0.0
 10
233.8215928589021
 20
196.3036744648244
 30
0.0
 10
233.8875078115334
 20
196.2723272420109
 30
0.0
  0
LINE
  5
BF
330
1F
100
AcDbEntity
  8
0
  6
Continuous
 62
     7
370
    15
100
AcDbLine
 10
164.252409733
 20
196.272327242
 30
0.0
 11
164.252409733
 21
196.5172945868
 31
0.0
  0
LINE
  5
C0
330
1F
100
AcDbEntity
  8
0
  6
Continuous
 62
     7
370
    15
100
AcDbLine
 10
164.252409733
 20
196.517327242
 30
0.0
 11
233.0756315062
 21
196.517327242
 31
0.0
  0
LINE
  5
C1
330
1F
100
AcDbEntity
  8
0
  6
Continuous
 62
     7
370
    15
100
AcDbLine
 10
233.154790267
 20
196.517327242
 30
0.0
 11
233.1356315062
 21
196.517327242
 31
0.0
  0
ARC
  5
C2
330
1F
100
AcDbEntity
  8
0
  6
Continuous
 62
     7
370
    15
100
AcDbCircle
 10
233.154790267
 20
194.187327242
 30
0.0
 40
2.330000000000041
100
AcDbArc
 50
293.5
 51
90.0
  0
LINE
  5
C3
330
1F
100
AcDbEntity
  8
0
  6
Continuous
 62
     7
370
    15
100
AcDbLine
 10
231.7667653223
 20
191.0430690468
 30
0.0
 11
234.0838755976
 21
192.0505772687
 31
0.0
  0
LINE
  5
C4
330
1F
100
AcDbEntity
  8
0
  6
Continuous
 62
     7
370
    15
100
AcDbLine
 10
231.7189154341
 20
191.1531162558
 30
0.0
 11
231.7667653223
 21
191.0430690468
 31
0.0
  0
ARC
  5
C5
330
1F
100
AcDbEntity
  8
0
  6
Continuous
 62
     7
370
    15
100
AcDbCircle
 10
164.252409733
 20
196.642327242
 30
0.0
 40
0.125
100
AcDbArc
 50
180.0
 51
270.0
  0
LINE
  5
C6
330
1F
100
AcDbEntity
  8
0
  6
Continuous
 62
     7
370
    15
100
AcDbLine
 10
164.252409733
 20
196.5172945868
 30
0.0
 11
164.252409733
 21
196.517327242
 31
0.0
  0
ARC
  5
C7
330
1F
100
AcDbEntity
  8
0
  6
Continuous
 62
     7
370
    15
100
AcDbCircle
 10
164.252409733
 20
196.642327242
 30
0.0
 40
0.2450000000000045
100
AcDbArc
 50
180.0
 51
243.8910943224
  0
LWPOLYLINE
  5
C8
330
1F
100
AcDbEntity
  8
0
  6
Continuous
 62
     7
370
    15
100
AcDbPolyline
 90
        3
 70
   128
 43
0.0
 10
164.202409733
 20
196.4024835429
 10
164.2046126041
 20
196.4020348483
 10
164.252409733
 20
196.397327242
  0
LINE
  5
C9
330
1F
100
AcDbEntity
  8
0
  6
Continuous
 62
     7
370
    15
100
AcDbLine
 10
164.007409733
 20
196.7204095051
 30
0.0
 11
164.007409733
 21
196.642327242
 31
0.0
  0
LINE
  5
CA
330
1F
100
AcDbEntity
  8
0
  6
Continuous
 62
     7
370
    15
100
AcDbLine
 10
164.127409733
 20
197.717327242
 30
0.0
 11
164.117409733
 21
197.717327242
 31
0.0
  0
LINE
  5
CB
330
1F
100
AcDbEntity
  8
0
  6
Continuous
 62
     7
370
    15
100
AcDbLine
 10
233.0756315062
 20
196.517327242
 30
0.0
 11
233.1356315062
 21
196.517327242
 31
0.0
  0
LINE
  5
CC
330
1F
100
AcDbEntity
  8
0
  6
Continuous
 62
     7
370
    15
100
AcDbLine
 10
158.952409733
 20
124.667327242
 30
0.0
 11
159.032409733
 21
124.667327242
 31
0.0
  0
LINE
  5
CD
330
1F
100
AcDbEntity
  8
0
  6
Continuous
 62
     7
370
    15
100
AcDbLine
 10
158.952409733
 20
196.5154095051
 30
0.0
 11
158.952409733
 21
196.422327242
 31
0.0
  0
LINE
  5
CE
330
1F
100
AcDbEntity
  8
0
  6
Continuous
 62
     7
370
    15
100
AcDbLine
 10
158.952409733
 20
191.517327242
 30
0.0
 11
158.952409733
 21
190.737327242
 31
0.0
  0
LINE
  5
CF
330
1F
100
AcDbEntity
  8
0
  6
Continuous
 62
     7
370
    15
100
AcDbLine
 10
158.952409733
 20
124.872327242
 30
0.0
 11
158.952409733
 21
124.667327242
 31
0.0
  0
LINE
  5
D0
330
1F
100
AcDbEntity
  8
0
  6
Continuous
 62
     7
370
    15
100
AcDbLine
 10
159.032409733
 20
196.5154095051
 30
0.0
 11
159.032409733
 21
196.422327242
 31
0.0
  0
LINE
  5
D1
330
1F
100
AcDbEntity
  8
0
  6
Continuous
 62
     7
370
    15
100
AcDbLine
 10
159.032409733
 20
191.517327242
 30
0.0
 11
159.032409733
 21
190.737327242
 31
0.0
  0
LINE
  5
D2
330
1F
100
AcDbEntity
  8
0
  6
Continuous
 62
     7
370
    15
100
AcDbLine
 10
159.032409733
 20
124.872327242
 30
0.0
 11
159.032409733
 21
124.667327242
 31
0.0
  0
LINE
  5
D3
330
1F
100
AcDbEntity
  8
0
  6
Continuous
 62
     7
370
    15
100
AcDbLine
 10
164.202409733
 20
196.397327242
 30
0.0
 11
164.252409733
 21
196.397327242
 31
0.0
  0
LINE
  5
D4
330
1F
100
AcDbEntity
  8
0
  6
Continuous
 62
     7
370
    15
100
AcDbLine
 10
159.1594808008
 20
191.517327242
 30
0.0
 11
159.1594808008
 21
191.262327242
 31
0.0
  0
LINE
  5
D5
330
1F
100
AcDbEntity
  8
0
  6
Continuous
 62
     7
370
    15
100
AcDbLine
 10
159.252409733
 20
191.017327242
 30
0.0
 11
159.1594808008
 21
191.017327242
 31
0.0
  0
LINE
  5
D6
330
1F
100
AcDbEntity
  8
0
  6
Continuous
 62
     7
370
    15
100
AcDbLine
 10
159.1594808008
 20
191.017327242
 30
0.0
 11
159.1594808008
 21
191.262327242
 31
0.0
  0
LINE
  5
D7
330
1F
100
AcDbEntity
  8
0
  6
Continuous
 62
     7
370
    15
100
AcDbLine
 10
159.032409733
 20
191.137327242
 30
0.0
 11
159.152409733
 21
191.137327242
 31
0.0
  0
LINE
  5
D8
330
1F
100
AcDbEntity
  8
0
  6
Continuous
 62
     7
370
    15
100
AcDbLine
 10
159.152409733
 20
191.517327242
 30
0.0
 11
159.152409733
 21
191.137327242
 31
0.0
  0
ARC
  5
D9
330
1F
100
AcDbEntity
  8
0
  6
Continuous
 62
     7
370
    15
100
AcDbCircle
 10
159.277409733
 20
191.262327242
 30
0.0
 40
0.2450000000000292
100
AcDbArc
 50
210.6774244726
 51
241.2268751811
  0
LWPOLYLINE
  5
DA
330
1F
100
AcDbEntity
  8
0
  6
Continuous
 62
     7
370
    15
100
AcDbPolyline
 90
        3
 70
   128
 43
0.0
 10
159.152409733
 20
191.262327242
 10
159.1548115729
 20
191.2379409518
 10
159.1594808008
 20
191.2208812898
  0
LINE
  5
DB
330
1F
100
AcDbEntity
  8
0
  6
Continuous
 62
     7
370
    15
100
AcDbLine
 10
229.572409733
 20
124.117327242
 30
0.0
 11
229.572409733
 21
124.392327242
 31
0.0
  0
LINE
  5
DC
330
1F
100
AcDbEntity
  8
0
  6
Continuous
 62
     7
370
    15
100
AcDbLine
 10
229.422409733
 20
124.117327242
 30
0.0
 11
229.572409733
 21
124.117327242
 31
0.0
  0
LINE
  5
DD
330
1F
100
AcDbEntity
  8
0
  6
Continuous
 62
     7
370
    15
100
AcDbLine
 10
229.422409733
 20
124.117327242
 30
0.0
 11
229.422409733
 21
124.392327242
 31
0.0
  0
ARC
  5
DE
330
1F
100
AcDbEntity
  8
0
  6
Continuous
 62
     7
370
    15
100
AcDbCircle
 10
229.297409733
 20
124.392327242
 30
0.0
 40
0.2750000000000057
100
AcDbArc
 50
0.0
 51
90.0
  0
ARC
  5
DF
330
1F
100
AcDbEntity
  8
0
  6
Continuous
 62
     7
370
    15
100
AcDbCircle
 10
229.297409733
 20
124.392327242
 30
0.0
 40
0.125
100
AcDbArc
 50
0.0
 51
90.0
  0
LINE
  5
E0
330
1F
100
AcDbEntity
  8
0
  6
Continuous
 62
     7
370
    15
100
AcDbLine
 10
159.307409733
 20
124.517327242
 30
0.0
 11
229.297409733
 21
124.517327242
 31
0.0
  0
LINE
  5
E1
330
1F
100
AcDbEntity
  8
0
  6
Continuous
 62
     7
370
    15
100
AcDbLine
 10
159.032409733
 20
124.792327242
 30
0.0
 11
159.032409733
 21
124.872327242
 31
0.0
  0
LINE
  5
E2
330
1F
100
AcDbEntity
  8
0
  6
Continuous
 62
     7
370
    15
100
AcDbLine
 10
159.182409733
 20
124.792327242
 30
0.0
 11
159.182409733
 21
124.872327242
 31
0.0
  0
LINE
  5
E3
330
1F
100
AcDbEntity
  8
0
  6
Continuous
 62
     7
370
    15
100
AcDbLine
 10
229.572409733
 20
122.617327242
 30
0.0
 11
229.422409733
 21
122.617327242
 31
0.0
  0
LINE
  5
E4
330
1F
100
AcDbEntity
  8
0
  6
Continuous
 62
     7
370
    15
100
AcDbLine
 10
229.572409733
 20
124.117327242
 30
0.0
 11
229.572409733
 21
122.617327242
 31
0.0
  0
LINE
  5
E5
330
1F
100
AcDbEntity
  8
0
  6
Continuous
 62
     7
370
    15
100
AcDbLine
 10
229.422409733
 20
122.617327242
 30
0.0
 11
229.422409733
 21
124.117327242
 31
0.0
  0
ARC
  5
E6
330
1F
100
AcDbEntity
  8
0
  6
Continuous
 62
     7
370
    15
100
AcDbCircle
 10
159.307409733
 20
124.792327242
 30
0.0
 40
0.2750000000000199
100
AcDbArc
 50
180.0
 51
270.0
  0
ARC
  5
E7
330
1F
100
AcDbEntity
  8
0
  6
Continuous
 62
     7
370
    15
100
AcDbCircle
 10
159.307409733
 20
124.792327242
 30
0.0
 40
0.1250000000000284
100
AcDbArc
 50
180.0
 51
267.7075572243
  0
LINE
  5
E8
330
1F
100
AcDbEntity
  8
0
  6
Continuous
 62
     7
370
    15
100
AcDbLine
 10
229.8666769163
 20
124.0582717056
 30
0.0
 11
229.8566769163
 21
124.0582717056
 31
0.0
  0
LINE
  5
E9
330
1F
100
AcDbEntity
  8
0
  6
Continuous
 62
     7
370
    15
100
AcDbLine
 10
229.8666769163
 20
124.0582717056
 30
0.0
 11
229.8666769163
 21
123.0582717056
 31
0.0
  0
LINE
  5
EA
330
1F
100
AcDbEntity
  8
0
  6
Continuous
 62
     7
370
    15
100
AcDbLine
 10
229.8666769163
 20
123.0582717056
 30
0.0
 11
229.8566769163
 21
123.0582717056
 31
0.0
  0
LINE
  5
EB
330
1F
100
AcDbEntity
  8
0
  6
Continuous
 62
     7
370
    15
100
AcDbLine
 10
229.8566769163
 20
124.0582717056
 30
0.0
 11
229.8566769163
 21
123.0582717056
 31
0.0
  0
LINE
  5
EC
330
1F
100
AcDbEntity
  8
0
  6
Continuous
 62
     7
370
    15
100
AcDbLine
 10
229.8766769163
 20
123.3140058503
 30
0.0
 11
229.8666769163
 21
123.3140058503
 31
0.0
  0
LINE
  5
ED
330
1F
100
AcDbEntity
  8
0
  6
Continuous
 62
     7
370
    15
100
AcDbLine
 10
229.8766769163
 20
123.6640058503
 30
0.0
 11
229.8666769163
 21
123.6640058503
 31
0.0
  0
LINE
  5
EE
330
1F
100
AcDbEntity
  8
0
  6
Continuous
 62
     7
370
    15
100
AcDbLine
 10
229.8766769163
 20
123.3140058503
 30
0.0
 11
229.8766769163
 21
123.6640058503
 31
0.0
  0
LINE
  5
EF
330
1F
100
AcDbEntity
  8
0
  6
Continuous
 62
     7
370
    15
100
AcDbLine
 10
229.8766769163
 20
123.3050314913
 30
0.0
 11
229.8666769163
 21
123.3050314913
 31
0.0
  0
LINE
  5
F0
330
1F
100
AcDbEntity
  8
0
  6
Continuous
 62
     7
370
    15
100
AcDbLine
 10
229.8766769163
 20
123.6729802093
 30
0.0
 11
229.8666769163
 21
123.6729802093
 31
0.0
  0
SPLINE
  5
F1
330
1F
100
AcDbEntity
  8
0
  6
Continuous
 62
     7
370
    15
100
AcDbSpline
210
0.0
220
0.0
230
1.0
 70
     8
 71
     3
 72
    13
 73
     9
 74
     0
 42
0.00000001
 43
0.00000001
 40
0.0
 40
0.0
 40
0.0
 40
0.0
 40
0.0075462231142632
 40
0.2722763788511636
 40
0.4815195415726423
 40
0.6613541616921915
 40
0.8304588949397416
 40
0.9999999999999999
 40
0.9999999999999999
 40
0.9999999999999999
 40
0.9999999999999999
 10
157.8324097329543
 20
127.0579951590719
 30
0.0
 10
157.8324094145501
 20
127.0580058539988
 30
0.0
 10
157.8323979261597
 20
127.0583917392201
 30
0.0
 10
157.8312393601986
 20
127.0590932545259
 30
0.0
 10
157.8269674822713
 20
127.059980181209
 30
0.0
 10
157.8214003219609
 20
127.0606086021955
 30
0.0
 10
157.8147867426228
 20
127.0610305670224
 30
0.0
 10
157.809870847683
 20
127.0610865149969
 30
0.0
 10
157.8074097329543
 20
127.0611145250309
 30
0.0
  0
LINE
  5
F2
330
1F
100
AcDbEntity
  8
0
  6
Continuous
 62
     7
370
    15
100
AcDbLine
 10
157.832409733
 20
127.8347681756
 30
0.0
 11
157.832409733
 21
127.0579951591
 31
0.0
  0
SPLINE
  5
F3
330
1F
100
AcDbEntity
  8
0
  6
Continuous
 62
     7
370
    15
100
AcDbSpline
210
0.0
220
0.0
230
1.0
 70
     8
 71
     3
 72
    13
 73
     9
 74
     0
 42
0.00000001
 43
0.00000001
 40
0.0
 40
0.0
 40
0.0
 40
0.0
 40
0.1695411050601626
 40
0.3386458383078123
 40
0.5184804584276944
 40
0.7277236211486848
 40
0.9924537768863633
 40
1.0
 40
1.0
 40
1.0
 40
1.0
 10
157.7374097329543
 20
127.0611145250309
 30
0.0
 10
157.7349486182256
 20
127.061086514997
 30
0.0
 10
157.7300327232858
 20
127.0610305670224
 30
0.0
 10
157.7234191439478
 20
127.0606086021955
 30
0.0
 10
157.7178519836374
 20
127.059980181209
 30
0.0
 10
157.71358010571
 20
127.0590932545259
 30
0.0
 10
157.7124215397491
 20
127.0583917392202
 30
0.0
 10
157.7124100513585
 20
127.0580058539988
 30
0.0
 10
157.7124097329543
 20
127.0579951590719
 30
0.0
  0
LINE
  5
F4
330
1F
100
AcDbEntity
  8
0
  6
Continuous
 62
     7
370
    15
100
AcDbLine
 10
157.712409733
 20
127.0579951591
 30
0.0
 11
157.712409733
 21
127.8070010439
 31
0.0
  0
LINE
  5
F5
330
1F
100
AcDbEntity
  8
0
  6
Continuous
 62
     7
370
    15
100
AcDbLine
 10
157.737409733
 20
127.061114525
 30
0.0
 11
157.807409733
 21
127.061114525
 31
0.0
  0
SPLINE
  5
F6
330
1F
100
AcDbEntity
  8
0
  6
Continuous
 62
     7
370
    15
100
AcDbSpline
210
0.0
220
0.0
230
1.0
 70
     8
 71
     3
 72
    12
 73
     8
 74
     0
 42
0.00000001
 43
0.00000001
 40
0.0
 40
0.0
 40
0.0
 40
0.0
 40
0.2028202020467101
 40
0.4049472449426563
 40
0.609831203074085
 40
0.8226939241828363
 40
1.0
 40
1.0
 40
1.0
 40
1.0
 10
157.6874097329543
 20
126.5262169010818
 30
0.0
 10
157.7031238170079
 20
126.5274392030006
 30
0.0
 10
157.7344982805971
 20
126.5298796294942
 30
0.0
 10
157.7765379056441
 20
126.5488447501274
 30
0.0
 10
157.8092457591881
 20
126.5770577657044
 30
0.0
 10
157.8290666858146
 20
126.6110223119571
 30
0.0
 10
157.8313652064069
 20
126.6350970767247
 30
0.0
 10
157.8324097329543
 20
126.6460374750876
 30
0.0
  0
SPLINE
  5
F7
330
1F
100
AcDbEntity
  8
0
  6
Continuous
 62
     7
370
    15
100
AcDbSpline
210
0.0
220
0.0
230
1.0
 70
     8
 71
     3
 72
    12
 73
     8
 74
     0
 42
0.00000001
 43
0.00000001
 40
0.0
 40
0.0
 40
0.0
 40
0.0
 40
0.2289440738516305
 40
0.4594214300241565
 40
0.6825355698157475
 40
0.8947175231628909
 40
1.0
 40
1.0
 40
1.0
 40
1.0
 10
157.8324097329543
 20
127.0335558363941
 30
0.0
 10
157.8306762844966
 20
127.0206678787613
 30
0.0
 10
157.8271977783447
 20
126.9948056503745
 30
0.0
 10
157.7998107937634
 20
126.9605445650251
 30
0.0
 10
157.7601071403151
 20
126.9358385343307
 30
0.0
 10
157.7200195413799
 20
126.9247300987554
 30
0.0
 10
157.6955310020711
 20
126.9237852500202
 30
0.0
 10
157.6874097329543
 20
126.9234719046322
 30
0.0
  0
LINE
  5
F8
330
1F
100
AcDbEntity
  8
0
  6
Continuous
 62
     7
370
    15
100
AcDbLine
 10
157.832409733
 20
127.0335558364
 30
0.0
 11
157.832409733
 21
126.6460374751
 31
0.0
  0
LINE
  5
F9
330
1F
100
AcDbEntity
  8
0
  6
Continuous
 62
     7
370
    15
100
AcDbLine
 10
157.152409733
 20
126.549283331
 30
0.0
 11
157.152409733
 21
126.9368016923
 31
0.0
  0
LINE
  5
FA
330
1F
100
AcDbEntity
  8
0
  6
Continuous
 62
     7
370
    15
100
AcDbLine
 10
157.152409733
 20
126.9368016923
 30
0.0
 11
157.152409733
 21
126.9930654525
 31
0.0
  0
LINE
  5
FB
330
1F
100
AcDbEntity
  8
0
  6
Continuous
 62
     7
370
    15
100
AcDbLine
 10
157.832409733
 20
127.0579951591
 30
0.0
 11
157.832409733
 21
127.0335558364
 31
0.0
  0
LINE
  5
FC
330
1F
100
AcDbEntity
  8
0
  6
Continuous
 62
     7
370
    15
100
AcDbLine
 10
157.712409733
 20
127.0335558364
 30
0.0
 11
157.712409733
 21
127.0579951591
 31
0.0
  0
LINE
  5
FD
330
1F
100
AcDbEntity
  8
0
  6
Continuous
 62
     7
370
    15
100
AcDbLine
 10
157.687409733
 20
126.524283331
 30
0.0
 11
157.687409733
 21
126.5262169011
 31
0.0
  0
LINE
  5
FE
330
1F
100
AcDbEntity
  8
0
  6
Continuous
 62
     7
370
    15
100
AcDbLine
 10
157.832409733
 20
126.6460374751
 30
0.0
 11
157.832409733
 21
126.622327242
 31
0.0
  0
SPLINE
  5
FF
330
1F
100
AcDbEntity
  8
0
  6
Continuous
 62
     7
370
    15
100
AcDbSpline
210
0.0
220
0.0
230
1.0
 70
     8
 71
     3
 72
    10
 73
     6
 74
     0
 42
0.00000001
 43
0.00000001
 40
0.0
 40
0.0
 40
0.0
 40
0.0
 40
0.3816828359348319
 40
0.7620612310507952
 40
1.0
 40
1.0
 40
1.0
 40
1.0
 10
157.6874097329543
 20
128.4084375829408
 30
0.0
 10
157.7030348302189
 20
128.4071519449088
 30
0.0
 10
157.7342316243518
 20
128.4045850626468
 30
0.0
 10
157.7720267093155
 20
128.388887559192
 30
0.0
 10
157.7882997116337
 20
128.3733600988333
 30
0.0
 10
157.7945618346407
 20
128.3673848728209
 30
0.0
  0
LINE
  5
100
330
1F
100
AcDbEntity
  8
0
  6
Continuous
 62
     7
370
    15
100
AcDbLine
 10
157.152409733
 20
128.3291073929
 30
0.0
 11
157.152409733
 21
128.385371153
 31
0.0
  0
LINE
  5
101
330
1F
100
AcDbEntity
  8
0
  6
Continuous
 62
     7
370
    15
100
AcDbLine
 10
157.152409733
 20
127.9989978372
 30
0.0
 11
157.152409733
 21
128.3291073929
 31
0.0
  0
SPLINE
  5
102
330
1F
100
AcDbEntity
  8
0
  6
Continuous
 62
     7
370
    15
100
AcDbSpline
210
0.0
220
0.0
230
1.0
 70
     8
 71
     3
 72
    13
 73
     9
 74
     0
 42
0.00000001
 43
0.00000001
 40
0.0
 40
0.0
 40
0.0
 40
0.0
 40
0.0075462231143671
 40
0.2722763788512511
 40
0.4815195415726589
 40
0.6613541616921562
 40
0.8304588949397455
 40
1.0
 40
1.0
 40
1.0
 40
1.0
 10
157.5924097329543
 20
127.800658807692
 30
0.0
 10
157.5924100513586
 20
127.8006373141925
 30
0.0
 10
157.5924215397489
 20
127.7998618040958
 30
0.0
 10
157.5935801057101
 20
127.7984668385486
 30
0.0
 10
157.5978519836374
 20
127.7967314658252
 30
0.0
 10
157.6034191439478
 20
127.7955149281364
 30
0.0
 10
157.6100327232858
 20
127.7947041365596
 30
0.0
 10
157.6149486182257
 20
127.7945970373431
 30
0.0
 10
157.6174097329543
 20
127.794543418732
 30
0.0
  0
LINE
  5
103
330
1F
100
AcDbEntity
  8
0
  6
Continuous
 62
     7
370
    15
100
AcDbLine
 10
157.592409733
 20
127.0180654525
 30
0.0
 11
157.592409733
 21
127.8006588077
 31
0.0
  0
SPLINE
  5
104
330
1F
100
AcDbEntity
  8
0
  6
Continuous
 62
     7
370
    15
100
AcDbSpline
210
0.0
220
0.0
230
1.0
 70
     8
 71
     3
 72
    13
 73
     9
 74
     0
 42
0.00000001
 43
0.00000001
 40
0.0
 40
0.0
 40
0.0
 40
0.0
 40
0.1695411050601452
 40
0.338645838307839
 40
0.5184804584277138
 40
0.7277236211485912
 40
0.9924537768863848
 40
1.0
 40
1.0
 40
1.0
 40
1.0
 10
157.6874097329543
 20
127.794543418732
 30
0.0
 10
157.689870847683
 20
127.7945970373431
 30
0.0
 10
157.6947867426229
 20
127.7947041365596
 30
0.0
 10
157.7014003219609
 20
127.7955149281364
 30
0.0
 10
157.7069674822713
 20
127.7967314658251
 30
0.0
 10
157.7112393601986
 20
127.7984668385487
 30
0.0
 10
157.7123979261598
 20
127.7998618040957
 30
0.0
 10
157.7124094145501
 20
127.8006373141925
 30
0.0
 10
157.7124097329543
 20
127.800658807692
 30
0.0
  0
LINE
  5
105
330
1F
100
AcDbEntity
  8
0
  6
Continuous
 62
     7
370
    15
100
AcDbLine
 10
157.712409733
 20
127.8006588077
 30
0.0
 11
157.712409733
 21
127.0579951591
 31
0.0
  0
LINE
  5
106
330
1F
100
AcDbEntity
  8
0
  6
Continuous
 62
     7
370
    15
100
AcDbLine
 10
157.687409733
 20
127.7945434187
 30
0.0
 11
157.617409733
 21
127.7945434187
 31
0.0
  0
SPLINE
  5
107
330
1F
100
AcDbEntity
  8
0
  6
Continuous
 62
     7
370
    15
100
AcDbSpline
210
0.0
220
0.0
230
1.0
 70
     8
 71
     3
 72
    12
 73
     8
 74
     0
 42
0.00000001
 43
0.00000001
 40
0.0
 40
0.0
 40
0.0
 40
0.0
 40
0.2028202020467135
 40
0.4049472449426536
 40
0.6098312030740834
 40
0.8226939241828396
 40
1.0
 40
1.0
 40
1.0
 40
1.0
 10
157.7374097329543
 20
128.3643712454542
 30
0.0
 10
157.7216956489007
 20
128.363249621201
 30
0.0
 10
157.6903211853115
 20
128.3610102059621
 30
0.0
 10
157.6482815602646
 20
128.3436041391848
 30
0.0
 10
157.6155737067206
 20
128.3176996928563
 30
0.0
 10
157.595752780094
 20
128.2864986147007
 30
0.0
 10
157.5934542595018
 20
128.2643630079775
 30
0.0
 10
157.5924097329543
 20
128.2543038295019
 30
0.0
  0
SPLINE
  5
108
330
1F
100
AcDbEntity
  8
0
  6
Continuous
 62
     7
370
    15
100
AcDbSpline
210
0.0
220
0.0
230
1.0
 70
     8
 71
     3
 72
    12
 73
     8
 74
     0
 42
0.00000001
 43
0.00000001
 40
0.0
 40
0.0
 40
0.0
 40
0.0
 40
0.2289440738516388
 40
0.4594214300241587
 40
0.6825355698157488
 40
0.8947175231628918
 40
1.0
 40
1.0
 40
1.0
 40
1.0
 10
157.5924097329543
 20
127.8229073745097
 30
0.0
 10
157.5941431814121
 20
127.8345121903771
 30
0.0
 10
157.597621687564
 20
127.8577995417869
 30
0.0
 10
157.6250086721452
 20
127.8886883605251
 30
0.0
 10
157.6647123255935
 20
127.9109752727003
 30
0.0
 10
157.7047999245288
 20
127.9210002002068
 30
0.0
 10
157.7292884638375
 20
127.9218528985173
 30
0.0
 10
157.7374097329543
 20
127.9221356835527
 30
0.0
  0
LINE
  5
109
330
1F
100
AcDbEntity
  8
0
  6
Continuous
 62
     7
370
    15
100
AcDbLine
 10
157.592409733
 20
127.8229073745
 30
0.0
 11
157.592409733
 21
128.2543038295
 31
0.0
  0
LINE
  5
10A
330
1F
100
AcDbEntity
  8
0
  6
Continuous
 62
     7
370
    15
100
AcDbLine
 10
158.272409733
 20
128.3423848728
 30
0.0
 11
158.272409733
 21
127.9109884178
 31
0.0
  0
LINE
  5
10B
330
1F
100
AcDbEntity
  8
0
  6
Continuous
 62
     7
370
    15
100
AcDbLine
 10
158.272409733
 20
127.9109884178
 30
0.0
 11
158.272409733
 21
127.8597681756
 31
0.0
  0
LINE
  5
10C
330
1F
100
AcDbEntity
  8
0
  6
Continuous
 62
     7
370
    15
100
AcDbLine
 10
157.592409733
 20
127.8006588077
 30
0.0
 11
157.592409733
 21
127.8229073745
 31
0.0
  0
LINE
  5
10D
330
1F
100
AcDbEntity
  8
0
  6
Continuous
 62
     7
370
    15
100
AcDbLine
 10
157.712409733
 20
127.8229073745
 30
0.0
 11
157.712409733
 21
127.8006588077
 31
0.0
  0
LINE
  5
10E
330
1F
100
AcDbEntity
  8
0
  6
Continuous
 62
     7
370
    15
100
AcDbLine
 10
157.737409733
 20
128.3673848728
 30
0.0
 11
157.737409733
 21
128.3643712455
 31
0.0
  0
LINE
  5
10F
330
1F
100
AcDbEntity
  8
0
  6
Continuous
 62
     7
370
    15
100
AcDbLine
 10
157.592409733
 20
128.2543038295
 30
0.0
 11
157.592409733
 21
128.312327242
 31
0.0
  0
LINE
  5
110
330
1F
100
AcDbEntity
  8
0
  6
Continuous
 62
     7
370
    15
100
AcDbLine
 10
158.272409733
 20
126.6434898534
 30
0.0
 11
158.272409733
 21
126.5922696112
 31
0.0
  0
LINE
  5
111
330
1F
100
AcDbEntity
  8
0
  6
Continuous
 62
     7
370
    15
100
AcDbLine
 10
158.272409733
 20
126.9171954112
 30
0.0
 11
158.272409733
 21
126.6434898534
 31
0.0
  0
LINE
  5
112
330
1F
100
AcDbEntity
  8
0
  6
Continuous
 62
     7
370
    15
100
AcDbLine
 10
157.5477515342
 20
127.9280850464
 30
0.0
 11
157.592409733
 21
127.6622497487
 31
0.0
  0
SPLINE
  5
113
330
1F
100
AcDbEntity
  8
0
  6
Continuous
 62
     7
370
    15
100
AcDbSpline
210
0.0
220
0.0
230
1.0
 70
     8
 71
     3
 72
     9
 73
     5
 74
     0
 42
0.00000001
 43
0.00000001
 40
0.0
 40
0.0
 40
0.0
 40
0.0
 40
0.0702005767035069
 40
1.0
 40
1.0
 40
1.0
 40
1.0
 10
157.5924097329543
 20
127.6622497487366
 30
0.0
 10
157.5923651213276
 20
127.6559478792522
 30
0.0
 10
157.5917296332895
 20
127.5661783961462
 30
0.0
 10
157.5689406851
 20
127.4782086605489
 30
0.0
 10
157.5477515342158
 20
127.396414451123
 30
0.0
  0
LINE
  5
114
330
1F
100
AcDbEntity
  8
0
  6
Continuous
 62
     7
370
    15
100
AcDbLine
 10
157.5477515342
 20
127.3964144511
 30
0.0
 11
157.1170679317
 21
127.3964144511
 31
0.0
  0
SPLINE
  5
115
330
1F
100
AcDbEntity
  8
0
  6
Continuous
 62
     7
370
    15
100
AcDbSpline
210
0.0
220
0.0
230
1.0
 70
     8
 71
     3
 72
     9
 73
     5
 74
     0
 42
0.00000001
 43
0.00000001
 40
0.0
 40
0.0
 40
0.0
 40
0.0
 40
0.0702005767035676
 40
1.0
 40
1.0
 40
1.0
 40
1.0
 10
157.0724097329543
 20
127.6622497487366
 30
0.0
 10
157.0724543445811
 20
127.6559478792522
 30
0.0
 10
157.0730898326191
 20
127.5661783961462
 30
0.0
 10
157.0958787808087
 20
127.4782086605489
 30
0.0
 10
157.1170679316928
 20
127.396414451123
 30
0.0
  0
LINE
  5
116
330
1F
100
AcDbEntity
  8
0
  6
Continuous
 62
     7
370
    15
100
AcDbLine
 10
157.1170679317
 20
127.9280850464
 30
0.0
 11
157.072409733
 21
127.6622497487
 31
0.0
  0
LINE
  5
117
330
1F
100
AcDbEntity
  8
0
  6
Continuous
 62
     7
370
    15
100
AcDbLine
 10
157.5477515342
 20
127.9280850464
 30
0.0
 11
157.1170679317
 21
127.9280850464
 31
0.0
  0
SPLINE
  5
118
330
1F
100
AcDbEntity
  8
0
  6
Continuous
 62
     7
370
    15
100
AcDbSpline
210
0.0
220
0.0
230
1.0
 70
     8
 71
     3
 72
     9
 73
     5
 74
     0
 42
0.00000001
 43
0.00000001
 40
0.0
 40
0.0
 40
0.0
 40
0.0
 40
0.2686336050556213
 40
1.0
 40
1.0
 40
1.0
 40
1.0
 10
157.5924097329543
 20
127.1660355489536
 30
0.0
 10
157.5917468376959
 20
127.1869834375862
 30
0.0
 10
157.5892791819523
 20
127.2649628423905
 30
0.0
 10
157.5652937055922
 20
127.3408864649792
 30
0.0
 10
157.5477515342158
 20
127.396414451123
 30
0.0
  0
SPLINE
  5
119
330
1F
100
AcDbEntity
  8
0
  6
Continuous
 62
     7
370
    15
100
AcDbSpline
210
0.0
220
0.0
230
1.0
 70
     8
 71
     3
 72
     9
 73
     5
 74
     0
 42
0.00000001
 43
0.00000001
 40
0.0
 40
0.0
 40
0.0
 40
0.0
 40
0.2686336050556674
 40
1.0
 40
1.0
 40
1.0
 40
1.0
 10
157.0724097329543
 20
127.1660355489535
 30
0.0
 10
157.0730726282128
 20
127.1869834375862
 30
0.0
 10
157.0755402839564
 20
127.2649628423905
 30
0.0
 10
157.0995257603164
 20
127.3408864649792
 30
0.0
 10
157.1170679316928
 20
127.396414451123
 30
0.0
  0
LINE
  5
11A
330
1F
100
AcDbEntity
  8
0
  6
Continuous
 62
     7
370
    15
100
AcDbLine
 10
157.072409733
 20
127.166035549
 30
0.0
 11
157.072409733
 21
127.6622497487
 31
0.0
  0
LINE
  5
11B
330
1F
100
AcDbEntity
  8
0
  6
Continuous
 62
     7
370
    15
100
AcDbLine
 10
157.5703014332
 20
127.0180654525
 30
0.0
 11
157.592409733
 21
127.166035549
 31
0.0
  0
LINE
  5
11C
330
1F
100
AcDbEntity
  8
0
  6
Continuous
 62
     7
370
    15
100
AcDbLine
 10
157.152409733
 20
126.9356566468
 30
0.0
 11
157.1170679317
 21
126.9356566468
 31
0.0
  0
SPLINE
  5
11D
330
1F
100
AcDbEntity
  8
0
  6
Continuous
 62
     7
370
    15
100
AcDbSpline
210
0.0
220
0.0
230
1.0
 70
     8
 71
     3
 72
     9
 73
     5
 74
     0
 42
0.00000001
 43
0.00000001
 40
0.0
 40
0.0
 40
0.0
 40
0.0
 40
0.2575513451038692
 40
1.0
 40
1.0
 40
1.0
 40
1.0
 10
157.1170679316928
 20
126.9356566467841
 30
0.0
 10
157.1103264094154
 20
126.9549973558879
 30
0.0
 10
157.084150959721
 20
127.0300919320624
 30
0.0
 10
157.0774126109417
 20
127.1081106538819
 30
0.0
 10
157.0724097329543
 20
127.1660355489535
 30
0.0
  0
SPLINE
  5
11E
330
1F
100
AcDbEntity
  8
0
  6
Continuous
 62
     7
370
    15
100
AcDbSpline
210
0.0
220
0.0
230
1.0
 70
     8
 71
     3
 72
     9
 73
     5
 74
     0
 42
0.00000001
 43
0.00000001
 40
0.0
 40
0.0
 40
0.0
 40
0.0
 40
0.0702005767035511
 40
1.0
 40
1.0
 40
1.0
 40
1.0
 10
157.5924097329543
 20
127.9635414417944
 30
0.0
 10
157.5923651213276
 20
127.9627009154291
 30
0.0
 10
157.5917296332895
 20
127.9507277037434
 30
0.0
 10
157.5689406851
 20
127.9389945375294
 30
0.0
 10
157.5477515342158
 20
127.9280850463502
 30
0.0
  0
SPLINE
  5
11F
330
1F
100
AcDbEntity
  8
0
  6
Continuous
 62
     7
370
    15
100
AcDbSpline
210
0.0
220
0.0
230
1.0
 70
     8
 71
     3
 72
     9
 73
     5
 74
     0
 42
0.00000001
 43
0.00000001
 40
0.0
 40
0.0
 40
0.0
 40
0.0
 40
0.0702005767035059
 40
1.0
 40
1.0
 40
1.0
 40
1.0
 10
157.0724097329543
 20
127.9635414417944
 30
0.0
 10
157.0724543445811
 20
127.9627009154291
 30
0.0
 10
157.0730898326191
 20
127.9507277037434
 30
0.0
 10
157.0958787808087
 20
127.9389945375294
 30
0.0
 10
157.1170679316929
 20
127.9280850463502
 30
0.0
  0
LINE
  5
120
330
1F
100
AcDbEntity
  8
0
  6
Continuous
 62
     7
370
    15
100
AcDbLine
 10
157.072409733
 20
127.6622497487
 30
0.0
 11
157.072409733
 21
127.9635414418
 31
0.0
  0
LINE
  5
121
330
1F
100
AcDbEntity
  8
0
  6
Continuous
 62
     7
370
    15
100
AcDbLine
 10
157.1170679317
 20
126.9356566468
 30
0.0
 11
157.072409733
 21
126.9711130422
 31
0.0
  0
LINE
  5
122
330
1F
100
AcDbEntity
  8
0
  6
Continuous
 62
     7
370
    15
100
AcDbLine
 10
157.072409733
 20
127.166035549
 30
0.0
 11
157.072409733
 21
126.9673423126
 31
0.0
  0
LINE
  5
123
330
1F
100
AcDbEntity
  8
0
  6
Continuous
 62
     7
370
    15
100
AcDbLine
 10
157.5477515342
 20
127.9989978372
 30
0.0
 11
157.592409733
 21
127.9635414418
 31
0.0
  0
LINE
  5
124
330
1F
100
AcDbEntity
  8
0
  6
Continuous
 62
     7
370
    15
100
AcDbLine
 10
157.1170679317
 20
127.9989978372
 30
0.0
 11
157.072409733
 21
127.9635414418
 31
0.0
  0
LINE
  5
125
330
1F
100
AcDbEntity
  8
0
  6
Continuous
 62
     7
370
    15
100
AcDbLine
 10
157.5477515342
 20
127.9989978372
 30
0.0
 11
157.1170679317
 21
127.9989978372
 31
0.0
  0
LINE
  5
126
330
1F
100
AcDbEntity
  8
0
  6
Continuous
 62
     7
370
    15
100
AcDbLine
 10
158.8527515342
 20
127.2769439731
 30
0.0
 11
158.872409733
 21
127.1940025068
 31
0.0
  0
LINE
  5
127
330
1F
100
AcDbEntity
  8
0
  6
Continuous
 62
     7
370
    15
100
AcDbLine
 10
158.872409733
 20
126.977569237
 30
0.0
 11
158.8527515342
 21
126.9001020725
 31
0.0
  0
LINE
  5
128
330
1F
100
AcDbEntity
  8
0
  6
Continuous
 62
     7
370
    15
100
AcDbLine
 10
158.8527515342
 20
126.9001020725
 30
0.0
 11
158.4220679317
 21
126.9001020725
 31
0.0
  0
SPLINE
  5
129
330
1F
100
AcDbEntity
  8
0
  6
Continuous
 62
     7
370
    15
100
AcDbSpline
210
0.0
220
0.0
230
1.0
 70
     8
 71
     3
 72
     9
 73
     5
 74
     0
 42
0.00000001
 43
0.00000001
 40
0.0
 40
0.0
 40
0.0
 40
0.0
 40
0.0702005767035329
 40
1.0
 40
1.0
 40
1.0
 40
1.0
 10
158.3774097329543
 20
127.0885230228295
 30
0.0
 10
158.3774543445811
 20
127.0840563314324
 30
0.0
 10
158.3780898326191
 20
127.0204287715632
 30
0.0
 10
158.4008787808087
 20
126.9580768516818
 30
0.0
 10
158.4220679316929
 20
126.9001020725346
 30
0.0
  0
LINE
  5
12A
330
1F
100
AcDbEntity
  8
0
  6
Continuous
 62
     7
370
    15
100
AcDbLine
 10
158.4220679317
 20
127.2769439731
 30
0.0
 11
158.377409733
 21
127.0885230228
 31
0.0
  0
LINE
  5
12B
330
1F
100
AcDbEntity
  8
0
  6
Continuous
 62
     7
370
    15
100
AcDbLine
 10
158.8527515342
 20
127.2769439731
 30
0.0
 11
158.4220679317
 21
127.2769439731
 31
0.0
  0
SPLINE
  5
12C
330
1F
100
AcDbEntity
  8
0
  6
Continuous
 62
     7
370
    15
100
AcDbSpline
210
0.0
220
0.0
230
1.0
 70
     8
 71
     3
 72
     9
 73
     5
 74
     0
 42
0.00000001
 43
0.00000001
 40
0.0
 40
0.0
 40
0.0
 40
0.0
 40
0.2575513451038675
 40
1.0
 40
1.0
 40
1.0
 40
1.0
 10
158.4220679316928
 20
127.2769439731244
 30
0.0
 10
158.4153264094154
 20
127.3007537423694
 30
0.0
 10
158.389150959721
 20
127.3932004319236
 30
0.0
 10
158.3824126109417
 20
127.4892469498332
 30
0.0
 10
158.3774097329543
 20
127.5605565578627
 30
0.0
  0
LINE
  5
12D
330
1F
100
AcDbEntity
  8
0
  6
Continuous
 62
     7
370
    15
100
AcDbLine
 10
158.377409733
 20
127.0885230228
 30
0.0
 11
158.377409733
 21
127.5605565579
 31
0.0
  0
SPLINE
  5
12E
330
1F
100
AcDbEntity
  8
0
  6
Continuous
 62
     7
370
    15
100
AcDbSpline
210
0.0
220
0.0
230
1.0
 70
     8
 71
     3
 72
     9
 73
     5
 74
     0
 42
0.00000001
 43
0.00000001
 40
0.0
 40
0.0
 40
0.0
 40
0.0
 40
0.9250528692451452
 40
1.0
 40
1.0
 40
1.0
 40
1.0
 10
158.8527515342158
 20
127.2769439731244
 30
0.0
 10
158.8606069054921
 20
127.3005474531071
 30
0.0
 10
158.8690987134066
 20
127.3260632703836
 30
0.0
 10
158.8721788830763
 20
127.3525813445752
 30
0.0
 10
158.8724097329553
 20
127.354568798149
 30
0.0
  0
SPLINE
  5
12F
330
1F
100
AcDbEntity
  8
0
  6
Continuous
 62
     7
370
    15
100
AcDbSpline
210
0.0
220
0.0
230
1.0
 70
     8
 71
     3
 72
     9
 73
     5
 74
     0
 42
0.00000001
 43
0.00000001
 40
0.0
 40
0.0
 40
0.0
 40
0.0
 40
0.2686336050556701
 40
1.0
 40
1.0
 40
1.0
 40
1.0
 10
158.3774097329543
 20
127.5605565578627
 30
0.0
 10
158.3780726282128
 20
127.5863448778173
 30
0.0
 10
158.3805402839564
 20
127.6823429937239
 30
0.0
 10
158.4045257603164
 20
127.7758102975538
 30
0.0
 10
158.4220679316928
 20
127.844169142601
 30
0.0
  0
LINE
  5
130
330
1F
100
AcDbEntity
  8
0
  6
Continuous
 62
     7
370
    15
100
AcDbLine
 10
158.8527515342
 20
127.8441691426
 30
0.0
 11
158.4220679317
 21
127.8441691426
 31
0.0
  0
LINE
  5
131
330
1F
100
AcDbEntity
  8
0
  6
Continuous
 62
     7
370
    15
100
AcDbLine
 10
158.872409733
 20
127.745473309
 30
0.0
 11
158.8527515342
 21
127.8441691426
 31
0.0
  0
SPLINE
  5
132
330
1F
100
AcDbEntity
  8
0
  6
Continuous
 62
     7
370
    15
100
AcDbSpline
210
0.0
220
0.0
230
1.0
 70
     8
 71
     3
 72
     9
 73
     5
 74
     0
 42
0.00000001
 43
0.00000001
 40
0.0
 40
0.0
 40
0.0
 40
0.0
 40
0.0702005767035755
 40
1.0
 40
1.0
 40
1.0
 40
1.0
 10
158.3774097329543
 20
127.9393607770445
 30
0.0
 10
158.3774543445811
 20
127.9371041720652
 30
0.0
 10
158.3780898326191
 20
127.9049590660666
 30
0.0
 10
158.4008787808087
 20
127.8734584226672
 30
0.0
 10
158.4220679316928
 20
127.844169142601
 30
0.0
  0
LINE
  5
133
330
1F
100
AcDbEntity
  8
0
  6
Continuous
 62
     7
370
    15
100
AcDbLine
 10
158.377409733
 20
127.5605565579
 30
0.0
 11
158.377409733
 21
127.939360777
 31
0.0
  0
LINE
  5
134
330
1F
100
AcDbEntity
  8
0
  6
Continuous
 62
     7
370
    15
100
AcDbLine
 10
158.872409733
 20
127.8833061175
 30
0.0
 11
158.8527515342
 21
127.8441691426
 31
0.0
  0
LINE
  5
135
330
1F
100
AcDbEntity
  8
0
  6
Continuous
 62
     7
370
    15
100
AcDbLine
 10
158.8527515342
 20
128.0345524115
 30
0.0
 11
158.870346026
 21
127.997048695
 31
0.0
  0
LINE
  5
136
330
1F
100
AcDbEntity
  8
0
  6
Continuous
 62
     7
370
    15
100
AcDbLine
 10
158.4220679317
 20
128.0345524115
 30
0.0
 11
158.377409733
 21
127.939360777
 31
0.0
  0
LINE
  5
137
330
1F
100
AcDbEntity
  8
0
  6
Continuous
 62
     7
370
    15
100
AcDbLine
 10
158.8527515342
 20
128.0345524115
 30
0.0
 11
158.4220679317
 21
128.0345524115
 31
0.0
  0
LINE
  5
138
330
1F
100
AcDbEntity
  8
0
  6
Continuous
 62
     7
370
    15
100
AcDbLine
 10
158.4220679317
 20
126.9001020725
 30
0.0
 11
158.4044734399
 21
126.9376057891
 31
0.0
  0
LINE
  5
139
330
1F
100
AcDbEntity
  8
0
  6
Continuous
 62
     7
370
    15
100
AcDbLine
 10
158.377409733
 20
126.967327242
 30
0.0
 11
158.377409733
 21
127.0885230228
 31
0.0
  0
LINE
  5
13A
330
1F
100
AcDbEntity
  8
0
  6
Continuous
 62
     7
370
    15
100
AcDbLine
 10
158.8527515342
 20
126.9001020725
 30
0.0
 11
158.870346026
 21
126.9376057891
 31
0.0
  0
LINE
  5
13B
330
1F
100
AcDbEntity
  8
0
  6
Continuous
 62
     7
370
    15
100
AcDbLine
 10
158.377409733
 20
127.939360777
 30
0.0
 11
158.377409733
 21
127.967327242
 31
0.0
  0
LINE
  5
13C
330
1F
100
AcDbEntity
  8
0
  6
Continuous
 62
     7
370
    15
100
AcDbLine
 10
158.3077515342
 20
128.0174590728
 30
0.0
 11
158.352409733
 21
127.8040706167
 31
0.0
  0
SPLINE
  5
13D
330
1F
100
AcDbEntity
  8
0
  6
Continuous
 62
     7
370
    15
100
AcDbSpline
210
0.0
220
0.0
230
1.0
 70
     8
 71
     3
 72
     9
 73
     5
 74
     0
 42
0.00000001
 43
0.00000001
 40
0.0
 40
0.0
 40
0.0
 40
0.0
 40
0.0702005767034991
 40
1.0
 40
1.0
 40
1.0
 40
1.0
 10
158.3524097329543
 20
127.8040706167384
 30
0.0
 10
158.3523651213276
 20
127.7990120477228
 30
0.0
 10
158.3517296332895
 20
127.72695325201
 30
0.0
 10
158.3289406851
 20
127.6563391302953
 30
0.0
 10
158.3077515342158
 20
127.5906821606483
 30
0.0
  0
LINE
  5
13E
330
1F
100
AcDbEntity
  8
0
  6
Continuous
 62
     7
370
    15
100
AcDbLine
 10
158.3077515342
 20
127.5906821606
 30
0.0
 11
157.8770679317
 21
127.5906821606
 31
0.0
  0
SPLINE
  5
13F
330
1F
100
AcDbEntity
  8
0
  6
Continuous
 62
     7
370
    15
100
AcDbSpline
210
0.0
220
0.0
230
1.0
 70
     8
 71
     3
 72
     9
 73
     5
 74
     0
 42
0.00000001
 43
0.00000001
 40
0.0
 40
0.0
 40
0.0
 40
0.0
 40
0.0702005767035712
 40
1.0
 40
1.0
 40
1.0
 40
1.0
 10
157.8324097329543
 20
127.8040706167383
 30
0.0
 10
157.8324543445811
 20
127.7990120477228
 30
0.0
 10
157.8330898326192
 20
127.72695325201
 30
0.0
 10
157.8558787808087
 20
127.6563391302953
 30
0.0
 10
157.8770679316928
 20
127.5906821606483
 30
0.0
  0
LINE
  5
140
330
1F
100
AcDbEntity
  8
0
  6
Continuous
 62
     7
370
    15
100
AcDbLine
 10
157.8388341559
 20
127.8347681756
 30
0.0
 11
157.832409733
 21
127.8040706167
 31
0.0
  0
LINE
  5
141
330
1F
100
AcDbEntity
  8
0
  6
Continuous
 62
     7
370
    15
100
AcDbLine
 10
158.3077515342
 20
128.0174590728
 30
0.0
 11
158.272409733
 21
128.0174590728
 31
0.0
  0
SPLINE
  5
142
330
1F
100
AcDbEntity
  8
0
  6
Continuous
 62
     7
370
    15
100
AcDbSpline
210
0.0
220
0.0
230
1.0
 70
     8
 71
     3
 72
     9
 73
     5
 74
     0
 42
0.00000001
 43
0.00000001
 40
0.0
 40
0.0
 40
0.0
 40
0.0
 40
0.2686336050556197
 40
1.0
 40
1.0
 40
1.0
 40
1.0
 10
158.3524097329543
 20
127.3156162452398
 30
0.0
 10
158.3517468376959
 20
127.3406274338008
 30
0.0
 10
158.3492791819522
 20
127.4337326451006
 30
0.0
 10
158.3252937055922
 20
127.5243833103821
 30
0.0
 10
158.3077515342158
 20
127.5906821606483
 30
0.0
  0
LINE
  5
143
330
1F
100
AcDbEntity
  8
0
  6
Continuous
 62
     7
370
    15
100
AcDbLine
 10
158.352409733
 20
127.3156162452
 30
0.0
 11
158.352409733
 21
127.8040706167
 31
0.0
  0
SPLINE
  5
144
330
1F
100
AcDbEntity
  8
0
  6
Continuous
 62
     7
370
    15
100
AcDbSpline
210
0.0
220
0.0
230
1.0
 70
     8
 71
     3
 72
     9
 73
     5
 74
     0
 42
0.00000001
 43
0.00000001
 40
0.0
 40
0.0
 40
0.0
 40
0.0
 40
0.2686336050556675
 40
1.0
 40
1.0
 40
1.0
 40
1.0
 10
157.8324097329543
 20
127.3156162452398
 30
0.0
 10
157.8330726282128
 20
127.3406274338007
 30
0.0
 10
157.8355402839564
 20
127.4337326451005
 30
0.0
 10
157.8595257603164
 20
127.5243833103821
 30
0.0
 10
157.8770679316928
 20
127.5906821606483
 30
0.0
  0
SPLINE
  5
145
330
1F
100
AcDbEntity
  8
0
  6
Continuous
 62
     7
370
    15
100
AcDbSpline
210
0.0
220
0.0
230
1.0
 70
     8
 71
     3
 72
     9
 73
     5
 74
     0
 42
0.00000001
 43
0.00000001
 40
0.0
 40
0.0
 40
0.0
 40
0.0
 40
0.2575513451038696
 40
1.0
 40
1.0
 40
1.0
 40
1.0
 10
158.3077515342158
 20
127.0405503298312
 30
0.0
 10
158.3144930564933
 20
127.0636425913369
 30
0.0
 10
158.3406685061877
 20
127.1533033985686
 30
0.0
 10
158.3474068549669
 20
127.2464555532763
 30
0.0
 10
158.3524097329543
 20
127.3156162452398
 30
0.0
  0
LINE
  5
146
330
1F
100
AcDbEntity
  8
0
  6
Continuous
 62
     7
370
    15
100
AcDbLine
 10
158.3077515342
 20
127.0405503298
 30
0.0
 11
157.8770679317
 21
127.0405503298
 31
0.0
  0
SPLINE
  5
147
330
1F
100
AcDbEntity
  8
0
  6
Continuous
 62
     7
370
    15
100
AcDbSpline
210
0.0
220
0.0
230
1.0
 70
     8
 71
     3
 72
     9
 73
     5
 74
     0
 42
0.00000001
 43
0.00000001
 40
0.0
 40
0.0
 40
0.0
 40
0.0
 40
0.2575513451038645
 40
1.0
 40
1.0
 40
1.0
 40
1.0
 10
157.8770679316928
 20
127.0405503298312
 30
0.0
 10
157.8703264094153
 20
127.0636425913368
 30
0.0
 10
157.844150959721
 20
127.1533033985686
 30
0.0
 10
157.8374126109417
 20
127.2464555532763
 30
0.0
 10
157.8324097329543
 20
127.3156162452398
 30
0.0
  0
LINE
  5
148
330
1F
100
AcDbEntity
  8
0
  6
Continuous
 62
     7
370
    15
100
AcDbLine
 10
158.3077515342
 20
127.0405503298
 30
0.0
 11
158.352409733
 21
126.9788728705
 31
0.0
  0
LINE
  5
149
330
1F
100
AcDbEntity
  8
0
  6
Continuous
 62
     7
370
    15
100
AcDbLine
 10
158.352409733
 20
127.3156162452
 30
0.0
 11
158.352409733
 21
126.9788728705
 31
0.0
  0
LINE
  5
14A
330
1F
100
AcDbEntity
  8
0
  6
Continuous
 62
     7
370
    15
100
AcDbLine
 10
157.8770679317
 20
127.0405503298
 30
0.0
 11
157.832409733
 21
126.9788728705
 31
0.0
  0
LINE
  5
14B
330
1F
100
AcDbEntity
  8
0
  6
Continuous
 62
     7
370
    15
100
AcDbLine
 10
158.3374977248
 20
127.9790881203
 30
0.0
 11
158.3077515342
 21
128.0174590728
 31
0.0
  0
LINE
  5
14C
330
1F
100
AcDbEntity
  8
0
  6
Continuous
 62
     7
370
    15
100
AcDbLine
 10
158.352409733
 20
127.967327242
 30
0.0
 11
158.352409733
 21
127.8040706167
 31
0.0
  0
SPLINE
  5
14D
330
1F
100
AcDbEntity
  8
0
  6
Continuous
 62
     7
370
    15
100
AcDbSpline
210
0.0
220
0.0
230
1.0
 70
     8
 71
     3
 72
     9
 73
     5
 74
     0
 42
0.00000001
 43
0.00000001
 40
0.0
 40
0.0
 40
0.0
 40
0.0
 40
0.0702005767034958
 40
1.0
 40
1.0
 40
1.0
 40
1.0
 10
158.3524097329543
 20
126.9788728705128
 30
0.0
 10
158.3523651213276
 20
126.9774107497852
 30
0.0
 10
158.3517296332895
 20
126.9565829902966
 30
0.0
 10
158.3289406851
 20
126.9361727970781
 30
0.0
 10
158.3077515342158
 20
126.9171954111943
 30
0.0
  0
LINE
  5
14E
330
1F
100
AcDbEntity
  8
0
  6
Continuous
 62
     7
370
    15
100
AcDbLine
 10
158.3077515342
 20
126.9171954112
 30
0.0
 11
157.8770679317
 21
126.9171954112
 31
0.0
  0
LINE
  5
14F
330
1F
100
AcDbEntity
  8
0
  6
Continuous
 62
     7
370
    15
100
AcDbLine
 10
157.8473217411
 20
126.9555663638
 30
0.0
 11
157.8770679317
 21
126.9171954112
 31
0.0
  0
LINE
  5
150
330
1F
100
AcDbEntity
  8
0
  6
Continuous
 62
     7
370
    15
100
AcDbLine
 10
158.352409733
 20
126.9788728705
 30
0.0
 11
158.352409733
 21
126.967327242
 31
0.0
  0
LINE
  5
151
330
1F
100
AcDbEntity
  8
0
  6
Continuous
 62
     7
370
    15
100
AcDbLine
 10
168.952409733
 20
108.117327242
 30
0.0
 11
163.252409733
 21
108.117327242
 31
0.0
  0
LINE
  5
152
330
1F
100
AcDbEntity
  8
0
  6
Continuous
 62
     7
370
    15
100
AcDbLine
 10
168.7524097259
 20
107.517327242
 30
0.0
 11
163.452409733
 21
107.517327242
 31
0.0
  0
LINE
  5
153
330
1F
100
AcDbEntity
  8
0
  6
Continuous
 62
     7
370
    15
100
AcDbLine
 10
227.6524097259
 20
107.517327242
 30
0.0
 11
222.352409733
 21
107.517327242
 31
0.0
  0
LINE
  5
154
330
1F
100
AcDbEntity
  8
0
  6
Continuous
 62
     7
370
    15
100
AcDbLine
 10
227.852409733
 20
108.117327242
 30
0.0
 11
222.152409733
 21
108.117327242
 31
0.0
  0
LINE
  5
155
330
1F
100
AcDbEntity
  8
0
  6
Continuous
 62
     7
370
    15
100
AcDbLine
 10
228.502409733
 20
124.317327242
 30
0.0
 11
228.502409733
 21
124.517327242
 31
0.0
  0
LINE
  5
156
330
1F
100
AcDbEntity
  8
0
  6
Continuous
 62
     7
370
    15
100
AcDbLine
 10
221.502409733
 20
124.317327242
 30
0.0
 11
228.502409733
 21
124.317327242
 31
0.0
  0
LINE
  5
157
330
1F
100
AcDbEntity
  8
0
  6
Continuous
 62
     7
370
    15
100
AcDbLine
 10
221.502409733
 20
124.317327242
 30
0.0
 11
221.502409733
 21
124.517327242
 31
0.0
  0
LINE
  5
158
330
1F
100
AcDbEntity
  8
0
  6
Continuous
 62
     7
370
    15
100
AcDbLine
 10
228.098374755
 20
114.917327242
 30
0.0
 11
221.9064447109
 21
114.917327242
 31
0.0
  0
LINE
  5
159
330
1F
100
AcDbEntity
  8
0
  6
Continuous
 62
     7
370
    15
100
AcDbLine
 10
169.602409733
 20
124.317327242
 30
0.0
 11
169.602409733
 21
124.517327242
 31
0.0
  0
LINE
  5
15A
330
1F
100
AcDbEntity
  8
0
  6
Continuous
 62
     7
370
    15
100
AcDbLine
 10
162.602409733
 20
124.317327242
 30
0.0
 11
169.602409733
 21
124.317327242
 31
0.0
  0
LINE
  5
15B
330
1F
100
AcDbEntity
  8
0
  6
Continuous
 62
     7
370
    15
100
AcDbLine
 10
162.602409733
 20
124.317327242
 30
0.0
 11
162.602409733
 21
124.517327242
 31
0.0
  0
LINE
  5
15C
330
1F
100
AcDbEntity
  8
0
  6
Continuous
 62
     7
370
    15
100
AcDbLine
 10
169.198374755
 20
114.917327242
 30
0.0
 11
163.0064447109
 21
114.917327242
 31
0.0
  0
LINE
  5
15D
330
1F
100
AcDbEntity
  8
0
  6
Continuous
 62
     7
370
    15
100
AcDbLine
 10
159.247409733
 20
190.8685229157
 30
0.0
 11
159.247409733
 21
190.927327242
 31
0.0
  0
LINE
  5
15E
330
1F
100
AcDbEntity
  8
0
  6
Continuous
 62
     7
370
    15
100
AcDbLine
 10
159.252409733
 20
190.927327242
 30
0.0
 11
159.247409733
 21
190.927327242
 31
0.0
  0
LINE
  5
15F
330
1F
100
AcDbEntity
  8
0
  6
Continuous
 62
     7
370
    15
100
AcDbLine
 10
229.632409733
 20
124.7543983098
 30
0.0
 11
229.632409733
 21
124.8180379201
 31
0.0
  0
LINE
  5
160
330
1F
100
AcDbEntity
  8
0
  6
Continuous
 62
     7
370
    15
100
AcDbLine
 10
229.552409733
 20
124.7543983098
 30
0.0
 11
229.632409733
 21
124.7543983098
 31
0.0
  0
LINE
  5
161
330
1F
100
AcDbEntity
  8
0
  6
Continuous
 62
     7
370
    15
100
AcDbLine
 10
229.552409733
 20
124.7543983098
 30
0.0
 11
229.552409733
 21
124.8180379201
 31
0.0
  0
LINE
  5
162
330
1F
100
AcDbEntity
  8
0
  6
Continuous
 62
     7
370
    15
100
AcDbLine
 10
229.5453386651
 20
124.747327242
 30
0.0
 11
229.5453386651
 21
124.667327242
 31
0.0
  0
LINE
  5
163
330
1F
100
AcDbEntity
  8
0
  6
Continuous
 62
     7
370
    15
100
AcDbLine
 10
229.4816990548
 20
124.667327242
 30
0.0
 11
229.5453386651
 21
124.667327242
 31
0.0
  0
LINE
  5
164
330
1F
100
AcDbEntity
  8
0
  6
Continuous
 62
     7
370
    15
100
AcDbLine
 10
229.4816990548
 20
124.747327242
 30
0.0
 11
229.5453386651
 21
124.747327242
 31
0.0
  0
SPLINE
  5
165
330
1F
100
AcDbEntity
  8
0
  6
Continuous
 62
     7
370
    15
100
AcDbSpline
210
0.0
220
0.0
230
1.0
 70
     8
 71
     3
 72
    11
 73
     7
 74
     0
 42
0.00000001
 43
0.00000001
 40
0.0
 40
0.0
 40
0.0
 40
0.0
 40
0.2506719719564901
 40
0.5014887651677007
 40
0.7523060046713156
 40
1.0
 40
1.0
 40
1.0
 40
1.0
 10
229.5453386651429
 20
124.7473272420114
 30
0.0
 10
229.5354845841097
 20
124.7492166172384
 30
0.0
 10
229.515770729024
 20
124.752996459245
 30
0.0
 10
229.4861971977965
 20
124.782070343388
 30
0.0
 10
229.4567392929858
 20
124.8234422103546
 30
0.0
 10
229.4371453333119
 20
124.8561004342735
 30
0.0
 10
229.4274097329547
 20
124.8723272420114
 30
0.0
  0
SPLINE
  5
166
330
1F
100
AcDbEntity
  8
0
  6
Continuous
 62
     7
370
    15
100
AcDbSpline
210
0.0
220
0.0
230
1.0
 70
     8
 71
     3
 72
    11
 73
     7
 74
     0
 42
0.00000001
 43
0.00000001
 40
0.0
 40
0.0
 40
0.0
 40
0.0
 40
0.2506719719565115
 40
0.5014887651677806
 40
0.7523060046714309
 40
1.0
 40
1.0
 40
1.0
 40
1.0
 10
229.4274097329547
 20
124.8723272420114
 30
0.0
 10
229.4438336928704
 20
124.8624731609782
 30
0.0
 10
229.4766911013513
 20
124.8427593058925
 30
0.0
 10
229.5180960741683
 20
124.8131857746651
 30
0.0
 10
229.5468517653918
 20
124.7837278698544
 30
0.0
 10
229.5505648313969
 20
124.7641339101805
 30
0.0
 10
229.5524097329547
 20
124.7543983098233
 30
0.0
  0
LINE
  5
167
330
1F
100
AcDbEntity
  8
0
  6
Continuous
 62
     7
370
    15
100
AcDbLine
 10
159.252409733
 20
190.812327242
 30
0.0
 11
159.252409733
 21
191.017327242
 31
0.0
  0
LINE
  5
168
330
1F
100
AcDbEntity
  8
0
  6
Continuous
 62
     7
370
    15
100
AcDbLine
 10
229.427409733
 20
191.017327242
 30
0.0
 11
159.252409733
 21
191.017327242
 31
0.0
  0
LINE
  5
169
330
1F
100
AcDbEntity
  8
0
  6
Continuous
 62
     7
370
    15
100
AcDbLine
 10
229.427409733
 20
191.017327242
 30
0.0
 11
229.427409733
 21
190.937327242
 31
0.0
  0
LINE
  5
16A
330
1F
100
AcDbEntity
  8
0
  6
Continuous
 62
     7
370
    15
100
AcDbLine
 10
159.077409733
 20
124.872327242
 30
0.0
 11
158.872409733
 21
124.872327242
 31
0.0
  0
LINE
  5
16B
330
1F
100
AcDbEntity
  8
0
  6
Continuous
 62
     7
370
    15
100
AcDbLine
 10
158.872409733
 20
190.737327242
 30
0.0
 11
158.872409733
 21
124.872327242
 31
0.0
  0
LINE
  5
16C
330
1F
100
AcDbEntity
  8
0
  6
Continuous
 62
     7
370
    15
100
AcDbLine
 10
158.872409733
 20
190.737327242
 30
0.0
 11
159.077409733
 21
190.737327242
 31
0.0
  0
LINE
  5
16D
330
1F
100
AcDbEntity
  8
0
  6
Continuous
 62
     7
370
    15
100
AcDbLine
 10
159.302409733
 20
124.872327242
 30
0.0
 11
159.302409733
 21
124.912327242
 31
0.0
  0
LINE
  5
16E
330
1F
100
AcDbEntity
  8
0
  6
Continuous
 62
     7
370
    15
100
AcDbLine
 10
159.302409733
 20
124.912327242
 30
0.0
 11
159.262409733
 21
124.912327242
 31
0.0
  0
LINE
  5
16F
330
1F
100
AcDbEntity
  8
0
  6
Continuous
 62
     7
370
    15
100
AcDbLine
 10
159.262409733
 20
124.912327242
 30
0.0
 11
159.262409733
 21
124.872327242
 31
0.0
  0
LINE
  5
170
330
1F
100
AcDbEntity
  8
0
  6
Continuous
 62
     7
370
    15
100
AcDbLine
 10
159.262409733
 20
124.872327242
 30
0.0
 11
159.077409733
 21
124.872327242
 31
0.0
  0
LINE
  5
171
330
1F
100
AcDbEntity
  8
0
  6
Continuous
 62
     7
370
    15
100
AcDbLine
 10
159.252409733
 20
190.737327242
 30
0.0
 11
159.252409733
 21
190.812327242
 31
0.0
  0
LINE
  5
172
330
1F
100
AcDbEntity
  8
0
  6
Continuous
 62
     7
370
    15
100
AcDbLine
 10
159.077409733
 20
190.737327242
 30
0.0
 11
159.252409733
 21
190.737327242
 31
0.0
  0
SPLINE
  5
173
330
1F
100
AcDbEntity
  8
0
  6
Continuous
 62
     7
370
    15
100
AcDbSpline
210
0.0
220
0.0
230
1.0
 70
     8
 71
     3
 72
    11
 73
     7
 74
     0
 42
0.00000001
 43
0.00000001
 40
0.0
 40
0.0
 40
0.0
 40
0.0
 40
0.2499999999999935
 40
0.4999999999999962
 40
0.7499999999999742
 40
1.0
 40
1.0
 40
1.0
 40
1.0
 10
229.4274097329553
 20
124.8723272420107
 30
0.0
 10
229.4319338431121
 20
124.8454646480305
 30
0.0
 10
229.4409820634257
 20
124.7917394600699
 30
0.0
 10
229.454554393896
 20
124.723977747965
 30
0.0
 10
229.4681267243663
 20
124.6765716592749
 30
0.0
 10
229.4771749446799
 20
124.6704087144321
 30
0.0
 10
229.4816990548366
 20
124.6673272420107
 30
0.0
  0
LINE
  5
174
330
1F
100
AcDbEntity
  8
0
  6
Continuous
 62
     7
370
    15
100
AcDbLine
 10
229.4816990548
 20
124.667327242
 30
0.0
 11
159.302409733
 21
124.667327242
 31
0.0
  0
LINE
  5
175
330
1F
100
AcDbEntity
  8
0
  6
Continuous
 62
     7
370
    15
100
AcDbLine
 10
159.302409733
 20
124.667327242
 30
0.0
 11
159.302409733
 21
124.872327242
 31
0.0
  0
LINE
  5
176
330
1F
100
AcDbEntity
  8
0
  6
Continuous
 62
     7
370
    15
100
AcDbLine
 10
229.427409733
 20
190.937327242
 30
0.0
 11
229.427409733
 21
190.812327242
 31
0.0
  0
LINE
  5
177
330
1F
100
AcDbEntity
  8
0
  6
Continuous
 62
     7
370
    15
100
AcDbLine
 10
229.632409733
 20
124.8180379201
 30
0.0
 11
229.632409733
 21
190.937327242
 31
0.0
  0
SPLINE
  5
178
330
1F
100
AcDbEntity
  8
0
  6
Continuous
 62
     7
370
    15
100
AcDbSpline
210
0.0
220
0.0
230
1.0
 70
     8
 71
     3
 72
    11
 73
     7
 74
     0
 42
0.00000001
 43
0.00000001
 40
0.0
 40
0.0
 40
0.0
 40
0.0
 40
0.2499999999999828
 40
0.5000000000000087
 40
0.7499999999999972
 40
1.0
 40
1.0
 40
1.0
 40
1.0
 10
229.6324097329553
 20
124.8180379201294
 30
0.0
 10
229.6293282605339
 20
124.8225620302862
 30
0.0
 10
229.623165315691
 20
124.8316102505997
 30
0.0
 10
229.575759227001
 20
124.84518258107
 30
0.0
 10
229.5079975148961
 20
124.8587549115404
 30
0.0
 10
229.4542723269356
 20
124.867803131854
 30
0.0
 10
229.4274097329553
 20
124.8723272420107
 30
0.0
  0
LINE
  5
179
330
1F
100
AcDbEntity
  8
0
  6
Continuous
 62
     7
370
    15
100
AcDbLine
 10
229.427409733
 20
190.937327242
 30
0.0
 11
229.632409733
 21
190.937327242
 31
0.0
  0
SPLINE
  5
17A
330
1F
100
AcDbEntity
  8
0
  6
Continuous
 62
     7
370
    15
100
AcDbSpline
210
0.0
220
0.0
230
1.0
 70
     8
 71
     3
 72
    11
 73
     7
 74
     0
 42
0.00000001
 43
0.00000001
 40
0.0
 40
0.0
 40
0.0
 40
0.0
 40
0.2499999999999968
 40
0.4999999999999767
 40
0.7499999999999911
 40
1.0
 40
1.0
 40
1.0
 40
1.0
 10
229.4274097329553
 20
124.8723272420107
 30
0.0
 10
229.4319338431121
 20
124.855947611535
 30
0.0
 10
229.4409820634257
 20
124.8231883505834
 30
0.0
 10
229.454554393896
 20
124.7818702334463
 30
0.0
 10
229.4681267243663
 20
124.752964081806
 30
0.0
 10
229.4771749446799
 20
124.7492061886092
 30
0.0
 10
229.4816990548366
 20
124.7473272420107
 30
0.0
  0
LINE
  5
17B
330
1F
100
AcDbEntity
  8
0
  6
Continuous
 62
     7
370
    15
100
AcDbLine
 10
229.4816990548
 20
124.667327242
 30
0.0
 11
229.4816990548
 21
124.747327242
 31
0.0
  0
LINE
  5
17C
330
1F
100
AcDbEntity
  8
0
  6
Continuous
 62
     7
370
    15
100
AcDbLine
 10
229.632409733
 20
124.8180379201
 30
0.0
 11
229.552409733
 21
124.8180379201
 31
0.0
  0
SPLINE
  5
17D
330
1F
100
AcDbEntity
  8
0
  6
Continuous
 62
     7
370
    15
100
AcDbSpline
210
0.0
220
0.0
230
1.0
 70
     8
 71
     3
 72
    11
 73
     7
 74
     0
 42
0.00000001
 43
0.00000001
 40
0.0
 40
0.0
 40
0.0
 40
0.0
 40
0.2499999999999921
 40
0.4999999999999864
 40
0.7500000000000026
 40
1.0
 40
1.0
 40
1.0
 40
1.0
 10
229.5524097329553
 20
124.8180379201294
 30
0.0
 10
229.5505307863569
 20
124.8225620302862
 30
0.0
 10
229.54677289316
 20
124.8316102505997
 30
0.0
 10
229.5178667415198
 20
124.8451825810701
 30
0.0
 10
229.4765486243826
 20
124.8587549115404
 30
0.0
 10
229.4437893634311
 20
124.867803131854
 30
0.0
 10
229.4274097329553
 20
124.8723272420107
 30
0.0
  0
SPLINE
  5
17E
330
1F
100
AcDbEntity
  8
0
  6
Continuous
 62
     7
370
    15
100
AcDbSpline
210
0.0
220
0.0
230
1.0
 70
    24
 71
     3
 72
     9
 73
     5
 74
     0
 42
0.00000001
 43
0.00000001
 40
0.0
 40
0.0
 40
0.0
 40
0.0
 40
0.7724330879676712
 40
1.0
 40
1.0
 40
1.0
 40
1.0
 10
159.2524097329542
 20
190.8473272420116
 30
0.0
 10
159.2524097329542
 20
190.8464189824899
 30
0.0
 10
159.2524097329542
 20
190.8452431401601
 30
0.0
 10
159.2524097329542
 20
190.8326866774547
 30
0.0
 10
159.2524097329542
 20
190.8298292420108
 30
0.0
  0
ENDSEC
  0
SECTION
  2
OBJECTS
  0
DICTIONARY
  5
C
330
0
100
AcDbDictionary
281
     1
  3
ACAD_GROUP
350
D
  3
ACAD_LAYOUT
350
1A
  3
ACAD_MLINESTYLE
350
17
  3
ACAD_PLOTSETTINGS
350
19
  3
ACAD_PLOTSTYLENAME
350
E
  0
DICTIONARY
  5
D
102
{ACAD_REACTORS
330
C
102
}
330
C
100
AcDbDictionary
281
     1
  0
DICTIONARY
  5
1A
102
{ACAD_REACTORS
330
C
102
}
330
C
100
AcDbDictionary
281
     1
  3
Layout1
350
1E
  3
Layout2
350
26
  3
Model
350
22
  0
DICTIONARY
  5
17
102
{ACAD_REACTORS
330
C
102
}
330
C
100
AcDbDictionary
281
     1
  3
Standard
350
18
  0
DICTIONARY
  5
19
102
{ACAD_REACTORS
330
C
102
}
330
C
100
AcDbDictionary
281
     1
  0
ACDBDICTIONARYWDFLT
  5
E
102
{ACAD_REACTORS
330
C
102
}
330
C
100
AcDbDictionary
281
     1
  3
Normal
350
F
100
AcDbDictionaryWithDefault
340
F
  0
LAYOUT
  5
1E
102
{ACAD_REACTORS
330
1A
102
}
330
1A
100
AcDbPlotSettings
  1

  2
none_device
  4

  6

 40
0.0
 41
0.0
 42
0.0
 43
0.0
 44
0.0
 45
0.0
 46
0.0
 47
0.0
 48
0.0
 49
0.0
140
0.0
141
0.0
142
1.0
143
1.0
 70
   688
 72
     0
 73
     0
 74
     5
  7

 75
    16
147
1.0
148
0.0
149
0.0
100
AcDbLayout
  1
Layout1
 70
     1
 71
     1
 10
0.0
 20
0.0
 11
420.0
 21
297.0
 12
0.0
 22
0.0
 32
0.0
 14
1.0000000000E+20
 24
1.0000000000E+20
 34
1.0000000000E+20
 15
-1.0000000000E+20
 25
-1.0000000000E+20
 35
-1.0000000000E+20
146
0.0
 13
0.0
 23
0.0
 33
0.0
 16
1.0
 26
0.0
 36
0.0
 17
0.0
 27
1.0
 37
0.0
 76
     0
330
1B
  0
LAYOUT
  5
26
102
{ACAD_REACTORS
330
1A
102
}
330
1A
100
AcDbPlotSettings
  1

  2
none_device
  4

  6

 40
0.0
 41
0.0
 42
0.0
 43
0.0
 44
0.0
 45
0.0
 46
0.0
 47
0.0
 48
0.0
 49
0.0
140
0.0
141
0.0
142
1.0
143
1.0
 70
   688
 72
     0
 73
     0
 74
     5
  7

 75
    16
147
1.0
148
0.0
149
0.0
100
AcDbLayout
  1
Layout2
 70
     1
 71
     2
 10
0.0
 20
0.0
 11
0.0
 21
0.0
 12
0.0
 22
0.0
 32
0.0
 14
0.0
 24
0.0
 34
0.0
 15
0.0
 25
0.0
 35
0.0
146
0.0
 13
0.0
 23
0.0
 33
0.0
 16
1.0
 26
0.0
 36
0.0
 17
0.0
 27
1.0
 37
0.0
 76
     0
330
23
  0
LAYOUT
  5
22
102
{ACAD_REACTORS
330
1A
102
}
330
1A
100
AcDbPlotSettings
  1

  2
none_device
  4

  6

 40
0.0
 41
0.0
 42
0.0
 43
0.0
 44
0.0
 45
0.0
 46
0.0
 47
0.0
 48
0.0
 49
0.0
140
0.0
141
0.0
142
1.0
143
1.0
 70
  1712
 72
     0
 73
     0
 74
     0
  7

 75
     0
147
1.0
148
0.0
149
0.0
100
AcDbLayout
  1
Model
 70
     1
 71
     0
 10
0.0
 20
0.0
 11
420.0
 21
297.0
 12
0.0
 22
0.0
 32
0.0
 14
0.0
 24
0.0
 34
0.0
 15
420.0
 25
297.0
 35
0.0
146
0.0
 13
0.0
 23
0.0
 33
0.0
 16
1.0
 26
0.0
 36
0.0
 17
0.0
 27
1.0
 37
0.0
 76
     0
330
1F
331
29
  0
MLINESTYLE
  5
18
102
{ACAD_REACTORS
330
17
102
}
330
17
100
AcDbMlineStyle
  2
Standard
 70
     0
  3

 62
   256
 51
90.0
 52
90.0
 71
     2
 49
0.5
 62
   256
  6
BYLAYER
 49
-0.5
 62
   256
  6
BYLAYER
  0
ACDBPLACEHOLDER
  5
F
102
{ACAD_REACTORS
330
E
102
}
330
E
  0
ENDSEC
  0
EOF
