  0
SECTION
  2
HEADER
  9
$ACADVER
  1
AC1015
  9
$ACADMAINTVER
 70
     6
  9
$DWGCODEPAGE
  3
ANSI_1252
  9
$INSBASE
 10
0.0
 20
0.0
 30
0.0
  9
$EXTMIN
 10
0.0
 20
0.0
 30
0.0
  9
$EXTMAX
 10
420.0
 20
297.0
 30
0.0
  9
$LIMMIN
 10
0.0
 20
0.0
  9
$LIMMAX
 10
420.0
 20
297.0
  9
$ORTHOMODE
 70
     0
  9
$REGENMODE
 70
     1
  9
$FILLMODE
 70
     1
  9
$QTEXTMODE
 70
     0
  9
$MIRRTEXT
 70
     1
  9
$LTSCALE
 40
1.0
  9
$ATTMODE
 70
     1
  9
$TEXTSIZE
 40
3.5
  9
$TRACEWID
 40
1.0
  9
$TEXTSTYLE
  7
Standard
  9
$CLAYER
  8
0
  9
$CELTYPE
  6
ByLayer
  9
$CECOLOR
 62
   256
  9
$CELTSCALE
 40
1.0
  9
$DISPSILH
 70
     0
  9
$DIMSCALE
 40
1.0
  9
$DIMASZ
 40
3.302
  9
$DIMEXO
 40
1.0
  9
$DIMDLI
 40
3.75
  9
$DIMRND
 40
0.0
  9
$DIMDLE
 40
0.0
  9
$DIMEXE
 40
1.0
  9
$DIMTP
 40
0.0
  9
$DIMTM
 40
0.0
  9
$DIMTXT
 40
3.5
  9
$DIMCEN
 40
2.5
  9
$DIMTSZ
 40
0.0
  9
$DIMTOL
 70
     0
  9
$DIMLIM
 70
     0
  9
$DIMTIH
 70
     1
  9
$DIMTOH
 70
     1
  9
$DIMSE1
 70
     0
  9
$DIMSE2
 70
     0
  9
$DIMTAD
 70
     1
  9
$DIMZIN
 70
     0
  9
$DIMBLK
  1

  9
$DIMASO
 70
     1
  9
$DIMSHO
 70
     1
  9
$DIMPOST
  1

  9
$DIMAPOST
  1

  9
$DIMALT
 70
     0
  9
$DIMALTD
 70
     3
  9
$DIMALTF
 40
0.0393700787
  9
$DIMLFAC
 40
3.0
  9
$DIMTOFL
 70
     1
  9
$DIMTVP
 40
0.0
  9
$DIMTIX
 70
     0
  9
$DIMSOXD
 70
     0
  9
$DIMSAH
 70
     0
  9
$DIMBLK1
  1

  9
$DIMBLK2
  1

  9
$DIMSTYLE
  2
ISO-25
  9
$DIMCLRD
 70
     0
  9
$DIMCLRE
 70
     0
  9
$DIMCLRT
 70
     0
  9
$DIMTFAC
 40
1.0
  9
$DIMGAP
 40
5.0
  9
$DIMJUST
 70
     0
  9
$DIMSD1
 70
     0
  9
$DIMSD2
 70
     0
  9
$DIMTOLJ
 70
     0
  9
$DIMTZIN
 70
     0
  9
$DIMALTZ
 70
     0
  9
$DIMALTTZ
 70
     0
  9
$DIMUPT
 70
     0
  9
$DIMDEC
 70
     1
  9
$DIMTDEC
 70
     1
  9
$DIMALTU
 70
     2
  9
$DIMALTTD
 70
     3
  9
$DIMTXSTY
  7
Standard
  9
$DIMAUNIT
 70
     0
  9
$DIMADEC
 70
     1
  9
$DIMALTRND
 40
0.0
  9
$DIMAZIN
 70
     0
  9
$DIMDSEP
 70
    44
  9
$DIMATFIT
 70
     3
  9
$DIMFRAC
 70
     0
  9
$DIMLDRBLK
  1

  9
$DIMLUNIT
 70
     2
  9
$DIMLWD
 70
    -2
  9
$DIMLWE
 70
    -2
  9
$DIMTMOVE
 70
     0
  9
$LUNITS
 70
     2
  9
$LUPREC
 70
     1
  9
$SKETCHINC
 40
1.0
  9
$FILLETRAD
 40
10.0
  9
$AUNITS
 70
     0
  9
$AUPREC
 70
     1
  9
$MENU
  1
.
  9
$ELEVATION
 40
0.0
  9
$PELEVATION
 40
0.0
  9
$THICKNESS
 40
0.0
  9
$LIMCHECK
 70
     0
  9
$CHAMFERA
 40
0.0
  9
$CHAMFERB
 40
0.0
  9
$CHAMFERC
 40
0.0
  9
$CHAMFERD
 40
0.0
  9
$SKPOLY
 70
     0
  9
$TDCREATE
 40
2460195.585650382
  9
$TDUCREATE
 40
2460195.543983715
  9
$TDUPDATE
 40
2460195.585651296
  9
$TDUUPDATE
 40
2460195.54398463
  9
$TDINDWG
 40
0.0000000116
  9
$TDUSRTIMER
 40
0.0000000116
  9
$USRTIMER
 70
     1
  9
$ANGBASE
 50
0.0
  9
$ANGDIR
 70
     0
  9
$PDMODE
 70
     0
  9
$PDSIZE
 40
-1.0
  9
$PLINEWID
 40
0.0
  9
$SPLFRAME
 70
     0
  9
$SPLINETYPE
 70
     6
  9
$SPLINESEGS
 70
     8
  9
$HANDSEED
  5
479
  9
$SURFTAB1
 70
     6
  9
$SURFTAB2
 70
     6
  9
$SURFTYPE
 70
     6
  9
$SURFU
 70
     6
  9
$SURFV
 70
     6
  9
$UCSBASE
  2

  9
$UCSNAME
  2

  9
$UCSORG
 10
0.0
 20
0.0
 30
0.0
  9
$UCSXDIR
 10
1.0
 20
0.0
 30
0.0
  9
$UCSYDIR
 10
0.0
 20
1.0
 30
0.0
  9
$UCSORTHOREF
  2

  9
$UCSORTHOVIEW
 70
     0
  9
$UCSORGTOP
 10
0.0
 20
0.0
 30
0.0
  9
$UCSORGBOTTOM
 10
0.0
 20
0.0
 30
0.0
  9
$UCSORGLEFT
 10
0.0
 20
0.0
 30
0.0
  9
$UCSORGRIGHT
 10
0.0
 20
0.0
 30
0.0
  9
$UCSORGFRONT
 10
0.0
 20
0.0
 30
0.0
  9
$UCSORGBACK
 10
0.0
 20
0.0
 30
0.0
  9
$PUCSBASE
  2

  9
$PUCSNAME
  2

  9
$PUCSORG
 10
0.0
 20
0.0
 30
0.0
  9
$PUCSXDIR
 10
1.0
 20
0.0
 30
0.0
  9
$PUCSYDIR
 10
0.0
 20
1.0
 30
0.0
  9
$PUCSORTHOREF
  2

  9
$PUCSORTHOVIEW
 70
     0
  9
$PUCSORGTOP
 10
0.0
 20
0.0
 30
0.0
  9
$PUCSORGBOTTOM
 10
0.0
 20
0.0
 30
0.0
  9
$PUCSORGLEFT
 10
0.0
 20
0.0
 30
0.0
  9
$PUCSORGRIGHT
 10
0.0
 20
0.0
 30
0.0
  9
$PUCSORGFRONT
 10
0.0
 20
0.0
 30
0.0
  9
$PUCSORGBACK
 10
0.0
 20
0.0
 30
0.0
  9
$USERI1
 70
     0
  9
$USERI2
 70
     0
  9
$USERI3
 70
     0
  9
$USERI4
 70
     0
  9
$USERI5
 70
     0
  9
$USERR1
 40
0.0
  9
$USERR2
 40
0.0
  9
$USERR3
 40
0.0
  9
$USERR4
 40
0.0
  9
$USERR5
 40
0.0
  9
$WORLDVIEW
 70
     1
  9
$SHADEDGE
 70
     3
  9
$SHADEDIF
 70
    70
  9
$TILEMODE
 70
     1
  9
$MAXACTVP
 70
    64
  9
$PINSBASE
 10
0.0
 20
0.0
 30
0.0
  9
$PLIMCHECK
 70
     0
  9
$PEXTMIN
 10
1.0000000000E+20
 20
1.0000000000E+20
 30
1.0000000000E+20
  9
$PEXTMAX
 10
-1.0000000000E+20
 20
-1.0000000000E+20
 30
-1.0000000000E+20
  9
$PLIMMIN
 10
0.0
 20
0.0
  9
$PLIMMAX
 10
420.0
 20
297.0
  9
$UNITMODE
 70
     0
  9
$VISRETAIN
 70
     1
  9
$PLINEGEN
 70
     0
  9
$PSLTSCALE
 70
     1
  9
$TREEDEPTH
 70
  3020
  9
$CMLSTYLE
  2
Standard
  9
$CMLJUST
 70
     0
  9
$CMLSCALE
 40
20.0
  9
$PROXYGRAPHICS
 70
     1
  9
$MEASUREMENT
 70
     1
  9
$CELWEIGHT
370
    -1
  9
$ENDCAPS
280
     0
  9
$JOINSTYLE
280
     0
  9
$LWDISPLAY
290
     1
  9
$INSUNITS
 70
     4
  9
$HYPERLINKBASE
  1

  9
$STYLESHEET
  1

  9
$XEDIT
290
     1
  9
$CEPSNTYPE
380
     0
  9
$PSTYLEMODE
290
     1
  9
$FINGERPRINTGUID
  2
{e91d7c60-5199-4011-bb79-26232c8ea55e}
  9
$VERSIONGUID
  2
{FAEB1C32-E019-11D5-929B-00C0DF256EC4}
  9
$EXTNAMES
290
     1
  9
$PSVPSCALE
 40
0.0
  9
$OLESTARTUP
290
     0
  0
ENDSEC
  0
SECTION
  2
CLASSES
  0
CLASS
  1
ACDBDICTIONARYWDFLT
  2
AcDbDictionaryWithDefault
  3
ObjectDBX Classes
 90
        0
280
     0
281
     0
  0
CLASS
  1
VISUALSTYLE
  2
AcDbVisualStyle
  3
ObjectDBX Classes
 90
     4095
280
     0
281
     0
  0
CLASS
  1
MATERIAL
  2
AcDbMaterial
  3
ObjectDBX Classes
 90
     1153
280
     0
281
     0
  0
CLASS
  1
SCALE
  2
AcDbScale
  3
ObjectDBX Classes
 90
     1153
280
     0
281
     0
  0
CLASS
  1
TABLESTYLE
  2
AcDbTableStyle
  3
ObjectDBX Classes
 90
     4095
280
     0
281
     0
  0
CLASS
  1
MLEADERSTYLE
  2
AcDbMLeaderStyle
  3
ACDB_MLEADERSTYLE_CLASS
 90
     4095
280
     0
281
     0
  0
CLASS
  1
SUN
  2
AcDbSun
  3
SCENEOE
 90
     1153
280
     0
281
     0
  0
CLASS
  1
ACDBPLACEHOLDER
  2
AcDbPlaceHolder
  3
ObjectDBX Classes
 90
        0
280
     0
281
     0
  0
CLASS
  1
LAYOUT
  2
AcDbLayout
  3
ObjectDBX Classes
 90
        0
280
     0
281
     0
  0
ENDSEC
  0
SECTION
  2
TABLES
  0
TABLE
  2
VPORT
  5
8
330
0
100
AcDbSymbolTable
 70
     1
  0
VPORT
  5
29
330
8
100
AcDbSymbolTableRecord
100
AcDbViewportTableRecord
  2
*Active
 70
     0
 10
0.0
 20
0.0
 11
1.0
 21
1.0
 12
210.0
 22
148.5
 13
0.0
 23
0.0
 14
10.0
 24
10.0
 15
10.0
 25
10.0
 16
0.0
 26
0.0
 36
1.0
 17
0.0
 27
0.0
 37
0.0
 40
297.0
 41
1.4141414141
 42
50.0
 43
0.0
 44
0.0
 50
0.0
 51
0.0
 71
     0
 72
  2000
 73
     1
 74
     3
 75
     0
 76
     0
 77
     0
 78
     0
281
     0
 65
     1
110
0.0
120
0.0
130
0.0
111
1.0
121
0.0
131
0.0
112
0.0
122
1.0
132
0.0
 79
     0
146
0.0
  0
ENDTAB
  0
TABLE
  2
LTYPE
  5
5
330
0
100
AcDbSymbolTable
 70
     6
  0
LTYPE
  5
14
330
5
100
AcDbSymbolTableRecord
100
AcDbLinetypeTableRecord
  2
ByBlock
 70
     0
  3

 72
    65
 73
     0
 40
0.0
  0
LTYPE
  5
15
330
5
100
AcDbSymbolTableRecord
100
AcDbLinetypeTableRecord
  2
ByLayer
 70
     0
  3

 72
    65
 73
     0
 40
0.0
  0
LTYPE
  5
16
330
5
100
AcDbSymbolTableRecord
100
AcDbLinetypeTableRecord
  2
Continuous
 70
     0
  3
Solid line
 72
    65
 73
     0
 40
0.0
  0
LTYPE
  5
6E
330
5
100
AcDbSymbolTableRecord
100
AcDbLinetypeTableRecord
  2
HIDDEN
 70
     0
  3
Hidden __ __ __ __ __ __ __ __ __ __ __ __ __ __
 72
    65
 73
     2
 40
1.905
 49
1.27
 74
     0
 49
-0.635
 74
     0
  0
LTYPE
  5
6F
330
5
100
AcDbSymbolTableRecord
100
AcDbLinetypeTableRecord
  2
PHANTOM
 70
     0
  3
Phantom ______  __  __  ______  __  __  ______
 72
    65
 73
     6
 40
12.7
 49
6.35
 74
     0
 49
-1.27
 74
     0
 49
1.27
 74
     0
 49
-1.27
 74
     0
 49
1.27
 74
     0
 49
-1.27
 74
     0
  0
LTYPE
  5
70
330
5
100
AcDbSymbolTableRecord
100
AcDbLinetypeTableRecord
  2
CENTER
 70
     0
  3
Center ____ _ ____ _ ____ _ ____ _ ____ _ ____
 72
    65
 73
     4
 40
10.16
 49
6.35
 74
     0
 49
-1.27
 74
     0
 49
1.27
 74
     0
 49
-1.27
 74
     0
  0
LTYPE
  5
71
330
5
100
AcDbSymbolTableRecord
100
AcDbLinetypeTableRecord
  2
CENTERX2
 70
     0
  3
Center (2x) ________  __  ________  __  _____
 72
    65
 73
     4
 40
20.32
 49
12.7
 74
     0
 49
-2.54
 74
     0
 49
2.54
 74
     0
 49
-2.54
 74
     0
  0
LTYPE
  5
72
330
5
100
AcDbSymbolTableRecord
100
AcDbLinetypeTableRecord
  2
DOT2
 70
     0
  3
Dot (.5x) ........................................
 72
    65
 73
     2
 40
0.635
 49
0.0
 74
     0
 49
-0.635
 74
     0
  0
ENDTAB
  0
TABLE
  2
LAYER
  5
2
330
0
100
AcDbSymbolTable
 70
     5
  0
LAYER
  5
10
330
2
100
AcDbSymbolTableRecord
100
AcDbLayerTableRecord
  2
0
 70
     0
 62
     7
  6
Continuous
370
    -3
390
F
  0
LAYER
  5
73
330
2
100
AcDbSymbolTableRecord
100
AcDbLayerTableRecord
  2
FORMAT
 70
     0
 62
     7
  6
Continuous
370
    -3
390
F
  0
LAYER
  5
74
330
2
100
AcDbSymbolTableRecord
100
AcDbLayerTableRecord
  2
SLD-0
 70
     0
 62
     1
  6
Continuous
370
    -3
390
F
  0
LAYER
  5
75
330
2
100
AcDbSymbolTableRecord
100
AcDbLayerTableRecord
  2
WATERMARK
 70
     0
 62
    20
  6
Continuous
370
    -3
390
F
  0
LAYER
  5
76
330
2
100
AcDbSymbolTableRecord
100
AcDbLayerTableRecord
  2
PRIMARY
 70
     0
 62
   179
  6
Continuous
370
    -3
390
F
  0
ENDTAB
  0
TABLE
  2
STYLE
  5
3
330
0
100
AcDbSymbolTable
 70
     1
  0
STYLE
  5
11
330
3
100
AcDbSymbolTableRecord
100
AcDbTextStyleTableRecord
  2
Standard
 70
     0
 40
0.0
 41
1.0
 50
0.0
 71
     0
 42
3.5
  3
txt
  4

  0
ENDTAB
  0
TABLE
  2
VIEW
  5
6
330
0
100
AcDbSymbolTable
 70
     0
  0
ENDTAB
  0
TABLE
  2
UCS
  5
7
330
0
100
AcDbSymbolTable
 70
     0
  0
ENDTAB
  0
TABLE
  2
APPID
  5
9
330
0
100
AcDbSymbolTable
 70
     1
  0
APPID
  5
12
330
9
100
AcDbSymbolTableRecord
100
AcDbRegAppTableRecord
  2
ACAD
 70
     0
  0
ENDTAB
  0
TABLE
  2
DIMSTYLE
  5
A
330
0
100
AcDbSymbolTable
 70
     1
100
AcDbDimStyleTable
  0
DIMSTYLE
105
27
330
A
100
AcDbSymbolTableRecord
100
AcDbDimStyleTableRecord
  2
ISO-25
 70
     0
 41
2.5
 42
0.625
 43
3.75
 44
1.25
 73
     0
 74
     0
 77
     1
 78
     8
140
2.5
141
2.5
143
0.0393700787
147
0.625
171
     3
172
     1
178
     0
271
     2
272
     2
274
     3
278
    44
283
     0
284
     8
340
11
  0
ENDTAB
  0
TABLE
  2
BLOCK_RECORD
  5
1
330
0
100
AcDbSymbolTable
 70
     2
  0
BLOCK_RECORD
  5
1F
330
1
100
AcDbSymbolTableRecord
100
AcDbBlockTableRecord
  2
*Model_Space
340
22
  0
BLOCK_RECORD
  5
1B
330
1
100
AcDbSymbolTableRecord
100
AcDbBlockTableRecord
  2
*Paper_Space
340
1E
  0
BLOCK_RECORD
  5
23
330
1
100
AcDbSymbolTableRecord
100
AcDbBlockTableRecord
  2
*Paper_Space0
340
26
  0
BLOCK_RECORD
  5
77
330
1
100
AcDbSymbolTableRecord
100
AcDbBlockTableRecord
  2
Falcon Logo 2020
340
0
  0
ENDTAB
  0
ENDSEC
  0
SECTION
  2
BLOCKS
  0
BLOCK
  5
20
330
1F
100
AcDbEntity
  8
0
100
AcDbBlockBegin
  2
*Model_Space
 70
     0
 10
0.0
 20
0.0
 30
0.0
  3
*Model_Space
  1

  0
ENDBLK
  5
21
330
1F
100
AcDbEntity
  8
0
100
AcDbBlockEnd
  0
BLOCK
  5
1C
330
1B
100
AcDbEntity
 67
     1
  8
0
100
AcDbBlockBegin
  2
*Paper_Space
 70
     0
 10
0.0
 20
0.0
 30
0.0
  3
*Paper_Space
  1

  0
ENDBLK
  5
1D
330
1B
100
AcDbEntity
 67
     1
  8
0
100
AcDbBlockEnd
  0
BLOCK
  5
24
330
23
100
AcDbEntity
  8
0
100
AcDbBlockBegin
  2
*Paper_Space0
 70
     0
 10
0.0
 20
0.0
 30
0.0
  3
*Paper_Space0
  1

  0
ENDBLK
  5
25
330
23
100
AcDbEntity
  8
0
100
AcDbBlockEnd
  0
BLOCK
  5
78
330
77
100
AcDbEntity
  8
0
100
AcDbBlockBegin
  2
Falcon Logo 2020
 70
     0
 10
0.0
 20
0.0
 30
0.0
  3
Falcon Logo 2020
  1

  0
LINE
  5
7A
330
77
100
AcDbEntity
  8
0
  6
Continuous
 62
     7
370
    18
100
AcDbLine
 10
0.2366362149
 20
-25.099120703
 30
0.0
 11
0.1890676051
 21
-25.1850754693
 31
0.0
  0
LINE
  5
7B
330
77
100
AcDbEntity
  8
0
  6
Continuous
 62
     7
370
    18
100
AcDbLine
 10
-8.9546345587
 20
-34.8305583248
 30
0.0
 11
-8.8845902523
 21
-34.8534799981
 31
0.0
  0
LINE
  5
7C
330
77
100
AcDbEntity
  8
0
  6
Continuous
 62
     7
370
    18
100
AcDbLine
 10
1.3975224119
 20
-24.3176861209
 30
0.0
 11
1.0342487254
 21
-24.0430667658
 31
0.0
  0
LINE
  5
7D
330
77
100
AcDbEntity
  8
0
  6
Continuous
 62
     7
370
    18
100
AcDbLine
 10
-1.344635895
 20
-16.4400365624
 30
0.0
 11
-1.3491582948
 21
-16.4379044226
 31
0.0
  0
LINE
  5
7E
330
77
100
AcDbEntity
  8
0
  6
Continuous
 62
     7
370
    18
100
AcDbLine
 10
7.8090812831
 20
-19.1315273814
 30
0.0
 11
7.8091802885
 21
-19.1313230883
 31
0.0
  0
LINE
  5
7F
330
77
100
AcDbEntity
  8
0
  6
Continuous
 62
     7
370
    18
100
AcDbLine
 10
0.0
 20
-1.0296983168
 30
0.0
 11
0.0
 21
1.0296983168
 31
0.0
  0
LINE
  5
80
330
77
100
AcDbEntity
  8
0
  6
Continuous
 62
     7
370
    18
100
AcDbLine
 10
10.0154752928
 20
-30.4004736372
 30
0.0
 11
9.1539977041
 21
-32.0953773775
 31
0.0
  0
LINE
  5
81
330
77
100
AcDbEntity
  8
0
  6
Continuous
 62
     7
370
    18
100
AcDbLine
 10
9.1830081219
 20
-32.1843475956
 30
0.0
 11
9.481427996
 21
-32.3361036526
 31
0.0
  0
LINE
  5
82
330
77
100
AcDbEntity
  8
0
  6
Continuous
 62
     7
370
    18
100
AcDbLine
 10
9.5704389671
 20
-32.3070676322
 30
0.0
 11
10.4992725169
 21
-30.4794480227
 31
0.0
  0
LINE
  5
83
330
77
100
AcDbEntity
  8
0
  6
Continuous
 62
     7
370
    18
100
AcDbLine
 10
12.5467888882
 20
-29.3625787572
 30
0.0
 11
12.3419088888
 21
-29.0978910313
 31
0.0
  0
LINE
  5
84
330
77
100
AcDbEntity
  8
0
  6
Continuous
 62
     7
370
    18
100
AcDbLine
 10
12.8223724068
 20
-30.9599942873
 30
0.0
 11
13.2708466106
 21
-31.0149510216
 31
0.0
  0
LINE
  5
85
330
77
100
AcDbEntity
  8
0
  6
Continuous
 62
     7
370
    18
100
AcDbLine
 10
17.1692492954
 20
-27.2721969661
 30
0.0
 11
17.0622662115
 21
-26.8332975819
 31
0.0
  0
LINE
  5
86
330
77
100
AcDbEntity
  8
0
  6
Continuous
 62
     7
370
    18
100
AcDbLine
 10
9.2674260365
 20
-23.8703966174
 30
0.0
 11
9.2820724332
 21
-23.832346426
 31
0.0
  0
LINE
  5
87
330
77
100
AcDbEntity
  8
0
  6
Continuous
 62
     7
370
    18
100
AcDbLine
 10
7.0444852887
 20
-17.62223308
 30
0.0
 11
7.0437472733
 21
-17.6218725853
 31
0.0
  0
LINE
  5
88
330
77
100
AcDbEntity
  8
0
  6
Continuous
 62
     7
370
    18
100
AcDbLine
 10
3.3695709323
 20
-18.7150893908
 30
0.0
 11
3.3652686317
 21
-18.7077888488
 31
0.0
  0
LINE
  5
89
330
77
100
AcDbEntity
  8
0
  6
Continuous
 62
     7
370
    18
100
AcDbLine
 10
3.3652686317
 20
-18.7077888488
 30
0.0
 11
3.3711671796
 21
-18.8025827031
 31
0.0
  0
LINE
  5
8A
330
77
100
AcDbEntity
  8
0
  6
Continuous
 62
     7
370
    18
100
AcDbLine
 10
3.3963759391
 20
-19.2069459167
 30
0.0
 11
3.4149125726
 21
-19.5041559716
 31
0.0
  0
SPLINE
  5
8B
330
77
100
AcDbEntity
  8
0
  6
Continuous
 62
     7
370
    18
100
AcDbSpline
210
0.0
220
0.0
230
1.0
 70
     8
 71
     3
 72
     8
 73
     4
 74
     0
 42
0.00000001
 43
0.00000001
 40
0.0
 40
0.0
 40
0.0
 40
0.0
 40
1.0
 40
1.0
 40
1.0
 40
1.0
 10
5.852229029515427
 20
-28.4276388766053
 30
0.0
 10
5.825666155886172
 20
-28.53479889167665
 30
0.0
 10
5.788722307073408
 20
-28.64641728306218
 30
0.0
 10
5.745235939283002
 20
-28.75809747055379
 30
0.0
  0
SPLINE
  5
8C
330
77
100
AcDbEntity
  8
0
  6
Continuous
 62
     7
370
    18
100
AcDbSpline
210
0.0
220
0.0
230
1.0
 70
     8
 71
     2
 72
     6
 73
     3
 74
     0
 42
0.00000001
 43
0.00000001
 40
1.0
 40
1.0
 40
1.0
 40
2.0
 40
2.0
 40
2.0
 10
5.745235939283002
 20
-28.75809747055379
 30
0.0
 10
5.531735298312616
 20
-29.30641496529977
 30
0.0
 10
5.166807901578401
 20
-29.85360333242915
 30
0.0
  0
SPLINE
  5
8D
330
77
100
AcDbEntity
  8
0
  6
Continuous
 62
     7
370
    18
100
AcDbSpline
210
0.0
220
0.0
230
1.0
 70
     8
 71
     3
 72
     8
 73
     4
 74
     0
 42
0.00000001
 43
0.00000001
 40
2.0
 40
2.0
 40
2.0
 40
2.0
 40
3.0
 40
3.0
 40
3.0
 40
3.0
 10
5.166807901578401
 20
-29.85360333242915
 30
0.0
 10
6.311772697024359
 20
-30.87441642829223
 30
0.0
 10
9.719836507960874
 20
-30.34731494120714
 30
0.0
 10
10.01547729021294
 20
-30.40048416895655
 30
0.0
  0
SPLINE
  5
8E
330
77
100
AcDbEntity
  8
0
  6
Continuous
 62
     7
370
    18
100
AcDbSpline
210
0.0
220
0.0
230
1.0
 70
     8
 71
     3
 72
     8
 73
     4
 74
     0
 42
0.00000001
 43
0.00000001
 40
3.0
 40
3.0
 40
3.0
 40
3.0
 40
3.996689690837188
 40
3.996689690837188
 40
3.996689690837188
 40
3.996689690837188
 10
10.01547729021294
 20
-30.40048416895655
 30
0.0
 10
8.977607483441508
 20
-29.99967069988004
 30
0.0
 10
7.814529315873817
 20
-28.89614101828137
 30
0.0
 10
7.081020323903868
 20
-28.0410800019856
 30
0.0
  0
SPLINE
  5
8F
330
77
100
AcDbEntity
  8
0
  6
Continuous
 62
     7
370
    18
100
AcDbSpline
210
0.0
220
0.0
230
1.0
 70
     8
 71
     3
 72
    14
 73
    10
 74
     0
 42
0.00000001
 43
0.00000001
 40
7.0
 40
7.0
 40
7.0
 40
7.0
 40
8.0
 40
9.0
 40
10.0
 40
11.0
 40
12.0
 40
13.0
 40
14.0
 40
14.0
 40
14.0
 40
14.0
 10
12.78899862649789
 20
-20.9206021766667
 30
0.0
 10
12.75298627797974
 20
-20.92674765647992
 30
0.0
 10
12.68640696953537
 20
-20.93826917416036
 30
0.0
 10
12.46146607510041
 20
-20.9609736022742
 30
0.0
 10
12.36316736583912
 20
-20.81710288078964
 30
0.0
 10
12.19029292109663
 20
-20.56395973963105
 30
0.0
 10
12.22319183016533
 20
-20.44637053703358
 30
0.0
 10
12.12701487946805
 20
-20.29328089794294
 30
0.0
 10
12.03084102575803
 20
-20.14019618848106
 30
0.0
 10
11.83537120556004
 20
-19.86366120251053
 30
0.0
  0
SPLINE
  5
90
330
77
100
AcDbEntity
  8
0
  6
Continuous
 62
     7
370
    18
100
AcDbSpline
210
0.0
220
0.0
230
1.0
 70
     8
 71
     3
 72
    14
 73
    10
 74
     0
 42
0.00000001
 43
0.00000001
 40
0.0
 40
0.0
 40
0.0
 40
0.0
 40
1.0
 40
2.0
 40
3.0
 40
4.0
 40
5.0
 40
6.0
 40
7.0
 40
7.0
 40
7.0
 40
7.0
 10
11.83537120556004
 20
-19.86366120251053
 30
0.0
 10
12.96786884091336
 20
-20.09916183373696
 30
0.0
 10
13.13102812036816
 20
-20.67672009866099
 30
0.0
 10
13.16182644407878
 20
-20.79181058502865
 30
0.0
 10
13.18921773799899
 20
-20.89522906612286
 30
0.0
 10
13.07031240695495
 20
-20.89476265907842
 30
0.0
 10
12.9537126753755
 20
-20.89486911556055
 30
0.0
 10
12.90248106064455
 20
-20.90139629528142
 30
0.0
 10
12.82501097501607
 20
-20.91445669685353
 30
0.0
 10
12.78899862649789
 20
-20.9206021766667
 30
0.0
  0
SPLINE
  5
91
330
77
100
AcDbEntity
  8
0
  6
Continuous
 62
     7
370
    18
100
AcDbSpline
210
0.0
220
0.0
230
1.0
 70
     8
 71
     3
 72
     8
 73
     4
 74
     0
 42
0.00000001
 43
0.00000001
 40
1.0
 40
1.0
 40
1.0
 40
1.0
 40
2.0
 40
2.0
 40
2.0
 40
2.0
 10
0.1890676050530227
 20
-25.18507546927273
 30
0.0
 10
-0.4758636182598079
 20
-26.36818656978759
 30
0.0
 10
-1.071372957931268
 20
-27.62135929727155
 30
0.0
 10
-1.848916090944628
 20
-28.7321574116595
 30
0.0
  0
SPLINE
  5
92
330
77
100
AcDbEntity
  8
0
  6
Continuous
 62
     7
370
    18
100
AcDbSpline
210
0.0
220
0.0
230
1.0
 70
     8
 71
     3
 72
     8
 73
     4
 74
     0
 42
0.00000001
 43
0.00000001
 40
5.0
 40
5.0
 40
5.0
 40
5.0
 40
6.0
 40
6.0
 40
6.0
 40
6.0
 10
5.741387158368082
 20
-27.62554423736086
 30
0.0
 10
5.846722846369613
 20
-27.83071469821159
 30
0.0
 10
5.917083786139072
 20
-28.10116493603904
 30
0.0
 10
5.852229029515427
 20
-28.4276388766053
 30
0.0
  0
SPLINE
  5
93
330
77
100
AcDbEntity
  8
0
  6
Continuous
 62
     7
370
    18
100
AcDbSpline
210
0.0
220
0.0
230
1.0
 70
     8
 71
     3
 72
     8
 73
     4
 74
     0
 42
0.00000001
 43
0.00000001
 40
2.0
 40
2.0
 40
2.0
 40
2.0
 40
3.0
 40
3.0
 40
3.0
 40
3.0
 10
-1.848916090944628
 20
-28.7321574116595
 30
0.0
 10
-2.58099700615287
 20
-29.77807514316875
 30
0.0
 10
-3.400555133943328
 20
-30.75794226768769
 30
0.0
 10
-4.320163121001804
 20
-31.64441810803642
 30
0.0
  0
SPLINE
  5
94
330
77
100
AcDbEntity
  8
0
  6
Continuous
 62
     7
370
    18
100
AcDbSpline
210
0.0
220
0.0
230
1.0
 70
     8
 71
     3
 72
     8
 73
     4
 74
     0
 42
0.00000001
 43
0.00000001
 40
3.0
 40
3.0
 40
3.0
 40
3.0
 40
4.0
 40
4.0
 40
4.0
 40
4.0
 10
-4.320163121001804
 20
-31.64441810803642
 30
0.0
 10
-5.502285688120724
 20
-32.78397107599655
 30
0.0
 10
-6.842602889403164
 20
-33.79629665674205
 30
0.0
 10
-8.312643520423714
 20
-34.53636241310925
 30
0.0
  0
SPLINE
  5
95
330
77
100
AcDbEntity
  8
0
  6
Continuous
 62
     7
370
    18
100
AcDbSpline
210
0.0
220
0.0
230
1.0
 70
     8
 71
     3
 72
     8
 73
     4
 74
     0
 42
0.00000001
 43
0.00000001
 40
0.0
 40
0.0
 40
0.0
 40
0.0
 40
1.0
 40
1.0
 40
1.0
 40
1.0
 10
13.16248097184179
 20
-22.77811969809535
 30
0.0
 10
13.32158274024408
 20
-22.71852038409298
 30
0.0
 10
13.49557540158558
 20
-22.54791198237409
 30
0.0
 10
13.60867884934522
 20
-22.41373778363303
 30
0.0
  0
SPLINE
  5
96
330
77
100
AcDbEntity
  8
0
  6
Continuous
 62
     7
370
    18
100
AcDbSpline
210
0.0
220
0.0
230
1.0
 70
     8
 71
     3
 72
     8
 73
     4
 74
     0
 42
0.00000001
 43
0.00000001
 40
1.0
 40
1.0
 40
1.0
 40
1.0
 40
2.0
 40
2.0
 40
2.0
 40
2.0
 10
13.60867884934522
 20
-22.41373778363303
 30
0.0
 10
14.06883090410567
 20
-21.86791668638103
 30
0.0
 10
13.93824647055738
 20
-21.10927008942834
 30
0.0
 10
13.63564806322252
 20
-20.52311487241799
 30
0.0
  0
SPLINE
  5
97
330
77
100
AcDbEntity
  8
0
  6
Continuous
 62
     7
370
    18
100
AcDbSpline
210
0.0
220
0.0
230
1.0
 70
     8
 71
     3
 72
     8
 73
     4
 74
     0
 42
0.00000001
 43
0.00000001
 40
2.0
 40
2.0
 40
2.0
 40
2.0
 40
3.0
 40
3.0
 40
3.0
 40
3.0
 10
13.63564806322252
 20
-20.52311487241799
 30
0.0
 10
13.28964627126481
 20
-19.85285410357718
 30
0.0
 10
12.67648338579735
 20
-19.35824964276486
 30
0.0
 10
12.02812778214086
 20
-18.99653111143571
 30
0.0
  0
SPLINE
  5
98
330
77
100
AcDbEntity
  8
0
  6
Continuous
 62
     7
370
    18
100
AcDbSpline
210
0.0
220
0.0
230
1.0
 70
     8
 71
     3
 72
     8
 73
     4
 74
     0
 42
0.00000001
 43
0.00000001
 40
3.0
 40
3.0
 40
3.0
 40
3.0
 40
4.0
 40
4.0
 40
4.0
 40
4.0
 10
12.02812778214086
 20
-18.99653111143571
 30
0.0
 10
11.39165828893943
 20
-18.64115679256055
 30
0.0
 10
10.65675821014571
 20
-18.52555054647402
 30
0.0
 10
9.935944716227333
 20
-18.57712058838266
 30
0.0
  0
SPLINE
  5
99
330
77
100
AcDbEntity
  8
0
  6
Continuous
 62
     7
370
    18
100
AcDbSpline
210
0.0
220
0.0
230
1.0
 70
     8
 71
     3
 72
     8
 73
     4
 74
     0
 42
0.00000001
 43
0.00000001
 40
4.0
 40
4.0
 40
4.0
 40
4.0
 40
5.0
 40
5.0
 40
5.0
 40
5.0
 10
9.935944716227333
 20
-18.57712058838266
 30
0.0
 10
9.765303020833768
 20
-18.58949090353762
 30
0.0
 10
9.595649831281627
 20
-18.61121519850877
 30
0.0
 10
9.427025317953943
 20
-18.6398242200312
 30
0.0
  0
SPLINE
  5
9A
330
77
100
AcDbEntity
  8
0
  6
Continuous
 62
     7
370
    18
100
AcDbSpline
210
0.0
220
0.0
230
1.0
 70
     8
 71
     3
 72
     8
 73
     4
 74
     0
 42
0.00000001
 43
0.00000001
 40
5.0
 40
5.0
 40
5.0
 40
5.0
 40
6.0
 40
6.0
 40
6.0
 40
6.0
 10
9.427025317953943
 20
-18.6398242200312
 30
0.0
 10
9.401841746024298
 20
-18.64325493737991
 30
0.0
 10
9.375930374221884
 20
-18.6474270753044
 30
0.0
 10
9.347977710247896
 20
-18.65350684706063
 30
0.0
  0
SPLINE
  5
9B
330
77
100
AcDbEntity
  8
0
  6
Continuous
 62
     7
370
    18
100
AcDbSpline
210
0.0
220
0.0
230
1.0
 70
     8
 71
     3
 72
     8
 73
     4
 74
     0
 42
0.00000001
 43
0.00000001
 40
6.0
 40
6.0
 40
6.0
 40
6.0
 40
7.0
 40
7.0
 40
7.0
 40
7.0
 10
9.347977710247896
 20
-18.65350684706063
 30
0.0
 10
9.3154844368747
 20
-18.66059198688143
 30
0.0
 10
9.281612371694376
 20
-18.66928222686759
 30
0.0
 10
9.248401750735159
 20
-18.67721589591814
 30
0.0
  0
SPLINE
  5
9C
330
77
100
AcDbEntity
  8
0
  6
Continuous
 62
     7
370
    18
100
AcDbSpline
210
0.0
220
0.0
230
1.0
 70
     8
 71
     3
 72
     8
 73
     4
 74
     0
 42
0.00000001
 43
0.00000001
 40
7.0
 40
7.0
 40
7.0
 40
7.0
 40
8.0
 40
8.0
 40
8.0
 40
8.0
 10
9.248401750735159
 20
-18.67721589591814
 30
0.0
 10
8.828729172017946
 20
-18.76183233709977
 30
0.0
 10
8.416325576603711
 20
-18.88669856103988
 30
0.0
 10
8.018919595305736
 20
-19.04403200074751
 30
0.0
  0
SPLINE
  5
9D
330
77
100
AcDbEntity
  8
0
  6
Continuous
 62
     7
370
    18
100
AcDbSpline
210
0.0
220
0.0
230
1.0
 70
     8
 71
     3
 72
     8
 73
     4
 74
     0
 42
0.00000001
 43
0.00000001
 40
8.0
 40
8.0
 40
8.0
 40
8.0
 40
9.0
 40
9.0
 40
9.0
 40
9.0
 10
8.018919595305736
 20
-19.04403200074751
 30
0.0
 10
7.948718757678904
 20
-19.07224882816383
 30
0.0
 10
7.878767955532004
 20
-19.10158741935046
 30
0.0
 10
7.809081283087698
 20
-19.13152738138843
 30
0.0
  0
SPLINE
  5
9E
330
77
100
AcDbEntity
  8
0
  6
Continuous
 62
     7
370
    18
100
AcDbSpline
210
0.0
220
0.0
230
1.0
 70
     8
 71
     3
 72
     8
 73
     4
 74
     0
 42
0.00000001
 43
0.00000001
 40
10.0
 40
10.0
 40
10.0
 40
10.0
 40
11.0
 40
11.0
 40
11.0
 40
11.0
 10
7.809180288493772
 20
-19.13132308829617
 30
0.0
 10
7.802761398942892
 20
-19.13413367961332
 30
0.0
 10
7.796378564323003
 20
-19.1370921325915
 30
0.0
 10
7.789959674772166
 20
-19.13990272390857
 30
0.0
  0
SPLINE
  5
9F
330
77
100
AcDbEntity
  8
0
  6
Continuous
 62
     7
370
    18
100
AcDbSpline
210
0.0
220
0.0
230
1.0
 70
     8
 71
     3
 72
     8
 73
     4
 74
     0
 42
0.00000001
 43
0.00000001
 40
11.0
 40
11.0
 40
11.0
 40
11.0
 40
12.0
 40
12.0
 40
12.0
 40
12.0
 10
7.789959674772166
 20
-19.13990272390857
 30
0.0
 10
7.727199483469478
 20
-19.16702581234913
 30
0.0
 10
7.664805832448564
 20
-19.19491328366098
 30
0.0
 10
7.602701913775588
 20
-19.22344287883286
 30
0.0
  0
SPLINE
  5
A0
330
77
100
AcDbEntity
  8
0
  6
Continuous
 62
     7
370
    18
100
AcDbSpline
210
0.0
220
0.0
230
1.0
 70
     8
 71
     3
 72
     8
 73
     4
 74
     0
 42
0.00000001
 43
0.00000001
 40
12.0
 40
12.0
 40
12.0
 40
12.0
 40
13.0
 40
13.0
 40
13.0
 40
13.0
 10
7.602701913775588
 20
-19.22344287883286
 30
0.0
 10
7.217113319687935
 20
-19.39705344743212
 30
0.0
 10
5.997001551904617
 20
-20.08735799660829
 30
0.0
 10
5.62103742160189
 20
-20.28524495509878
 30
0.0
  0
SPLINE
  5
A1
330
77
100
AcDbEntity
  8
0
  6
Continuous
 62
     7
370
    18
100
AcDbSpline
210
0.0
220
0.0
230
1.0
 70
     8
 71
     3
 72
     8
 73
     4
 74
     0
 42
0.00000001
 43
0.00000001
 40
4.0
 40
4.0
 40
4.0
 40
4.0
 40
5.0
 40
5.0
 40
5.0
 40
5.0
 10
-8.312643520423714
 20
-34.53636241310925
 30
0.0
 10
-8.411034639160002
 20
-34.58584183701119
 30
0.0
 10
-8.836966871753177
 20
-34.8700258468235
 30
0.0
 10
-8.954634558748669
 20
-34.83055832481292
 30
0.0
  0
SPLINE
  5
A2
330
77
100
AcDbEntity
  8
0
  6
Continuous
 62
     7
370
    18
100
AcDbSpline
210
0.0
220
0.0
230
1.0
 70
     8
 71
     3
 72
     8
 73
     4
 74
     0
 42
0.00000001
 43
0.00000001
 40
6.0
 40
6.0
 40
6.0
 40
6.0
 40
7.0
 40
7.0
 40
7.0
 40
7.0
 10
-8.884590252340216
 20
-34.8534799981297
 30
0.0
 10
-1.619323899915008
 20
-33.84056501948026
 30
0.0
 10
-0.8849007908736523
 20
-28.48090738365391
 30
0.0
 10
1.39752241185063
 20
-24.31768612090927
 30
0.0
  0
SPLINE
  5
A3
330
77
100
AcDbEntity
  8
0
  6
Continuous
 62
     7
370
    18
100
AcDbSpline
210
0.0
220
0.0
230
1.0
 70
     8
 71
     3
 72
     8
 73
     4
 74
     0
 42
0.00000001
 43
0.00000001
 40
15.0
 40
15.0
 40
15.0
 40
15.0
 40
16.0
 40
16.0
 40
16.0
 40
16.0
 10
7.61666402024219
 20
-16.14061015178518
 30
0.0
 10
6.37712430883088
 20
-11.21974897891878
 30
0.0
 10
0.5014966551233776
 20
-9.115775052417424
 30
0.0
 10
1.502064263494276
 20
-1.771589632457653
 30
0.0
  0
SPLINE
  5
A4
330
77
100
AcDbEntity
  8
0
  6
Continuous
 62
     7
370
    18
100
AcDbSpline
210
0.0
220
0.0
230
1.0
 70
     8
 71
     2
 72
     6
 73
     3
 74
     0
 42
0.00000001
 43
0.00000001
 40
16.0
 40
16.0
 40
16.0
 40
17.0
 40
17.0
 40
17.0
 10
1.502064263494301
 20
-1.771589632457637
 30
0.0
 10
0.8988127122367296
 20
-1.387303972091294
 30
0.0
 10
0.394445507708313
 20
-2.906964564311894
 30
0.0
  0
SPLINE
  5
A5
330
77
100
AcDbEntity
  8
0
  6
Continuous
 62
     7
370
    18
100
AcDbSpline
210
0.0
220
0.0
230
1.0
 70
     8
 71
     3
 72
     8
 73
     4
 74
     0
 42
0.00000001
 43
0.00000001
 40
17.0
 40
17.0
 40
17.0
 40
17.0
 40
18.0
 40
18.0
 40
18.0
 40
18.0
 10
0.3944455077083129
 20
-2.906964564311893
 30
0.0
 10
0.1589062916464202
 20
-2.432255303561799
 30
0.0
 10
0.0481326418671805
 20
-1.719165557923681
 30
0.0
 10
-0.0000000000000111
 20
-1.029698316824825
 30
0.0
  0
SPLINE
  5
A6
330
77
100
AcDbEntity
  8
0
  6
Continuous
 62
     7
370
    18
100
AcDbSpline
210
0.0
220
0.0
230
1.0
 70
     8
 71
     3
 72
     8
 73
     4
 74
     0
 42
0.00000001
 43
0.00000001
 40
19.0
 40
19.0
 40
19.0
 40
19.0
 40
20.0
 40
20.0
 40
20.0
 40
20.0
 10
-0.000000000000011
 20
1.029698316824825
 30
0.0
 10
-0.247605001678439
 20
0.9563586700206326
 30
0.0
 10
-0.4965992125871336
 20
0.8376424291228968
 30
0.0
 10
-0.7423932761695102
 20
0.6788199880206746
 30
0.0
  0
SPLINE
  5
A7
330
77
100
AcDbEntity
  8
0
  6
Continuous
 62
     7
370
    18
100
AcDbSpline
210
0.0
220
0.0
230
1.0
 70
     8
 71
     3
 72
     8
 73
     4
 74
     0
 42
0.00000001
 43
0.00000001
 40
20.0
 40
20.0
 40
20.0
 40
20.0
 40
21.0
 40
21.0
 40
21.0
 40
21.0
 10
-0.7423932761695041
 20
0.6788199880206758
 30
0.0
 10
-3.773706502500729
 20
-1.088364608817558
 30
0.0
 10
-5.828023551311025
 20
-6.502648922742776
 30
0.0
 10
-6.373622392678747
 20
-10.44545216301364
 30
0.0
  0
SPLINE
  5
A8
330
77
100
AcDbEntity
  8
0
  6
Continuous
 62
     7
370
    18
100
AcDbSpline
210
0.0
220
0.0
230
1.0
 70
     8
 71
     3
 72
     8
 73
     4
 74
     0
 42
0.00000001
 43
0.00000001
 40
21.0
 40
21.0
 40
21.0
 40
21.0
 40
22.0
 40
22.0
 40
22.0
 40
22.0
 10
-6.373622392678747
 20
-10.44545216301364
 30
0.0
 10
-6.534387006384851
 20
-11.6072393176462
 30
0.0
 10
-6.110986063680238
 20
-12.77235598421836
 30
0.0
 10
-5.239490498328086
 20
-13.55729186389973
 30
0.0
  0
SPLINE
  5
A9
330
77
100
AcDbEntity
  8
0
  6
Continuous
 62
     7
370
    18
100
AcDbSpline
210
0.0
220
0.0
230
1.0
 70
     8
 71
     3
 72
     8
 73
     4
 74
     0
 42
0.00000001
 43
0.00000001
 40
22.0
 40
22.0
 40
22.0
 40
22.0
 40
23.0
 40
23.0
 40
23.0
 40
23.0
 10
-5.239490498328086
 20
-13.55729186389973
 30
0.0
 10
-5.069093162935886
 20
-13.71072824031157
 30
0.0
 10
-4.812594020154235
 20
-13.94204896363468
 30
0.0
 10
-4.497635623981145
 20
-14.22616249222083
 30
0.0
  0
SPLINE
  5
AA
330
77
100
AcDbEntity
  8
0
  6
Continuous
 62
     7
370
    18
100
AcDbSpline
210
0.0
220
0.0
230
1.0
 70
     8
 71
     3
 72
     8
 73
     4
 74
     0
 42
0.00000001
 43
0.00000001
 40
23.0
 40
23.0
 40
23.0
 40
23.0
 40
24.0
 40
24.0
 40
24.0
 40
24.0
 10
-4.497635623981145
 20
-14.22616249222083
 30
0.0
 10
-7.377206548962273
 20
-14.3610427235814
 30
0.0
 10
-10.37603432623049
 20
-14.41258052682769
 30
0.0
 10
-13.47142906384564
 20
-11.50579972895087
 30
0.0
  0
SPLINE
  5
AB
330
77
100
AcDbEntity
  8
0
  6
Continuous
 62
     7
370
    18
100
AcDbSpline
210
0.0
220
0.0
230
1.0
 70
     8
 71
     2
 72
     6
 73
     3
 74
     0
 42
0.00000001
 43
0.00000001
 40
24.0
 40
24.0
 40
24.0
 40
25.0
 40
25.0
 40
25.0
 10
-13.47142906384564
 20
-11.50579972895087
 30
0.0
 10
-14.10688605414107
 20
-11.76335116991974
 30
0.0
 10
-13.20042236989913
 20
-13.00202096164688
 30
0.0
  0
SPLINE
  5
AC
330
77
100
AcDbEntity
  8
0
  6
Continuous
 62
     7
370
    18
100
AcDbSpline
210
0.0
220
0.0
230
1.0
 70
     8
 71
     3
 72
     8
 73
     4
 74
     0
 42
0.00000001
 43
0.00000001
 40
25.0
 40
25.0
 40
25.0
 40
25.0
 40
26.0
 40
26.0
 40
26.0
 40
26.0
 10
-13.20042236989913
 20
-13.00202096164688
 30
0.0
 10
-13.70207232315818
 20
-12.92204228168365
 30
0.0
 10
-14.32058558561591
 20
-12.6121679091681
 30
0.0
 10
-14.88582480126041
 20
-12.26649433731928
 30
0.0
  0
SPLINE
  5
AD
330
77
100
AcDbEntity
  8
0
  6
Continuous
 62
     7
370
    18
100
AcDbSpline
210
0.0
220
0.0
230
1.0
 70
     8
 71
     3
 72
     8
 73
     4
 74
     0
 42
0.00000001
 43
0.00000001
 40
26.0
 40
26.0
 40
26.0
 40
26.0
 40
27.0
 40
27.0
 40
27.0
 40
27.0
 10
-14.88582480126041
 20
-12.26649433731928
 30
0.0
 10
-15.11439138607148
 20
-12.10379107541082
 30
0.0
 10
-15.34298592256308
 20
-11.9411337926506
 30
0.0
 10
-15.57155250737237
 20
-11.77843053074102
 30
0.0
  0
SPLINE
  5
AE
330
77
100
AcDbEntity
  8
0
  6
Continuous
 62
     7
370
    18
100
AcDbSpline
210
0.0
220
0.0
230
1.0
 70
     8
 71
     3
 72
     8
 73
     4
 74
     0
 42
0.00000001
 43
0.00000001
 40
27.0
 40
27.0
 40
27.0
 40
27.0
 40
28.0
 40
28.0
 40
28.0
 40
28.0
 10
-15.57155250737237
 20
-11.77843053074102
 30
0.0
 10
-15.54626988054684
 20
-12.43496417244951
 30
0.0
 10
-15.44651697844639
 20
-13.43368074094347
 30
0.0
 10
-15.07122586658969
 20
-14.58147725173132
 30
0.0
  0
SPLINE
  5
AF
330
77
100
AcDbEntity
  8
0
  6
Continuous
 62
     7
370
    18
100
AcDbSpline
210
0.0
220
0.0
230
1.0
 70
     8
 71
     3
 72
     8
 73
     4
 74
     0
 42
0.00000001
 43
0.00000001
 40
28.0
 40
28.0
 40
28.0
 40
28.0
 40
29.0
 40
29.0
 40
29.0
 40
29.0
 10
-15.07122586658969
 20
-14.58147725173132
 30
0.0
 10
-14.14101186928763
 20
-17.42663227492847
 30
0.0
 10
-12.21890524301946
 20
-19.04448598632376
 30
0.0
 10
-11.57411800959374
 20
-19.5729627316439
 30
0.0
  0
SPLINE
  5
B0
330
77
100
AcDbEntity
  8
0
  6
Continuous
 62
     7
370
    18
100
AcDbSpline
210
0.0
220
0.0
230
1.0
 70
     8
 71
     3
 72
     8
 73
     4
 74
     0
 42
0.00000001
 43
0.00000001
 40
29.0
 40
29.0
 40
29.0
 40
29.0
 40
30.0
 40
30.0
 40
30.0
 40
30.0
 10
-11.57411800959374
 20
-19.5729627316439
 30
0.0
 10
-10.2278360673758
 20
-20.67639225726875
 30
0.0
 10
-8.968626575135383
 20
-21.18705865057519
 30
0.0
 10
-8.289256857954726
 20
-21.45628499958021
 30
0.0
  0
SPLINE
  5
B1
330
77
100
AcDbEntity
  8
0
  6
Continuous
 62
     7
370
    18
100
AcDbSpline
210
0.0
220
0.0
230
1.0
 70
     8
 71
     3
 72
     8
 73
     4
 74
     0
 42
0.00000001
 43
0.00000001
 40
30.0
 40
30.0
 40
30.0
 40
30.0
 40
31.0
 40
31.0
 40
31.0
 40
31.0
 10
-8.289256857954726
 20
-21.45628499958021
 30
0.0
 10
-6.483682376184763
 20
-22.17184513279697
 30
0.0
 10
-4.87477560776411
 20
-22.35351920351825
 30
0.0
 10
-3.81330444415229
 20
-22.39201571571204
 30
0.0
  0
SPLINE
  5
B2
330
77
100
AcDbEntity
  8
0
  6
Continuous
 62
     7
370
    18
100
AcDbSpline
210
0.0
220
0.0
230
1.0
 70
     8
 71
     3
 72
     8
 73
     4
 74
     0
 42
0.00000001
 43
0.00000001
 40
31.0
 40
31.0
 40
31.0
 40
31.0
 40
32.0
 40
32.0
 40
32.0
 40
32.0
 10
-3.81330444415229
 20
-22.39201571571204
 30
0.0
 10
-2.745750888684706
 20
-24.06170974884294
 30
0.0
 10
-1.264629867395483
 20
-24.91818512638145
 30
0.0
 10
0.2366295532190317
 20
-25.09914029792422
 30
0.0
  0
SPLINE
  5
B3
330
77
100
AcDbEntity
  8
0
  6
Continuous
 62
     7
370
    18
100
AcDbSpline
210
0.0
220
0.0
230
1.0
 70
     8
 71
     3
 72
     8
 73
     4
 74
     0
 42
0.00000001
 43
0.00000001
 40
32.0
 40
32.0
 40
32.0
 40
32.0
 40
33.0
 40
33.0
 40
33.0
 40
33.0
 10
0.2366295532190317
 20
-25.09914029792422
 30
0.0
 10
0.2368448266661417
 20
-25.0995734306171
 30
0.0
 10
0.2368448266661417
 20
-25.0995734306171
 30
0.0
 10
0.2370729014386109
 20
-25.10002693981265
 30
0.0
  0
SPLINE
  5
B4
330
77
100
AcDbEntity
  8
0
  6
Continuous
 62
     7
370
    18
100
AcDbSpline
210
0.0
220
0.0
230
1.0
 70
     8
 71
     3
 72
     8
 73
     4
 74
     0
 42
0.00000001
 43
0.00000001
 40
33.0
 40
33.0
 40
33.0
 40
33.0
 40
34.0
 40
34.0
 40
34.0
 40
34.0
 10
0.2370729014386109
 20
-25.10002693981265
 30
0.0
 10
-0.4473726928542233
 20
-26.30798726564406
 30
0.0
 10
-1.052723993388068
 20
-27.59471040392042
 30
0.0
 10
-1.848922752625017
 20
-28.73217700654635
 30
0.0
  0
SPLINE
  5
B5
330
77
100
AcDbEntity
  8
0
  6
Continuous
 62
     7
370
    18
100
AcDbSpline
210
0.0
220
0.0
230
1.0
 70
     8
 71
     3
 72
     8
 73
     4
 74
     0
 42
0.00000001
 43
0.00000001
 40
34.0
 40
34.0
 40
34.0
 40
34.0
 40
35.0
 40
35.0
 40
35.0
 40
35.0
 10
-1.848922752625017
 20
-28.73217700654635
 30
0.0
 10
-2.581016469155664
 20
-29.77807436155356
 30
0.0
 10
-3.400574596946121
 20
-30.75794148607251
 30
0.0
 10
-4.320169782681019
 20
-31.64443770292509
 30
0.0
  0
SPLINE
  5
B6
330
77
100
AcDbEntity
  8
0
  6
Continuous
 62
     7
370
    18
100
AcDbSpline
210
0.0
220
0.0
230
1.0
 70
     8
 71
     3
 72
     8
 73
     4
 74
     0
 42
0.00000001
 43
0.00000001
 40
35.0
 40
35.0
 40
35.0
 40
35.0
 40
36.0
 40
36.0
 40
36.0
 40
36.0
 10
-4.320169782681019
 20
-31.64443770292509
 30
0.0
 10
-5.502292349801121
 20
-32.78399067088333
 30
0.0
 10
-6.842609551083555
 20
-33.79631625162889
 30
0.0
 10
-8.312622230422718
 20
-34.53633602884937
 30
0.0
  0
SPLINE
  5
B7
330
77
100
AcDbEntity
  8
0
  6
Continuous
 62
     7
370
    18
100
AcDbSpline
210
0.0
220
0.0
230
1.0
 70
     8
 71
     3
 72
     8
 73
     4
 74
     0
 42
0.00000001
 43
0.00000001
 40
36.0
 40
36.0
 40
36.0
 40
36.0
 40
37.0
 40
37.0
 40
37.0
 40
37.0
 10
-8.312622230422718
 20
-34.53633602884937
 30
0.0
 10
-8.41100054783539
 20
-34.58583582925527
 30
0.0
 10
-8.836986334755972
 20
-34.87002506520831
 30
0.0
 10
-8.95464122042903
 20
-34.83057791969982
 30
0.0
  0
SPLINE
  5
B8
330
77
100
AcDbEntity
  8
0
  6
Continuous
 62
     7
370
    18
100
AcDbSpline
210
0.0
220
0.0
230
1.0
 70
     8
 71
     3
 72
     8
 73
     4
 74
     0
 42
0.00000001
 43
0.00000001
 40
37.0
 40
37.0
 40
37.0
 40
37.0
 40
38.0
 40
38.0
 40
38.0
 40
38.0
 10
-8.95464122042903
 20
-34.83057791969982
 30
0.0
 10
-7.855316701000916
 20
-35.19902224220693
 30
0.0
 10
-6.670985849771815
 20
-35.31257295399734
 30
0.0
 10
-5.520530485207503
 20
-35.38070666342594
 30
0.0
  0
SPLINE
  5
B9
330
77
100
AcDbEntity
  8
0
  6
Continuous
 62
     7
370
    18
100
AcDbSpline
210
0.0
220
0.0
230
1.0
 70
     8
 71
     3
 72
     8
 73
     4
 74
     0
 42
0.00000001
 43
0.00000001
 40
38.0
 40
38.0
 40
38.0
 40
38.0
 40
39.0
 40
39.0
 40
39.0
 40
39.0
 10
-5.520530485207503
 20
-35.38070666342594
 30
0.0
 10
-4.24400827120937
 20
-35.45626070172416
 30
0.0
 10
-2.850018941515092
 20
-35.37210723674404
 30
0.0
 10
-1.633497186371029
 20
-34.95381072794466
 30
0.0
  0
SPLINE
  5
BA
330
77
100
AcDbEntity
  8
0
  6
Continuous
 62
     7
370
    18
100
AcDbSpline
210
0.0
220
0.0
230
1.0
 70
     8
 71
     3
 72
     8
 73
     4
 74
     0
 42
0.00000001
 43
0.00000001
 40
39.0
 40
39.0
 40
39.0
 40
39.0
 40
40.0
 40
40.0
 40
40.0
 40
40.0
 10
-1.633497186371029
 20
-34.95381072794466
 30
0.0
 10
-1.161647758417268
 20
-34.79156986805435
 30
0.0
 10
-0.6998897419386533
 20
-34.60060003392512
 30
0.0
 10
-0.2417020015756544
 20
-34.40340438622162
 30
0.0
  0
SPLINE
  5
BB
330
77
100
AcDbEntity
  8
0
  6
Continuous
 62
     7
370
    18
100
AcDbSpline
210
0.0
220
0.0
230
1.0
 70
     8
 71
     3
 72
     8
 73
     4
 74
     0
 42
0.00000001
 43
0.00000001
 40
40.0
 40
40.0
 40
40.0
 40
40.0
 40
41.0
 40
41.0
 40
41.0
 40
41.0
 10
-0.2417020015756544
 20
-34.40340438622162
 30
0.0
 10
-0.1816605164030941
 20
-34.37756301425404
 30
0.0
 10
0.5680618153143264
 20
-34.09824266291977
 30
0.0
 10
0.5619671856328979
 20
-34.03977754396634
 30
0.0
  0
SPLINE
  5
BC
330
77
100
AcDbEntity
  8
0
  6
Continuous
 62
     7
370
    18
100
AcDbSpline
210
0.0
220
0.0
230
1.0
 70
     8
 71
     3
 72
     8
 73
     4
 74
     0
 42
0.00000001
 43
0.00000001
 40
41.0
 40
41.0
 40
41.0
 40
41.0
 40
42.0
 40
42.0
 40
42.0
 40
42.0
 10
0.5619671856328945
 20
-34.03977754396634
 30
0.0
 10
0.5009923545267035
 20
-33.45272868294924
 30
0.0
 10
0.3892408997618144
 20
-32.91033974047543
 30
0.0
 10
0.4097333630990446
 20
-32.31246460469481
 30
0.0
  0
SPLINE
  5
BD
330
77
100
AcDbEntity
  8
0
  6
Continuous
 62
     7
370
    18
100
AcDbSpline
210
0.0
220
0.0
230
1.0
 70
     8
 71
     3
 72
     8
 73
     4
 74
     0
 42
0.00000001
 43
0.00000001
 40
42.0
 40
42.0
 40
42.0
 40
42.0
 40
43.0
 40
43.0
 40
43.0
 40
43.0
 10
0.4097333630990446
 20
-32.31246460469481
 30
0.0
 10
0.4361451972772317
 20
-31.54089785432373
 30
0.0
 10
0.5999347140878322
 20
-30.80335021591472
 30
0.0
 10
0.781068330884661
 20
-30.05649778236755
 30
0.0
  0
SPLINE
  5
BE
330
77
100
AcDbEntity
  8
0
  6
Continuous
 62
     7
370
    18
100
AcDbSpline
210
0.0
220
0.0
230
1.0
 70
     8
 71
     2
 72
     6
 73
     3
 74
     0
 42
0.00000001
 43
0.00000001
 40
43.0
 40
43.0
 40
43.0
 40
44.0
 40
44.0
 40
44.0
 10
0.7810683308846645
 20
-30.05649778236755
 30
0.0
 10
2.019861532240659
 20
-29.56825285869967
 30
0.0
 10
2.258068961108365
 20
-29.47606436460191
 30
0.0
  0
SPLINE
  5
BF
330
77
100
AcDbEntity
  8
0
  6
Continuous
 62
     7
370
    18
100
AcDbSpline
210
0.0
220
0.0
230
1.0
 70
     8
 71
     3
 72
     8
 73
     4
 74
     0
 42
0.00000001
 43
0.00000001
 40
44.0
 40
44.0
 40
44.0
 40
44.0
 40
45.0
 40
45.0
 40
45.0
 40
45.0
 10
2.258068961108342
 20
-29.47606436460192
 30
0.0
 10
3.006698264126698
 20
-29.1863189469019
 30
0.0
 10
3.728021454602016
 20
-28.82750567245856
 30
0.0
 10
4.423057775498144
 20
-28.42657886572963
 30
0.0
  0
SPLINE
  5
C0
330
77
100
AcDbEntity
  8
0
  6
Continuous
 62
     7
370
    18
100
AcDbSpline
210
0.0
220
0.0
230
1.0
 70
     8
 71
     3
 72
     8
 73
     4
 74
     0
 42
0.00000001
 43
0.00000001
 40
45.0
 40
45.0
 40
45.0
 40
45.0
 40
46.0
 40
46.0
 40
46.0
 40
46.0
 10
4.423057775498167
 20
-28.42657886572961
 30
0.0
 10
4.868536225754158
 20
-28.16961728043866
 30
0.0
 10
5.301864108552885
 20
-27.8924103198887
 30
0.0
 10
5.741401688969919
 20
-27.62554000024407
 30
0.0
  0
SPLINE
  5
C1
330
77
100
AcDbEntity
  8
0
  6
Continuous
 62
     7
370
    18
100
AcDbSpline
210
0.0
220
0.0
230
1.0
 70
     8
 71
     3
 72
     8
 73
     4
 74
     0
 42
0.00000001
 43
0.00000001
 40
46.0
 40
46.0
 40
46.0
 40
46.0
 40
47.0
 40
47.0
 40
47.0
 40
47.0
 10
5.741401688969916
 20
-27.62554000024407
 30
0.0
 10
5.846716220532924
 20
-27.83071994248106
 30
0.0
 10
5.91709395351037
 20
-28.10115880837991
 30
0.0
 10
5.852221678941643
 20
-28.42763672804736
 30
0.0
  0
SPLINE
  5
C2
330
77
100
AcDbEntity
  8
0
  6
Continuous
 62
     7
370
    18
100
AcDbSpline
210
0.0
220
0.0
230
1.0
 70
     8
 71
     3
 72
     8
 73
     4
 74
     0
 42
0.00000001
 43
0.00000001
 40
47.0
 40
47.0
 40
47.0
 40
47.0
 40
48.0
 40
48.0
 40
48.0
 40
48.0
 10
5.852221678941643
 20
-28.42763672804736
 30
0.0
 10
5.825697879445541
 20
-28.53478547887384
 30
0.0
 10
5.788744133302801
 20
-28.64641216137642
 30
0.0
 10
5.745232449477395
 20
-28.75809491089348
 30
0.0
  0
SPLINE
  5
C3
330
77
100
AcDbEntity
  8
0
  6
Continuous
 62
     7
370
    18
100
AcDbSpline
210
0.0
220
0.0
230
1.0
 70
     8
 71
     2
 72
     6
 73
     3
 74
     0
 42
0.00000001
 43
0.00000001
 40
48.0
 40
48.0
 40
48.0
 40
49.0
 40
49.0
 40
49.0
 10
5.745232449477399
 20
-28.75809491089347
 30
0.0
 10
5.531726678391706
 20
-29.30640322476907
 30
0.0
 10
5.166798660391799
 20
-29.85361491693775
 30
0.0
  0
SPLINE
  5
C4
330
77
100
AcDbEntity
  8
0
  6
Continuous
 62
     7
370
    18
100
AcDbSpline
210
0.0
220
0.0
230
1.0
 70
     8
 71
     3
 72
     8
 73
     4
 74
     0
 42
0.00000001
 43
0.00000001
 40
49.0
 40
49.0
 40
49.0
 40
49.0
 40
50.0
 40
50.0
 40
50.0
 40
50.0
 10
5.166798660391799
 20
-29.85361491693775
 30
0.0
 10
6.311748821301538
 20
-30.87442349267374
 30
0.0
 10
9.719833011058038
 20
-30.34731936373517
 30
0.0
 10
10.01547529282146
 20
-30.40047363722643
 30
0.0
  0
SPLINE
  5
C5
330
77
100
AcDbEntity
  8
0
  6
Continuous
 62
     7
370
    18
100
AcDbSpline
210
0.0
220
0.0
230
1.0
 70
     8
 71
     3
 72
     8
 73
     4
 74
     0
 42
0.00000001
 43
0.00000001
 40
51.0
 40
51.0
 40
51.0
 40
51.0
 40
52.0
 40
52.0
 40
52.0
 40
52.0
 10
9.153997704124192
 20
-32.09537737749855
 30
0.0
 10
9.13746533104106
 20
-32.12795874790397
 30
0.0
 10
9.15043432665133
 20
-32.16778204466993
 30
0.0
 10
9.183008121878673
 20
-32.18434759557922
 30
0.0
  0
SPLINE
  5
C6
330
77
100
AcDbEntity
  8
0
  6
Continuous
 62
     7
370
    18
100
AcDbSpline
210
0.0
220
0.0
230
1.0
 70
     8
 71
     3
 72
     8
 73
     4
 74
     0
 42
0.00000001
 43
0.00000001
 40
53.0
 40
53.0
 40
53.0
 40
53.0
 40
54.0
 40
54.0
 40
54.0
 40
54.0
 10
9.481427995968861
 20
-32.33610365259894
 30
0.0
 10
9.51400179119618
 20
-32.35266920350812
 30
0.0
 10
9.553865840967733
 20
-32.33967460525203
 30
0.0
 10
9.570438967056274
 20
-32.30706763220036
 30
0.0
  0
SPLINE
  5
C7
330
77
100
AcDbEntity
  8
0
  6
Continuous
 62
     7
370
    18
100
AcDbSpline
210
0.0
220
0.0
230
1.0
 70
     8
 71
     3
 72
     8
 73
     4
 74
     0
 42
0.00000001
 43
0.00000001
 40
55.0
 40
55.0
 40
55.0
 40
55.0
 40
56.0
 40
56.0
 40
56.0
 40
56.0
 10
10.49927251692245
 20
-30.47944802269659
 30
0.0
 10
10.51193120516501
 20
-30.46811349836248
 30
0.0
 10
10.52226333020525
 20
-30.4588658263786
 30
0.0
 10
10.53488126544412
 20
-30.44755690468914
 30
0.0
  0
SPLINE
  5
C8
330
77
100
AcDbEntity
  8
0
  6
Continuous
 62
     7
370
    18
100
AcDbSpline
210
0.0
220
0.0
230
1.0
 70
     8
 71
     3
 72
     8
 73
     4
 74
     0
 42
0.00000001
 43
0.00000001
 40
56.0
 40
56.0
 40
56.0
 40
56.0
 40
57.0
 40
57.0
 40
57.0
 40
57.0
 10
10.53488126544413
 20
-30.44755690468914
 30
0.0
 10
10.94397733100252
 20
-30.30331240881152
 30
0.0
 10
11.82966874715053
 20
-29.98429676100319
 30
0.0
 10
12.53432218047716
 20
-29.45754287024319
 30
0.0
  0
SPLINE
  5
C9
330
77
100
AcDbEntity
  8
0
  6
Continuous
 62
     7
370
    18
100
AcDbSpline
210
0.0
220
0.0
230
1.0
 70
     8
 71
     3
 72
     8
 73
     4
 74
     0
 42
0.00000001
 43
0.00000001
 40
57.0
 40
57.0
 40
57.0
 40
57.0
 40
58.0
 40
58.0
 40
58.0
 40
58.0
 10
12.53432218047716
 20
-29.45754287024319
 30
0.0
 10
12.5642240877841
 20
-29.43520496265615
 30
0.0
 10
12.56963855743016
 20
-29.39207389927418
 30
0.0
 10
12.54678888824712
 20
-29.36257875718611
 30
0.0
  0
SPLINE
  5
CA
330
77
100
AcDbEntity
  8
0
  6
Continuous
 62
     7
370
    18
100
AcDbSpline
210
0.0
220
0.0
230
1.0
 70
     8
 71
     3
 72
     8
 73
     4
 74
     0
 42
0.00000001
 43
0.00000001
 40
59.0
 40
59.0
 40
59.0
 40
59.0
 40
60.0
 40
60.0
 40
60.0
 40
60.0
 10
12.34190888882302
 20
-29.09789103127773
 30
0.0
 10
12.31997516065779
 20
-29.06958242439806
 30
0.0
 10
12.28012241966975
 20
-29.06441030595369
 30
0.0
 10
12.25140704757306
 20
-29.08583227252173
 30
0.0
  0
SPLINE
  5
CB
330
77
100
AcDbEntity
  8
0
  6
Continuous
 62
     7
370
    18
100
AcDbSpline
210
0.0
220
0.0
230
1.0
 70
     8
 71
     3
 72
     8
 73
     4
 74
     0
 42
0.00000001
 43
0.00000001
 40
60.0
 40
60.0
 40
60.0
 40
60.0
 40
61.0
 40
61.0
 40
61.0
 40
61.0
 10
12.25140704757306
 20
-29.08583227252173
 30
0.0
 10
11.61813304861152
 20
-29.55810881407591
 30
0.0
 10
10.80862034190002
 20
-29.85498500376039
 30
0.0
 10
10.41032416844674
 20
-29.99588325594667
 30
0.0
  0
SPLINE
  5
CC
330
77
100
AcDbEntity
  8
0
  6
Continuous
 62
     7
370
    18
100
AcDbSpline
210
0.0
220
0.0
230
1.0
 70
     8
 71
     3
 72
     8
 73
     4
 74
     0
 42
0.00000001
 43
0.00000001
 40
61.0
 40
61.0
 40
61.0
 40
61.0
 40
62.0
 40
62.0
 40
62.0
 40
62.0
 10
10.41032416844674
 20
-29.99588325594667
 30
0.0
 10
10.11835353580004
 20
-29.93880243613075
 30
0.0
 10
9.785406052735285
 20
-29.78148435767264
 30
0.0
 10
9.416902124193346
 20
-29.50966772742371
 30
0.0
  0
SPLINE
  5
CD
330
77
100
AcDbEntity
  8
0
  6
Continuous
 62
     7
370
    18
100
AcDbSpline
210
0.0
220
0.0
230
1.0
 70
     8
 71
     3
 72
     8
 73
     4
 74
     0
 42
0.00000001
 43
0.00000001
 40
62.0
 40
62.0
 40
62.0
 40
62.0
 40
63.0
 40
63.0
 40
63.0
 40
63.0
 10
9.416902124193346
 20
-29.50966772742371
 30
0.0
 10
9.407944475865712
 20
-29.50119955155471
 30
0.0
 10
9.394588799105467
 20
-29.49143050250025
 30
0.0
 10
9.376572020348016
 20
-29.48021324667389
 30
0.0
  0
SPLINE
  5
CE
330
77
100
AcDbEntity
  8
0
  6
Continuous
 62
     7
370
    18
100
AcDbSpline
210
0.0
220
0.0
230
1.0
 70
     8
 71
     3
 72
     8
 73
     4
 74
     0
 42
0.00000001
 43
0.00000001
 40
63.0
 40
63.0
 40
63.0
 40
63.0
 40
64.0
 40
64.0
 40
64.0
 40
64.0
 10
9.376572020348016
 20
-29.48021324667389
 30
0.0
 10
9.145324806072944
 20
-29.30555303878837
 30
0.0
 10
8.900259957859191
 20
-29.0859189225671
 30
0.0
 10
8.642485564221985
 20
-28.81737501008692
 30
0.0
  0
SPLINE
  5
CF
330
77
100
AcDbEntity
  8
0
  6
Continuous
 62
     7
370
    18
100
AcDbSpline
210
0.0
220
0.0
230
1.0
 70
     8
 71
     2
 72
     6
 73
     3
 74
     0
 42
0.00000001
 43
0.00000001
 40
64.0
 40
64.0
 40
64.0
 40
65.0
 40
65.0
 40
65.0
 10
8.642485564221984
 20
-28.81737501008692
 30
0.0
 10
8.62781779716172
 20
-28.81266466885932
 30
0.0
 10
8.605249246441485
 20
-28.80533009248483
 30
0.0
  0
SPLINE
  5
D0
330
77
100
AcDbEntity
  8
0
  6
Continuous
 62
     7
370
    18
100
AcDbSpline
210
0.0
220
0.0
230
1.0
 70
     8
 71
     3
 72
     8
 73
     4
 74
     0
 42
0.00000001
 43
0.00000001
 40
65.0
 40
65.0
 40
65.0
 40
65.0
 40
66.0
 40
66.0
 40
66.0
 40
66.0
 10
8.605249246441483
 20
-28.80533009248483
 30
0.0
 10
8.441756705356795
 20
-28.62769111192185
 30
0.0
 10
8.288445022476992
 20
-28.44047320919115
 30
0.0
 10
8.160507965772787
 20
-28.26397079802058
 30
0.0
  0
SPLINE
  5
D1
330
77
100
AcDbEntity
  8
0
  6
Continuous
 62
     7
370
    18
100
AcDbSpline
210
0.0
220
0.0
230
1.0
 70
     8
 71
     3
 72
     8
 73
     4
 74
     0
 42
0.00000001
 43
0.00000001
 40
66.0
 40
66.0
 40
66.0
 40
66.0
 40
67.0
 40
67.0
 40
67.0
 40
67.0
 10
8.160507965772789
 20
-28.26397079802058
 30
0.0
 10
8.607151503975404
 20
-28.41906030303154
 30
0.0
 10
9.19232914263821
 20
-28.57237361567124
 30
0.0
 10
9.863974170124614
 20
-28.62737240380984
 30
0.0
  0
SPLINE
  5
D2
330
77
100
AcDbEntity
  8
0
  6
Continuous
 62
     7
370
    18
100
AcDbSpline
210
0.0
220
0.0
230
1.0
 70
     8
 71
     3
 72
     8
 73
     4
 74
     0
 42
0.00000001
 43
0.00000001
 40
67.0
 40
67.0
 40
67.0
 40
67.0
 40
68.0
 40
68.0
 40
68.0
 40
68.0
 10
9.863974170124614
 20
-28.62737240380984
 30
0.0
 10
9.929750373961975
 20
-28.63137718087538
 30
0.0
 10
9.995567330801844
 20
-28.63535635529414
 30
0.0
 10
10.05958246956674
 20
-28.63782455467626
 30
0.0
  0
SPLINE
  5
D3
330
77
100
AcDbEntity
  8
0
  6
Continuous
 62
     7
370
    18
100
AcDbSpline
210
0.0
220
0.0
230
1.0
 70
     8
 71
     3
 72
     8
 73
     4
 74
     0
 42
0.00000001
 43
0.00000001
 40
68.0
 40
68.0
 40
68.0
 40
68.0
 40
69.0
 40
69.0
 40
69.0
 40
69.0
 10
10.05958246956674
 20
-28.63782455467626
 30
0.0
 10
10.11127119041664
 20
-28.63985208217537
 30
0.0
 10
10.16294064545186
 20
-28.64456308025562
 30
0.0
 10
10.21460035848199
 20
-28.64618254964
 30
0.0
  0
SPLINE
  5
D4
330
77
100
AcDbEntity
  8
0
  6
Continuous
 62
     7
370
    18
100
AcDbSpline
210
0.0
220
0.0
230
1.0
 70
     8
 71
     3
 72
     8
 73
     4
 74
     0
 42
0.00000001
 43
0.00000001
 40
69.0
 40
69.0
 40
69.0
 40
69.0
 40
70.0
 40
70.0
 40
70.0
 40
70.0
 10
10.21460035848199
 20
-28.64618254964
 30
0.0
 10
10.21915118340657
 20
-28.64627909690886
 30
0.0
 10
10.22372526194017
 20
-28.64650312933368
 30
0.0
 10
10.22972170784432
 20
-28.64302011343959
 30
0.0
  0
SPLINE
  5
D5
330
77
100
AcDbEntity
  8
0
  6
Continuous
 62
     7
370
    18
100
AcDbSpline
210
0.0
220
0.0
230
1.0
 70
     8
 71
     3
 72
     8
 73
     4
 74
     0
 42
0.00000001
 43
0.00000001
 40
70.0
 40
70.0
 40
70.0
 40
70.0
 40
71.0
 40
71.0
 40
71.0
 40
71.0
 10
10.22972170784433
 20
-28.64302011343959
 30
0.0
 10
10.39542110854619
 20
-28.64648636439826
 30
0.0
 10
10.55222592049436
 20
-28.64556554872323
 30
0.0
 10
10.69525541603271
 20
-28.64198824855314
 30
0.0
  0
SPLINE
  5
D6
330
77
100
AcDbEntity
  8
0
  6
Continuous
 62
     7
370
    18
100
AcDbSpline
210
0.0
220
0.0
230
1.0
 70
     8
 71
     3
 72
     8
 73
     4
 74
     0
 42
0.00000001
 43
0.00000001
 40
71.0
 40
71.0
 40
71.0
 40
71.0
 40
72.0
 40
72.0
 40
72.0
 40
72.0
 10
10.6952554160327
 20
-28.64198824855314
 30
0.0
 10
10.93874918772079
 20
-28.62923420583628
 30
0.0
 10
12.86255814414376
 20
-28.44580125262167
 30
0.0
 10
13.43053046157378
 20
-28.5046888169102
 30
0.0
  0
SPLINE
  5
D7
330
77
100
AcDbEntity
  8
0
  6
Continuous
 62
     7
370
    18
100
AcDbSpline
210
0.0
220
0.0
230
1.0
 70
     8
 71
     3
 72
     8
 73
     4
 74
     0
 42
0.00000001
 43
0.00000001
 40
72.0
 40
72.0
 40
72.0
 40
72.0
 40
73.0
 40
73.0
 40
73.0
 40
73.0
 10
13.43053046157378
 20
-28.5046888169102
 30
0.0
 10
12.97694821790165
 20
-29.54354095615899
 30
0.0
 10
12.80375507038257
 20
-30.61054434437692
 30
0.0
 10
12.76467963112437
 20
-30.88580371497291
 30
0.0
  0
SPLINE
  5
D8
330
77
100
AcDbEntity
  8
0
  6
Continuous
 62
     7
370
    18
100
AcDbSpline
210
0.0
220
0.0
230
1.0
 70
     8
 71
     3
 72
     8
 73
     4
 74
     0
 42
0.00000001
 43
0.00000001
 40
73.0
 40
73.0
 40
73.0
 40
73.0
 40
74.0
 40
74.0
 40
74.0
 40
74.0
 10
12.76467963112437
 20
-30.88580371497291
 30
0.0
 10
12.75946694188426
 20
-30.92247061993447
 30
0.0
 10
12.78562558003658
 20
-30.95551385922744
 30
0.0
 10
12.8223724068011
 20
-30.95999428728276
 30
0.0
  0
SPLINE
  5
D9
330
77
100
AcDbEntity
  8
0
  6
Continuous
 62
     7
370
    18
100
AcDbSpline
210
0.0
220
0.0
230
1.0
 70
     8
 71
     3
 72
     8
 73
     4
 74
     0
 42
0.00000001
 43
0.00000001
 40
75.0
 40
75.0
 40
75.0
 40
75.0
 40
76.0
 40
76.0
 40
76.0
 40
76.0
 10
13.27084661062346
 20
-31.0149510216448
 30
0.0
 10
13.30643509061805
 20
-31.01930660488938
 30
0.0
 10
13.33913039971426
 20
-30.99490116531647
 30
0.0
 10
13.34433815412196
 20
-30.95940253133898
 30
0.0
  0
SPLINE
  5
DA
330
77
100
AcDbEntity
  8
0
  6
Continuous
 62
     7
370
    18
100
AcDbSpline
210
0.0
220
0.0
230
1.0
 70
     8
 71
     3
 72
     8
 73
     4
 74
     0
 42
0.00000001
 43
0.00000001
 40
76.0
 40
76.0
 40
76.0
 40
76.0
 40
77.0
 40
77.0
 40
77.0
 40
77.0
 10
13.34433815412196
 20
-30.95940253133898
 30
0.0
 10
13.3839863568229
 20
-30.68912606222256
 30
0.0
 10
13.56408992520232
 20
-29.60362871347513
 30
0.0
 10
14.02078503742013
 20
-28.61451474141115
 30
0.0
  0
SPLINE
  5
DB
330
77
100
AcDbEntity
  8
0
  6
Continuous
 62
     7
370
    18
100
AcDbSpline
210
0.0
220
0.0
230
1.0
 70
     8
 71
     3
 72
     8
 73
     4
 74
     0
 42
0.00000001
 43
0.00000001
 40
77.0
 40
77.0
 40
77.0
 40
77.0
 40
78.0
 40
78.0
 40
78.0
 40
78.0
 10
14.02078503742013
 20
-28.61451474141115
 30
0.0
 10
14.03051784933197
 20
-28.60422264166403
 30
0.0
 10
14.03832693001586
 20
-28.5959348321164
 30
0.0
 10
14.04805974192876
 20
-28.58564273237117
 30
0.0
  0
SPLINE
  5
DC
330
77
100
AcDbEntity
  8
0
  6
Continuous
 62
     7
370
    18
100
AcDbSpline
210
0.0
220
0.0
230
1.0
 70
     8
 71
     3
 72
     8
 73
     4
 74
     0
 42
0.00000001
 43
0.00000001
 40
78.0
 40
78.0
 40
78.0
 40
78.0
 40
79.0
 40
79.0
 40
79.0
 40
79.0
 10
14.04805974192877
 20
-28.58564273237117
 30
0.0
 10
14.36946299190545
 20
-28.42521597674384
 30
0.0
 10
15.82365074121367
 20
-27.67538698008446
 30
0.0
 10
17.12167999380672
 20
-27.35127481772455
 30
0.0
  0
SPLINE
  5
DD
330
77
100
AcDbEntity
  8
0
  6
Continuous
 62
     7
370
    18
100
AcDbSpline
210
0.0
220
0.0
230
1.0
 70
     8
 71
     3
 72
     8
 73
     4
 74
     0
 42
0.00000001
 43
0.00000001
 40
79.0
 40
79.0
 40
79.0
 40
79.0
 40
80.0
 40
80.0
 40
80.0
 40
80.0
 10
17.1216799938067
 20
-27.35127481772455
 30
0.0
 10
17.15690371849272
 20
-27.34247430066912
 30
0.0
 10
17.17784082126059
 20
-27.30749514968448
 30
0.0
 10
17.16924929537078
 20
-27.27219696609878
 30
0.0
  0
SPLINE
  5
DE
330
77
100
AcDbEntity
  8
0
  6
Continuous
 62
     7
370
    18
100
AcDbSpline
210
0.0
220
0.0
230
1.0
 70
     8
 71
     3
 72
     8
 73
     4
 74
     0
 42
0.00000001
 43
0.00000001
 40
81.0
 40
81.0
 40
81.0
 40
81.0
 40
82.0
 40
82.0
 40
82.0
 40
82.0
 10
17.06226621153357
 20
-26.8332975819211
 30
0.0
 10
17.05353856916747
 20
-26.79760179250334
 30
0.0
 10
17.01793344627307
 20
-26.77512547170584
 30
0.0
 10
16.98226613660748
 20
-26.78403415355417
 30
0.0
  0
SPLINE
  5
DF
330
77
100
AcDbEntity
  8
0
  6
Continuous
 62
     7
370
    18
100
AcDbSpline
210
0.0
220
0.0
230
1.0
 70
     8
 71
     3
 72
     8
 73
     4
 74
     0
 42
0.00000001
 43
0.00000001
 40
82.0
 40
82.0
 40
82.0
 40
82.0
 40
83.0
 40
83.0
 40
83.0
 40
83.0
 10
16.98226613660748
 20
-26.78403415355417
 30
0.0
 10
15.80703100274552
 20
-27.07715433462484
 30
0.0
 10
14.44247136659616
 20
-27.74853717091202
 30
0.0
 10
13.97401618096952
 20
-27.97182062237161
 30
0.0
  0
SPLINE
  5
E0
330
77
100
AcDbEntity
  8
0
  6
Continuous
 62
     7
370
    18
100
AcDbSpline
210
0.0
220
0.0
230
1.0
 70
     8
 71
     2
 72
     6
 73
     3
 74
     0
 42
0.00000001
 43
0.00000001
 40
83.0
 40
83.0
 40
83.0
 40
84.0
 40
84.0
 40
84.0
 10
13.97401618096952
 20
-27.97182062237161
 30
0.0
 10
13.76115166284069
 20
-28.0306975586193
 30
0.0
 10
13.62827019587519
 20
-28.06884456933804
 30
0.0
  0
SPLINE
  5
E1
330
77
100
AcDbEntity
  8
0
  6
Continuous
 62
     7
370
    18
100
AcDbSpline
210
0.0
220
0.0
230
1.0
 70
     8
 71
     2
 72
     6
 73
     3
 74
     0
 42
0.00000001
 43
0.00000001
 40
84.0
 40
84.0
 40
84.0
 40
85.0
 40
85.0
 40
85.0
 10
13.62827019587519
 20
-28.06884456933805
 30
0.0
 10
11.5526032886585
 20
-27.70008456573036
 30
0.0
 10
8.975295544280778
 20
-24.55390683673479
 30
0.0
  0
SPLINE
  5
E2
330
77
100
AcDbEntity
  8
0
  6
Continuous
 62
     7
370
    18
100
AcDbSpline
210
0.0
220
0.0
230
1.0
 70
     8
 71
     2
 72
     6
 73
     3
 74
     0
 42
0.00000001
 43
0.00000001
 40
8.0
 40
8.0
 40
8.0
 40
9.0
 40
9.0
 40
9.0
 10
1.034248725372328
 20
-24.04306676583063
 30
0.0
 10
0.5031359822839347
 20
-24.67424914238567
 30
0.0
 10
0.2366362148993398
 20
-25.09912070303729
 30
0.0
  0
SPLINE
  5
E3
330
77
100
AcDbEntity
  8
0
  6
Continuous
 62
     7
370
    18
100
AcDbSpline
210
0.0
220
0.0
230
1.0
 70
     8
 71
     3
 72
     8
 73
     4
 74
     0
 42
0.00000001
 43
0.00000001
 40
86.0
 40
86.0
 40
86.0
 40
86.0
 40
87.0
 40
87.0
 40
87.0
 40
87.0
 10
10.62007177823641
 20
-22.03794594188311
 30
0.0
 10
11.72219760878135
 20
-21.28087378904547
 30
0.0
 10
12.92971041173824
 20
-21.7396330529282
 30
0.0
 10
13.12249700197277
 20
-22.04761177879816
 30
0.0
  0
SPLINE
  5
E4
330
77
100
AcDbEntity
  8
0
  6
Continuous
 62
     7
370
    18
100
AcDbSpline
210
0.0
220
0.0
230
1.0
 70
     8
 71
     3
 72
     8
 73
     4
 74
     0
 42
0.00000001
 43
0.00000001
 40
87.0
 40
87.0
 40
87.0
 40
87.0
 40
88.0
 40
88.0
 40
88.0
 40
88.0
 10
13.12249700197277
 20
-22.04761177879816
 30
0.0
 10
13.26108412081468
 20
-22.26820779325175
 30
0.0
 10
13.22069296788121
 20
-22.53929203859532
 30
0.0
 10
13.16248097184179
 20
-22.77811969809535
 30
0.0
  0
SPLINE
  5
E5
330
77
100
AcDbEntity
  8
0
  6
Continuous
 62
     7
370
    18
100
AcDbSpline
210
0.0
220
0.0
230
1.0
 70
     8
 71
     3
 72
     8
 73
     4
 74
     0
 42
0.00000001
 43
0.00000001
 40
1.0
 40
1.0
 40
1.0
 40
1.0
 40
2.0
 40
2.0
 40
2.0
 40
2.0
 10
-12.97698727481876
 20
-11.94438967842669
 30
0.0
 10
-12.93408822057713
 20
-11.98055695107731
 30
0.0
 10
-12.89117871404966
 20
-12.0168313323847
 30
0.0
 10
-12.84833062834044
 20
-12.05192229234568
 30
0.0
  0
SPLINE
  5
E6
330
77
100
AcDbEntity
  8
0
  6
Continuous
 62
     7
370
    18
100
AcDbSpline
210
0.0
220
0.0
230
1.0
 70
     8
 71
     3
 72
     8
 73
     4
 74
     0
 42
0.00000001
 43
0.00000001
 40
0.0
 40
0.0
 40
0.0
 40
0.0
 40
1.0
 40
1.0
 40
1.0
 40
1.0
 10
-12.84833062834044
 20
-12.05192229234568
 30
0.0
 10
-12.89117977018919
 20
-12.01637729512133
 30
0.0
 10
-12.93406966504302
 20
-11.98085790053987
 30
0.0
 10
-12.97698727481876
 20
-11.94438967842669
 30
0.0
  0
SPLINE
  5
E7
330
77
100
AcDbEntity
  8
0
  6
Continuous
 62
     7
370
    18
100
AcDbSpline
210
0.0
220
0.0
230
1.0
 70
     8
 71
     3
 72
     8
 73
     4
 74
     0
 42
0.00000001
 43
0.00000001
 40
1.0
 40
1.0
 40
1.0
 40
1.0
 40
2.0
 40
2.0
 40
2.0
 40
2.0
 10
-13.12585089146288
 20
-11.81726812552848
 30
0.0
 10
-13.07617793437105
 20
-11.86068937846771
 30
0.0
 10
-13.02665471445727
 20
-11.90224380512823
 30
0.0
 10
-12.97698727481876
 20
-11.94438967842669
 30
0.0
  0
SPLINE
  5
E8
330
77
100
AcDbEntity
  8
0
  6
Continuous
 62
     7
370
    18
100
AcDbSpline
210
0.0
220
0.0
230
1.0
 70
     8
 71
     3
 72
     8
 73
     4
 74
     0
 42
0.00000001
 43
0.00000001
 40
0.0
 40
0.0
 40
0.0
 40
0.0
 40
1.0
 40
1.0
 40
1.0
 40
1.0
 10
-12.97698727481876
 20
-11.94438967842669
 30
0.0
 10
-13.02658495363045
 20
-11.90262626059936
 30
0.0
 10
-13.07617323629799
 20
-11.86051591416215
 30
0.0
 10
-13.12585089146288
 20
-11.81726812552848
 30
0.0
  0
SPLINE
  5
E9
330
77
100
AcDbEntity
  8
0
  6
Continuous
 62
     7
370
    18
100
AcDbSpline
210
0.0
220
0.0
230
1.0
 70
     8
 71
     3
 72
     8
 73
     4
 74
     0
 42
0.00000001
 43
0.00000001
 40
1.0
 40
1.0
 40
1.0
 40
1.0
 40
2.0
 40
2.0
 40
2.0
 40
2.0
 10
-13.4714083645441
 20
-11.50579973387192
 30
0.0
 10
-13.35607265135197
 20
-11.61411326446534
 30
0.0
 10
-13.24089747348539
 20
-11.71701440282046
 30
0.0
 10
-13.12585089146288
 20
-11.81726812552848
 30
0.0
  0
SPLINE
  5
EA
330
77
100
AcDbEntity
  8
0
  6
Continuous
 62
     7
370
    18
100
AcDbSpline
210
0.0
220
0.0
230
1.0
 70
     8
 71
     3
 72
     8
 73
     4
 74
     0
 42
0.00000001
 43
0.00000001
 40
0.0
 40
0.0
 40
0.0
 40
0.0
 40
1.0
 40
1.0
 40
1.0
 40
1.0
 10
-13.12585089146288
 20
-11.81726812552848
 30
0.0
 10
-13.24099048791926
 20
-11.71650446219232
 30
0.0
 10
-13.35623202143728
 20
-11.61358817347745
 30
0.0
 10
-13.4714083645441
 20
-11.50579973387192
 30
0.0
  0
SPLINE
  5
EB
330
77
100
AcDbEntity
  8
0
  6
Continuous
 62
     7
370
    18
100
AcDbSpline
210
0.0
220
0.0
230
1.0
 70
     8
 71
     3
 72
     8
 73
     4
 74
     0
 42
0.00000001
 43
0.00000001
 40
0.0
 40
0.0
 40
0.0
 40
0.0
 40
1.0
 40
1.0
 40
1.0
 40
1.0
 10
10.21461546345718
 20
-28.64617788443965
 30
0.0
 10
10.21918410196907
 20
-28.64627093080314
 30
0.0
 10
10.22372101727702
 20
-28.64652141251756
 30
0.0
 10
10.22970805870399
 20
-28.64302825278814
 30
0.0
  0
SPLINE
  5
EC
330
77
100
AcDbEntity
  8
0
  6
Continuous
 62
     7
370
    18
100
AcDbSpline
210
0.0
220
0.0
230
1.0
 70
     8
 71
     3
 72
     8
 73
     4
 74
     0
 42
0.00000001
 43
0.00000001
 40
1.0
 40
1.0
 40
1.0
 40
1.0
 40
2.0
 40
2.0
 40
2.0
 40
2.0
 10
10.22970805870399
 20
-28.64302825278814
 30
0.0
 10
10.39542645279408
 20
-28.64648116215303
 30
0.0
 10
10.55224712619552
 20
-28.64555481591909
 30
0.0
 10
10.69524471404092
 20
-28.64199596788804
 30
0.0
  0
SPLINE
  5
ED
330
77
100
AcDbEntity
  8
0
  6
Continuous
 62
     7
370
    18
100
AcDbSpline
210
0.0
220
0.0
230
1.0
 70
     8
 71
     3
 72
     8
 73
     4
 74
     0
 42
0.00000001
 43
0.00000001
 40
2.0
 40
2.0
 40
2.0
 40
2.0
 40
3.0
 40
3.0
 40
3.0
 40
3.0
 10
10.69524471404092
 20
-28.64199596788804
 30
0.0
 10
10.93878108149031
 20
-28.62922500765117
 30
0.0
 10
12.86256786793131
 20
-28.44579912729742
 30
0.0
 10
13.43053447184528
 20
-28.50468697828905
 30
0.0
  0
SPLINE
  5
EE
330
77
100
AcDbEntity
  8
0
  6
Continuous
 62
     7
370
    18
100
AcDbSpline
210
0.0
220
0.0
230
1.0
 70
     8
 71
     3
 72
     8
 73
     4
 74
     0
 42
0.00000001
 43
0.00000001
 40
3.0
 40
3.0
 40
3.0
 40
3.0
 40
4.0
 40
4.0
 40
4.0
 40
4.0
 10
13.43053447184528
 20
-28.50468697828905
 30
0.0
 10
11.96260748192116
 20
-28.37392053115179
 30
0.0
 10
10.1633950095022
 20
-27.12274869564028
 30
0.0
 10
9.151098102011504
 20
-26.42677276430952
 30
0.0
  0
SPLINE
  5
EF
330
77
100
AcDbEntity
  8
0
  6
Continuous
 62
     7
370
    18
100
AcDbSpline
210
0.0
220
0.0
230
1.0
 70
     8
 71
     3
 72
     8
 73
     4
 74
     0
 42
0.00000001
 43
0.00000001
 40
4.0
 40
4.0
 40
4.0
 40
4.0
 40
5.0
 40
5.0
 40
5.0
 40
5.0
 10
9.151098102011504
 20
-26.42677276430952
 30
0.0
 10
9.066774001144022
 20
-26.36879812840622
 30
0.0
 10
8.956675902463358
 20
-26.36572633462992
 30
0.0
 10
8.868930887547672
 20
-26.41838015454434
 30
0.0
  0
SPLINE
  5
F0
330
77
100
AcDbEntity
  8
0
  6
Continuous
 62
     7
370
    18
100
AcDbSpline
210
0.0
220
0.0
230
1.0
 70
     8
 71
     3
 72
     8
 73
     4
 74
     0
 42
0.00000001
 43
0.00000001
 40
5.0
 40
5.0
 40
5.0
 40
5.0
 40
6.0
 40
6.0
 40
6.0
 40
6.0
 10
8.868930887547672
 20
-26.41838015454434
 30
0.0
 10
8.137245193614708
 20
-26.85744836598368
 30
0.0
 10
6.503485492791613
 20
-27.54121410964402
 30
0.0
 10
5.741387155997157
 20
-27.6255445902606
 30
0.0
  0
SPLINE
  5
F1
330
77
100
AcDbEntity
  8
0
  6
Continuous
 62
     7
370
    18
100
AcDbSpline
210
0.0
220
0.0
230
1.0
 70
     8
 71
     2
 72
     6
 73
     3
 74
     0
 42
0.00000001
 43
0.00000001
 40
6.0
 40
6.0
 40
6.0
 40
7.0
 40
7.0
 40
7.0
 10
5.741387155997161
 20
-27.6255445902606
 30
0.0
 10
6.307502227055851
 20
-27.91539630107968
 30
0.0
 10
8.160512274320864
 20
-28.26397363103973
 30
0.0
  0
SPLINE
  5
F2
330
77
100
AcDbEntity
  8
0
  6
Continuous
 62
     7
370
    18
100
AcDbSpline
210
0.0
220
0.0
230
1.0
 70
     8
 71
     3
 72
     8
 73
     4
 74
     0
 42
0.00000001
 43
0.00000001
 40
7.0
 40
7.0
 40
7.0
 40
7.0
 40
8.0
 40
8.0
 40
8.0
 40
8.0
 10
8.160512274320864
 20
-28.26397363103973
 30
0.0
 10
8.607119606053496
 20
-28.41908372564989
 30
0.0
 10
9.192348948782854
 20
-28.5723594656304
 30
0.0
 10
9.863974461413067
 20
-28.62736281210606
 30
0.0
  0
SPLINE
  5
F3
330
77
100
AcDbEntity
  8
0
  6
Continuous
 62
     7
370
    18
100
AcDbSpline
210
0.0
220
0.0
230
1.0
 70
     8
 71
     3
 72
     8
 73
     4
 74
     0
 42
0.00000001
 43
0.00000001
 40
8.0
 40
8.0
 40
8.0
 40
8.0
 40
9.0
 40
9.0
 40
9.0
 40
9.0
 10
9.863974461413067
 20
-28.62736281210606
 30
0.0
 10
9.929765209251192
 20
-28.63135918423149
 30
0.0
 10
9.995575675609581
 20
-28.63534316840197
 30
0.0
 10
10.05956717050909
 20
-28.63784354557302
 30
0.0
  0
SPLINE
  5
F4
330
77
100
AcDbEntity
  8
0
  6
Continuous
 62
     7
370
    18
100
AcDbSpline
210
0.0
220
0.0
230
1.0
 70
     8
 71
     3
 72
     8
 73
     4
 74
     0
 42
0.00000001
 43
0.00000001
 40
9.0
 40
9.0
 40
9.0
 40
9.0
 40
10.0
 40
10.0
 40
10.0
 40
10.0
 10
10.05956717050909
 20
-28.63784354557302
 30
0.0
 10
10.11125739464263
 20
-28.63984923247316
 30
0.0
 10
10.16293232757963
 20
-28.6445665106095
 30
0.0
 10
10.21461546345718
 20
-28.64617788443965
 30
0.0
  0
SPLINE
  5
F5
330
77
100
AcDbEntity
  8
0
  6
Continuous
 62
     7
370
    18
100
AcDbSpline
210
0.0
220
0.0
230
1.0
 70
     8
 71
     3
 72
     8
 73
     4
 74
     0
 42
0.00000001
 43
0.00000001
 40
2.0
 40
2.0
 40
2.0
 40
2.0
 40
3.0
 40
3.0
 40
3.0
 40
3.0
 10
0.781062732010538
 20
-30.05650200510532
 30
0.0
 10
0.1140626469377116
 20
-30.75512103968738
 30
0.0
 10
-0.1792280526829951
 20
-32.7836717599449
 30
0.0
 10
0.56197195590197
 20
-34.03978273437906
 30
0.0
  0
SPLINE
  5
F6
330
77
100
AcDbEntity
  8
0
  6
Continuous
 62
     7
370
    18
100
AcDbSpline
210
0.0
220
0.0
230
1.0
 70
     8
 71
     3
 72
     8
 73
     4
 74
     0
 42
0.00000001
 43
0.00000001
 40
1.0
 40
1.0
 40
1.0
 40
1.0
 40
2.0
 40
2.0
 40
2.0
 40
2.0
 10
0.4097379340995931
 20
-32.31245563887509
 30
0.0
 10
0.4361424212053228
 20
-31.54090664650138
 30
0.0
 10
0.5999421143876079
 20
-30.80333732452794
 30
0.0
 10
0.781062732010538
 20
-30.05650200510532
 30
0.0
  0
SPLINE
  5
F7
330
77
100
AcDbEntity
  8
0
  6
Continuous
 62
     7
370
    18
100
AcDbSpline
210
0.0
220
0.0
230
1.0
 70
     8
 71
     3
 72
     8
 73
     4
 74
     0
 42
0.00000001
 43
0.00000001
 40
0.0
 40
0.0
 40
0.0
 40
0.0
 40
1.0
 40
1.0
 40
1.0
 40
1.0
 10
0.56197195590197
 20
-34.03978273437906
 30
0.0
 10
0.5009972121190077
 20
-33.45272095850807
 30
0.0
 10
0.3892431137951322
 20
-32.91035567089727
 30
0.0
 10
0.4097379340995931
 20
-32.31245563887509
 30
0.0
  0
SPLINE
  5
F8
330
77
100
AcDbEntity
  8
0
  6
Continuous
 62
     7
370
    18
100
AcDbSpline
210
0.0
220
0.0
230
1.0
 70
     8
 71
     3
 72
     8
 73
     4
 74
     0
 42
0.00000001
 43
0.00000001
 40
0.0
 40
0.0
 40
0.0
 40
0.0
 40
1.0
 40
1.0
 40
1.0
 40
1.0
 10
-13.20041683738652
 20
-13.00201936979761
 30
0.0
 10
-12.32154115485279
 20
-14.45520144446019
 30
0.0
 10
-7.761960537329054
 20
-16.44470317690969
 30
0.0
 10
-5.320322465359877
 20
-16.96155007555379
 30
0.0
  0
SPLINE
  5
F9
330
77
100
AcDbEntity
  8
0
  6
Continuous
 62
     7
370
    18
100
AcDbSpline
210
0.0
220
0.0
230
1.0
 70
     8
 71
     3
 72
     8
 73
     4
 74
     0
 42
0.00000001
 43
0.00000001
 40
1.0
 40
1.0
 40
1.0
 40
1.0
 40
2.0
 40
2.0
 40
2.0
 40
2.0
 10
-5.320322465359877
 20
-16.96155007555379
 30
0.0
 10
-5.809512907815261
 20
-18.73302606223522
 30
0.0
 10
-4.10582967731771
 20
-21.71579823494536
 30
0.0
 10
-3.813304494022616
 20
-22.3920269991983
 30
0.0
  0
SPLINE
  5
FA
330
77
100
AcDbEntity
  8
0
  6
Continuous
 62
     7
370
    18
100
AcDbSpline
210
0.0
220
0.0
230
1.0
 70
     8
 71
     2
 72
     6
 73
     3
 74
     0
 42
0.00000001
 43
0.00000001
 40
2.0
 40
2.0
 40
2.0
 40
3.0
 40
3.0
 40
3.0
 10
-3.813304494022616
 20
-22.3920269991983
 30
0.0
 10
-6.043590765584354
 20
-20.10932636703633
 30
0.0
 10
-6.677555282416556
 20
-17.81074155341886
 30
0.0
  0
SPLINE
  5
FB
330
77
100
AcDbEntity
  8
0
  6
Continuous
 62
     7
370
    18
100
AcDbSpline
210
0.0
220
0.0
230
1.0
 70
     8
 71
     2
 72
     6
 73
     3
 74
     0
 42
0.00000001
 43
0.00000001
 40
3.0
 40
3.0
 40
3.0
 40
4.0
 40
4.0
 40
4.0
 10
-6.677555282416556
 20
-17.81074155341886
 30
0.0
 10
-11.75039520923077
 20
-15.65450427384786
 30
0.0
 10
-13.20041683738652
 20
-13.00201936979761
 30
0.0
  0
SPLINE
  5
FC
330
77
100
AcDbEntity
  8
0
  6
Continuous
 62
     7
370
    18
100
AcDbSpline
210
0.0
220
0.0
230
1.0
 70
     8
 71
     2
 72
     6
 73
     3
 74
     0
 42
0.00000001
 43
0.00000001
 40
1.0
 40
1.0
 40
1.0
 40
2.0
 40
2.0
 40
2.0
 10
-1.349158294773173
 20
-16.43790442263529
 30
0.0
 10
-3.425676913677115
 20
-15.05901031383733
 30
0.0
 10
-4.497614924678368
 20
-14.22616249714356
 30
0.0
  0
SPLINE
  5
FD
330
77
100
AcDbEntity
  8
0
  6
Continuous
 62
     7
370
    18
100
AcDbSpline
210
0.0
220
0.0
230
1.0
 70
     8
 71
     3
 72
     8
 73
     4
 74
     0
 42
0.00000001
 43
0.00000001
 40
2.0
 40
2.0
 40
2.0
 40
2.0
 40
3.0
 40
3.0
 40
3.0
 40
3.0
 10
-4.497614924678368
 20
-14.22616249714356
 30
0.0
 10
-7.183559023213449
 20
-14.35196557735811
 30
0.0
 10
-9.97328197261404
 20
-14.40422605275014
 30
0.0
 10
-12.84833062834044
 20
-12.05192229234568
 30
0.0
  0
SPLINE
  5
FE
330
77
100
AcDbEntity
  8
0
  6
Continuous
 62
     7
370
    18
100
AcDbSpline
210
0.0
220
0.0
230
1.0
 70
     8
 71
     2
 72
     6
 73
     3
 74
     0
 42
0.00000001
 43
0.00000001
 40
3.0
 40
3.0
 40
3.0
 40
4.0
 40
4.0
 40
4.0
 10
-12.84833062834044
 20
-12.05192229234568
 30
0.0
 10
-8.926716496317836
 20
-15.30072905894997
 30
0.0
 10
-5.163233750484998
 20
-14.64433050232701
 30
0.0
  0
SPLINE
  5
FF
330
77
100
AcDbEntity
  8
0
  6
Continuous
 62
     7
370
    18
100
AcDbSpline
210
0.0
220
0.0
230
1.0
 70
     8
 71
     2
 72
     6
 73
     3
 74
     0
 42
0.00000001
 43
0.00000001
 40
4.0
 40
4.0
 40
4.0
 40
5.0
 40
5.0
 40
5.0
 10
-5.163233750484998
 20
-14.64433050232701
 30
0.0
 10
-3.522925431558867
 20
-15.98679375933487
 30
0.0
 10
-2.117352433414995
 20
-16.92051428596087
 30
0.0
  0
SPLINE
  5
100
330
77
100
AcDbEntity
  8
0
  6
Continuous
 62
     7
370
    18
100
AcDbSpline
210
0.0
220
0.0
230
1.0
 70
     8
 71
     3
 72
     8
 73
     4
 74
     0
 42
0.00000001
 43
0.00000001
 40
5.0
 40
5.0
 40
5.0
 40
5.0
 40
6.0
 40
6.0
 40
6.0
 40
6.0
 10
-2.117352433414995
 20
-16.92051428596087
 30
0.0
 10
-2.267881806210096
 20
-17.81976104868603
 30
0.0
 10
-2.407277268150154
 20
-19.21016616381927
 30
0.0
 10
-1.664620714277922
 20
-20.81035712110292
 30
0.0
  0
SPLINE
  5
101
330
77
100
AcDbEntity
  8
0
  6
Continuous
 62
     7
370
    18
100
AcDbSpline
210
0.0
220
0.0
230
1.0
 70
     8
 71
     3
 72
     8
 73
     4
 74
     0
 42
0.00000001
 43
0.00000001
 40
6.0
 40
6.0
 40
6.0
 40
6.0
 40
7.0
 40
7.0
 40
7.0
 40
7.0
 10
-1.664620714277922
 20
-20.81035712110292
 30
0.0
 10
-1.664312426395075
 20
-20.81130019442271
 30
0.0
 10
-1.664085644523588
 20
-20.81229447303425
 30
0.0
 10
-1.663777356640795
 20
-20.813237546354
 30
0.0
  0
SPLINE
  5
102
330
77
100
AcDbEntity
  8
0
  6
Continuous
 62
     7
370
    18
100
AcDbSpline
210
0.0
220
0.0
230
1.0
 70
     8
 71
     3
 72
     8
 73
     4
 74
     0
 42
0.00000001
 43
0.00000001
 40
7.0
 40
7.0
 40
7.0
 40
7.0
 40
8.0
 40
8.0
 40
8.0
 40
8.0
 10
-1.663777356640795
 20
-20.813237546354
 30
0.0
 10
-1.662901112489764
 20
-20.81490372147473
 30
0.0
 10
-1.661968964973327
 20
-20.81647793829811
 30
0.0
 10
-1.661092720823347
 20
-20.81814411341701
 30
0.0
  0
SPLINE
  5
103
330
77
100
AcDbEntity
  8
0
  6
Continuous
 62
     7
370
    18
100
AcDbSpline
210
0.0
220
0.0
230
1.0
 70
     8
 71
     3
 72
     8
 73
     4
 74
     0
 42
0.00000001
 43
0.00000001
 40
8.0
 40
8.0
 40
8.0
 40
8.0
 40
9.0
 40
9.0
 40
9.0
 40
9.0
 10
-1.661092720823347
 20
-20.81814411341701
 30
0.0
 10
-1.229373968722224
 20
-21.74517157116296
 30
0.0
 10
-0.5004685823514314
 20
-22.74228692212668
 30
0.0
 10
0.6942959165096505
 20
-23.75544460571742
 30
0.0
  0
SPLINE
  5
104
330
77
100
AcDbEntity
  8
0
  6
Continuous
 62
     7
370
    18
100
AcDbSpline
210
0.0
220
0.0
230
1.0
 70
     8
 71
     2
 72
     6
 73
     3
 74
     0
 42
0.00000001
 43
0.00000001
 40
9.0
 40
9.0
 40
9.0
 40
10.0
 40
10.0
 40
10.0
 10
0.6942959165096505
 20
-23.75544460571742
 30
0.0
 10
1.573046591396742
 20
-24.52641591715609
 30
0.0
 10
2.277251563960161
 20
-24.90565086721784
 30
0.0
  0
SPLINE
  5
105
330
77
100
AcDbEntity
  8
0
  6
Continuous
 62
     7
370
    18
100
AcDbSpline
210
0.0
220
0.0
230
1.0
 70
     8
 71
     3
 72
     8
 73
     4
 74
     0
 42
0.00000001
 43
0.00000001
 40
10.0
 40
10.0
 40
10.0
 40
10.0
 40
11.0
 40
11.0
 40
11.0
 40
11.0
 10
2.277251563960161
 20
-24.90565086721784
 30
0.0
 10
-0.3444737072681864
 20
-23.07744411042371
 30
0.0
 10
-1.384783611401682
 20
-21.0299715722269
 30
0.0
 10
-1.791077823248111
 20
-19.55173176913453
 30
0.0
  0
SPLINE
  5
106
330
77
100
AcDbEntity
  8
0
  6
Continuous
 62
     7
370
    18
100
AcDbSpline
210
0.0
220
0.0
230
1.0
 70
     8
 71
     3
 72
     8
 73
     4
 74
     0
 42
0.00000001
 43
0.00000001
 40
11.0
 40
11.0
 40
11.0
 40
11.0
 40
12.0
 40
12.0
 40
12.0
 40
12.0
 10
-1.791077823248111
 20
-19.55173176913453
 30
0.0
 10
-1.952004736442718
 20
-18.58763900877485
 30
0.0
 10
-1.857645689601465
 20
-17.53728176305358
 30
0.0
 10
-1.344635895048667
 20
-16.44003656241194
 30
0.0
  0
SPLINE
  5
107
330
77
100
AcDbEntity
  8
0
  6
Continuous
 62
     7
370
    18
100
AcDbSpline
210
0.0
220
0.0
230
1.0
 70
     8
 71
     3
 72
     8
 73
     4
 74
     0
 42
0.00000001
 43
0.00000001
 40
1.0
 40
1.0
 40
1.0
 40
1.0
 40
2.0
 40
2.0
 40
2.0
 40
2.0
 10
9.282072433202625
 20
-23.83234642604633
 30
0.0
 10
9.542961528798338
 20
-23.25329859518931
 30
0.0
 10
9.985495514983219
 20
-22.47632608388373
 30
0.0
 10
10.62007177823641
 20
-22.03794594188311
 30
0.0
  0
SPLINE
  5
108
330
77
100
AcDbEntity
  8
0
  6
Continuous
 62
     7
370
    18
100
AcDbSpline
210
0.0
220
0.0
230
1.0
 70
     8
 71
     3
 72
     8
 73
     4
 74
     0
 42
0.00000001
 43
0.00000001
 40
4.0
 40
4.0
 40
4.0
 40
4.0
 40
5.0
 40
5.0
 40
5.0
 40
5.0
 10
13.17134989821584
 20
-22.77125005992538
 30
0.0
 10
13.91734338198129
 20
-21.59974891081312
 30
0.0
 10
11.03631975087138
 20
-19.45853573582023
 30
0.0
 10
8.91093208540684
 20
-21.00902899615352
 30
0.0
  0
SPLINE
  5
109
330
77
100
AcDbEntity
  8
0
  6
Continuous
 62
     7
370
    18
100
AcDbSpline
210
0.0
220
0.0
230
1.0
 70
     8
 71
     3
 72
     8
 73
     4
 74
     0
 42
0.00000001
 43
0.00000001
 40
5.0
 40
5.0
 40
5.0
 40
5.0
 40
6.0
 40
6.0
 40
6.0
 40
6.0
 10
8.91093208540684
 20
-21.00902899615352
 30
0.0
 10
6.785544419941263
 20
-22.55952225648562
 30
0.0
 10
6.138264936105684
 20
-26.41214330901684
 30
0.0
 10
0.7891610119816483
 20
-30.05141434614796
 30
0.0
  0
SPLINE
  5
10A
330
77
100
AcDbEntity
  8
0
  6
Continuous
 62
     7
370
    18
100
AcDbSpline
210
0.0
220
0.0
230
1.0
 70
     8
 71
     2
 72
     6
 73
     3
 74
     0
 42
0.00000001
 43
0.00000001
 40
6.0
 40
6.0
 40
6.0
 40
7.0
 40
7.0
 40
7.0
 10
0.7891610119816483
 20
-30.05141434614796
 30
0.0
 10
2.027957268008918
 20
-29.56317356732477
 30
0.0
 10
2.266152999548186
 20
-29.47098631967676
 30
0.0
  0
SPLINE
  5
10B
330
77
100
AcDbEntity
  8
0
  6
Continuous
 62
     7
370
    18
100
AcDbSpline
210
0.0
220
0.0
230
1.0
 70
     8
 71
     3
 72
     8
 73
     4
 74
     0
 42
0.00000001
 43
0.00000001
 40
7.0
 40
7.0
 40
7.0
 40
7.0
 40
8.0
 40
8.0
 40
8.0
 40
8.0
 10
2.266152999548186
 20
-29.47098631967676
 30
0.0
 10
3.014801417132293
 20
-29.18122818076082
 30
0.0
 10
3.736118100429408
 20
-28.82241116458091
 30
0.0
 10
4.431146345693874
 20
-28.42149782758251
 30
0.0
  0
SPLINE
  5
10C
330
77
100
AcDbEntity
  8
0
  6
Continuous
 62
     7
370
    18
100
AcDbSpline
210
0.0
220
0.0
230
1.0
 70
     8
 71
     3
 72
     8
 73
     4
 74
     0
 42
0.00000001
 43
0.00000001
 40
9.0
 40
9.0
 40
9.0
 40
9.0
 40
10.0
 40
10.0
 40
10.0
 40
10.0
 10
5.741401688969916
 20
-27.62554000024407
 30
0.0
 10
7.060991710032899
 20
-26.77804674712032
 30
0.0
 10
8.443973707032603
 20
-26.09970911999108
 30
0.0
 10
9.267426036511852
 20
-23.87039661735003
 30
0.0
  0
SPLINE
  5
10D
330
77
100
AcDbEntity
  8
0
  6
Continuous
 62
     7
370
    18
100
AcDbSpline
210
0.0
220
0.0
230
1.0
 70
     8
 71
     3
 72
     8
 73
     4
 74
     0
 42
0.00000001
 43
0.00000001
 40
0.0
 40
0.0
 40
0.0
 40
0.0
 40
1.0
 40
1.0
 40
1.0
 40
1.0
 10
7.616643966539248
 20
-16.14063575935378
 30
0.0
 10
6.913790166466484
 20
-16.14488777689968
 30
0.0
 10
6.697443007890195
 20
-16.79416276836541
 30
0.0
 10
6.436018843175425
 20
-17.3230129233678
 30
0.0
  0
SPLINE
  5
10E
330
77
100
AcDbEntity
  8
0
  6
Continuous
 62
     7
370
    18
100
AcDbSpline
210
0.0
220
0.0
230
1.0
 70
     8
 71
     3
 72
     8
 73
     4
 74
     0
 42
0.00000001
 43
0.00000001
 40
1.0
 40
1.0
 40
1.0
 40
1.0
 40
2.0
 40
2.0
 40
2.0
 40
2.0
 10
6.436018843175425
 20
-17.3230129233678
 30
0.0
 10
5.948216897681968
 20
-18.30992905460965
 30
0.0
 10
5.052555161752526
 20
-19.5995436994
 30
0.0
 10
5.103926613042106
 20
-20.75366969743216
 30
0.0
  0
SPLINE
  5
10F
330
77
100
AcDbEntity
  8
0
  6
Continuous
 62
     7
370
    18
100
AcDbSpline
210
0.0
220
0.0
230
1.0
 70
     8
 71
     2
 72
     6
 73
     3
 74
     0
 42
0.00000001
 43
0.00000001
 40
2.0
 40
2.0
 40
2.0
 40
3.0
 40
3.0
 40
3.0
 10
5.103926613042106
 20
-20.75366969743216
 30
0.0
 10
5.110006812763316
 20
-21.55270934533252
 30
0.0
 10
5.893010450029737
 20
-21.89666129361517
 30
0.0
  0
SPLINE
  5
110
330
77
100
AcDbEntity
  8
0
  6
Continuous
 62
     7
370
    18
100
AcDbSpline
210
0.0
220
0.0
230
1.0
 70
     8
 71
     2
 72
     6
 73
     3
 74
     0
 42
0.00000001
 43
0.00000001
 40
3.0
 40
3.0
 40
3.0
 40
4.0
 40
4.0
 40
4.0
 10
5.893010450029737
 20
-21.89666129361517
 30
0.0
 10
5.064669634616712
 20
-21.16070169146862
 30
0.0
 10
5.897476922257513
 20
-19.59962191921445
 30
0.0
  0
SPLINE
  5
111
330
77
100
AcDbEntity
  8
0
  6
Continuous
 62
     7
370
    18
100
AcDbSpline
210
0.0
220
0.0
230
1.0
 70
     8
 71
     3
 72
     8
 73
     4
 74
     0
 42
0.00000001
 43
0.00000001
 40
4.0
 40
4.0
 40
4.0
 40
4.0
 40
5.0
 40
5.0
 40
5.0
 40
5.0
 10
5.897476922257513
 20
-19.59962191921445
 30
0.0
 10
6.365882597961094
 20
-18.72160531632978
 30
0.0
 10
6.783564254303969
 20
-18.1502556103958
 30
0.0
 10
6.961063665415703
 20
-17.79297771071811
 30
0.0
  0
SPLINE
  5
112
330
77
100
AcDbEntity
  8
0
  6
Continuous
 62
     7
370
    18
100
AcDbSpline
210
0.0
220
0.0
230
1.0
 70
     8
 71
     3
 72
     8
 73
     4
 74
     0
 42
0.00000001
 43
0.00000001
 40
5.0
 40
5.0
 40
5.0
 40
5.0
 40
6.0
 40
6.0
 40
6.0
 40
6.0
 10
6.961063665415703
 20
-17.79297771071811
 30
0.0
 10
6.969564036079641
 20
-17.77592889764838
 30
0.0
 10
6.978008503380095
 20
-17.75897204287472
 30
0.0
 10
6.986317910343667
 20
-17.74207161953264
 30
0.0
  0
SPLINE
  5
113
330
77
100
AcDbEntity
  8
0
  6
Continuous
 62
     7
370
    18
100
AcDbSpline
210
0.0
220
0.0
230
1.0
 70
     8
 71
     2
 72
     6
 73
     3
 74
     0
 42
0.00000001
 43
0.00000001
 40
6.0
 40
6.0
 40
6.0
 40
7.0
 40
7.0
 40
7.0
 10
6.986317910343667
 20
-17.74207161953264
 30
0.0
 10
7.02365081475716
 20
-17.66624177102196
 30
0.0
 10
7.044485288742809
 20
-17.62223308004855
 30
0.0
  0
SPLINE
  5
114
330
77
100
AcDbEntity
  8
0
  6
Continuous
 62
     7
370
    18
100
AcDbSpline
210
0.0
220
0.0
230
1.0
 70
     8
 71
     3
 72
     8
 73
     4
 74
     0
 42
0.00000001
 43
0.00000001
 40
8.0
 40
8.0
 40
8.0
 40
8.0
 40
9.0
 40
9.0
 40
9.0
 40
9.0
 10
7.043747273343362
 20
-17.62187258528872
 30
0.0
 10
7.259429684873595
 20
-17.1682239392887
 30
0.0
 10
7.409758570724429
 20
-16.77384940600867
 30
0.0
 10
7.501213874593598
 20
-16.5071459647044
 30
0.0
  0
SPLINE
  5
115
330
77
100
AcDbEntity
  8
0
  6
Continuous
 62
     7
370
    18
100
AcDbSpline
210
0.0
220
0.0
230
1.0
 70
     8
 71
     2
 72
     6
 73
     3
 74
     0
 42
0.00000001
 43
0.00000001
 40
9.0
 40
9.0
 40
9.0
 40
10.0
 40
10.0
 40
10.0
 10
7.501213874593598
 20
-16.5071459647044
 30
0.0
 10
7.58018144071422
 20
-16.27701921792476
 30
0.0
 10
7.616643966539248
 20
-16.14063575935378
 30
0.0
  0
SPLINE
  5
116
330
77
100
AcDbEntity
  8
0
  6
Continuous
 62
     7
370
    18
100
AcDbSpline
210
0.0
220
0.0
230
1.0
 70
     8
 71
     2
 72
     6
 73
     3
 74
     0
 42
0.00000001
 43
0.00000001
 40
0.0
 40
0.0
 40
0.0
 40
1.0
 40
1.0
 40
1.0
 10
0.3944126526828438
 20
-2.906969795378479
 30
0.0
 10
-0.9260675992531606
 20
-7.098093552135839
 30
0.0
 10
3.694246552495818
 20
-15.91394980485279
 30
0.0
  0
SPLINE
  5
117
330
77
100
AcDbEntity
  8
0
  6
Continuous
 62
     7
370
    18
100
AcDbSpline
210
0.0
220
0.0
230
1.0
 70
     8
 71
     3
 72
     8
 73
     4
 74
     0
 42
0.00000001
 43
0.00000001
 40
1.0
 40
1.0
 40
1.0
 40
1.0
 40
2.0
 40
2.0
 40
2.0
 40
2.0
 10
3.694246552495818
 20
-15.91394980485279
 30
0.0
 10
3.446899321752916
 20
-17.12012815823227
 30
0.0
 10
3.357918547908363
 20
-18.01529334045489
 30
0.0
 10
3.369570932292986
 20
-18.71508939083513
 30
0.0
  0
SPLINE
  5
118
330
77
100
AcDbEntity
  8
0
  6
Continuous
 62
     7
370
    18
100
AcDbSpline
210
0.0
220
0.0
230
1.0
 70
     8
 71
     3
 72
     8
 73
     4
 74
     0
 42
0.00000001
 43
0.00000001
 40
4.0
 40
4.0
 40
4.0
 40
4.0
 40
5.0
 40
5.0
 40
5.0
 40
5.0
 10
3.371167179561167
 20
-18.80258270306617
 30
0.0
 10
3.375320776009459
 20
-18.94553433452855
 30
0.0
 10
3.384065732186145
 20
-19.07969038264685
 30
0.0
 10
3.396375939104116
 20
-19.20694591668476
 30
0.0
  0
SPLINE
  5
119
330
77
100
AcDbEntity
  8
0
  6
Continuous
 62
     7
370
    18
100
AcDbSpline
210
0.0
220
0.0
230
1.0
 70
     8
 71
     2
 72
     6
 73
     3
 74
     0
 42
0.00000001
 43
0.00000001
 40
6.0
 40
6.0
 40
6.0
 40
7.0
 40
7.0
 40
7.0
 10
3.414912572583571
 20
-19.50415597158925
 30
0.0
 10
3.463733909636759
 20
-20.44034883554467
 30
0.0
 10
4.199514098340574
 20
-21.43655542025973
 30
0.0
  0
SPLINE
  5
11A
330
77
100
AcDbEntity
  8
0
  6
Continuous
 62
     7
370
    18
100
AcDbSpline
210
0.0
220
0.0
230
1.0
 70
     8
 71
     3
 72
     8
 73
     4
 74
     0
 42
0.00000001
 43
0.00000001
 40
7.0
 40
7.0
 40
7.0
 40
7.0
 40
8.0
 40
8.0
 40
8.0
 40
8.0
 10
4.199514098340574
 20
-21.43655542025973
 30
0.0
 10
4.209530614512485
 20
-21.44734234739126
 30
0.0
 10
4.217448187290456
 20
-21.45279791477912
 30
0.0
 10
4.226419929838382
 20
-21.46074569773323
 30
0.0
  0
SPLINE
  5
11B
330
77
100
AcDbEntity
  8
0
  6
Continuous
 62
     7
370
    18
100
AcDbSpline
210
0.0
220
0.0
230
1.0
 70
     8
 71
     2
 72
     6
 73
     3
 74
     0
 42
0.00000001
 43
0.00000001
 40
8.0
 40
8.0
 40
8.0
 40
9.0
 40
9.0
 40
9.0
 10
4.226419929838382
 20
-21.46074569773323
 30
0.0
 10
4.602113169577764
 20
-21.92169141031366
 30
0.0
 10
5.25588783635365
 20
-22.1084696061984
 30
0.0
  0
SPLINE
  5
11C
330
77
100
AcDbEntity
  8
0
  6
Continuous
 62
     7
370
    18
100
AcDbSpline
210
0.0
220
0.0
230
1.0
 70
     8
 71
     3
 72
     8
 73
     4
 74
     0
 42
0.00000001
 43
0.00000001
 40
9.0
 40
9.0
 40
9.0
 40
9.0
 40
10.0
 40
10.0
 40
10.0
 40
10.0
 10
5.25588783635365
 20
-22.1084696061984
 30
0.0
 10
4.722803653588975
 20
-21.69473771792311
 30
0.0
 10
4.555729374077984
 20
-21.23618402102321
 30
0.0
 10
4.5115397999614
 20
-20.91388289798429
 30
0.0
  0
SPLINE
  5
11D
330
77
100
AcDbEntity
  8
0
  6
Continuous
 62
     7
370
    18
100
AcDbSpline
210
0.0
220
0.0
230
1.0
 70
     8
 71
     3
 72
     8
 73
     4
 74
     0
 42
0.00000001
 43
0.00000001
 40
10.0
 40
10.0
 40
10.0
 40
10.0
 40
11.0
 40
11.0
 40
11.0
 40
11.0
 10
4.5115397999614
 20
-20.91388289798429
 30
0.0
 10
4.511444436489974
 20
-20.91345968950935
 30
0.0
 10
4.511458530710389
 20
-20.91293929659483
 30
0.0
 10
4.51136316724085
 20
-20.91251608811877
 30
0.0
  0
SPLINE
  5
11E
330
77
100
AcDbEntity
  8
0
  6
Continuous
 62
     7
370
    18
100
AcDbSpline
210
0.0
220
0.0
230
1.0
 70
     8
 71
     3
 72
     8
 73
     4
 74
     0
 42
0.00000001
 43
0.00000001
 40
11.0
 40
11.0
 40
11.0
 40
11.0
 40
12.0
 40
12.0
 40
12.0
 40
12.0
 10
4.51136316724085
 20
-20.91251608811877
 30
0.0
 10
4.492940501693147
 20
-20.77725000285986
 30
0.0
 10
4.49631721425359
 20
-20.66736453587088
 30
0.0
 10
4.503170896062897
 20
-20.59377375245777
 30
0.0
  0
SPLINE
  5
11F
330
77
100
AcDbEntity
  8
0
  6
Continuous
 62
     7
370
    18
100
AcDbSpline
210
0.0
220
0.0
230
1.0
 70
     8
 71
     3
 72
     8
 73
     4
 74
     0
 42
0.00000001
 43
0.00000001
 40
12.0
 40
12.0
 40
12.0
 40
12.0
 40
13.0
 40
13.0
 40
13.0
 40
13.0
 10
4.503170896062897
 20
-20.59377375245777
 30
0.0
 10
4.604013649449088
 20
-19.7965617294209
 30
0.0
 10
5.139276617404003
 20
-18.9096664850367
 30
0.0
 10
5.595548611273902
 20
-17.9099700673493
 30
0.0
  0
SPLINE
  5
120
330
77
100
AcDbEntity
  8
0
  6
Continuous
 62
     7
370
    18
100
AcDbSpline
210
0.0
220
0.0
230
1.0
 70
     8
 71
     2
 72
     6
 73
     3
 74
     0
 42
0.00000001
 43
0.00000001
 40
13.0
 40
13.0
 40
13.0
 40
14.0
 40
14.0
 40
14.0
 10
5.595548611273902
 20
-17.9099700673493
 30
0.0
 10
5.926118360772201
 20
-17.18568850106854
 30
0.0
 10
5.606497978493191
 20
-16.05075397327447
 30
0.0
  0
SPLINE
  5
121
330
77
100
AcDbEntity
  8
0
  6
Continuous
 62
     7
370
    18
100
AcDbSpline
210
0.0
220
0.0
230
1.0
 70
     8
 71
     3
 72
     8
 73
     4
 74
     0
 42
0.00000001
 43
0.00000001
 40
14.0
 40
14.0
 40
14.0
 40
14.0
 40
15.0
 40
15.0
 40
15.0
 40
15.0
 10
5.606497978493191
 20
-16.05075397327447
 30
0.0
 10
5.207525970226131
 20
-14.79026275050278
 30
0.0
 10
4.519773960143639
 20
-13.82671693217636
 30
0.0
 10
3.665223439147876
 20
-12.83569943160955
 30
0.0
  0
SPLINE
  5
122
330
77
100
AcDbEntity
  8
0
  6
Continuous
 62
     7
370
    18
100
AcDbSpline
210
0.0
220
0.0
230
1.0
 70
     8
 71
     3
 72
     8
 73
     4
 74
     0
 42
0.00000001
 43
0.00000001
 40
15.0
 40
15.0
 40
15.0
 40
15.0
 40
16.0
 40
16.0
 40
16.0
 40
16.0
 10
3.665223439147876
 20
-12.83569943160955
 30
0.0
 10
2.198391383191843
 20
-11.13462081873923
 30
0.0
 10
0.0517992661647096
 20
-7.209063579032926
 30
0.0
 10
0.3944126526828438
 20
-2.906969795378479
 30
0.0
  0
ENDBLK
  5
79
330
77
100
AcDbEntity
  8
0
100
AcDbBlockEnd
  0
ENDSEC
  0
SECTION
  2
ENTITIES
  0
LINE
  5
123
330
1F
100
AcDbEntity
  8
0
  6
Continuous
 62
     7
370
    25
100
AcDbLine
 10
313.4130040135
 20
194.5273593603
 30
0.0
 11
313.3939828831
 21
194.5211790204
 31
0.0
  0
LINE
  5
124
330
1F
100
AcDbEntity
  8
0
  6
Continuous
 62
     7
370
    25
100
AcDbLine
 10
318.7246976015
 20
178.3306639556
 30
0.0
 11
318.6929957176
 21
178.3203633891
 31
0.0
  0
LINE
  5
125
330
1F
100
AcDbEntity
  8
0
  6
Continuous
 62
     7
370
    25
100
AcDbLine
 10
323.2650091491
 20
174.3459683901
 30
0.0
 11
323.9655107847
 21
174.9296335449
 31
0.0
  0
LINE
  5
126
330
1F
100
AcDbEntity
  8
0
  6
Continuous
 62
     7
370
    25
100
AcDbLine
 10
321.2073450562
 20
172.6315015419
 30
0.0
 11
322.0939585227
 21
173.370236985
 31
0.0
  0
LINE
  5
127
330
1F
100
AcDbEntity
  8
0
  6
Continuous
 62
     7
370
    25
100
AcDbLine
 10
318.0941878916
 20
192.9997073545
 30
0.0
 11
317.1538371746
 21
193.0621886151
 31
0.0
  0
LINE
  5
128
330
1F
100
AcDbEntity
  8
0
  6
Continuous
 62
     7
370
    25
100
AcDbLine
 10
315.5657376374
 20
193.1677093099
 30
0.0
 11
314.5119768448
 21
193.2377260617
 31
0.0
  0
LINE
  5
129
330
1F
100
AcDbEntity
  8
0
  6
Continuous
 62
     7
370
    25
100
AcDbLine
 10
325.1473590445
 20
192.2300318004
 30
0.0
 11
318.0941878916
 21
192.9997073545
 31
0.0
  0
LINE
  5
12A
330
1F
100
AcDbEntity
  8
0
  6
Continuous
 62
     7
370
    25
100
AcDbLine
 10
323.9655107847
 20
174.9296335449
 30
0.0
 11
329.2192421719
 21
179.6980641338
 31
0.0
  0
ARC
  5
12B
330
1F
100
AcDbEntity
  8
0
  6
Continuous
 62
     7
370
    25
100
AcDbCircle
 10
328.9952157575
 20
179.9448905441
 30
0.0
 40
0.3333333333333526
100
AcDbArc
 50
312.227745318
 51
18.0
  0
LINE
  5
12C
330
1F
100
AcDbEntity
  8
0
  6
Continuous
 62
     7
370
    25
100
AcDbLine
 10
318.6147280825
 20
180.5553983969
 30
0.0
 11
318.63108958
 21
180.5604006087
 31
0.0
  0
LINE
  5
12D
330
1F
100
AcDbEntity
  8
0
  6
Continuous
 62
     7
370
    25
100
AcDbLine
 10
322.8324410933
 20
173.9725319498
 30
0.0
 11
323.0336888951
 21
174.1402136845
 31
0.0
  0
LINE
  5
12E
330
1F
100
AcDbEntity
  8
0
  6
Continuous
 62
     7
370
    25
100
AcDbLine
 10
322.4845857332
 20
173.6826952924
 30
0.0
 11
322.8324410933
 21
173.9725319498
 31
0.0
  0
LWPOLYLINE
  5
12F
330
1F
100
AcDbEntity
  8
0
  6
Continuous
 62
     7
370
    25
100
AcDbPolyline
 90
        3
 70
   128
 43
0.0
 10
325.2270161674
 20
192.2112315251
 10
325.1943730664
 20
192.2214552566
 10
325.1473590445
 20
192.2300318004
  0
LINE
  5
130
330
1F
100
AcDbEntity
  8
0
  6
Continuous
 62
     7
370
    25
100
AcDbLine
 10
317.1743821357
 20
193.0708455628
 30
0.0
 11
315.5095662741
 21
193.1814636458
 31
0.0
  0
LINE
  5
131
330
1F
100
AcDbEntity
  8
0
  6
Continuous
 62
     7
370
    25
100
AcDbLine
 10
318.0239171751
 20
180.2717064718
 30
0.0
 11
318.3409360139
 21
180.3747121366
 31
0.0
  0
LINE
  5
132
330
1F
100
AcDbEntity
  8
0
  6
Continuous
 62
     7
370
    25
100
AcDbLine
 10
316.7443482096
 20
185.2885041374
 30
0.0
 11
316.4273293708
 21
185.1854984726
 31
0.0
  0
LINE
  5
133
330
1F
100
AcDbEntity
  8
0
  6
Continuous
 62
     7
370
    25
100
AcDbLine
 10
318.3460862971
 20
180.3588611946
 30
0.0
 11
319.3371957183
 21
181.083952686
 31
0.0
  0
LINE
  5
134
330
1F
100
AcDbEntity
  8
0
  6
Continuous
 62
     7
370
    25
100
AcDbLine
 10
317.9672203766
 20
185.3003032416
 30
0.0
 11
316.7391979264
 21
185.3043550794
 31
0.0
  0
LINE
  5
135
330
1F
100
AcDbEntity
  8
0
  6
Continuous
 62
     7
370
    25
100
AcDbLine
 10
317.3877457584
 20
181.2520083748
 30
0.0
 11
317.3995475297
 21
181.3303671901
 31
0.0
  0
LINE
  5
136
330
1F
100
AcDbEntity
  8
0
  6
Continuous
 62
     7
370
    25
100
AcDbLine
 10
316.5444688743
 20
183.9620286907
 30
0.0
 11
316.4888628848
 21
184.0184853968
 31
0.0
  0
LINE
  5
137
330
1F
100
AcDbEntity
  8
0
  6
Continuous
 62
     7
370
    25
100
AcDbLine
 10
70.6411561668
 20
136.732354584
 30
0.0
 11
70.4078228335
 21
136.732354584
 31
0.0
  0
LINE
  5
138
330
1F
100
AcDbEntity
  8
0
  6
Continuous
 62
     7
370
    25
100
AcDbLine
 10
70.4078228335
 20
122.732354584
 30
0.0
 11
70.6411561668
 21
122.732354584
 31
0.0
  0
LINE
  5
139
330
1F
100
AcDbEntity
  8
0
  6
Continuous
 62
     7
370
    25
100
AcDbLine
 10
68.4078228335
 20
134.8490212506
 30
0.0
 11
67.0744895002
 21
134.8490212506
 31
0.0
  0
LINE
  5
13A
330
1F
100
AcDbEntity
  8
0
  6
Continuous
 62
     7
370
    25
100
AcDbLine
 10
67.0744895002
 20
124.6156879173
 30
0.0
 11
68.4078228335
 21
124.6156879173
 31
0.0
  0
LINE
  5
13B
330
1F
100
AcDbEntity
  8
0
  6
Continuous
 62
     7
370
    25
100
AcDbLine
 10
70.4078228335
 20
136.532354584
 30
0.0
 11
68.4078228335
 21
136.532354584
 31
0.0
  0
LINE
  5
13C
330
1F
100
AcDbEntity
  8
0
  6
Continuous
 62
     7
370
    25
100
AcDbLine
 10
68.4078228335
 20
122.932354584
 30
0.0
 11
70.4078228335
 21
122.932354584
 31
0.0
  0
ARC
  5
13D
330
1F
100
AcDbEntity
  8
0
  6
Continuous
 62
     7
370
    25
100
AcDbCircle
 10
61.8411561668
 20
133.7990212506
 30
0.0
 40
1.766666666666708
100
AcDbArc
 50
90.0
 51
180.0
  0
ARC
  5
13E
330
1F
100
AcDbEntity
  8
0
  6
Continuous
 62
     7
370
    25
100
AcDbCircle
 10
61.8411561668
 20
125.6656879173
 30
0.0
 40
1.766666666666666
100
AcDbArc
 50
180.0
 51
270.0
  0
LINE
  5
13F
330
1F
100
AcDbEntity
  8
0
  6
Continuous
 62
     7
370
    25
100
AcDbLine
 10
62.4078228335
 20
135.5656879173
 30
0.0
 11
61.8411561668
 21
135.5656879173
 31
0.0
  0
LINE
  5
140
330
1F
100
AcDbEntity
  8
0
  6
Continuous
 62
     7
370
    25
100
AcDbLine
 10
61.8411561668
 20
123.8990212506
 30
0.0
 11
62.4078228335
 21
123.8990212506
 31
0.0
  0
ARC
  5
141
330
1F
100
AcDbEntity
  8
0
  6
Continuous
 62
     7
370
    25
100
AcDbCircle
 10
299.9411561668
 20
65.232354584
 30
0.0
 40
0.6666666666666572
100
AcDbArc
 50
270.0
 51
0.0
  0
ARC
  5
142
330
1F
100
AcDbEntity
  8
0
  6
Continuous
 62
     7
370
    25
100
AcDbCircle
 10
282.2744895002
 20
65.232354584
 30
0.0
 40
0.6666666666666856
100
AcDbArc
 50
180.0
 51
270.0
  0
LINE
  5
143
330
1F
100
AcDbEntity
  8
0
  6
Continuous
 62
     7
370
    25
100
AcDbLine
 10
300.6078228335
 20
65.232354584
 30
0.0
 11
300.6078228335
 21
66.5656879173
 31
0.0
  0
LINE
  5
144
330
1F
100
AcDbEntity
  8
0
  6
Continuous
 62
     7
370
    25
100
AcDbLine
 10
281.6078228335
 20
66.5656879173
 30
0.0
 11
281.6078228335
 21
65.232354584
 31
0.0
  0
LINE
  5
145
330
1F
100
AcDbEntity
  8
0
  6
Continuous
 62
     7
370
    25
100
AcDbLine
 10
104.2744895002
 20
65.232354584
 30
0.0
 11
104.2744895002
 21
66.5656879173
 31
0.0
  0
LINE
  5
146
330
1F
100
AcDbEntity
  8
0
  6
Continuous
 62
     7
370
    25
100
AcDbLine
 10
85.2744895002
 20
66.5656879173
 30
0.0
 11
85.2744895002
 21
65.232354584
 31
0.0
  0
ARC
  5
147
330
1F
100
AcDbEntity
  8
0
  6
Continuous
 62
     7
370
    25
100
AcDbCircle
 10
103.6078228335
 20
65.232354584
 30
0.0
 40
0.6666666666666572
100
AcDbArc
 50
270.0
 51
0.0
  0
ARC
  5
148
330
1F
100
AcDbEntity
  8
0
  6
Continuous
 62
     7
370
    25
100
AcDbCircle
 10
85.9411561668
 20
65.232354584
 30
0.0
 40
0.6666666666666714
100
AcDbArc
 50
180.0
 51
270.0
  0
LINE
  5
149
330
1F
100
AcDbEntity
  8
0
  6
Continuous
 62
     7
370
    25
100
AcDbLine
 10
300.5411561668
 20
66.5656879173
 30
0.0
 11
300.5411561668
 21
68.5656879173
 31
0.0
  0
LINE
  5
14A
330
1F
100
AcDbEntity
  8
0
  6
Continuous
 62
     7
370
    25
100
AcDbLine
 10
281.6744895002
 20
68.5656879173
 30
0.0
 11
281.6744895002
 21
66.5656879173
 31
0.0
  0
LINE
  5
14B
330
1F
100
AcDbEntity
  8
0
  6
Continuous
 62
     7
370
    25
100
AcDbLine
 10
104.2078228335
 20
66.5656879173
 30
0.0
 11
104.2078228335
 21
68.5656879173
 31
0.0
  0
LINE
  5
14C
330
1F
100
AcDbEntity
  8
0
  6
Continuous
 62
     7
370
    25
100
AcDbLine
 10
85.3411561668
 20
68.5656879173
 30
0.0
 11
85.3411561668
 21
66.5656879173
 31
0.0
  0
ARC
  5
14D
330
1F
100
AcDbEntity
  8
0
  6
Continuous
 62
     7
370
    25
100
AcDbCircle
 10
302.2411561668
 20
113.3990212506
 30
0.0
 40
0.5
100
AcDbArc
 50
90.0
 51
180.0
  0
ARC
  5
14E
330
1F
100
AcDbEntity
  8
0
  6
Continuous
 62
     7
370
    25
100
AcDbCircle
 10
279.9744895002
 20
113.3990212506
 30
0.0
 40
0.5
100
AcDbArc
 50
0.0
 51
90.0
  0
LINE
  5
14F
330
1F
100
AcDbEntity
  8
0
  6
Continuous
 62
     7
370
    25
100
AcDbLine
 10
301.7411561668
 20
70.5765432325
 30
0.0
 11
301.7411561668
 21
113.3990212506
 31
0.0
  0
LINE
  5
150
330
1F
100
AcDbEntity
  8
0
  6
Continuous
 62
     7
370
    25
100
AcDbLine
 10
280.4744895002
 20
113.3990212506
 30
0.0
 11
280.4744895002
 21
70.5765432325
 31
0.0
  0
ARC
  5
151
330
1F
100
AcDbEntity
  8
0
  6
Continuous
 62
     7
370
    25
100
AcDbCircle
 10
300.1744895002
 20
70.5765432325
 30
0.0
 40
1.56666666666669
100
AcDbArc
 50
350.5402980318
 51
0.0
  0
ARC
  5
152
330
1F
100
AcDbEntity
  8
0
  6
Continuous
 62
     7
370
    25
100
AcDbCircle
 10
282.0411561668
 20
70.5765432325
 30
0.0
 40
1.56666666666669
100
AcDbArc
 50
180.0
 51
189.4597019682
  0
LINE
  5
153
330
1F
100
AcDbEntity
  8
0
  6
Continuous
 62
     7
370
    25
100
AcDbLine
 10
280.4957939092
 20
70.319055491
 30
0.0
 11
280.7879394267
 21
68.5656879173
 31
0.0
  0
LINE
  5
154
330
1F
100
AcDbEntity
  8
0
  6
Continuous
 62
     7
370
    25
100
AcDbLine
 10
301.4277062403
 20
68.5656879173
 30
0.0
 11
301.7198517578
 21
70.319055491
 31
0.0
  0
ARC
  5
155
330
1F
100
AcDbEntity
  8
0
  6
Continuous
 62
     7
370
    25
100
AcDbCircle
 10
105.9078228335
 20
113.3990212506
 30
0.0
 40
0.5
100
AcDbArc
 50
90.0
 51
180.0
  0
ARC
  5
156
330
1F
100
AcDbEntity
  8
0
  6
Continuous
 62
     7
370
    25
100
AcDbCircle
 10
83.6411561668
 20
113.3990212506
 30
0.0
 40
0.5
100
AcDbArc
 50
0.0
 51
90.0
  0
ARC
  5
157
330
1F
100
AcDbEntity
  8
0
  6
Continuous
 62
     7
370
    25
100
AcDbCircle
 10
103.8411561668
 20
70.5765432325
 30
0.0
 40
1.566666666666663
100
AcDbArc
 50
350.5402980318
 51
0.0
  0
ARC
  5
158
330
1F
100
AcDbEntity
  8
0
  6
Continuous
 62
     7
370
    25
100
AcDbCircle
 10
85.7078228335
 20
70.5765432325
 30
0.0
 40
1.566666666666662
100
AcDbArc
 50
180.0
 51
189.4597019682
  0
LINE
  5
159
330
1F
100
AcDbEntity
  8
0
  6
Continuous
 62
     7
370
    25
100
AcDbLine
 10
105.4078228335
 20
70.5765432325
 30
0.0
 11
105.4078228335
 21
113.3990212506
 31
0.0
  0
LINE
  5
15A
330
1F
100
AcDbEntity
  8
0
  6
Continuous
 62
     7
370
    25
100
AcDbLine
 10
84.1411561668
 20
113.3990212506
 30
0.0
 11
84.1411561668
 21
70.5765432325
 31
0.0
  0
LINE
  5
15B
330
1F
100
AcDbEntity
  8
0
  6
Continuous
 62
     7
370
    25
100
AcDbLine
 10
84.1624605758
 20
70.319055491
 30
0.0
 11
84.4546060934
 21
68.5656879173
 31
0.0
  0
LINE
  5
15C
330
1F
100
AcDbEntity
  8
0
  6
Continuous
 62
     7
370
    25
100
AcDbLine
 10
105.0943729069
 20
68.5656879173
 30
0.0
 11
105.3865184245
 21
70.319055491
 31
0.0
  0
ARC
  5
15D
330
1F
100
AcDbEntity
  8
0
  6
Continuous
 62
     7
370
    25
100
AcDbCircle
 10
317.6786203493
 20
198.2967585772
 30
0.0
 40
0.1000000000000061
100
AcDbArc
 50
294.0
 51
334.1554437773
  0
ARC
  5
15E
330
1F
100
AcDbEntity
  8
0
  6
Continuous
 62
     7
370
    25
100
AcDbCircle
 10
314.9075324611
 20
197.0629907599
 30
0.0
 40
0.1000000000000254
100
AcDbArc
 50
253.8445562227
 51
294.0
  0
LINE
  5
15F
330
1F
100
AcDbEntity
  8
0
  6
Continuous
 62
     7
370
    25
100
AcDbLine
 10
317.8509438906
 20
197.6638542327
 30
0.0
 11
317.790634125
 21
197.7993121841
 31
0.0
  0
LINE
  5
160
330
1F
100
AcDbEntity
  8
0
  6
Continuous
 62
     7
370
    25
100
AcDbLine
 10
315.2022553284
 20
196.6468916954
 30
0.0
 11
315.262565094
 21
196.511433744
 31
0.0
  0
LINE
  5
161
330
1F
100
AcDbEntity
  8
0
  6
Continuous
 62
     7
370
    25
100
AcDbLine
 10
326.5744895002
 20
130.2989574247
 30
0.0
 11
326.6078228335
 21
130.2989574247
 31
0.0
  0
LINE
  5
162
330
1F
100
AcDbEntity
  8
0
  6
Continuous
 62
     7
370
    25
100
AcDbLine
 10
326.6078228335
 20
130.3005297657
 30
0.0
 11
326.8581308425
 21
130.3005297657
 31
0.0
  0
ARC
  5
163
330
1F
100
AcDbEntity
  8
0
  6
Continuous
 62
     7
370
    25
100
AcDbCircle
 10
326.7078228335
 20
141.2969175765
 30
0.0
 40
0.0666666667560713
100
AcDbArc
 50
0.0001475032
 51
90.2522154377
  0
LINE
  5
164
330
1F
100
AcDbEntity
  8
0
  6
Continuous
 62
     7
370
    25
100
AcDbLine
 10
326.7078228335
 20
141.3635842432
 30
0.0
 11
326.5895172696
 21
141.3635842432
 31
0.0
  0
LINE
  5
165
330
1F
100
AcDbEntity
  8
0
  6
Continuous
 62
     7
370
    25
100
AcDbLine
 10
326.6328228335
 20
142.8386632025
 30
0.0
 11
326.5744895002
 21
142.8386632025
 31
0.0
  0
ARC
  5
166
330
1F
100
AcDbEntity
  8
0
  6
Continuous
 62
     7
370
    25
100
AcDbCircle
 10
326.8078228335
 20
142.777689948
 30
0.0
 40
0.0666666683592272
100
AcDbArc
 50
0.000195065
 51
90.953424861
  0
LINE
  5
167
330
1F
100
AcDbEntity
  8
0
  6
Continuous
 62
     7
370
    25
100
AcDbLine
 10
326.8078228335
 20
142.8443566215
 30
0.0
 11
326.6078228335
 21
142.8443566215
 31
0.0
  0
LINE
  5
168
330
1F
100
AcDbEntity
  8
0
  6
Continuous
 62
     7
370
    25
100
AcDbLine
 10
326.5744895002
 20
128.9096623903
 30
0.0
 11
326.7744895002
 21
128.9096623903
 31
0.0
  0
LINE
  5
169
330
1F
100
AcDbEntity
  8
0
  6
Continuous
 62
     7
370
    25
100
AcDbLine
 10
326.7744895002
 20
129.2557672846
 30
0.0
 11
326.8203228335
 21
129.2557672846
 31
0.0
  0
LINE
  5
16A
330
1F
100
AcDbEntity
  8
0
  6
Continuous
 62
     7
370
    25
100
AcDbLine
 10
326.5744895002
 20
128.5430189792
 30
0.0
 11
326.7744895002
 21
128.5430189792
 31
0.0
  0
ARC
  5
16B
330
1F
100
AcDbEntity
  8
0
  6
Continuous
 62
     7
370
    25
100
AcDbCircle
 10
326.8744895359
 20
141.5133224153
 30
0.0
 40
0.0666666309017379
100
AcDbArc
 50
0.0055613621
 51
90.1808462979
  0
LINE
  5
16C
330
1F
100
AcDbEntity
  8
0
  6
Continuous
 62
     7
370
    25
100
AcDbLine
 10
326.8078228335
 20
142.8433021498
 30
0.0
 11
326.6078228335
 21
142.8433021498
 31
0.0
  0
LINE
  5
16D
330
1F
100
AcDbEntity
  8
0
  6
Continuous
 62
     7
370
    25
100
AcDbLine
 10
313.3078228335
 20
155.6323545877
 30
0.0
 11
313.3078228335
 21
155.4656879211
 31
0.0
  0
LINE
  5
16E
330
1F
100
AcDbEntity
  8
0
  6
Continuous
 62
     7
370
    25
100
AcDbLine
 10
315.9744895002
 20
155.4656879211
 30
0.0
 11
315.9744895002
 21
155.6323545877
 31
0.0
  0
LINE
  5
16F
330
1F
100
AcDbEntity
  8
0
  6
Continuous
 62
     7
370
    25
100
AcDbLine
 10
319.6411561668
 20
155.6323545877
 30
0.0
 11
319.6411561668
 21
155.4656879211
 31
0.0
  0
LINE
  5
170
330
1F
100
AcDbEntity
  8
0
  6
Continuous
 62
     7
370
    25
100
AcDbLine
 10
322.3078228335
 20
155.4656879211
 30
0.0
 11
322.3078228335
 21
155.6323545877
 31
0.0
  0
LINE
  5
171
330
1F
100
AcDbEntity
  8
0
  6
Continuous
 62
     7
370
    25
100
AcDbLine
 10
321.841950438
 20
169.7161570445
 30
0.0
 11
321.7279437236
 21
169.4029261709
 31
0.0
  0
LINE
  5
172
330
1F
100
AcDbEntity
  8
0
  6
Continuous
 62
     7
370
    25
100
AcDbLine
 10
321.841950438
 20
169.7161570445
 30
0.0
 11
331.2388766459
 21
166.2959556113
 31
0.0
  0
LINE
  5
173
330
1F
100
AcDbEntity
  8
0
  6
Continuous
 62
     7
370
    25
100
AcDbLine
 10
331.2388766459
 20
166.2959556113
 30
0.0
 11
331.1248699314
 21
165.9827247377
 31
0.0
  0
LINE
  5
174
330
1F
100
AcDbEntity
  8
0
  6
Continuous
 62
     7
370
    25
100
AcDbLine
 10
321.7279437236
 20
169.4029261709
 30
0.0
 11
331.1248699314
 21
165.9827247377
 31
0.0
  0
LINE
  5
175
330
1F
100
AcDbEntity
  8
0
  6
Continuous
 62
     7
370
    25
100
AcDbLine
 10
313.4902582621
 20
194.2895952312
 30
0.0
 11
316.4463505012
 21
185.1916788125
 31
0.0
  0
LINE
  5
176
330
1F
100
AcDbEntity
  8
0
  6
Continuous
 62
     7
370
    25
100
AcDbLine
 10
313.4130040135
 20
194.5273593603
 30
0.0
 11
313.4902582621
 21
194.2895952312
 31
0.0
  0
LINE
  5
177
330
1F
100
AcDbEntity
  8
0
  6
Continuous
 62
     7
370
    25
100
AcDbLine
 10
318.5140972833
 20
178.8709561552
 30
0.0
 11
320.9862332383
 21
171.2625040248
 31
0.0
  0
LINE
  5
178
330
1F
100
AcDbEntity
  8
0
  6
Continuous
 62
     7
370
    25
100
AcDbLine
 10
320.9862332383
 20
171.2625040248
 30
0.0
 11
320.9545313544
 21
171.2522034584
 31
0.0
  0
LINE
  5
179
330
1F
100
AcDbEntity
  8
0
  6
Continuous
 62
     7
370
    25
100
AcDbLine
 10
318.5140972833
 20
178.8709561552
 30
0.0
 11
318.4823953994
 21
178.8606555887
 31
0.0
  0
LINE
  5
17A
330
1F
100
AcDbEntity
  8
0
  6
Continuous
 62
     7
370
    25
100
AcDbLine
 10
320.8363137297
 20
171.8317777609
 30
0.0
 11
320.8046118458
 21
171.8214771944
 31
0.0
  0
LINE
  5
17B
330
1F
100
AcDbEntity
  8
0
  6
Continuous
 62
     7
370
    25
100
AcDbLine
 10
320.7590594811
 20
172.06954189
 30
0.0
 11
320.8363137297
 21
171.8317777609
 31
0.0
  0
LINE
  5
17C
330
1F
100
AcDbEntity
  8
0
  6
Continuous
 62
     7
370
    25
100
AcDbLine
 10
318.7504490177
 20
178.2514092459
 30
0.0
 11
320.7590594811
 21
172.06954189
 31
0.0
  0
LINE
  5
17D
330
1F
100
AcDbEntity
  8
0
  6
Continuous
 62
     7
370
    25
100
AcDbLine
 10
318.7246976015
 20
178.3306639556
 30
0.0
 11
318.7504490177
 21
178.2514092459
 31
0.0
  0
LINE
  5
17E
330
1F
100
AcDbEntity
  8
0
  6
Continuous
 62
     7
370
    25
100
AcDbLine
 10
318.2598705569
 20
192.9816267939
 30
0.0
 11
318.260657979
 21
192.9815331911
 31
0.0
  0
LINE
  5
17F
330
1F
100
AcDbEntity
  8
0
  6
Continuous
 62
     7
370
    25
100
AcDbLine
 10
314.5267378265
 20
193.1922964312
 30
0.0
 11
314.5119768448
 21
193.2377260617
 31
0.0
  0
LINE
  5
180
330
1F
100
AcDbEntity
  8
0
  6
Continuous
 62
     7
370
    25
100
AcDbLine
 10
321.2073450562
 20
172.6315015419
 30
0.0
 11
318.63108958
 21
180.5604006087
 31
0.0
  0
LINE
  5
181
330
1F
100
AcDbEntity
  8
0
  6
Continuous
 62
     7
370
    25
100
AcDbLine
 10
317.0900614836
 20
185.3031974114
 30
0.0
 11
314.5267378265
 21
193.1922964312
 31
0.0
  0
LINE
  5
182
330
1F
100
AcDbEntity
  8
0
  6
Continuous
 62
     7
370
    25
100
AcDbLine
 10
318.7523511777
 20
190.974089044
 30
0.0
 11
318.0941878916
 21
192.9997073545
 31
0.0
  0
LINE
  5
183
330
1F
100
AcDbEntity
  8
0
  6
Continuous
 62
     7
370
    25
100
AcDbLine
 10
323.9655107847
 20
174.9296335449
 30
0.0
 11
323.6132458964
 21
176.0137933924
 31
0.0
  0
LINE
  5
184
330
1F
100
AcDbEntity
  8
0
  6
Continuous
 62
     7
370
    25
100
AcDbLine
 10
319.9623759295
 20
180.009694526
 30
0.0
 11
319.837855675
 21
180.3938355267
 31
0.0
  0
LINE
  5
185
330
1F
100
AcDbEntity
  8
0
  6
Continuous
 62
     7
370
    25
100
AcDbLine
 10
319.837855675
 20
180.3938355267
 30
0.0
 11
321.1017962028
 21
180.9843243015
 31
0.0
  0
LINE
  5
186
330
1F
100
AcDbEntity
  8
0
  6
Continuous
 62
     7
370
    25
100
AcDbLine
 10
322.090622332
 20
173.3742394907
 30
0.0
 11
322.0843745811
 21
173.3848864339
 31
0.0
  0
LINE
  5
187
330
1F
100
AcDbEntity
  8
0
  6
Continuous
 62
     7
370
    25
100
AcDbLine
 10
323.0196551604
 20
174.1644715757
 30
0.0
 11
323.2536763386
 21
174.3595512922
 31
0.0
  0
LINE
  5
188
330
1F
100
AcDbEntity
  8
0
  6
Continuous
 62
     7
370
    25
100
AcDbLine
 10
322.8141677369
 20
174.0040559863
 30
0.0
 11
323.0152428579
 21
174.1717257844
 31
0.0
  0
LINE
  5
189
330
1F
100
AcDbEntity
  8
0
  6
Continuous
 62
     7
370
    25
100
AcDbLine
 10
322.8185450534
 20
173.9968436977
 30
0.0
 11
322.8141677369
 21
174.0040559863
 31
0.0
  0
LINE
  5
18A
330
1F
100
AcDbEntity
  8
0
  6
Continuous
 62
     7
370
    25
100
AcDbLine
 10
322.0843745811
 20
173.3848864339
 30
0.0
 11
322.8185450534
 21
173.9968436977
 31
0.0
  0
SPLINE
  5
18B
330
1F
100
AcDbEntity
  8
0
  6
Continuous
 62
     7
370
    25
100
AcDbSpline
210
0.0
220
0.0
230
1.0
 70
     8
 71
     3
 72
    10
 73
     6
 74
     0
 42
0.00000001
 43
0.00000001
 40
0.0
 40
0.0
 40
0.0
 40
0.0
 40
0.2044494499185074
 40
0.6015543045860691
 40
1.0
 40
1.0
 40
1.0
 40
1.0
 10
321.2616783445616
 20
176.8554131548838
 30
0.0
 10
321.2730472206834
 20
176.8528187284872
 30
0.0
 10
321.3064980143741
 20
176.8451851135889
 30
0.0
 10
321.3726133328263
 20
176.8580681217296
 30
0.0
 10
321.4233882820666
 20
176.8857529026788
 30
0.0
 10
321.4488185453699
 20
176.8996186234637
 30
0.0
  0
LINE
  5
18C
330
1F
100
AcDbEntity
  8
0
  6
Continuous
 62
     7
370
    25
100
AcDbLine
 10
321.8786355177
 20
177.8006732845
 30
0.0
 11
322.0893852533
 21
177.9358118451
 31
0.0
  0
LINE
  5
18D
330
1F
100
AcDbEntity
  8
0
  6
Continuous
 62
     7
370
    25
100
AcDbLine
 10
322.0079104962
 20
177.4158538081
 30
0.0
 11
321.8786355177
 21
177.8006732845
 31
0.0
  0
LINE
  5
18E
330
1F
100
AcDbEntity
  8
0
  6
Continuous
 62
     7
370
    25
100
AcDbLine
 10
321.827071172
 20
177.4448739853
 30
0.0
 11
322.0079104962
 21
177.4158538081
 31
0.0
  0
SPLINE
  5
18F
330
1F
100
AcDbEntity
  8
0
  6
Continuous
 62
     7
370
    25
100
AcDbSpline
210
0.0
220
0.0
230
1.0
 70
     8
 71
     3
 72
    10
 73
     6
 74
     0
 42
0.00000001
 43
0.00000001
 40
0.0
 40
0.0
 40
0.0
 40
0.0
 40
0.2495091312125088
 40
0.4995913882409616
 40
1.0
 40
1.0
 40
1.0
 40
1.0
 10
321.2199340175713
 20
177.3671267272858
 30
0.0
 10
321.2721469505826
 20
177.3939753708133
 30
0.0
 10
321.3766927504115
 20
177.4477343295621
 30
0.0
 10
321.5888910894245
 20
177.479471824954
 30
0.0
 10
321.7317898433736
 20
177.4587144714312
 30
0.0
 10
321.8270711719808
 20
177.4448739853012
 30
0.0
  0
SPLINE
  5
190
330
1F
100
AcDbEntity
  8
0
  6
Continuous
 62
     7
370
    25
100
AcDbSpline
210
0.0
220
0.0
230
1.0
 70
     8
 71
     3
 72
    12
 73
     8
 74
     0
 42
0.00000001
 43
0.00000001
 40
0.0
 40
0.0
 40
0.0
 40
0.0
 40
0.2500806177437137
 40
0.3757801830575783
 40
0.5008815021438593
 40
0.7506051521781454
 40
1.0
 40
1.0
 40
1.0
 40
1.0
 10
320.979030075625
 20
176.8000482006089
 30
0.0
 10
320.9688022250782
 20
176.8455884982181
 30
0.0
 10
320.9534334868471
 20
176.9140189968568
 30
0.0
 10
320.969273939465
 20
177.019914541635
 30
0.0
 10
321.0049884624938
 20
177.1261167631506
 30
0.0
 10
321.0829067100612
 20
177.257105108436
 30
0.0
 10
321.1742783125645
 20
177.330468964203
 30
0.0
 10
321.2199340175713
 20
177.3671267272858
 30
0.0
  0
LINE
  5
191
330
1F
100
AcDbEntity
  8
0
  6
Continuous
 62
     7
370
    25
100
AcDbLine
 10
321.0522676764
 20
176.6756531562
 30
0.0
 11
320.9790300756
 21
176.8000482006
 31
0.0
  0
SPLINE
  5
192
330
1F
100
AcDbEntity
  8
0
  6
Continuous
 62
     7
370
    25
100
AcDbSpline
210
0.0
220
0.0
230
1.0
 70
     8
 71
     3
 72
    12
 73
     8
 74
     0
 42
0.00000001
 43
0.00000001
 40
0.0
 40
0.0
 40
0.0
 40
0.0
 40
0.1253832193564999
 40
0.2506605244030539
 40
0.5004669284981187
 40
0.7502365390755876
 40
1.0
 40
1.0
 40
1.0
 40
1.0
 10
322.0763516259604
 20
174.1990278223052
 30
0.0
 10
322.0777885058356
 20
174.1958589859315
 30
0.0
 10
322.0806610518177
 20
174.1895239899786
 30
0.0
 10
322.092560864089
 20
174.1823554953245
 30
0.0
 10
322.1158936401419
 20
174.1821953315975
 30
0.0
 10
322.1532949681695
 20
174.1934922827445
 30
0.0
 10
322.1836870785639
 20
174.2114130129672
 30
0.0
 10
322.1988829466854
 20
174.2203732677692
 30
0.0
  0
SPLINE
  5
193
330
1F
100
AcDbEntity
  8
0
  6
Continuous
 62
     7
370
    25
100
AcDbSpline
210
0.0
220
0.0
230
1.0
 70
     8
 71
     3
 72
    12
 73
     8
 74
     0
 42
0.00000001
 43
0.00000001
 40
0.0
 40
0.0
 40
0.0
 40
0.0
 40
0.2503920842173139
 40
0.4997764915398878
 40
0.6249115653422498
 40
0.7502634421552793
 40
1.0
 40
1.0
 40
1.0
 40
1.0
 10
322.7282414466915
 20
174.6195815148012
 30
0.0
 10
322.7508490288754
 20
174.6400550441767
 30
0.0
 10
322.7959732113806
 20
174.6809197093386
 30
0.0
 10
322.8438765707865
 20
174.7359158494835
 30
0.0
 10
322.8680378138415
 20
174.7751943249803
 30
0.0
 10
322.8844664993356
 20
174.8112030664525
 30
0.0
 10
322.8820411636472
 20
174.8291630492237
 30
0.0
 10
322.8804263578294
 20
174.8411209339831
 30
0.0
  0
LINE
  5
194
330
1F
100
AcDbEntity
  8
0
  6
Continuous
 62
     7
370
    25
100
AcDbLine
 10
322.7537545783
 20
174.5294910108
 30
0.0
 11
322.7282414467
 21
174.6195815148
 31
0.0
  0
SPLINE
  5
195
330
1F
100
AcDbEntity
  8
0
  6
Continuous
 62
     7
370
    25
100
AcDbSpline
210
0.0
220
0.0
230
1.0
 70
     8
 71
     3
 72
    14
 73
    10
 74
     0
 42
0.00000001
 43
0.00000001
 40
0.0
 40
0.0
 40
0.0
 40
0.0
 40
0.0712220112416778
 40
0.1424178569206386
 40
0.2845975916589112
 40
0.4268031945234529
 40
0.5690328057157921
 40
0.8520260376707839
 40
1.0
 40
1.0
 40
1.0
 40
1.0
 10
322.6446431281273
 20
174.8905207602902
 30
0.0
 10
322.6576021767324
 20
174.9006268693842
 30
0.0
 10
322.683515513044
 20
174.9208353747868
 30
0.0
 10
322.7359827734866
 20
174.9574917654919
 30
0.0
 10
322.8014636837314
 20
174.9972848181302
 30
0.0
 10
322.8752998336763
 20
175.0304226388727
 30
0.0
 10
322.9623284225571
 20
175.0563551757058
 30
0.0
 10
323.0369537196974
 20
175.0600791897645
 30
0.0
 10
323.0563728453947
 20
175.0311683460583
 30
0.0
 10
323.0630404642122
 20
175.0212417155532
 30
0.0
  0
SPLINE
  5
196
330
1F
100
AcDbEntity
  8
0
  6
Continuous
 62
     7
370
    25
100
AcDbSpline
210
0.0
220
0.0
230
1.0
 70
     8
 71
     3
 72
    11
 73
     7
 74
     0
 42
0.00000001
 43
0.00000001
 40
0.0
 40
0.0
 40
0.0
 40
0.0
 40
0.250228401859932
 40
0.5000865993189084
 40
0.7498888823137281
 40
1.0
 40
1.0
 40
1.0
 40
1.0
 10
322.3879074751974
 20
174.5488534994285
 30
0.0
 10
322.3945405432653
 20
174.572840461707
 30
0.0
 10
322.4077968660027
 20
174.6207788983701
 30
0.0
 10
322.4645440636884
 20
174.7118295603348
 30
0.0
 10
322.5456038204929
 20
174.8069851934476
 30
0.0
 10
322.6116164319051
 20
174.8626641056371
 30
0.0
 10
322.6446431281273
 20
174.8905207602902
 30
0.0
  0
SPLINE
  5
197
330
1F
100
AcDbEntity
  8
0
  6
Continuous
 62
     7
370
    25
100
AcDbSpline
210
0.0
220
0.0
230
1.0
 70
     8
 71
     3
 72
    12
 73
     8
 74
     0
 42
0.00000001
 43
0.00000001
 40
0.0
 40
0.0
 40
0.0
 40
0.0
 40
0.1252485218653623
 40
0.250390373724663
 40
0.5000562677367925
 40
0.7498789330521435
 40
1.0
 40
1.0
 40
1.0
 40
1.0
 10
322.1151562276289
 20
174.4320856191478
 30
0.0
 10
322.1282696908765
 20
174.4421806925994
 30
0.0
 10
322.1544854490708
 20
174.4623622418638
 30
0.0
 10
322.2074474219023
 20
174.4971639237214
 30
0.0
 10
322.2714388617113
 20
174.5298560312162
 30
0.0
 10
322.33866007723
 20
174.5503593387513
 30
0.0
 10
322.3714851451041
 20
174.549355645561
 30
0.0
 10
322.3879074751974
 20
174.5488534994285
 30
0.0
  0
SPLINE
  5
198
330
1F
100
AcDbEntity
  8
0
  6
Continuous
 62
     7
370
    25
100
AcDbSpline
210
0.0
220
0.0
230
1.0
 70
     8
 71
     3
 72
    12
 73
     8
 74
     0
 42
0.00000001
 43
0.00000001
 40
0.0
 40
0.0
 40
0.0
 40
0.0
 40
0.2500122434009969
 40
0.4996571321522434
 40
0.7492766828508051
 40
0.8745940456951672
 40
1.0
 40
1.0
 40
1.0
 40
1.0
 10
321.8626829214676
 20
174.0331983684187
 30
0.0
 10
321.8598655419429
 20
174.0549398401008
 30
0.0
 10
321.8542349226007
 20
174.0983908377067
 30
0.0
 10
321.9046455433519
 20
174.2042078549721
 30
0.0
 10
321.97708641543
 20
174.3025904346432
 30
0.0
 10
322.0524685600375
 20
174.3799835595693
 30
0.0
 10
322.0942554167266
 20
174.4147141753422
 30
0.0
 10
322.1151562276289
 20
174.4320856191478
 30
0.0
  0
LINE
  5
199
330
1F
100
AcDbEntity
  8
0
  6
Continuous
 62
     7
370
    25
100
AcDbLine
 10
321.8815957633
 20
174.0160473205
 30
0.0
 11
321.8626829215
 21
174.0331983684
 31
0.0
  0
SPLINE
  5
19A
330
1F
100
AcDbEntity
  8
0
  6
Continuous
 62
     7
370
    25
100
AcDbSpline
210
0.0
220
0.0
230
1.0
 70
     8
 71
     3
 72
    16
 73
    12
 74
     0
 42
0.00000001
 43
0.00000001
 40
0.0
 40
0.0
 40
0.0
 40
0.0
 40
0.0107514023609719
 40
0.1344236307028391
 40
0.2580780800570673
 40
0.3817330077781368
 40
0.5053882188404846
 40
0.629050231958842
 40
0.7527082717587558
 40
0.8763531353408358
 40
1.0
 40
1.0
 40
1.0
 40
1.0
 10
315.5287251523899
 20
193.1292784375718
 30
0.0
 10
315.5270359094262
 20
193.128722644767
 30
0.0
 10
315.5059154858117
 20
193.1217736269339
 30
0.0
 10
315.5849646700999
 20
193.0910046353059
 30
0.0
 10
315.766428679196
 20
193.0437610164463
 30
0.0
 10
316.0504494130682
 20
192.9965278731675
 30
0.0
 10
316.3773608069238
 20
192.9641863525835
 30
0.0
 10
316.7028026926093
 20
192.9535200237781
 30
0.0
 10
316.9729722032171
 20
192.9643438636532
 30
0.0
 10
317.1577809794392
 20
192.989862985898
 30
0.0
 10
317.1767189125817
 20
193.0097234192978
 30
0.0
 10
317.1861879557756
 20
193.0196537163528
 30
0.0
  0
LINE
  5
19B
330
1F
100
AcDbEntity
  8
0
  6
Continuous
 62
     7
370
    25
100
AcDbLine
 10
316.6797818664
 20
191.6515407806
 30
0.0
 11
316.8878671735
 21
191.011193151
 31
0.0
  0
LINE
  5
19C
330
1F
100
AcDbEntity
  8
0
  6
Continuous
 62
     7
370
    25
100
AcDbLine
 10
316.8878671735
 20
191.011193151
 30
0.0
 11
317.1483103618
 21
191.0106797626
 31
0.0
  0
LINE
  5
19D
330
1F
100
AcDbEntity
  8
0
  6
Continuous
 62
     7
370
    25
100
AcDbLine
 10
317.6856555156
 20
189.1569863579
 30
0.0
 11
317.9885399607
 21
188.2249835564
 31
0.0
  0
LINE
  5
19E
330
1F
100
AcDbEntity
  8
0
  6
Continuous
 62
     7
370
    25
100
AcDbLine
 10
317.9885399607
 20
188.2249835564
 30
0.0
 11
318.2405679791
 21
188.2503672265
 31
0.0
  0
LINE
  5
19F
330
1F
100
AcDbEntity
  8
0
  6
Continuous
 62
     7
370
    25
100
AcDbLine
 10
317.3076086013
 20
189.118921835
 30
0.0
 11
317.6104967605
 21
188.1869050067
 31
0.0
  0
LINE
  5
1A0
330
1F
100
AcDbEntity
  8
0
  6
Continuous
 62
     7
370
    25
100
AcDbLine
 10
317.6104967605
 20
188.1869050067
 30
0.0
 11
317.8625257146
 21
188.2122911066
 31
0.0
  0
LINE
  5
1A1
330
1F
100
AcDbEntity
  8
0
  6
Continuous
 62
     7
370
    25
100
AcDbLine
 10
319.1550923531
 20
185.2361372752
 30
0.0
 11
319.5128910612
 21
184.1352111966
 31
0.0
  0
LINE
  5
1A2
330
1F
100
AcDbEntity
  8
0
  6
Continuous
 62
     7
370
    25
100
AcDbLine
 10
319.5128910612
 20
184.1352111966
 30
0.0
 11
319.7519973596
 21
184.2003615009
 31
0.0
  0
LINE
  5
1A3
330
1F
100
AcDbEntity
  8
0
  6
Continuous
 62
     7
370
    25
100
AcDbLine
 10
318.7964270354
 20
185.1384269572
 30
0.0
 11
319.154229721
 21
184.0374847787
 31
0.0
  0
LINE
  5
1A4
330
1F
100
AcDbEntity
  8
0
  6
Continuous
 62
     7
370
    25
100
AcDbLine
 10
319.154229721
 20
184.0374847787
 30
0.0
 11
319.3933375298
 21
184.1026358504
 31
0.0
  0
LINE
  5
1A5
330
1F
100
AcDbEntity
  8
0
  6
Continuous
 62
     7
370
    25
100
AcDbLine
 10
318.437759719
 20
185.0407148476
 30
0.0
 11
318.7955661977
 21
183.939757247
 31
0.0
  0
LINE
  5
1A6
330
1F
100
AcDbEntity
  8
0
  6
Continuous
 62
     7
370
    25
100
AcDbLine
 10
318.7955661977
 20
183.939757247
 30
0.0
 11
319.034675451
 21
184.0049090564
 31
0.0
  0
LINE
  5
1A7
330
1F
100
AcDbEntity
  8
0
  6
Continuous
 62
     7
370
    25
100
AcDbLine
 10
318.440786264
 20
185.0434185547
 30
0.0
 11
318.7989135593
 21
183.941473582
 31
0.0
  0
LINE
  5
1A8
330
1F
100
AcDbEntity
  8
0
  6
Continuous
 62
     7
370
    25
100
AcDbLine
 10
318.679896323
 20
185.1085648588
 30
0.0
 11
318.440786264
 21
185.0434185547
 31
0.0
  0
LINE
  5
1A9
330
1F
100
AcDbEntity
  8
0
  6
Continuous
 62
     7
370
    25
100
AcDbLine
 10
319.0380243653
 20
184.0066206127
 30
0.0
 11
318.6798964839
 21
185.1085649026
 31
0.0
  0
LINE
  5
1AA
330
1F
100
AcDbEntity
  8
0
  6
Continuous
 62
     7
370
    25
100
AcDbLine
 10
318.7989137203
 20
183.9414736258
 30
0.0
 11
319.0380242044
 21
184.0066205688
 31
0.0
  0
LINE
  5
1AB
330
1F
100
AcDbEntity
  8
0
  6
Continuous
 62
     7
370
    25
100
AcDbLine
 10
318.7955661977
 20
183.939757247
 30
0.0
 11
318.7989135593
 21
183.941473582
 31
0.0
  0
LINE
  5
1AC
330
1F
100
AcDbEntity
  8
0
  6
Continuous
 62
     7
370
    25
100
AcDbLine
 10
318.437759719
 20
185.0407148476
 30
0.0
 11
318.440786264
 21
185.0434185547
 31
0.0
  0
LINE
  5
1AD
330
1F
100
AcDbEntity
  8
0
  6
Continuous
 62
     7
370
    25
100
AcDbLine
 10
319.034675451
 20
184.0049090564
 30
0.0
 11
319.0380243653
 21
184.0066206127
 31
0.0
  0
LINE
  5
1AE
330
1F
100
AcDbEntity
  8
0
  6
Continuous
 62
     7
370
    25
100
AcDbLine
 10
318.7994512559
 20
185.1411378185
 30
0.0
 11
319.157579423
 21
184.0391939108
 31
0.0
  0
LINE
  5
1AF
330
1F
100
AcDbEntity
  8
0
  6
Continuous
 62
     7
370
    25
100
AcDbLine
 10
319.0385599467
 20
185.2062830766
 30
0.0
 11
318.7994512559
 21
185.1411378185
 31
0.0
  0
LINE
  5
1B0
330
1F
100
AcDbEntity
  8
0
  6
Continuous
 62
     7
370
    25
100
AcDbLine
 10
319.3966888303
 20
184.1043400628
 30
0.0
 11
319.0385601076
 21
185.2062831204
 31
0.0
  0
LINE
  5
1B1
330
1F
100
AcDbEntity
  8
0
  6
Continuous
 62
     7
370
    25
100
AcDbLine
 10
319.1575795839
 20
184.0391939546
 30
0.0
 11
319.3966886693
 21
184.1043400189
 31
0.0
  0
LINE
  5
1B2
330
1F
100
AcDbEntity
  8
0
  6
Continuous
 62
     7
370
    25
100
AcDbLine
 10
319.154229721
 20
184.0374847787
 30
0.0
 11
319.157579423
 21
184.0391939108
 31
0.0
  0
LINE
  5
1B3
330
1F
100
AcDbEntity
  8
0
  6
Continuous
 62
     7
370
    25
100
AcDbLine
 10
318.7964270354
 20
185.1384269572
 30
0.0
 11
318.7994512559
 21
185.1411378185
 31
0.0
  0
LINE
  5
1B4
330
1F
100
AcDbEntity
  8
0
  6
Continuous
 62
     7
370
    25
100
AcDbLine
 10
318.9537635427
 20
190.3542055242
 30
0.0
 11
323.4384216831
 21
176.5518469955
 31
0.0
  0
LINE
  5
1B5
330
1F
100
AcDbEntity
  8
0
  6
Continuous
 62
     7
370
    25
100
AcDbLine
 10
319.3933375298
 20
184.1026358504
 30
0.0
 11
319.3966888303
 21
184.1043400628
 31
0.0
  0
LINE
  5
1B6
330
1F
100
AcDbEntity
  8
0
  6
Continuous
 62
     7
370
    25
100
AcDbLine
 10
319.1581141807
 20
185.2388555008
 30
0.0
 11
319.5162431728
 21
184.1369129127
 31
0.0
  0
LINE
  5
1B7
330
1F
100
AcDbEntity
  8
0
  6
Continuous
 62
     7
370
    25
100
AcDbLine
 10
319.3972214432
 20
185.3039996626
 30
0.0
 11
319.1581141807
 21
185.2388555008
 31
0.0
  0
LINE
  5
1B8
330
1F
100
AcDbEntity
  8
0
  6
Continuous
 62
     7
370
    25
100
AcDbLine
 10
319.7553511176
 20
184.2020581499
 30
0.0
 11
319.3972216041
 21
185.3039997064
 31
0.0
  0
LINE
  5
1B9
330
1F
100
AcDbEntity
  8
0
  6
Continuous
 62
     7
370
    25
100
AcDbLine
 10
319.5162433338
 20
184.1369129565
 30
0.0
 11
319.7553509567
 21
184.202058106
 31
0.0
  0
LINE
  5
1BA
330
1F
100
AcDbEntity
  8
0
  6
Continuous
 62
     7
370
    25
100
AcDbLine
 10
319.5128910612
 20
184.1352111966
 30
0.0
 11
319.5162431728
 21
184.1369129127
 31
0.0
  0
LINE
  5
1BB
330
1F
100
AcDbEntity
  8
0
  6
Continuous
 62
     7
370
    25
100
AcDbLine
 10
319.1550923531
 20
185.2361372752
 30
0.0
 11
319.1581141807
 21
185.2388555008
 31
0.0
  0
LINE
  5
1BC
330
1F
100
AcDbEntity
  8
0
  6
Continuous
 62
     7
370
    25
100
AcDbLine
 10
319.7519973596
 20
184.2003615009
 30
0.0
 11
319.7553511176
 21
184.2020581499
 31
0.0
  0
LINE
  5
1BD
330
1F
100
AcDbEntity
  8
0
  6
Continuous
 62
     7
370
    25
100
AcDbLine
 10
321.1061612123
 20
180.9829086384
 30
0.0
 11
321.1017962028
 21
180.9843243015
 31
0.0
  0
LINE
  5
1BE
330
1F
100
AcDbEntity
  8
0
  6
Continuous
 62
     7
370
    25
100
AcDbLine
 10
319.8422235117
 20
180.3924111624
 30
0.0
 11
321.1061610602
 21
180.9829085673
 31
0.0
  0
LINE
  5
1BF
330
1F
100
AcDbEntity
  8
0
  6
Continuous
 62
     7
370
    25
100
AcDbLine
 10
319.8422235117
 20
180.3924111624
 30
0.0
 11
319.837855675
 21
180.3938355267
 31
0.0
  0
LINE
  5
1C0
330
1F
100
AcDbEntity
  8
0
  6
Continuous
 62
     7
370
    25
100
AcDbLine
 10
319.9668552167
 20
180.0079271521
 30
0.0
 11
319.8422235117
 21
180.3924111624
 31
0.0
  0
LINE
  5
1C1
330
1F
100
AcDbEntity
  8
0
  6
Continuous
 62
     7
370
    25
100
AcDbLine
 10
321.1061612123
 20
180.9829086384
 30
0.0
 11
321.1896686609
 21
180.7276434179
 31
0.0
  0
LINE
  5
1C2
330
1F
100
AcDbEntity
  8
0
  6
Continuous
 62
     7
370
    25
100
AcDbLine
 10
321.1896686609
 20
180.7276434179
 30
0.0
 11
320.1515631648
 21
180.2428329327
 31
0.0
  0
LINE
  5
1C3
330
1F
100
AcDbEntity
  8
0
  6
Continuous
 62
     7
370
    25
100
AcDbLine
 10
320.1515631648
 20
180.2428329327
 30
0.0
 11
320.238851895
 21
179.9658116047
 31
0.0
  0
LINE
  5
1C4
330
1F
100
AcDbEntity
  8
0
  6
Continuous
 62
     7
370
    25
100
AcDbLine
 10
320.2388517428
 20
179.9658115336
 30
0.0
 11
319.9668554003
 21
180.0079271236
 31
0.0
  0
LINE
  5
1C5
330
1F
100
AcDbEntity
  8
0
  6
Continuous
 62
     7
370
    25
100
AcDbLine
 10
319.9668552167
 20
180.0079271521
 30
0.0
 11
319.9623759295
 21
180.009694526
 31
0.0
  0
LINE
  5
1C6
330
1F
100
AcDbEntity
  8
0
  6
Continuous
 62
     7
370
    25
100
AcDbLine
 10
317.3094513835
 20
189.1252687894
 30
0.0
 11
317.612613086
 21
188.1924100811
 31
0.0
  0
LINE
  5
1C7
330
1F
100
AcDbEntity
  8
0
  6
Continuous
 62
     7
370
    25
100
AcDbLine
 10
317.5614813421
 20
189.1506495365
 30
0.0
 11
317.3094513835
 21
189.1252687894
 31
0.0
  0
LINE
  5
1C8
330
1F
100
AcDbEntity
  8
0
  6
Continuous
 62
     7
370
    25
100
AcDbLine
 10
317.8646434149
 20
188.2177919501
 30
0.0
 11
317.5614815117
 21
189.1506495536
 31
0.0
  0
LINE
  5
1C9
330
1F
100
AcDbEntity
  8
0
  6
Continuous
 62
     7
370
    25
100
AcDbLine
 10
317.6126132557
 20
188.1924100981
 30
0.0
 11
317.8646432453
 21
188.217791933
 31
0.0
  0
LINE
  5
1CA
330
1F
100
AcDbEntity
  8
0
  6
Continuous
 62
     7
370
    25
100
AcDbLine
 10
317.6104967605
 20
188.1869050067
 30
0.0
 11
317.612613086
 21
188.1924100811
 31
0.0
  0
LINE
  5
1CB
330
1F
100
AcDbEntity
  8
0
  6
Continuous
 62
     7
370
    25
100
AcDbLine
 10
317.3076086013
 20
189.118921835
 30
0.0
 11
317.3094513835
 21
189.1252687894
 31
0.0
  0
LINE
  5
1CC
330
1F
100
AcDbEntity
  8
0
  6
Continuous
 62
     7
370
    25
100
AcDbLine
 10
317.8625257146
 20
188.2122911066
 30
0.0
 11
317.8646434149
 21
188.2177919501
 31
0.0
  0
LINE
  5
1CD
330
1F
100
AcDbEntity
  8
0
  6
Continuous
 62
     7
370
    25
100
AcDbLine
 10
317.6874963638
 20
189.1633392645
 30
0.0
 11
317.9906583586
 21
188.2304822529
 31
0.0
  0
LINE
  5
1CE
330
1F
100
AcDbEntity
  8
0
  6
Continuous
 62
     7
370
    25
100
AcDbLine
 10
317.9395254639
 20
189.1887172931
 30
0.0
 11
317.6874963638
 21
189.1633392645
 31
0.0
  0
LINE
  5
1CF
330
1F
100
AcDbEntity
  8
0
  6
Continuous
 62
     7
370
    25
100
AcDbLine
 10
318.2426877932
 20
188.2558615645
 30
0.0
 11
317.9395256335
 21
189.1887173101
 31
0.0
  0
LINE
  5
1D0
330
1F
100
AcDbEntity
  8
0
  6
Continuous
 62
     7
370
    25
100
AcDbLine
 10
317.9906585282
 20
188.2304822699
 30
0.0
 11
318.2426876236
 21
188.2558615474
 31
0.0
  0
LINE
  5
1D1
330
1F
100
AcDbEntity
  8
0
  6
Continuous
 62
     7
370
    25
100
AcDbLine
 10
317.9885399607
 20
188.2249835564
 30
0.0
 11
317.9906583586
 21
188.2304822529
 31
0.0
  0
LINE
  5
1D2
330
1F
100
AcDbEntity
  8
0
  6
Continuous
 62
     7
370
    25
100
AcDbLine
 10
317.6856555156
 20
189.1569863579
 30
0.0
 11
317.6874963638
 21
189.1633392645
 31
0.0
  0
LINE
  5
1D3
330
1F
100
AcDbEntity
  8
0
  6
Continuous
 62
     7
370
    25
100
AcDbLine
 10
318.2405679791
 20
188.2503672265
 30
0.0
 11
318.2426877932
 21
188.2558615645
 31
0.0
  0
LINE
  5
1D4
330
1F
100
AcDbEntity
  8
0
  6
Continuous
 62
     7
370
    25
100
AcDbLine
 10
321.4542745333
 20
176.8948452739
 30
0.0
 11
321.5136525875
 21
176.7011791179
 31
0.0
  0
SPLINE
  5
1D5
330
1F
100
AcDbEntity
  8
0
  6
Continuous
 62
     7
370
    25
100
AcDbSpline
210
0.0
220
0.0
230
1.0
 70
     8
 71
     3
 72
    13
 73
     9
 74
     0
 42
0.00000001
 43
0.00000001
 40
0.0
 40
0.0
 40
0.0
 40
0.0
 40
0.2497855619076396
 40
0.3759271741619362
 40
0.5001065842822409
 40
0.626106140669396
 40
0.7504946634725794
 40
1.0
 40
1.0
 40
1.0
 40
1.0
 10
321.5136525875062
 20
176.7011791179174
 30
0.0
 10
321.457527560852
 20
176.6713846198448
 30
0.0
 10
321.3730594174225
 20
176.626543911757
 30
0.0
 10
321.2614239467651
 20
176.604558808788
 30
0.0
 10
321.1829191970138
 20
176.6069744623938
 30
0.0
 10
321.1133503669874
 20
176.6282876020809
 30
0.0
 10
321.0349599086323
 20
176.680776696108
 30
0.0
 10
321.0046583609574
 20
176.7495383242299
 30
0.0
 10
320.9844376548365
 20
176.7954240555319
 30
0.0
  0
SPLINE
  5
1D6
330
1F
100
AcDbEntity
  8
0
  6
Continuous
 62
     7
370
    25
100
AcDbSpline
210
0.0
220
0.0
230
1.0
 70
     8
 71
     3
 72
    12
 73
     8
 74
     0
 42
0.00000001
 43
0.00000001
 40
0.0
 40
0.0
 40
0.0
 40
0.0
 40
0.2501808927315833
 40
0.3759052283469302
 40
0.5010273466268078
 40
0.7507100481906162
 40
1.0
 40
1.0
 40
1.0
 40
1.0
 10
320.9844368246684
 20
176.7954263928374
 30
0.0
 10
320.9741962440843
 20
176.8410032283369
 30
0.0
 10
320.9588094264067
 20
176.9094839606929
 30
0.0
 10
320.9746241835264
 20
177.0154515452925
 30
0.0
 10
321.0103129954485
 20
177.1217059541836
 30
0.0
 10
321.0882019523394
 20
177.2527570997867
 30
0.0
 10
321.1795846813086
 20
177.3261479756657
 30
0.0
 10
321.2252400813529
 20
177.3628145300099
 30
0.0
  0
SPLINE
  5
1D7
330
1F
100
AcDbEntity
  8
0
  6
Continuous
 62
     7
370
    25
100
AcDbSpline
210
0.0
220
0.0
230
1.0
 70
     8
 71
     3
 72
    10
 73
     6
 74
     0
 42
0.00000001
 43
0.00000001
 40
0.0
 40
0.0
 40
0.0
 40
0.0
 40
0.2494587266415786
 40
0.4995244227380314
 40
1.0
 40
1.0
 40
1.0
 40
1.0
 10
321.2252401522868
 20
177.3628145785749
 30
0.0
 10
321.277455944181
 20
177.3896592553307
 30
0.0
 10
321.3820145766047
 20
177.4434139258549
 30
0.0
 10
321.5942512742279
 20
177.4750702016043
 30
0.0
 10
321.7371589509416
 20
177.4542280929734
 30
0.0
 10
321.8324525804024
 20
177.4403301679442
 30
0.0
  0
LINE
  5
1D8
330
1F
100
AcDbEntity
  8
0
  6
Continuous
 62
     7
370
    25
100
AcDbLine
 10
321.8324525804
 20
177.4403301679
 30
0.0
 11
322.0133279581
 21
177.411198491
 31
0.0
  0
LINE
  5
1D9
330
1F
100
AcDbEntity
  8
0
  6
Continuous
 62
     7
370
    25
100
AcDbLine
 10
322.0133281031
 20
177.411198584
 30
0.0
 11
321.8839356751
 21
177.7963795321
 31
0.0
  0
LINE
  5
1DA
330
1F
100
AcDbEntity
  8
0
  6
Continuous
 62
     7
370
    25
100
AcDbLine
 10
321.8839356751
 20
177.7963795321
 30
0.0
 11
322.0946841867
 21
177.9315213204
 31
0.0
  0
LINE
  5
1DB
330
1F
100
AcDbEntity
  8
0
  6
Continuous
 62
     7
370
    25
100
AcDbLine
 10
322.0946843317
 20
177.9315214133
 30
0.0
 11
322.3333638662
 21
177.1933707306
 31
0.0
  0
LINE
  5
1DC
330
1F
100
AcDbEntity
  8
0
  6
Continuous
 62
     7
370
    25
100
AcDbLine
 10
322.3333638662
 20
177.1933707306
 30
0.0
 11
322.2242374947
 21
177.123313033
 31
0.0
  0
LINE
  5
1DD
330
1F
100
AcDbEntity
  8
0
  6
Continuous
 62
     7
370
    25
100
AcDbLine
 10
322.2242374947
 20
177.123313033
 30
0.0
 11
321.7464509819
 21
177.204974996
 31
0.0
  0
SPLINE
  5
1DE
330
1F
100
AcDbEntity
  8
0
  6
Continuous
 62
     7
370
    25
100
AcDbSpline
210
0.0
220
0.0
230
1.0
 70
     8
 71
     3
 72
    10
 73
     6
 74
     0
 42
0.00000001
 43
0.00000001
 40
0.0
 40
0.0
 40
0.0
 40
0.0
 40
0.5009427918272679
 40
0.7509941058634896
 40
1.0
 40
1.0
 40
1.0
 40
1.0
 10
321.746450981947
 20
177.204974995981
 30
0.0
 10
321.6790317298106
 20
177.2163972767241
 30
0.0
 10
321.5779593882135
 20
177.2335211193134
 30
0.0
 10
321.4278629783785
 20
177.2234630463945
 30
0.0
 10
321.3515225085265
 20
177.1869813054604
 30
0.0
 10
321.3134322322155
 20
177.168778645781
 30
0.0
  0
SPLINE
  5
1DF
330
1F
100
AcDbEntity
  8
0
  6
Continuous
 62
     7
370
    25
100
AcDbSpline
210
0.0
220
0.0
230
1.0
 70
     8
 71
     3
 72
    14
 73
    10
 74
     0
 42
0.00000001
 43
0.00000001
 40
0.0
 40
0.0
 40
0.0
 40
0.0
 40
0.2491051791565098
 40
0.3734644385496746
 40
0.499260690832921
 40
0.623367572246437
 40
0.7494962006759024
 40
0.8746622253604105
 40
0.9999999999999999
 40
0.9999999999999999
 40
0.9999999999999999
 40
0.9999999999999999
 10
321.3134322322155
 20
177.168778645781
 30
0.0
 10
321.2924682911838
 20
177.1532844241782
 30
0.0
 10
321.2610386497217
 20
177.1300551168178
 30
0.0
 10
321.2292786388846
 20
177.087044409523
 30
0.0
 10
321.2109063628319
 20
177.0526671069968
 30
0.0
 10
321.1985785546397
 20
177.0169755045936
 30
0.0
 10
321.193161044497
 20
176.9819645126188
 30
0.0
 10
321.1941309334909
 20
176.9486404957301
 30
0.0
 10
321.1996054172559
 20
176.9290658481762
 30
0.0
 10
321.2023445358411
 20
176.9192718140323
 30
0.0
  0
SPLINE
  5
1E0
330
1F
100
AcDbEntity
  8
0
  6
Continuous
 62
     7
370
    25
100
AcDbSpline
210
0.0
220
0.0
230
1.0
 70
     8
 71
     3
 72
    13
 73
     9
 74
     0
 42
0.00000001
 43
0.00000001
 40
0.0
 40
0.0
 40
0.0
 40
0.0
 40
0.1252231290517797
 40
0.2503822170061235
 40
0.3723998695873242
 40
0.5007610941280528
 40
0.7499805392842095
 40
0.9999999999999999
 40
0.9999999999999999
 40
0.9999999999999999
 40
0.9999999999999999
 10
321.2023445358411
 20
176.9192718140323
 30
0.0
 10
321.2065872119883
 20
176.9086062147896
 30
0.0
 10
321.2150703945107
 20
176.8872804708612
 30
0.0
 10
321.2373829363436
 20
176.8636768413713
 30
0.0
 10
321.2668545909271
 20
176.8490621574629
 30
0.0
 10
321.3124001881276
 20
176.8412977711789
 30
0.0
 10
321.3779148326117
 20
176.8530278974941
 30
0.0
 10
321.4287941222286
 20
176.8808912650489
 30
0.0
 10
321.4542745333144
 20
176.8948452739369
 30
0.0
  0
LINE
  5
1E1
330
1F
100
AcDbEntity
  8
0
  6
Continuous
 62
     7
370
    25
100
AcDbLine
 10
321.2252401523
 20
177.3628145786
 30
0.0
 11
321.2199340176
 21
177.3671267273
 31
0.0
  0
LINE
  5
1E2
330
1F
100
AcDbEntity
  8
0
  6
Continuous
 62
     7
370
    25
100
AcDbLine
 10
320.9844368247
 20
176.7954263928
 30
0.0
 11
320.9790300756
 21
176.8000482006
 31
0.0
  0
LINE
  5
1E3
330
1F
100
AcDbEntity
  8
0
  6
Continuous
 62
     7
370
    25
100
AcDbLine
 10
322.0946843317
 20
177.9315214133
 30
0.0
 11
322.0893852533
 21
177.9358118451
 31
0.0
  0
LINE
  5
1E4
330
1F
100
AcDbEntity
  8
0
  6
Continuous
 62
     7
370
    25
100
AcDbLine
 10
321.8839356751
 20
177.7963795321
 30
0.0
 11
321.8786355177
 21
177.8006732845
 31
0.0
  0
LINE
  5
1E5
330
1F
100
AcDbEntity
  8
0
  6
Continuous
 62
     7
370
    25
100
AcDbLine
 10
322.0133281426
 20
177.4111984618
 30
0.0
 11
322.0079104962
 21
177.4158538081
 31
0.0
  0
LINE
  5
1E6
330
1F
100
AcDbEntity
  8
0
  6
Continuous
 62
     7
370
    25
100
AcDbLine
 10
321.4542745333
 20
176.8948452739
 30
0.0
 11
321.4488185454
 21
176.8996186235
 31
0.0
  0
SPLINE
  5
1E7
330
1F
100
AcDbEntity
  8
0
  6
Continuous
 62
     7
370
    25
100
AcDbSpline
210
0.0
220
0.0
230
1.0
 70
     8
 71
     3
 72
    12
 73
     8
 74
     0
 42
0.00000001
 43
0.00000001
 40
0.0
 40
0.0
 40
0.0
 40
0.0
 40
0.0304717459515684
 40
0.0888135668586439
 40
0.3925556175487708
 40
0.6962774394174549
 40
1.0
 40
1.0
 40
1.0
 40
1.0
 10
318.9980536406042
 20
190.7105431141711
 30
0.0
 10
318.997079536212
 20
190.7138049840144
 30
0.0
 10
318.9942403918553
 20
190.7233120958113
 30
0.0
 10
318.9792759869368
 20
190.7651906444297
 30
0.0
 10
318.9396257004147
 20
190.8344703168954
 30
0.0
 10
318.8592266642117
 20
190.9161853560126
 30
0.0
 10
318.7928330846086
 20
190.9492308468178
 30
0.0
 10
318.7596362544363
 20
190.9657536123138
 30
0.0
  0
SPLINE
  5
1E8
330
1F
100
AcDbEntity
  8
0
  6
Continuous
 62
     7
370
    25
100
AcDbSpline
210
0.0
220
0.0
230
1.0
 70
     8
 71
     3
 72
    11
 73
     7
 74
     0
 42
0.00000001
 43
0.00000001
 40
0.0
 40
0.0
 40
0.0
 40
0.0
 40
0.3704320937888791
 40
0.7442498469312295
 40
0.9442480537668503
 40
1.0
 40
1.0
 40
1.0
 40
1.0
 10
318.7523511777447
 20
190.9740890439599
 30
0.0
 10
318.7527736308778
 20
190.9729745540561
 30
0.0
 10
318.7536223982628
 20
190.9707353880815
 30
0.0
 10
318.7558530155747
 20
190.9679196108725
 30
0.0
 10
318.7582489590239
 20
190.9663436365698
 30
0.0
 10
318.7593879594187
 20
190.9658592135302
 30
0.0
 10
318.7596362544364
 20
190.9657536123138
 30
0.0
  0
LINE
  5
1E9
330
1F
100
AcDbEntity
  8
0
  6
Continuous
 62
     7
370
    25
100
AcDbLine
 10
316.6808805977
 20
191.6601776882
 30
0.0
 11
316.8891552099
 21
191.0192474375
 31
0.0
  0
LINE
  5
1EA
330
1F
100
AcDbEntity
  8
0
  6
Continuous
 62
     7
370
    25
100
AcDbLine
 10
316.9413246123
 20
191.6596605012
 30
0.0
 11
316.6808805977
 21
191.6601776882
 31
0.0
  0
LINE
  5
1EB
330
1F
100
AcDbEntity
  8
0
  6
Continuous
 62
     7
370
    25
100
AcDbLine
 10
317.1495993991
 20
191.0187309687
 30
0.0
 11
316.9413247876
 21
191.6596605008
 31
0.0
  0
LINE
  5
1EC
330
1F
100
AcDbEntity
  8
0
  6
Continuous
 62
     7
370
    25
100
AcDbLine
 10
316.8891553851
 20
191.0192474372
 30
0.0
 11
317.1495992238
 21
191.018730969
 31
0.0
  0
LINE
  5
1ED
330
1F
100
AcDbEntity
  8
0
  6
Continuous
 62
     7
370
    25
100
AcDbLine
 10
316.8878671735
 20
191.011193151
 30
0.0
 11
316.8891552099
 21
191.0192474375
 31
0.0
  0
LINE
  5
1EE
330
1F
100
AcDbEntity
  8
0
  6
Continuous
 62
     7
370
    25
100
AcDbLine
 10
316.6797818664
 20
191.6515407806
 30
0.0
 11
316.6808805977
 21
191.6601776882
 31
0.0
  0
LINE
  5
1EF
330
1F
100
AcDbEntity
  8
0
  6
Continuous
 62
     7
370
    25
100
AcDbLine
 10
317.1483103618
 20
191.0106797626
 30
0.0
 11
317.1495993991
 21
191.0187309687
 31
0.0
  0
LINE
  5
1F0
330
1F
100
AcDbEntity
  8
0
  6
Continuous
 62
     7
370
    25
100
AcDbLine
 10
325.1476880739
 20
192.2290191519
 30
0.0
 11
324.6580127812
 21
192.2821551373
 31
0.0
  0
LINE
  5
1F1
330
1F
100
AcDbEntity
  8
0
  6
Continuous
 62
     7
370
    25
100
AcDbLine
 10
318.3475707568
 20
192.9412621791
 30
0.0
 11
324.6580127812
 21
192.2821551373
 31
0.0
  0
SPLINE
  5
1F2
330
1F
100
AcDbEntity
  8
0
  6
Continuous
 62
     7
370
    25
100
AcDbSpline
210
0.0
220
0.0
230
1.0
 70
     8
 71
     3
 72
    12
 73
     8
 74
     0
 42
0.00000001
 43
0.00000001
 40
0.0
 40
0.0
 40
0.0
 40
0.0
 40
0.2238925288135727
 40
0.4477848652800298
 40
0.6716820736204794
 40
0.8955819150461078
 40
0.9999999999999999
 40
0.9999999999999999
 40
0.9999999999999999
 40
0.9999999999999999
 10
318.2725707304992
 20
192.9425396788371
 30
0.0
 10
318.2732130455512
 20
192.9432649314365
 30
0.0
 10
318.2744976751033
 20
192.9447154360122
 30
0.0
 10
318.2880348618369
 20
192.9452911502624
 30
0.0
 10
318.3084833327715
 20
192.9445910965797
 30
0.0
 10
318.3298086187494
 20
192.9430146383648
 30
0.0
 10
318.3432847986207
 20
192.9416850430377
 30
0.0
 10
318.3475707567777
 20
192.9412621791406
 30
0.0
  0
ELLIPSE
  5
1F3
330
1F
100
AcDbEntity
  8
0
  6
Continuous
 62
     7
370
    25
100
AcDbEllipse
 10
316.8497500522
 20
180.099473009
 30
0.0
 11
1.39312821240361
 21
12.88400853790387
 31
0.0
210
0.0
220
0.0
230
1.0
 40
0.0344271606
 41
6.206178401337743
 42
6.207078956097564
  0
SPLINE
  5
1F4
330
1F
100
AcDbEntity
  8
0
  6
Continuous
 62
     7
370
    25
100
AcDbSpline
210
0.0
220
0.0
230
1.0
 70
     8
 71
     3
 72
    12
 73
     8
 74
     0
 42
0.00000001
 43
0.00000001
 40
0.0
 40
0.0
 40
0.0
 40
0.0
 40
0.2238925571847498
 40
0.4477848984197142
 40
0.6716824862030862
 40
0.8955821585468517
 40
1.0
 40
1.0
 40
1.0
 40
1.0
 10
318.3526941824816
 20
192.9254938961978
 30
0.0
 10
318.343421579126
 20
192.9266348850378
 30
0.0
 10
318.3248763813587
 20
192.9289168616173
 30
0.0
 10
318.3005947896653
 20
192.9330215419047
 30
0.0
 10
318.2826104026637
 20
192.937001790331
 30
0.0
 10
318.2742444480421
 20
192.9398934079975
 30
0.0
 10
318.2732039699725
 20
192.941195194064
 30
0.0
 10
318.2728730571533
 20
192.9416092130711
 30
0.0
  0
LINE
  5
1F5
330
1F
100
AcDbEntity
  8
0
  6
Continuous
 62
     7
370
    25
100
AcDbLine
 10
318.3526941825
 20
192.9254938962
 30
0.0
 11
324.6869997955
 21
192.1929422806
 31
0.0
  0
LINE
  5
1F6
330
1F
100
AcDbEntity
  8
0
  6
Continuous
 62
     7
370
    25
100
AcDbLine
 10
324.6869997955
 20
192.1929422806
 30
0.0
 11
325.1766750882
 21
192.1398062952
 31
0.0
  0
SPLINE
  5
1F7
330
1F
100
AcDbEntity
  8
0
  6
Continuous
 62
     7
370
    25
100
AcDbSpline
210
0.0
220
0.0
230
1.0
 70
     8
 71
     3
 72
    12
 73
     8
 74
     0
 42
0.00000001
 43
0.00000001
 40
0.0
 40
0.0
 40
0.0
 40
0.0
 40
0.0304717459458797
 40
0.0888135668586366
 40
0.392555617548773
 40
0.6962774394174158
 40
1.0
 40
1.0
 40
1.0
 40
1.0
 10
323.6572003217382
 20
176.3711640763593
 30
0.0
 10
323.658400882547
 20
176.3677330149149
 30
0.0
 10
323.6619000613553
 20
176.3577327738547
 30
0.0
 10
323.6752484062205
 20
176.3124736385711
 30
0.0
 10
323.6848149912237
 20
176.2302793557911
 30
0.0
 10
323.667838849884
 20
176.1167987955077
 30
0.0
 10
323.6325048474933
 20
176.0542527368544
 30
0.0
 10
323.6148378248131
 20
176.0229796694966
 30
0.0
  0
SPLINE
  5
1F8
330
1F
100
AcDbEntity
  8
0
  6
Continuous
 62
     7
370
    25
100
AcDbSpline
210
0.0
220
0.0
230
1.0
 70
     8
 71
     3
 72
    10
 73
     6
 74
     0
 42
0.00000001
 43
0.00000001
 40
0.0
 40
0.0
 40
0.0
 40
0.0
 40
0.2117958997122458
 40
0.4880069094717089
 40
1.0
 40
1.0
 40
1.0
 40
1.0
 10
323.6148378248132
 20
176.0229796694966
 30
0.0
 10
323.6143446155641
 20
176.0221583623853
 30
0.0
 10
323.6132081935573
 20
176.0202659577371
 30
0.0
 10
323.6125125410873
 20
176.0169214743746
 30
0.0
 10
323.6129571149339
 20
176.0150251719882
 30
0.0
 10
323.6132458964026
 20
176.0137933924034
 30
0.0
  0
LINE
  5
1F9
330
1F
100
AcDbEntity
  8
0
  6
Continuous
 62
     7
370
    25
100
AcDbLine
 10
325.8764960801
 20
190.6220120783
 30
0.0
 11
329.0694702763
 21
180.7950479599
 31
0.0
  0
LINE
  5
1FA
330
1F
100
AcDbEntity
  8
0
  6
Continuous
 62
     7
370
    25
100
AcDbLine
 10
325.4574031106
 20
191.911847611
 30
0.0
 11
325.8764960801
 21
190.6220120783
 31
0.0
  0
SPLINE
  5
1FB
330
1F
100
AcDbEntity
  8
0
  6
Continuous
 62
     7
370
    25
100
AcDbSpline
210
0.0
220
0.0
230
1.0
 70
     8
 71
     3
 72
    11
 73
     7
 74
     0
 42
0.00000001
 43
0.00000001
 40
0.0
 40
0.0
 40
0.0
 40
0.0
 40
0.2933118760926711
 40
0.5865991201419849
 40
0.8805021461502853
 40
1.0
 40
1.0
 40
1.0
 40
1.0
 10
325.1766750882265
 20
192.1398062951542
 30
0.0
 10
325.2135435701276
 20
192.1321074166215
 30
0.0
 10
325.2872774377507
 20
192.1167103061005
 30
0.0
 10
325.3797813458153
 20
192.0489036232445
 30
0.0
 10
325.4338613832264
 20
191.9752453258509
 30
0.0
 10
325.4521240852839
 20
191.926063990962
 30
0.0
 10
325.457403110578
 20
191.9118476110388
 30
0.0
  0
LINE
  5
1FC
330
1F
100
AcDbEntity
  8
0
  6
Continuous
 62
     7
370
    25
100
AcDbLine
 10
322.2051077429
 20
174.2132337697
 30
0.0
 11
322.230919518
 21
174.1245449974
 31
0.0
  0
SPLINE
  5
1FD
330
1F
100
AcDbEntity
  8
0
  6
Continuous
 62
     7
370
    25
100
AcDbSpline
210
0.0
220
0.0
230
1.0
 70
     8
 71
     3
 72
     9
 73
     5
 74
     0
 42
0.00000001
 43
0.00000001
 40
0.0
 40
0.0
 40
0.0
 40
0.0
 40
0.500563422818549
 40
0.9999999999999999
 40
0.9999999999999999
 40
0.9999999999999999
 40
0.9999999999999999
 10
322.2309195179838
 20
174.1245449973724
 30
0.0
 10
322.1918308948022
 20
174.0969010223155
 30
0.0
 10
322.1137416429718
 20
174.0416753030624
 30
0.0
 10
322.0467501752468
 20
174.012688133562
 30
0.0
 10
322.0132921859059
 20
173.9982108808445
 30
0.0
  0
SPLINE
  5
1FE
330
1F
100
AcDbEntity
  8
0
  6
Continuous
 62
     7
370
    25
100
AcDbSpline
210
0.0
220
0.0
230
1.0
 70
     8
 71
     3
 72
     9
 73
     5
 74
     0
 42
0.00000001
 43
0.00000001
 40
0.0
 40
0.0
 40
0.0
 40
0.0
 40
0.4996315356855509
 40
1.0
 40
1.0
 40
1.0
 40
1.0
 10
322.0132905816655
 20
173.9982102900535
 30
0.0
 10
321.9763583117216
 20
173.9887537198234
 30
0.0
 10
321.9024392987973
 20
173.9698266314497
 30
0.0
 10
321.8800779802617
 20
174.0073438120934
 30
0.0
 10
321.8688890816459
 20
174.0261162261575
 30
0.0
  0
SPLINE
  5
1FF
330
1F
100
AcDbEntity
  8
0
  6
Continuous
 62
     7
370
    25
100
AcDbSpline
210
0.0
220
0.0
230
1.0
 70
     8
 71
     3
 72
    13
 73
     9
 74
     0
 42
0.00000001
 43
0.00000001
 40
0.0
 40
0.0
 40
0.0
 40
0.0
 40
0.2500654739636057
 40
0.4997131740225925
 40
0.7492551742716176
 40
0.8745031274806543
 40
0.9372419157886648
 40
1.0
 40
1.0
 40
1.0
 40
1.0
 10
321.8688890816459
 20
174.0261162261575
 30
0.0
 10
321.8660636295243
 20
174.0478778672544
 30
0.0
 10
321.8604174456453
 20
174.0913647931866
 30
0.0
 10
321.9108328696441
 20
174.1971516255475
 30
0.0
 10
321.9831681227467
 20
174.295780966788
 30
0.0
 10
322.0492935101862
 20
174.3631326015117
 30
0.0
 10
322.0898271695439
 20
174.3995073920088
 30
0.0
 10
322.1108186640716
 20
174.4165990323987
 30
0.0
 10
322.1213160251202
 20
174.4251461665652
 30
0.0
  0
SPLINE
  5
200
330
1F
100
AcDbEntity
  8
0
  6
Continuous
 62
     7
370
    25
100
AcDbSpline
210
0.0
220
0.0
230
1.0
 70
     8
 71
     3
 72
    11
 73
     7
 74
     0
 42
0.00000001
 43
0.00000001
 40
0.0
 40
0.0
 40
0.0
 40
0.0
 40
0.2497797925379418
 40
0.4995887499658955
 40
0.7496163135046455
 40
1.0
 40
1.0
 40
1.0
 40
1.0
 10
322.1213160251202
 20
174.4251461665652
 30
0.0
 10
322.147769534668
 20
174.4448570269709
 30
0.0
 10
322.2006796425392
 20
174.4842810492697
 30
0.0
 10
322.2776610358952
 20
174.522749573669
 30
0.0
 10
322.3448284258288
 20
174.5434173677276
 30
0.0
 10
322.3776618176266
 20
174.542368138124
 30
0.0
 10
322.3940901966407
 20
174.5418431499746
 30
0.0
  0
SPLINE
  5
201
330
1F
100
AcDbEntity
  8
0
  6
Continuous
 62
     7
370
    25
100
AcDbSpline
210
0.0
220
0.0
230
1.0
 70
     8
 71
     3
 72
    11
 73
     7
 74
     0
 42
0.00000001
 43
0.00000001
 40
0.0
 40
0.0
 40
0.0
 40
0.0
 40
0.2503253297216774
 40
0.5002167978961203
 40
0.7499774699169535
 40
0.9999999999999999
 40
0.9999999999999999
 40
0.9999999999999999
 40
0.9999999999999999
 10
322.3940903306723
 20
174.5418432322926
 30
0.0
 10
322.4007180749709
 20
174.5658423109747
 30
0.0
 10
322.4139620764232
 20
174.6137988733575
 30
0.0
 10
322.4706913799108
 20
174.7048792420056
 30
0.0
 10
322.5517456541506
 20
174.8000646280076
 30
0.0
 10
322.6177654228747
 20
174.8557538692427
 30
0.0
 10
322.6507926025445
 20
174.8836130788628
 30
0.0
  0
SPLINE
  5
202
330
1F
100
AcDbEntity
  8
0
  6
Continuous
 62
     7
370
    25
100
AcDbSpline
210
0.0
220
0.0
230
1.0
 70
     8
 71
     3
 72
    13
 73
     9
 74
     0
 42
0.00000001
 43
0.00000001
 40
0.0
 40
0.0
 40
0.0
 40
0.0
 40
0.1251926864574147
 40
0.2503554498025255
 40
0.3755607756755404
 40
0.5008103591727576
 40
0.7500871098265368
 40
1.0
 40
1.0
 40
1.0
 40
1.0
 10
322.6507926025445
 20
174.8836130788628
 30
0.0
 10
322.6768425647047
 20
174.9034365244495
 30
0.0
 10
322.7289362626553
 20
174.9430786774933
 30
0.0
 10
322.8076796061991
 20
174.9902711565356
 30
0.0
 10
322.8813598827684
 20
175.0234339889877
 30
0.0
 10
322.969034309646
 20
175.0498182673661
 30
0.0
 10
323.0566559174849
 20
175.0503505145256
 30
0.0
 10
323.0799119472091
 20
175.010318660643
 30
0.0
 10
323.0915547801667
 20
174.9902772265173
 30
0.0
  0
SPLINE
  5
203
330
1F
100
AcDbEntity
  8
0
  6
Continuous
 62
     7
370
    25
100
AcDbSpline
210
0.0
220
0.0
230
1.0
 70
     8
 71
     3
 72
    13
 73
     9
 74
     0
 42
0.00000001
 43
0.00000001
 40
0.0
 40
0.0
 40
0.0
 40
0.0
 40
0.2496671254011945
 40
0.3748819568623591
 40
0.5000518497762512
 40
0.6252133902306457
 40
0.7503566024758623
 40
1.0
 40
1.0
 40
1.0
 40
1.0
 10
323.0915547801667
 20
174.9902772265173
 30
0.0
 10
323.0947460298985
 20
174.9647177428789
 30
0.0
 10
323.0995377778802
 20
174.9263394853195
 30
0.0
 10
323.0657749814399
 20
174.8514393597213
 30
0.0
 10
323.0251806427356
 20
174.7885415679387
 30
0.0
 10
322.9714691131016
 20
174.7214935708266
 30
0.0
 10
322.8854756405097
 20
174.6298934814415
 30
0.0
 10
322.8101712871838
 20
174.5652872206195
 30
0.0
 10
322.7600114518999
 20
174.5222533287127
 30
0.0
  0
LINE
  5
204
330
1F
100
AcDbEntity
  8
0
  6
Continuous
 62
     7
370
    25
100
AcDbLine
 10
322.7600113127
 20
174.522253218
 30
0.0
 11
322.7344717505
 21
174.6124250661
 31
0.0
  0
SPLINE
  5
205
330
1F
100
AcDbEntity
  8
0
  6
Continuous
 62
     7
370
    25
100
AcDbSpline
210
0.0
220
0.0
230
1.0
 70
     8
 71
     3
 72
    12
 73
     8
 74
     0
 42
0.00000001
 43
0.00000001
 40
0.0
 40
0.0
 40
0.0
 40
0.0
 40
0.250290395762584
 40
0.499625692557229
 40
0.6248785049164043
 40
0.7501575152949075
 40
1.0
 40
1.0
 40
1.0
 40
1.0
 10
322.7344717504949
 20
174.6124250661026
 30
0.0
 10
322.7570792573198
 20
174.6329010395086
 30
0.0
 10
322.8022080015529
 20
174.6737748507573
 30
0.0
 10
322.8501170898792
 20
174.7287950059956
 30
0.0
 10
322.8742579887657
 20
174.7680786799579
 30
0.0
 10
322.890683905605
 20
174.804105862069
 30
0.0
 10
322.8882522368347
 20
174.822072040116
 30
0.0
 10
322.8866326704394
 20
174.8340380687833
 30
0.0
  0
SPLINE
  5
206
330
1F
100
AcDbEntity
  8
0
  6
Continuous
 62
     7
370
    25
100
AcDbSpline
210
0.0
220
0.0
230
1.0
 70
     8
 71
     3
 72
    13
 73
     9
 74
     0
 42
0.00000001
 43
0.00000001
 40
0.0
 40
0.0
 40
0.0
 40
0.0
 40
0.2499412445089664
 40
0.3736512531990903
 40
0.5005270273382024
 40
0.6275855878520669
 40
0.7509435925526139
 40
1.0
 40
1.0
 40
1.0
 40
1.0
 10
322.8866325280666
 20
174.8340387607643
 30
0.0
 10
322.8813511472005
 20
174.8429190605849
 30
0.0
 10
322.8734557132832
 20
174.8561947212839
 30
0.0
 10
322.8461461134178
 20
174.8584984770037
 30
0.0
 10
322.8203997249499
 20
174.8540571512642
 30
0.0
 10
322.7905161835761
 20
174.8437786024686
 30
0.0
 10
322.7463723951789
 20
174.8224452736258
 30
0.0
 10
322.7111443318055
 20
174.7965424902088
 30
0.0
 10
322.6875851605733
 20
174.7792197068517
 30
0.0
  0
SPLINE
  5
207
330
1F
100
AcDbEntity
  8
0
  6
Continuous
 62
     7
370
    25
100
AcDbSpline
210
0.0
220
0.0
230
1.0
 70
     8
 71
     3
 72
    13
 73
     9
 74
     0
 42
0.00000001
 43
0.00000001
 40
0.0
 40
0.0
 40
0.0
 40
0.0
 40
0.1250363775100851
 40
0.2477719761444181
 40
0.3735017733902937
 40
0.4999170166766789
 40
0.7495385549465333
 40
1.0
 40
1.0
 40
1.0
 40
1.0
 10
322.6875851605733
 20
174.7792197068517
 30
0.0
 10
322.6725072930882
 20
174.766561622195
 30
0.0
 10
322.6426290040874
 20
174.7414783727276
 30
0.0
 10
322.6038438802886
 20
174.6989971907519
 30
0.0
 10
322.5738498886662
 20
174.657604137546
 30
0.0
 10
322.5442511157904
 20
174.6057722765182
 30
0.0
 10
322.5300152137627
 20
174.5524063604385
 30
0.0
 10
322.5353373959404
 20
174.5233353295174
 30
0.0
 10
322.5380029564245
 20
174.5087754011525
 30
0.0
  0
LINE
  5
208
330
1F
100
AcDbEntity
  8
0
  6
Continuous
 62
     7
370
    25
100
AcDbLine
 10
322.5380029564
 20
174.5087754012
 30
0.0
 11
322.3481329071
 21
174.3580090127
 31
0.0
  0
SPLINE
  5
209
330
1F
100
AcDbEntity
  8
0
  6
Continuous
 62
     7
370
    25
100
AcDbSpline
210
0.0
220
0.0
230
1.0
 70
     8
 71
     3
 72
    13
 73
     9
 74
     0
 42
0.00000001
 43
0.00000001
 40
0.0
 40
0.0
 40
0.0
 40
0.0
 40
0.2506006244437117
 40
0.5000267915343978
 40
0.6286811002925431
 40
0.7510092805566819
 40
0.8760035865394831
 40
1.0
 40
1.0
 40
1.0
 40
1.0
 10
322.3481327677939
 20
174.358008902044
 30
0.0
 10
322.3428325026662
 20
174.3662901420835
 30
0.0
 10
322.3322568124739
 20
174.3828138115517
 30
0.0
 10
322.3064276035998
 20
174.3939238339052
 30
0.0
 10
322.2728994526363
 20
174.3884074094913
 30
0.0
 10
322.2426465203367
 20
174.3769474808161
 30
0.0
 10
322.2090483398366
 20
174.3590119034873
 30
0.0
 10
322.1858377887761
 20
174.3416560206348
 30
0.0
 10
322.1742790242873
 20
174.3330128582272
 30
0.0
  0
SPLINE
  5
20A
330
1F
100
AcDbEntity
  8
0
  6
Continuous
 62
     7
370
    25
100
AcDbSpline
210
0.0
220
0.0
230
1.0
 70
     8
 71
     3
 72
    13
 73
     9
 74
     0
 42
0.00000001
 43
0.00000001
 40
0.0
 40
0.0
 40
0.0
 40
0.0
 40
0.2490136760715262
 40
0.3735396206365565
 40
0.4994044184149309
 40
0.6237786640504688
 40
0.7499160835589955
 40
1.0
 40
1.0
 40
1.0
 40
1.0
 10
322.1742790242873
 20
174.3330128582272
 30
0.0
 10
322.1592207139444
 20
174.3201993664865
 30
0.0
 10
322.1366320930236
 20
174.3009781457112
 30
0.0
 10
322.1126736230565
 20
174.2728396119358
 30
0.0
 10
322.098239239505
 20
174.2524854286094
 30
0.0
 10
322.087832223439
 20
174.2335031606176
 30
0.0
 10
322.079635483585
 20
174.2110520451177
 30
0.0
 10
322.0813914403212
 20
174.1995732254008
 30
0.0
 10
322.0825586695444
 20
174.1919429612009
 30
0.0
  0
SPLINE
  5
20B
330
1F
100
AcDbEntity
  8
0
  6
Continuous
 62
     7
370
    25
100
AcDbSpline
210
0.0
220
0.0
230
1.0
 70
     8
 71
     3
 72
    12
 73
     8
 74
     0
 42
0.00000001
 43
0.00000001
 40
0.0
 40
0.0
 40
0.0
 40
0.0
 40
0.2498669401444367
 40
0.4997047830815949
 40
0.7494425175033965
 40
0.8746776441611732
 40
1.0
 40
1.0
 40
1.0
 40
1.0
 10
322.082558964639
 20
174.19194230857
 30
0.0
 10
322.0861597726105
 20
174.1861870614878
 30
0.0
 10
322.0933609692365
 20
174.1746772375265
 30
0.0
 10
322.1222699935707
 20
174.1751000847437
 30
0.0
 10
322.1534203873509
 20
174.1849110077217
 30
0.0
 10
322.1821372130514
 20
174.1990601227596
 30
0.0
 10
322.1974491227242
 20
174.2085081242846
 30
0.0
 10
322.2051077429077
 20
174.2132337696626
 30
0.0
  0
LINE
  5
20C
330
1F
100
AcDbEntity
  8
0
  6
Continuous
 62
     7
370
    25
100
AcDbLine
 10
322.1213160251
 20
174.4251461666
 30
0.0
 11
322.1151562276
 21
174.4320856191
 31
0.0
  0
LINE
  5
20D
330
1F
100
AcDbEntity
  8
0
  6
Continuous
 62
     7
370
    25
100
AcDbLine
 10
321.8688890816
 20
174.0261162262
 30
0.0
 11
321.8626829215
 21
174.0331983684
 31
0.0
  0
LINE
  5
20E
330
1F
100
AcDbEntity
  8
0
  6
Continuous
 62
     7
370
    25
100
AcDbLine
 10
322.6507926025
 20
174.8836130789
 30
0.0
 11
322.6446431281
 21
174.8905207603
 31
0.0
  0
LINE
  5
20F
330
1F
100
AcDbEntity
  8
0
  6
Continuous
 62
     7
370
    25
100
AcDbLine
 10
322.3940903108
 20
174.541843143
 30
0.0
 11
322.3879074752
 21
174.5488534994
 31
0.0
  0
LINE
  5
210
330
1F
100
AcDbEntity
  8
0
  6
Continuous
 62
     7
370
    25
100
AcDbLine
 10
322.3481327678
 20
174.358008902
 30
0.0
 11
322.3419151847
 21
174.3651262005
 31
0.0
  0
LINE
  5
211
330
1F
100
AcDbEntity
  8
0
  6
Continuous
 62
     7
370
    25
100
AcDbLine
 10
322.8866325281
 20
174.8340387608
 30
0.0
 11
322.8804263578
 21
174.841120934
 31
0.0
  0
LINE
  5
212
330
1F
100
AcDbEntity
  8
0
  6
Continuous
 62
     7
370
    25
100
AcDbLine
 10
322.2051077429
 20
174.2132337697
 30
0.0
 11
322.1988829467
 21
174.2203732678
 31
0.0
  0
LINE
  5
213
330
1F
100
AcDbEntity
  8
0
  6
Continuous
 62
     7
370
    25
100
AcDbLine
 10
322.0825586695
 20
174.1919429612
 30
0.0
 11
322.076351626
 21
174.1990278223
 31
0.0
  0
LINE
  5
214
330
1F
100
AcDbEntity
  8
0
  6
Continuous
 62
     7
370
    25
100
AcDbLine
 10
322.7344717505
 20
174.6124250661
 30
0.0
 11
322.7282414467
 21
174.6195815148
 31
0.0
  0
LINE
  5
215
330
1F
100
AcDbEntity
  8
0
  6
Continuous
 62
     7
370
    25
100
AcDbLine
 10
322.7600113139
 20
174.5222532134
 30
0.0
 11
322.7537545783
 21
174.5294910108
 31
0.0
  0
LINE
  5
216
330
1F
100
AcDbEntity
  8
0
  6
Continuous
 62
     7
370
    25
100
AcDbLine
 10
329.0694702763
 20
180.7950479599
 30
0.0
 11
329.3122345963
 21
180.0478962089
 31
0.0
  0
SPLINE
  5
217
330
1F
100
AcDbEntity
  8
0
  6
Continuous
 62
     7
370
    25
100
AcDbSpline
210
0.0
220
0.0
230
1.0
 70
    11
 71
     3
 72
    23
 73
    19
 74
     0
 42
0.00000001
 43
0.00000001
 40
0.0
 40
0.0
 40
0.0
 40
0.0
 40
0.062539365534261
 40
0.1250641674867728
 40
0.1875642592191243
 40
0.2500493015795628
 40
0.3125354866088938
 40
0.3750370782785875
 40
0.4375591990385321
 40
0.5000950288411403
 40
0.5626303589244105
 40
0.6251512173023819
 40
0.6876508497505275
 40
0.7501347453265541
 40
0.8126170400456753
 40
0.8751085341998674
 40
0.9376624157588197
 40
1.0
 40
1.0
 40
1.0
 40
1.0
 10
317.1868635912201
 20
193.0295927790187
 30
0.0
 10
317.1711331250348
 20
193.0391241537437
 30
0.0
 10
317.139675855828
 20
193.0581846836163
 30
0.0
 10
316.9385217906442
 20
193.0821537497506
 30
0.0
 10
316.6575619141228
 20
193.1043198013345
 30
0.0
 10
316.3284018559335
 20
193.1265562624255
 30
0.0
 10
316.0044166612587
 20
193.1474396586477
 30
0.0
 10
315.7339780159202
 20
193.1612473685783
 30
0.0
 10
315.5581265158297
 20
193.1605787069097
 30
0.0
 10
315.5032146344898
 20
193.1405118510859
 30
0.0
 10
315.5774697643886
 20
193.1020938746782
 30
0.0
 10
315.7697041134839
 20
193.0532342739279
 30
0.0
 10
316.051068450555
 20
193.0063966125104
 30
0.0
 10
316.3788833916938
 20
192.9739555708815
 30
0.0
 10
316.7041446332349
 20
192.9633738176039
 30
0.0
 10
316.97429849115
 20
192.9742640109076
 30
0.0
 10
317.1586328060568
 20
192.999830600728
 30
0.0
 10
317.177464200752
 20
193.0196835138914
 30
0.0
 10
317.1868635912201
 20
193.0295927790187
 30
0.0
  0
LINE
  5
218
330
1F
100
AcDbEntity
  8
0
  6
Continuous
 62
     7
370
    25
100
AcDbLine
 10
324.6435341742
 20
192.1514828542
 30
0.0
 11
324.6580127812
 21
192.2821551373
 31
0.0
  0
LINE
  5
219
330
1F
100
AcDbEntity
  8
0
  6
Continuous
 62
     7
370
    25
100
AcDbLine
 10
322.0970220706
 20
173.3665615754
 30
0.0
 11
322.0907707034
 21
173.3772196485
 31
0.0
  0
LINE
  5
21A
330
1F
100
AcDbEntity
  8
0
  6
Continuous
 62
     7
370
    25
100
AcDbLine
 10
322.0907707034
 20
173.3772196485
 30
0.0
 11
322.8249409369
 21
173.9891776472
 31
0.0
  0
LINE
  5
21B
330
1F
100
AcDbEntity
  8
0
  6
Continuous
 62
     7
370
    25
100
AcDbLine
 10
322.8249409369
 20
173.9891776472
 30
0.0
 11
322.8205610561
 21
173.9963978278
 31
0.0
  0
LINE
  5
21C
330
1F
100
AcDbEntity
  8
0
  6
Continuous
 62
     7
370
    25
100
AcDbLine
 10
322.8205610561
 20
173.9963978278
 30
0.0
 11
323.0216360678
 21
174.1640679622
 31
0.0
  0
LINE
  5
21D
330
1F
100
AcDbEntity
  8
0
  6
Continuous
 62
     7
370
    25
100
AcDbLine
 10
323.0216360678
 20
174.1640679622
 30
0.0
 11
323.0260509766
 21
174.1568057322
 31
0.0
  0
LINE
  5
21E
330
1F
100
AcDbEntity
  8
0
  6
Continuous
 62
     7
370
    25
100
AcDbLine
 10
323.0260509766
 20
174.1568057322
 30
0.0
 11
323.2600719321
 21
174.3518855948
 31
0.0
  0
LINE
  5
21F
330
1F
100
AcDbEntity
  8
0
  6
Continuous
 62
     7
370
    25
100
AcDbLine
 10
323.26007207
 20
174.3518857097
 30
0.0
 11
323.2663542356
 21
174.3409990855
 31
0.0
  0
LINE
  5
220
330
1F
100
AcDbEntity
  8
0
  6
Continuous
 62
     7
370
    25
100
AcDbLine
 10
323.2663542356
 20
174.3409990855
 30
0.0
 11
323.0322810606
 21
174.145981969
 31
0.0
  0
LINE
  5
221
330
1F
100
AcDbEntity
  8
0
  6
Continuous
 62
     7
370
    25
100
AcDbLine
 10
323.0322809227
 20
174.1459818541
 30
0.0
 11
323.0305578043
 21
174.1439715485
 31
0.0
  0
LINE
  5
222
330
1F
100
AcDbEntity
  8
0
  6
Continuous
 62
     7
370
    25
100
AcDbLine
 10
322.4815282807
 20
173.6863647773
 30
0.0
 11
322.0970222102
 21
173.3665616869
 31
0.0
  0
LINE
  5
223
330
1F
100
AcDbEntity
  8
0
  6
Continuous
 62
     7
370
    25
100
AcDbLine
 10
322.8324479405
 20
173.9725377289
 30
0.0
 11
322.8311302761
 21
173.9784025663
 31
0.0
  0
LINE
  5
224
330
1F
100
AcDbEntity
  8
0
  6
Continuous
 62
     7
370
    25
100
AcDbLine
 10
322.8311302761
 20
173.9784025663
 30
0.0
 11
322.4488511184
 21
173.6599184385
 31
0.0
  0
LINE
  5
225
330
1F
100
AcDbEntity
  8
0
  6
Continuous
 62
     7
370
    25
100
AcDbLine
 10
322.4488511184
 20
173.6599184385
 30
0.0
 11
322.8324479405
 21
173.9725377289
 31
0.0
  0
LINE
  5
226
330
1F
100
AcDbEntity
  8
0
  6
Continuous
 62
     7
370
    25
100
AcDbLine
 10
323.0216360678
 20
174.1640679622
 30
0.0
 11
323.0152428579
 21
174.1717257844
 31
0.0
  0
LINE
  5
227
330
1F
100
AcDbEntity
  8
0
  6
Continuous
 62
     7
370
    25
100
AcDbLine
 10
322.8205610561
 20
173.9963978278
 30
0.0
 11
322.8141677369
 21
174.0040559863
 31
0.0
  0
LINE
  5
228
330
1F
100
AcDbEntity
  8
0
  6
Continuous
 62
     7
370
    25
100
AcDbLine
 10
322.8249409369
 20
173.9891776472
 30
0.0
 11
322.8185450534
 21
173.9968436977
 31
0.0
  0
LINE
  5
229
330
1F
100
AcDbEntity
  8
0
  6
Continuous
 62
     7
370
    25
100
AcDbLine
 10
322.0907707034
 20
173.3772196485
 30
0.0
 11
322.0843745811
 21
173.3848864339
 31
0.0
  0
LINE
  5
22A
330
1F
100
AcDbEntity
  8
0
  6
Continuous
 62
     7
370
    25
100
AcDbLine
 10
323.26007207
 20
174.3518857097
 30
0.0
 11
323.2536763386
 21
174.3595512922
 31
0.0
  0
LINE
  5
22B
330
1F
100
AcDbEntity
  8
0
  6
Continuous
 62
     7
370
    25
100
AcDbLine
 10
322.0970220706
 20
173.3665615754
 30
0.0
 11
322.090622332
 21
173.3742394907
 31
0.0
  0
LINE
  5
22C
330
1F
100
AcDbEntity
  8
0
  6
Continuous
 62
     7
370
    25
100
AcDbLine
 10
322.8260466545
 20
173.9802204066
 30
0.0
 11
322.8324479405
 21
173.9725377289
 31
0.0
  0
SPLINE
  5
22D
330
1F
100
AcDbEntity
  8
0
  6
Continuous
 62
     7
370
    25
100
AcDbSpline
210
0.0
220
0.0
230
1.0
 70
     8
 71
     3
 72
    11
 73
     7
 74
     0
 42
0.00000001
 43
0.00000001
 40
0.0
 40
0.0
 40
0.0
 40
0.0
 40
0.2947335968588818
 40
0.5894836108222162
 40
0.8837752324725641
 40
1.0
 40
1.0
 40
1.0
 40
1.0
 10
325.428416096276
 20
192.0010604677483
 30
0.0
 10
325.4133025891575
 20
192.0356203248015
 30
0.0
 10
325.3830747330754
 20
192.1047419639439
 30
0.0
 10
325.2973322556039
 20
192.1815082451554
 30
0.0
 10
325.2140254873747
 20
192.2190971972951
 30
0.0
 10
325.1623253399867
 20
192.2268298851841
 30
0.0
 10
325.1476880739244
 20
192.2290191518637
 30
0.0
  0
LINE
  5
22E
330
1F
100
AcDbEntity
  8
0
  6
Continuous
 62
     7
370
    25
100
AcDbLine
 10
325.4574031106
 20
191.911847611
 30
0.0
 11
325.4284160963
 21
192.0010604677
 31
0.0
  0
LINE
  5
22F
330
1F
100
AcDbEntity
  8
0
  6
Continuous
 62
     7
370
    25
100
AcDbLine
 10
317.1736950686
 20
193.0701213244
 30
0.0
 11
317.1477077012
 21
193.0714663947
 31
0.0
  0
LINE
  5
230
330
1F
100
AcDbEntity
  8
0
  6
Continuous
 62
     7
370
    25
100
AcDbLine
 10
315.5369662392
 20
193.1785320784
 30
0.0
 11
315.5107370966
 21
193.1805621859
 31
0.0
  0
LINE
  5
231
330
1F
100
AcDbEntity
  8
0
  6
Continuous
 62
     7
370
    25
100
AcDbLine
 10
317.9672203766
 20
185.3003032416
 30
0.0
 11
319.3371957183
 21
181.083952686
 31
0.0
  0
LINE
  5
232
330
1F
100
AcDbEntity
  8
0
  6
Continuous
 62
     7
370
    25
100
AcDbLine
 10
316.7391979264
 20
185.3043550794
 30
0.0
 11
318.3460862971
 21
180.3588611946
 31
0.0
  0
ARC
  5
233
330
1F
100
AcDbEntity
  8
0
  6
Continuous
 62
     7
370
    25
100
AcDbCircle
 10
306.7411561668
 20
156.3323545877
 30
0.0
 40
0.4333333333333087
100
AcDbArc
 50
180.0
 51
270.0
  0
ARC
  5
234
330
1F
100
AcDbEntity
  8
0
  6
Continuous
 62
     7
370
    25
100
AcDbCircle
 10
306.7411561668
 20
195.6323545877
 30
0.0
 40
0.4333333333333371
100
AcDbArc
 50
90.0
 51
180.0
  0
LINE
  5
235
330
1F
100
AcDbEntity
  8
0
  6
Continuous
 62
     7
370
    25
100
AcDbLine
 10
306.3078228335
 20
156.3323545877
 30
0.0
 11
306.3078228335
 21
195.6323545877
 31
0.0
  0
ARC
  5
236
330
1F
100
AcDbEntity
  8
0
  6
Continuous
 62
     7
370
    25
100
AcDbCircle
 10
312.2596544047
 20
195.6323545877
 30
0.0
 40
0.4333333333333602
100
AcDbArc
 50
18.0
 51
90.0
  0
ARC
  5
237
330
1F
100
AcDbEntity
  8
0
  6
Continuous
 62
     7
370
    25
100
AcDbCircle
 10
330.8744895002
 20
156.3323545877
 30
0.0
 40
0.4333333333333371
100
AcDbArc
 50
270.0
 51
0.0
  0
LINE
  5
238
330
1F
100
AcDbEntity
  8
0
  6
Continuous
 62
     7
370
    25
100
AcDbLine
 10
321.4997435701
 20
169.1355368283
 30
0.0
 11
331.0226982289
 21
165.6694647902
 31
0.0
  0
LINE
  5
239
330
1F
100
AcDbEntity
  8
0
  6
Continuous
 62
     7
370
    25
100
AcDbLine
 10
306.7411561668
 20
196.0656879211
 30
0.0
 11
312.2596544047
 21
196.0656879211
 31
0.0
  0
LINE
  5
23A
330
1F
100
AcDbEntity
  8
0
  6
Continuous
 62
     7
370
    25
100
AcDbLine
 10
312.6717788951
 20
195.766261952
 30
0.0
 11
321.2358278085
 21
169.4088295997
 31
0.0
  0
ARC
  5
23B
330
1F
100
AcDbEntity
  8
0
  6
Continuous
 62
     7
370
    25
100
AcDbCircle
 10
330.8744895002
 20
165.2622646545
 30
0.0
 40
0.4333333333333371
100
AcDbArc
 50
0.0
 51
70.0
  0
ARC
  5
23C
330
1F
100
AcDbEntity
  8
0
  6
Continuous
 62
     7
370
    25
100
AcDbCircle
 10
321.6479522989
 20
169.5427369639
 30
0.0
 40
0.433333333333271
100
AcDbArc
 50
198.0
 51
250.0
  0
LINE
  5
23D
330
1F
100
AcDbEntity
  8
0
  6
Continuous
 62
     7
370
    25
100
AcDbLine
 10
321.2158415914
 20
169.5850217833
 30
0.0
 11
312.6991111355
 21
195.796822898
 31
0.0
  0
LINE
  5
23E
330
1F
100
AcDbEntity
  8
0
  6
Continuous
 62
     7
370
    25
100
AcDbLine
 10
321.4694566624
 20
169.6674263151
 30
0.0
 11
312.9527262065
 21
195.8792274299
 31
0.0
  0
LINE
  5
23F
330
1F
100
AcDbEntity
  8
0
  6
Continuous
 62
     7
370
    25
100
AcDbLine
 10
306.9744895002
 20
155.6323545877
 30
0.0
 11
330.8911561668
 21
155.6323545877
 31
0.0
  0
LINE
  5
240
330
1F
100
AcDbEntity
  8
0
  6
Continuous
 62
     7
370
    25
100
AcDbLine
 10
306.9744895002
 20
155.8990212544
 30
0.0
 11
330.8911561668
 21
155.8990212544
 31
0.0
  0
LINE
  5
241
330
1F
100
AcDbEntity
  8
0
  6
Continuous
 62
     7
370
    25
100
AcDbLine
 10
306.2883016271
 20
196.3513991504
 30
0.0
 11
306.9388969737
 21
196.3513991504
 31
0.0
  0
LINE
  5
242
330
1F
100
AcDbEntity
  8
0
  6
Continuous
 62
     7
370
    25
100
AcDbLine
 10
306.2883016271
 20
196.0847324837
 30
0.0
 11
306.9388969737
 21
196.0847324837
 31
0.0
  0
LINE
  5
243
330
1F
100
AcDbEntity
  8
0
  6
Continuous
 62
     7
370
    25
100
AcDbLine
 10
306.9388969737
 20
196.0847324837
 30
0.0
 11
312.302837587
 21
196.0847324837
 31
0.0
  0
LINE
  5
244
330
1F
100
AcDbEntity
  8
0
  6
Continuous
 62
     7
370
    25
100
AcDbLine
 10
306.9388969737
 20
196.3513991504
 30
0.0
 11
312.302837587
 21
196.3513991504
 31
0.0
  0
LINE
  5
245
330
1F
100
AcDbEntity
  8
0
  6
Continuous
 62
     7
370
    25
100
AcDbLine
 10
331.5744895002
 20
165.3406014468
 30
0.0
 11
331.5744895002
 21
156.3156879211
 31
0.0
  0
LINE
  5
246
330
1F
100
AcDbEntity
  8
0
  6
Continuous
 62
     7
370
    25
100
AcDbLine
 10
331.3078228335
 20
165.3406014468
 30
0.0
 11
331.3078228335
 21
156.3156879211
 31
0.0
  0
ARC
  5
247
330
1F
100
AcDbEntity
  8
0
  6
Continuous
 62
     7
370
    25
100
AcDbCircle
 10
321.8657302108
 20
169.7961833961
 30
0.0
 40
0.6833333333333337
100
AcDbArc
 50
198.0
 51
250.0
  0
ARC
  5
248
330
1F
100
AcDbEntity
  8
0
  6
Continuous
 62
     7
370
    25
100
AcDbCircle
 10
321.8657302108
 20
169.7961833961
 30
0.0
 40
0.4166666666667039
100
AcDbArc
 50
198.0
 51
250.0
  0
ARC
  5
249
330
1F
100
AcDbEntity
  8
0
  6
Continuous
 62
     7
370
    25
100
AcDbCircle
 10
312.302837587
 20
195.668065817
 30
0.0
 40
0.4166666666666572
100
AcDbArc
 50
18.0
 51
90.0
  0
ARC
  5
24A
330
1F
100
AcDbEntity
  8
0
  6
Continuous
 62
     7
370
    25
100
AcDbCircle
 10
312.302837587
 20
195.668065817
 30
0.0
 40
0.6833333333333371
100
AcDbArc
 50
18.0
 51
90.0
  0
LINE
  5
24B
330
1F
100
AcDbEntity
  8
0
  6
Continuous
 62
     7
370
    25
100
AcDbLine
 10
306.3078228335
 20
155.6323545877
 30
0.0
 11
306.3078228335
 21
155.8990212544
 31
0.0
  0
LINE
  5
24C
330
1F
100
AcDbEntity
  8
0
  6
Continuous
 62
     7
370
    25
100
AcDbLine
 10
306.3078228335
 20
155.6323545877
 30
0.0
 11
306.9744895002
 21
155.6323545877
 31
0.0
  0
LINE
  5
24D
330
1F
100
AcDbEntity
  8
0
  6
Continuous
 62
     7
370
    25
100
AcDbLine
 10
306.3078228335
 20
155.8990212544
 30
0.0
 11
306.9744895002
 21
155.8990212544
 31
0.0
  0
ARC
  5
24E
330
1F
100
AcDbEntity
  8
0
  6
Continuous
 62
     7
370
    25
100
AcDbCircle
 10
330.8911561668
 20
165.3406014468
 30
0.0
 40
0.6833333333333371
100
AcDbArc
 50
0.0
 51
70.0
  0
ARC
  5
24F
330
1F
100
AcDbEntity
  8
0
  6
Continuous
 62
     7
370
    25
100
AcDbCircle
 10
330.8911561668
 20
165.3406014468
 30
0.0
 40
0.4166666666666856
100
AcDbArc
 50
0.0
 51
70.0
  0
ARC
  5
250
330
1F
100
AcDbEntity
  8
0
  6
Continuous
 62
     7
370
    25
100
AcDbCircle
 10
330.8911561668
 20
156.3156879211
 30
0.0
 40
0.4166666666666856
100
AcDbArc
 50
270.0
 51
0.0
  0
ARC
  5
251
330
1F
100
AcDbEntity
  8
0
  6
Continuous
 62
     7
370
    25
100
AcDbCircle
 10
330.8911561668
 20
156.3156879211
 30
0.0
 40
0.6833333333333371
100
AcDbArc
 50
270.0
 51
0.0
  0
LINE
  5
252
330
1F
100
AcDbEntity
  8
0
  6
Continuous
 62
     7
370
    25
100
AcDbLine
 10
331.0336645599
 20
165.7321400388
 30
0.0
 11
321.6320164462
 21
169.1540601052
 31
0.0
  0
LINE
  5
253
330
1F
100
AcDbEntity
  8
0
  6
Continuous
 62
     7
370
    25
100
AcDbLine
 10
331.1248699314
 20
165.9827247377
 30
0.0
 11
321.7232218178
 21
169.4046448041
 31
0.0
  0
LINE
  5
254
330
1F
100
AcDbEntity
  8
0
  6
Continuous
 62
     7
370
    25
100
AcDbLine
 10
313.3823187188
 20
195.6742941223
 30
0.0
 11
316.9982823583
 21
197.2842248597
 31
0.0
  0
LINE
  5
255
330
1F
100
AcDbEntity
  8
0
  6
Continuous
 62
     7
370
    25
100
AcDbLine
 10
313.4907818236
 20
195.4306820003
 30
0.0
 11
317.1067454631
 21
197.0406127376
 31
0.0
  0
LINE
  5
256
330
1F
100
AcDbEntity
  8
0
  6
Continuous
 62
     7
370
    25
100
AcDbLine
 10
316.9982823583
 20
197.2842248597
 30
0.0
 11
317.9118278159
 21
197.6909615027
 31
0.0
  0
LINE
  5
257
330
1F
100
AcDbEntity
  8
0
  6
Continuous
 62
     7
370
    25
100
AcDbLine
 10
317.9118278159
 20
197.6909615027
 30
0.0
 11
318.0202909207
 21
197.4473493807
 31
0.0
  0
LINE
  5
258
330
1F
100
AcDbEntity
  8
0
  6
Continuous
 62
     7
370
    25
100
AcDbLine
 10
317.1067454631
 20
197.0406127376
 30
0.0
 11
318.0202909207
 21
197.4473493807
 31
0.0
  0
ARC
  5
259
330
1F
100
AcDbEntity
  8
0
  6
Continuous
 62
     7
370
    25
100
AcDbCircle
 10
313.6602554249
 20
195.0500380596
 30
0.0
 40
0.41666666666665
100
AcDbArc
 50
114.0
 51
198.0
  0
ARC
  5
25A
330
1F
100
AcDbEntity
  8
0
  6
Continuous
 62
     7
370
    25
100
AcDbCircle
 10
313.6602554249
 20
195.0500380596
 30
0.0
 40
0.6833333333333411
100
AcDbArc
 50
114.0
 51
145.5718693197
  0
ARC
  5
25B
330
1F
100
AcDbEntity
  8
0
  6
Continuous
 62
     7
370
    25
100
AcDbCircle
 10
313.308785189
 20
196.1317522183
 30
0.0
 40
0.6833333333335684
100
AcDbArc
 50
153.0
 51
168.8910459541
  0
ARC
  5
25C
330
1F
100
AcDbEntity
  8
0
  6
Continuous
 62
     7
370
    25
100
AcDbCircle
 10
313.308785189
 20
196.1317522183
 30
0.0
 40
0.4166666666669114
100
AcDbArc
 50
153.0
 51
198.0
  0
LINE
  5
25D
330
1F
100
AcDbEntity
  8
0
  6
Continuous
 62
     7
370
    25
100
AcDbLine
 10
312.9527262065
 20
195.8792274299
 30
0.0
 11
312.9125116405
 21
196.0029951374
 31
0.0
  0
LINE
  5
25E
330
1F
100
AcDbEntity
  8
0
  6
Continuous
 62
     7
370
    25
100
AcDbLine
 10
312.9375324706
 20
196.3209149266
 30
0.0
 11
313.0877268118
 21
196.6156879185
 31
0.0
  0
LINE
  5
25F
330
1F
100
AcDbEntity
  8
0
  6
Continuous
 62
     7
370
    25
100
AcDbLine
 10
312.6999307308
 20
196.4419790598
 30
0.0
 11
312.7884398151
 21
196.6156879185
 31
0.0
  0
LINE
  5
260
330
1F
100
AcDbEntity
  8
0
  6
Continuous
 62
     7
370
    25
100
AcDbLine
 10
70.4078228335
 20
122.732354584
 30
0.0
 11
70.4078228335
 21
136.732354584
 31
0.0
  0
LINE
  5
261
330
1F
100
AcDbEntity
  8
0
  6
Continuous
 62
     7
370
    25
100
AcDbLine
 10
68.4078228335
 20
126.7273587437
 30
0.0
 11
70.4078228335
 21
126.7273587437
 31
0.0
  0
LINE
  5
262
330
1F
100
AcDbEntity
  8
0
  6
Continuous
 62
     7
370
    25
100
AcDbLine
 10
70.4078228335
 20
132.7373504242
 30
0.0
 11
68.4078228335
 21
132.7373504242
 31
0.0
  0
LINE
  5
263
330
1F
100
AcDbEntity
  8
0
  6
Continuous
 62
     7
370
    25
100
AcDbLine
 10
68.4078228335
 20
126.7273587437
 30
0.0
 11
68.4078228335
 21
132.7373504242
 31
0.0
  0
LINE
  5
264
330
1F
100
AcDbEntity
  8
0
  6
Continuous
 62
     7
370
    25
100
AcDbLine
 10
70.4078228335
 20
125.952097541
 30
0.0
 11
68.4078228335
 21
125.952097541
 31
0.0
  0
LINE
  5
265
330
1F
100
AcDbEntity
  8
0
  6
Continuous
 62
     7
370
    25
100
AcDbLine
 10
68.4078228335
 20
126.7273587437
 30
0.0
 11
68.4078228335
 21
125.952097541
 31
0.0
  0
LINE
  5
266
330
1F
100
AcDbEntity
  8
0
  6
Continuous
 62
     7
370
    25
100
AcDbLine
 10
68.4078228335
 20
133.5126116269
 30
0.0
 11
70.4078228335
 21
133.5126116269
 31
0.0
  0
LINE
  5
267
330
1F
100
AcDbEntity
  8
0
  6
Continuous
 62
     7
370
    25
100
AcDbLine
 10
68.4078228335
 20
133.5126116269
 30
0.0
 11
68.4078228335
 21
132.7373504242
 31
0.0
  0
LINE
  5
268
330
1F
100
AcDbEntity
  8
0
  6
Continuous
 62
     7
370
    25
100
AcDbLine
 10
70.4078228335
 20
136.5176074672
 30
0.0
 11
68.4078228335
 21
136.5176074672
 31
0.0
  0
LINE
  5
269
330
1F
100
AcDbEntity
  8
0
  6
Continuous
 62
     7
370
    25
100
AcDbLine
 10
68.4078228335
 20
133.5126116269
 30
0.0
 11
68.4078228335
 21
136.5176074672
 31
0.0
  0
LINE
  5
26A
330
1F
100
AcDbEntity
  8
0
  6
Continuous
 62
     7
370
    25
100
AcDbLine
 10
68.4078228335
 20
122.9471017007
 30
0.0
 11
70.4078228335
 21
122.9471017007
 31
0.0
  0
LINE
  5
26B
330
1F
100
AcDbEntity
  8
0
  6
Continuous
 62
     7
370
    25
100
AcDbLine
 10
68.4078228335
 20
122.9471017007
 30
0.0
 11
68.4078228335
 21
125.952097541
 31
0.0
  0
LINE
  5
26C
330
1F
100
AcDbEntity
  8
0
  6
Continuous
 62
     7
370
    25
100
AcDbLine
 10
68.4078228335
 20
136.532354584
 30
0.0
 11
68.4078228335
 21
136.5176074672
 31
0.0
  0
LINE
  5
26D
330
1F
100
AcDbEntity
  8
0
  6
Continuous
 62
     7
370
    25
100
AcDbLine
 10
68.4078228335
 20
122.9471017007
 30
0.0
 11
68.4078228335
 21
122.932354584
 31
0.0
  0
LINE
  5
26E
330
1F
100
AcDbEntity
  8
0
  6
Continuous
 62
     7
370
    25
100
AcDbLine
 10
60.0744895002
 20
126.2105179419
 30
0.0
 11
60.0744895002
 21
125.6656879173
 31
0.0
  0
LINE
  5
26F
330
1F
100
AcDbEntity
  8
0
  6
Continuous
 62
     7
370
    25
100
AcDbLine
 10
60.0744895002
 20
133.7990212506
 30
0.0
 11
60.0744895002
 21
126.2105179419
 31
0.0
  0
LINE
  5
270
330
1F
100
AcDbEntity
  8
0
  6
Continuous
 62
     7
370
    25
100
AcDbLine
 10
62.4078228335
 20
135.5656879173
 30
0.0
 11
62.4078228335
 21
132.6490212506
 31
0.0
  0
LINE
  5
271
330
1F
100
AcDbEntity
  8
0
  6
Continuous
 62
     7
370
    25
100
AcDbLine
 10
62.4078228335
 20
132.6490212506
 30
0.0
 11
62.4078228335
 21
126.8156879173
 31
0.0
  0
LINE
  5
272
330
1F
100
AcDbEntity
  8
0
  6
Continuous
 62
     7
370
    25
100
AcDbLine
 10
62.4078228335
 20
126.8156879173
 30
0.0
 11
62.4078228335
 21
123.8990212506
 31
0.0
  0
LINE
  5
273
330
1F
100
AcDbEntity
  8
0
  6
Continuous
 62
     7
370
    25
100
AcDbLine
 10
62.7411561668
 20
124.332410513
 30
0.0
 11
67.0744895002
 21
124.332410513
 31
0.0
  0
SPLINE
  5
274
330
1F
100
AcDbEntity
  8
0
  6
Continuous
 62
     7
370
    25
100
AcDbSpline
210
0.0
220
0.0
230
1.0
 70
     8
 71
     3
 72
     9
 73
     5
 74
     0
 42
0.00000001
 43
0.00000001
 40
0.0
 40
0.0
 40
0.0
 40
0.0
 40
0.5203389007804555
 40
1.0
 40
1.0
 40
1.0
 40
1.0
 10
62.40782283349763
 20
126.8156879172989
 30
0.0
 10
62.42533260173875
 20
126.3808360706155
 30
0.0
 10
62.4589833017245
 20
125.5451271777552
 30
0.0
 10
62.6496843110673
 20
124.7255363502422
 30
0.0
 10
62.74115616683098
 20
124.332410513007
 30
0.0
  0
SPLINE
  5
275
330
1F
100
AcDbEntity
  8
0
  6
Continuous
 62
     7
370
    25
100
AcDbSpline
210
0.0
220
0.0
230
1.0
 70
     8
 71
     3
 72
     9
 73
     5
 74
     0
 42
0.00000001
 43
0.00000001
 40
0.0
 40
0.0
 40
0.0
 40
0.0
 40
0.497215449665125
 40
1.0
 40
1.0
 40
1.0
 40
1.0
 10
62.74115616683098
 20
129.2989653215908
 30
0.0
 10
62.64668948080196
 20
128.8913496841347
 30
0.0
 10
62.4566980272124
 20
128.0715528782818
 30
0.0
 10
62.42417493951902
 20
127.235860921838
 30
0.0
 10
62.40782283349763
 20
126.8156879172989
 30
0.0
  0
LINE
  5
276
330
1F
100
AcDbEntity
  8
0
  6
Continuous
 62
     7
370
    25
100
AcDbLine
 10
67.0744895002
 20
129.2989653216
 30
0.0
 11
62.7411561668
 21
129.2989653216
 31
0.0
  0
LINE
  5
277
330
1F
100
AcDbEntity
  8
0
  6
Continuous
 62
     7
370
    25
100
AcDbLine
 10
67.0744895002
 20
124.332410513
 30
0.0
 11
67.0744895002
 21
129.2989653216
 31
0.0
  0
SPLINE
  5
278
330
1F
100
AcDbEntity
  8
0
  6
Continuous
 62
     7
370
    25
100
AcDbSpline
210
0.0
220
0.0
230
1.0
 70
     8
 71
     3
 72
     9
 73
     5
 74
     0
 42
0.00000001
 43
0.00000001
 40
0.0
 40
0.0
 40
0.0
 40
0.0
 40
0.6414308555995385
 40
0.9999999999999999
 40
0.9999999999999999
 40
0.9999999999999999
 40
0.9999999999999999
 10
62.40782283349763
 20
132.6490212506323
 30
0.0
 10
62.43434823591246
 20
132.1129673653477
 30
0.0
 10
62.47570172270414
 20
131.2772515892746
 30
0.0
 10
62.67109438653792
 20
130.4591057131405
 30
0.0
 10
62.74115616683096
 20
130.1657438463404
 30
0.0
  0
LINE
  5
279
330
1F
100
AcDbEntity
  8
0
  6
Continuous
 62
     7
370
    25
100
AcDbLine
 10
62.7411561668
 20
130.1657438463
 30
0.0
 11
62.7411561668
 21
129.2989653216
 31
0.0
  0
LINE
  5
27A
330
1F
100
AcDbEntity
  8
0
  6
Continuous
 62
     7
370
    25
100
AcDbLine
 10
62.7411561668
 20
130.1657438463
 30
0.0
 11
67.0744895002
 21
130.1657438463
 31
0.0
  0
LINE
  5
27B
330
1F
100
AcDbEntity
  8
0
  6
Continuous
 62
     7
370
    25
100
AcDbLine
 10
67.0744895002
 20
130.1657438463
 30
0.0
 11
67.0744895002
 21
129.2989653216
 31
0.0
  0
SPLINE
  5
27C
330
1F
100
AcDbEntity
  8
0
  6
Continuous
 62
     7
370
    25
100
AcDbSpline
210
0.0
220
0.0
230
1.0
 70
     8
 71
     3
 72
     9
 73
     5
 74
     0
 42
0.00000001
 43
0.00000001
 40
0.0
 40
0.0
 40
0.0
 40
0.0
 40
0.4972154496651248
 40
1.0
 40
1.0
 40
1.0
 40
1.0
 10
62.74115616683098
 20
135.1322986549241
 30
0.0
 10
62.6466894808019
 20
134.724683017468
 30
0.0
 10
62.45669802721232
 20
133.9048862116152
 30
0.0
 10
62.42417493951905
 20
133.0691942551714
 30
0.0
 10
62.40782283349763
 20
132.6490212506323
 30
0.0
  0
LINE
  5
27D
330
1F
100
AcDbEntity
  8
0
  6
Continuous
 62
     7
370
    25
100
AcDbLine
 10
67.0744895002
 20
135.1322986549
 30
0.0
 11
62.7411561668
 21
135.1322986549
 31
0.0
  0
LINE
  5
27E
330
1F
100
AcDbEntity
  8
0
  6
Continuous
 62
     7
370
    25
100
AcDbLine
 10
67.0744895002
 20
130.1657438463
 30
0.0
 11
67.0744895002
 21
135.1322986549
 31
0.0
  0
SPLINE
  5
27F
330
1F
100
AcDbEntity
  8
0
  6
Continuous
 62
     7
370
    25
100
AcDbSpline
210
0.0
220
0.0
230
1.0
 70
    24
 71
     3
 72
     9
 73
     5
 74
     0
 42
0.00000001
 43
0.00000001
 40
0.0
 40
0.0
 40
0.0
 40
0.0
 40
0.4972154496651257
 40
1.0
 40
1.0
 40
1.0
 40
1.0
 10
62.74115616683098
 20
123.8990212506323
 30
0.0
 10
62.64668948080193
 20
123.8990212506323
 30
0.0
 10
62.45669802721235
 20
123.8990212506323
 30
0.0
 10
62.42417493951905
 20
123.8990212506323
 30
0.0
 10
62.40782283349763
 20
123.8990212506323
 30
0.0
  0
LINE
  5
280
330
1F
100
AcDbEntity
  8
0
  6
Continuous
 62
     7
370
    25
100
AcDbLine
 10
62.7411561668
 20
124.332410513
 30
0.0
 11
62.7411561668
 21
123.8990212506
 31
0.0
  0
SPLINE
  5
281
330
1F
100
AcDbEntity
  8
0
  6
Continuous
 62
     7
370
    25
100
AcDbSpline
210
0.0
220
0.0
230
1.0
 70
    24
 71
     3
 72
     9
 73
     5
 74
     0
 42
0.00000001
 43
0.00000001
 40
0.0
 40
0.0
 40
0.0
 40
0.0
 40
0.5203389007804545
 40
1.0
 40
1.0
 40
1.0
 40
1.0
 10
62.40782283349763
 20
135.565687917299
 30
0.0
 10
62.42533260173875
 20
135.565687917299
 30
0.0
 10
62.45898330172447
 20
135.565687917299
 30
0.0
 10
62.64968431106732
 20
135.565687917299
 30
0.0
 10
62.74115616683096
 20
135.565687917299
 30
0.0
  0
LINE
  5
282
330
1F
100
AcDbEntity
  8
0
  6
Continuous
 62
     7
370
    25
100
AcDbLine
 10
62.7411561668
 20
135.5656879173
 30
0.0
 11
62.7411561668
 21
135.1322986549
 31
0.0
  0
LINE
  5
283
330
1F
100
AcDbEntity
  8
0
  6
Continuous
 62
     7
370
    25
100
AcDbLine
 10
67.0744895002
 20
123.8990212506
 30
0.0
 11
62.7411561668
 21
123.8990212506
 31
0.0
  0
LINE
  5
284
330
1F
100
AcDbEntity
  8
0
  6
Continuous
 62
     7
370
    25
100
AcDbLine
 10
67.0744895002
 20
124.332410513
 30
0.0
 11
67.0744895002
 21
123.8990212506
 31
0.0
  0
LINE
  5
285
330
1F
100
AcDbEntity
  8
0
  6
Continuous
 62
     7
370
    25
100
AcDbLine
 10
62.7411561668
 20
135.5656879173
 30
0.0
 11
67.0744895002
 21
135.5656879173
 31
0.0
  0
LINE
  5
286
330
1F
100
AcDbEntity
  8
0
  6
Continuous
 62
     7
370
    25
100
AcDbLine
 10
67.0744895002
 20
135.5656879173
 30
0.0
 11
67.0744895002
 21
135.1322986549
 31
0.0
  0
LINE
  5
287
330
1F
100
AcDbEntity
  8
0
  6
Continuous
 62
     7
370
    25
100
AcDbLine
 10
311.5411561668
 20
155.4656879211
 30
0.0
 11
311.5411561668
 21
155.6323545877
 31
0.0
  0
LINE
  5
288
330
1F
100
AcDbEntity
  8
0
  6
Continuous
 62
     7
370
    25
100
AcDbLine
 10
299.9411561668
 20
64.5656879173
 30
0.0
 11
282.2744895002
 21
64.5656879173
 31
0.0
  0
LINE
  5
289
330
1F
100
AcDbEntity
  8
0
  6
Continuous
 62
     7
370
    25
100
AcDbLine
 10
300.6078228335
 20
66.5656879173
 30
0.0
 11
281.6078228335
 21
66.5656879173
 31
0.0
  0
LINE
  5
28A
330
1F
100
AcDbEntity
  8
0
  6
Continuous
 62
     7
370
    25
100
AcDbLine
 10
104.2744895002
 20
66.5656879173
 30
0.0
 11
85.2744895002
 21
66.5656879173
 31
0.0
  0
LINE
  5
28B
330
1F
100
AcDbEntity
  8
0
  6
Continuous
 62
     7
370
    25
100
AcDbLine
 10
103.6078228099
 20
64.5656879173
 30
0.0
 11
85.9411561668
 21
64.5656879173
 31
0.0
  0
LINE
  5
28C
330
1F
100
AcDbEntity
  8
0
  6
Continuous
 62
     7
370
    25
100
AcDbLine
 10
302.7744895002
 20
113.8990212506
 30
0.0
 11
302.7744895002
 21
114.2990212506
 31
0.0
  0
LINE
  5
28D
330
1F
100
AcDbEntity
  8
0
  6
Continuous
 62
     7
370
    25
100
AcDbLine
 10
279.4411561668
 20
113.8990212506
 30
0.0
 11
302.7744895002
 21
113.8990212506
 31
0.0
  0
LINE
  5
28E
330
1F
100
AcDbEntity
  8
0
  6
Continuous
 62
     7
370
    25
100
AcDbLine
 10
279.4411561668
 20
113.8990212506
 30
0.0
 11
279.4411561668
 21
114.2990212506
 31
0.0
  0
LINE
  5
28F
330
1F
100
AcDbEntity
  8
0
  6
Continuous
 62
     7
370
    25
100
AcDbLine
 10
301.4277062403
 20
68.5656879173
 30
0.0
 11
280.7879394267
 21
68.5656879173
 31
0.0
  0
LINE
  5
290
330
1F
100
AcDbEntity
  8
0
  6
Continuous
 62
     7
370
    25
100
AcDbLine
 10
106.4411561668
 20
113.8990212506
 30
0.0
 11
106.4411561668
 21
114.2990212506
 31
0.0
  0
LINE
  5
291
330
1F
100
AcDbEntity
  8
0
  6
Continuous
 62
     7
370
    25
100
AcDbLine
 10
83.1078228335
 20
113.8990212506
 30
0.0
 11
106.4411561668
 21
113.8990212506
 31
0.0
  0
LINE
  5
292
330
1F
100
AcDbEntity
  8
0
  6
Continuous
 62
     7
370
    25
100
AcDbLine
 10
83.1078228335
 20
113.8990212506
 30
0.0
 11
83.1078228335
 21
114.2990212506
 31
0.0
  0
LINE
  5
293
330
1F
100
AcDbEntity
  8
0
  6
Continuous
 62
     7
370
    25
100
AcDbLine
 10
105.0943729069
 20
68.5656879173
 30
0.0
 11
84.4546060934
 21
68.5656879173
 31
0.0
  0
ARC
  5
294
330
1F
100
AcDbEntity
  8
0
  6
Continuous
 62
     7
370
    25
100
AcDbCircle
 10
72.1921094403
 20
230.2538152553
 30
0.0
 40
1.711106176661342
100
AcDbArc
 50
116.3611529673
 51
120.4676687737
  0
LINE
  5
295
330
1F
100
AcDbEntity
  8
0
  6
Continuous
 62
     7
370
    25
100
AcDbLine
 10
89.2411561668
 20
226.6954087077
 30
0.0
 11
89.2411561668
 21
214.6275301473
 31
0.0
  0
LINE
  5
296
330
1F
100
AcDbEntity
  8
0
  6
Continuous
 62
     7
370
    25
100
AcDbLine
 10
89.2411561668
 20
214.6275301473
 30
0.0
 11
71.3244895002
 21
214.6275301473
 31
0.0
  0
ARC
  5
297
330
1F
100
AcDbEntity
  8
0
  6
Continuous
 62
     7
370
    25
100
AcDbCircle
 10
82.5049863571
 20
221.8462833954
 30
0.0
 40
8.299999999999985
100
AcDbArc
 50
35.7487503979
 51
39.2512496021
  0
LINE
  5
298
330
1F
100
AcDbEntity
  8
0
  6
Continuous
 62
     7
370
    25
100
AcDbLine
 10
71.432330769
 20
231.7869886696
 30
0.0
 11
88.932330769
 21
227.097877802
 31
0.0
  0
SPLINE
  5
299
330
1F
100
AcDbEntity
  8
0
  6
Continuous
 62
     7
370
    25
100
AcDbSpline
210
0.0
220
0.0
230
1.0
 70
     8
 71
     3
 72
    12
 73
     8
 74
     0
 42
0.00000001
 43
0.00000001
 40
0.0
 40
0.0
 40
0.0
 40
0.0
 40
0.2223044738147719
 40
0.4446368273769891
 40
0.6669692837440148
 40
0.8893015485004268
 40
1.0
 40
1.0
 40
1.0
 40
1.0
 10
70.50782283349797
 20
231.3845195752821
 30
0.0
 10
70.5175082951355
 20
231.410029110025
 30
0.0
 10
70.53688043308806
 20
231.461051378724
 30
0.0
 10
70.68757277120078
 20
231.5375970745842
 30
0.0
 10
70.9079769320189
 20
231.6141033927508
 30
0.0
 10
71.13549928147168
 20
231.6779393469125
 30
0.0
 10
71.27734154127852
 20
231.7159945984764
 30
0.0
 10
71.32448950016459
 20
231.7286440545593
 30
0.0
  0
LINE
  5
29A
330
1F
100
AcDbEntity
  8
0
  6
Continuous
 62
     7
370
    25
100
AcDbLine
 10
71.3244895002
 20
214.6275301473
 30
0.0
 11
70.5078228335
 21
214.6275301473
 31
0.0
  0
LINE
  5
29B
330
1F
100
AcDbEntity
  8
0
  6
Continuous
 62
     7
370
    25
100
AcDbLine
 10
70.5078228335
 20
214.6275301473
 30
0.0
 11
70.5078228335
 21
231.3845195753
 31
0.0
  0
LINE
  5
29C
330
1F
100
AcDbEntity
  8
0
  6
Continuous
 62
     7
370
    25
100
AcDbLine
 10
89.6411561668
 20
226.6954087077
 30
0.0
 11
89.6411561668
 21
214.6484616194
 31
0.0
  0
LINE
  5
29D
330
1F
100
AcDbEntity
  8
0
  6
Continuous
 62
     7
370
    25
100
AcDbLine
 10
89.2411561668
 20
214.6484616194
 30
0.0
 11
89.6411561668
 21
214.6484616194
 31
0.0
  0
LINE
  5
29E
330
1F
100
AcDbEntity
  8
0
  6
Continuous
 62
     7
370
    25
100
AcDbLine
 10
71.535858387
 20
232.1733590001
 30
0.0
 11
71.432330769
 21
231.7869886696
 31
0.0
  0
LINE
  5
29F
330
1F
100
AcDbEntity
  8
0
  6
Continuous
 62
     7
370
    25
100
AcDbLine
 10
71.535858387
 20
232.1733590001
 30
0.0
 11
89.035858387
 21
227.4842481325
 31
0.0
  0
ARC
  5
2A0
330
1F
100
AcDbEntity
  8
0
  6
Continuous
 62
     7
370
    25
100
AcDbCircle
 10
88.8244895002
 20
226.6954087077
 30
0.0
 40
0.8166666666666725
100
AcDbArc
 50
0.0
 51
75.0
  0
ARC
  5
2A1
330
1F
100
AcDbEntity
  8
0
  6
Continuous
 62
     7
370
    25
100
AcDbCircle
 10
88.8244895002
 20
226.6954087077
 30
0.0
 40
0.4166666666666629
100
AcDbArc
 50
0.0
 51
75.0
  0
LINE
  5
2A2
330
1F
100
AcDbEntity
  8
0
  6
Continuous
 62
     7
370
    25
100
AcDbLine
 10
70.9078228335
 20
207.9608634806
 30
0.0
 11
70.5078228335
 21
207.9608634806
 31
0.0
  0
LINE
  5
2A3
330
1F
100
AcDbEntity
  8
0
  6
Continuous
 62
     7
370
    25
100
AcDbLine
 10
70.5078228335
 20
207.9608634806
 30
0.0
 11
70.5078228335
 21
208.6275301473
 31
0.0
  0
LINE
  5
2A4
330
1F
100
AcDbEntity
  8
0
  6
Continuous
 62
     7
370
    25
100
AcDbLine
 10
70.9078228335
 20
208.6275301473
 30
0.0
 11
70.9078228335
 21
214.6275301473
 31
0.0
  0
LINE
  5
2A5
330
1F
100
AcDbEntity
  8
0
  6
Continuous
 62
     7
370
    25
100
AcDbLine
 10
70.5078228335
 20
208.6275301473
 30
0.0
 11
70.5078228335
 21
214.6275301473
 31
0.0
  0
ARC
  5
2A6
330
1F
100
AcDbEntity
  8
0
  6
Continuous
 62
     7
370
    25
100
AcDbCircle
 10
71.3244895002
 20
231.3845195753
 30
0.0
 40
0.4166666666667014
100
AcDbArc
 50
75.0
 51
140.9591442166
  0
ARC
  5
2A7
330
1F
100
AcDbEntity
  8
0
  6
Continuous
 62
     7
370
    25
100
AcDbCircle
 10
71.3244895002
 20
231.3845195753
 30
0.0
 40
0.8166666666667073
100
AcDbArc
 50
75.0
 51
180.0
  0
ARC
  5
2A8
330
1F
100
AcDbEntity
  8
0
  6
Continuous
 62
     7
370
    25
100
AcDbCircle
 10
72.0444031307
 20
230.4463098657
 30
0.0
 40
1.473788394267001
100
AcDbArc
 50
114.5385539992
 51
119.2406127913
  0
LINE
  5
2A9
330
1F
100
AcDbEntity
  8
0
  6
Continuous
 62
     7
370
    25
100
AcDbLine
 10
70.5078228335
 20
217.694196814
 30
0.0
 11
70.1078228335
 21
217.694196814
 31
0.0
  0
ARC
  5
2AA
330
1F
100
AcDbEntity
  8
0
  6
Continuous
 62
     7
370
    25
100
AcDbCircle
 10
69.5744895002
 20
213.4608634806
 30
0.0
 40
0.9333333333333513
100
AcDbArc
 50
60.0
 51
0.0
  0
LINE
  5
2AB
330
1F
100
AcDbEntity
  8
0
  6
Continuous
 62
     7
370
    25
100
AcDbLine
 10
70.1078228335
 20
217.694196814
 30
0.0
 11
70.1078228335
 21
213.4608634806
 31
0.0
  0
ARC
  5
2AC
330
1F
100
AcDbEntity
  8
0
  6
Continuous
 62
     7
370
    25
100
AcDbCircle
 10
69.5744895002
 20
213.4608634806
 30
0.0
 40
0.5333333333333314
100
AcDbArc
 50
60.0
 51
0.0
  0
LINE
  5
2AD
330
1F
100
AcDbEntity
  8
0
  6
Continuous
 62
     7
370
    25
100
AcDbLine
 10
69.8411561668
 20
213.922743696
 30
0.0
 11
70.0411561668
 21
214.2691538575
 31
0.0
  0
LINE
  5
2AE
330
1F
100
AcDbEntity
  8
0
  6
Continuous
 62
     7
370
    25
100
AcDbLine
 10
70.1078228335
 20
209.2275301473
 30
0.0
 11
70.5078228335
 21
209.2275301473
 31
0.0
  0
LINE
  5
2AF
330
1F
100
AcDbEntity
  8
0
  6
Continuous
 62
     7
370
    25
100
AcDbLine
 10
70.1078228335
 20
212.5275301473
 30
0.0
 11
70.1078228335
 21
209.2275301473
 31
0.0
  0
LINE
  5
2B0
330
1F
100
AcDbEntity
  8
0
  6
Continuous
 62
     7
370
    25
100
AcDbLine
 10
70.1078228335
 20
212.5275301473
 30
0.0
 11
70.5078228335
 21
212.5275301473
 31
0.0
  0
ARC
  5
2B1
330
1F
100
AcDbEntity
  8
0
  6
Continuous
 62
     7
370
    25
100
AcDbCircle
 10
69.5744895002
 20
213.4608634806
 30
0.0
 40
0.5333333333333314
100
AcDbArc
 50
0.0
 51
60.0
  0
LINE
  5
2B2
330
1F
100
AcDbEntity
  8
0
  6
Continuous
 62
     7
370
    25
100
AcDbLine
 10
70.0411561668
 20
214.2691538575
 30
0.0
 11
70.1078228335
 21
214.2268051668
 31
0.0
  0
LINE
  5
2B3
330
1F
100
AcDbEntity
  8
0
  6
Continuous
 62
     7
370
    25
100
AcDbLine
 10
70.1078228335
 20
212.5275301473
 30
0.0
 11
70.1078228335
 21
212.6949217944
 31
0.0
  0
LINE
  5
2B4
330
1F
100
AcDbEntity
  8
0
  6
Continuous
 62
     7
370
    25
100
AcDbLine
 10
305.3578228335
 20
202.9490212518
 30
0.0
 11
305.3578228335
 21
202.1323545851
 31
0.0
  0
LINE
  5
2B5
330
1F
100
AcDbEntity
  8
0
  6
Continuous
 62
     7
370
    25
100
AcDbLine
 10
71.3101798561
 20
202.1323545851
 30
0.0
 11
305.3578228335
 21
202.1323545851
 31
0.0
  0
SPLINE
  5
2B6
330
1F
100
AcDbEntity
  8
0
  6
Continuous
 62
     7
370
    25
100
AcDbSpline
210
0.0
220
0.0
230
1.0
 70
     8
 71
     3
 72
    12
 73
     8
 74
     0
 42
0.00000001
 43
0.00000001
 40
0.0
 40
0.0
 40
0.0
 40
0.0
 40
0.1948890205536106
 40
0.3900234397928882
 40
0.5902624919051945
 40
0.8011670544550508
 40
1.0
 40
1.0
 40
1.0
 40
1.0
 10
71.3101798561028
 20
202.1323545851357
 30
0.0
 10
71.31801340197858
 20
202.1407246391423
 30
0.0
 10
71.33369035750725
 20
202.1574752864884
 30
0.0
 10
71.39276658011036
 20
202.2861052583523
 30
0.0
 10
71.48121784631653
 20
202.4749269288819
 30
0.0
 10
71.60019341166546
 20
202.7032399451479
 30
0.0
 10
71.68387931732079
 20
202.8687192573994
 30
0.0
 10
71.72448950016543
 20
202.9490212518024
 30
0.0
  0
LWPOLYLINE
  5
2B7
330
1F
100
AcDbEntity
  8
0
  6
Continuous
 62
     7
370
    25
100
AcDbPolyline
 90
        2
 70
   128
 43
0.0
 10
71.7244895002
 20
202.9490212518
 10
71.7244895002
 20
202.9490212518
  0
SPLINE
  5
2B8
330
1F
100
AcDbEntity
  8
0
  6
Continuous
 62
     7
370
    25
100
AcDbSpline
210
0.0
220
0.0
230
1.0
 70
     8
 71
     3
 72
    13
 73
     9
 74
     0
 42
0.00000001
 43
0.00000001
 40
0.0
 40
0.0
 40
0.0
 40
0.0
 40
0.3058323210761569
 40
0.4984646393181446
 40
0.6088837992859055
 40
0.7282589742329644
 40
0.8582139974281033
 40
1.0
 40
1.0
 40
1.0
 40
1.0
 10
71.72448950016538
 20
202.9490212518024
 30
0.0
 10
71.66663293953026
 20
202.8928793080951
 30
0.0
 10
71.57233469947602
 20
202.8013756579177
 30
0.0
 10
71.46959317160108
 20
202.6935087165648
 30
0.0
 10
71.40245649436334
 20
202.6331457372312
 30
0.0
 10
71.353918768572
 20
202.5931165937244
 30
0.0
 10
71.31595859419855
 20
202.5591315594122
 30
0.0
 10
71.31061234158032
 20
202.5430844760006
 30
0.0
 10
71.30782283349875
 20
202.5347116077396
 30
0.0
  0
LINE
  5
2B9
330
1F
100
AcDbEntity
  8
0
  6
Continuous
 62
     7
370
    25
100
AcDbLine
 10
70.9078228335
 20
202.5347116077
 30
0.0
 11
71.3078228335
 21
202.5347116077
 31
0.0
  0
SPLINE
  5
2BA
330
1F
100
AcDbEntity
  8
0
  6
Continuous
 62
     7
370
    25
100
AcDbSpline
210
0.0
220
0.0
230
1.0
 70
     8
 71
     3
 72
    12
 73
     8
 74
     0
 42
0.00000001
 43
0.00000001
 40
0.0
 40
0.0
 40
0.0
 40
0.0
 40
0.2801262527927418
 40
0.4624509539410642
 40
0.6994920406396584
 40
0.8417335703882061
 40
1.0
 40
1.0
 40
1.0
 40
1.0
 10
71.72448950016536
 20
202.9490212518024
 30
0.0
 10
71.61059934556087
 20
202.89257860001
 30
0.0
 10
71.42258194227847
 20
202.7993993356457
 30
0.0
 10
71.17525625276208
 20
202.6671402418519
 30
0.0
 10
71.01532049185151
 20
202.6010045640677
 30
0.0
 10
70.92351207276425
 20
202.5589154497862
 30
0.0
 10
70.91323525394236
 20
202.5430613669147
 30
0.0
 10
70.90782283349876
 20
202.5347116077396
 30
0.0
  0
LINE
  5
2BB
330
1F
100
AcDbEntity
  8
0
  6
Continuous
 62
     7
370
    25
100
AcDbLine
 10
327.1509192741
 20
213.831794954
 30
0.0
 11
327.1509192741
 21
202.6857147845
 31
0.0
  0
LINE
  5
2BC
330
1F
100
AcDbEntity
  8
0
  6
Continuous
 62
     7
370
    25
100
AcDbLine
 10
327.1509192741
 20
202.6857147845
 30
0.0
 11
327.1411561668
 21
202.6857147845
 31
0.0
  0
ARC
  5
2BD
330
1F
100
AcDbEntity
  8
0
  6
Continuous
 62
     7
370
    25
100
AcDbCircle
 10
326.7578228335
 20
202.6857147845
 30
0.0
 40
0.3833333333333428
100
AcDbArc
 50
294.0
 51
0.0
  0
LINE
  5
2BE
330
1F
100
AcDbEntity
  8
0
  6
Continuous
 62
     7
370
    25
100
AcDbLine
 10
326.9137385467
 20
202.335522359
 30
0.0
 11
326.9177095602
 21
202.3266033167
 31
0.0
  0
LINE
  5
2BF
330
1F
100
AcDbEntity
  8
0
  6
Continuous
 62
     7
370
    25
100
AcDbLine
 10
326.9177095602
 20
202.3266033167
 30
0.0
 11
314.090783563
 21
196.6156879185
 31
0.0
  0
LINE
  5
2C0
330
1F
100
AcDbEntity
  8
0
  6
Continuous
 62
     7
370
    25
100
AcDbLine
 10
314.090783563
 20
196.6156879185
 30
0.0
 11
307.3078228335
 21
196.6156879185
 31
0.0
  0
ARC
  5
2C1
330
1F
100
AcDbEntity
  8
0
  6
Continuous
 62
     7
370
    25
100
AcDbCircle
 10
307.3078228335
 20
197.6156879185
 30
0.0
 40
1.000000000000057
100
AcDbArc
 50
180.0
 51
270.0
  0
LINE
  5
2C2
330
1F
100
AcDbEntity
  8
0
  6
Continuous
 62
     7
370
    25
100
AcDbLine
 10
306.3078228335
 20
197.6156879185
 30
0.0
 11
306.3078228335
 21
202.9490212518
 31
0.0
  0
LINE
  5
2C3
330
1F
100
AcDbEntity
  8
0
  6
Continuous
 62
     7
370
    25
100
AcDbLine
 10
306.3078228335
 20
202.9490212518
 30
0.0
 11
305.3578228335
 21
202.9490212518
 31
0.0
  0
ARC
  5
2C4
330
1F
100
AcDbEntity
  8
0
  6
Continuous
 62
     7
370
    25
100
AcDbCircle
 10
313.8411561668
 20
202.581794954
 30
0.0
 40
0.8666666666666961
100
AcDbArc
 50
99.9612884508
 51
260.0387115492
  0
ARC
  5
2C5
330
1F
100
AcDbEntity
  8
0
  6
Continuous
 62
     7
370
    25
100
AcDbCircle
 10
313.6768225461
 20
203.5174735639
 30
0.0
 40
0.0833333333333437
100
AcDbArc
 50
279.9612884508
 51
99.9612884508
  0
ARC
  5
2C6
330
1F
100
AcDbEntity
  8
0
  6
Continuous
 62
     7
370
    25
100
AcDbCircle
 10
313.8411561668
 20
202.581794954
 30
0.0
 40
1.033333333333364
100
AcDbArc
 50
99.9612884508
 51
260.0387115492
  0
ARC
  5
2C7
330
1F
100
AcDbEntity
  8
0
  6
Continuous
 62
     7
370
    25
100
AcDbCircle
 10
313.6768225461
 20
201.646116344
 30
0.0
 40
0.0833333333333338
100
AcDbArc
 50
260.0387115492
 51
80.0387115492
  0
ARC
  5
2C8
330
1F
100
AcDbEntity
  8
0
  6
Continuous
 62
     7
370
    25
100
AcDbCircle
 10
313.8411561668
 20
202.581794954
 30
0.0
 40
0.8666666666667036
100
AcDbArc
 50
280.1041827161
 51
79.8958172839
  0
ARC
  5
2C9
330
1F
100
AcDbEntity
  8
0
  6
Continuous
 62
     7
370
    25
100
AcDbCircle
 10
314.0078228335
 20
201.6465290975
 30
0.0
 40
0.0833333333333315
100
AcDbArc
 50
100.1041827162
 51
280.1041827161
  0
ARC
  5
2CA
330
1F
100
AcDbEntity
  8
0
  6
Continuous
 62
     7
370
    25
100
AcDbCircle
 10
313.8411561668
 20
202.581794954
 30
0.0
 40
1.033333333333346
100
AcDbArc
 50
280.1041827161
 51
79.8958172839
  0
ARC
  5
2CB
330
1F
100
AcDbEntity
  8
0
  6
Continuous
 62
     7
370
    25
100
AcDbCircle
 10
314.0078228335
 20
203.5170608104
 30
0.0
 40
0.0833333333333774
100
AcDbArc
 50
79.8958172839
 51
259.8958172839
  0
SPLINE
  5
2CC
330
1F
100
AcDbEntity
  8
0
  6
Continuous
 62
     7
370
    25
100
AcDbSpline
210
0.0
220
0.0
230
1.0
 70
     8
 71
     3
 72
    12
 73
     8
 74
     0
 42
0.00000001
 43
0.00000001
 40
0.0
 40
0.0
 40
0.0
 40
0.0
 40
0.1626534294460899
 40
0.3248949696207785
 40
0.4983641218916046
 40
0.7633599665921741
 40
1.0
 40
1.0
 40
1.0
 40
1.0
 10
71.3101798561028
 20
202.5323545851358
 30
0.0
 10
71.31747645363569
 20
202.5362219942039
 30
0.0
 10
71.33205117143815
 20
202.5439470188526
 30
0.0
 10
71.38359478938867
 20
202.6004541899578
 30
0.0
 10
71.46673459961757
 20
202.6921560454946
 30
0.0
 10
71.58769735379289
 20
202.811166277033
 30
0.0
 10
71.68064342909287
 20
202.904834511688
 30
0.0
 10
71.72448950016543
 20
202.9490212518024
 30
0.0
  0
LINE
  5
2CD
330
1F
100
AcDbEntity
  8
0
  6
Continuous
 62
     7
370
    25
100
AcDbLine
 10
71.3101798561
 20
202.1323545851
 30
0.0
 11
71.3101798561
 21
202.5323545851
 31
0.0
  0
LINE
  5
2CE
330
1F
100
AcDbEntity
  8
0
  6
Continuous
 62
     7
370
    25
100
AcDbLine
 10
70.9078228335
 20
214.246104598
 30
0.0
 11
70.9078228335
 21
202.5347116077
 31
0.0
  0
SPLINE
  5
2CF
330
1F
100
AcDbEntity
  8
0
  6
Continuous
 62
     7
370
    25
100
AcDbSpline
210
0.0
220
0.0
230
1.0
 70
     8
 71
     3
 72
    12
 73
     8
 74
     0
 42
0.00000001
 43
0.00000001
 40
0.0
 40
0.0
 40
0.0
 40
0.0
 40
0.1948890205540011
 40
0.3900234397937165
 40
0.590262491905558
 40
0.8011670544541702
 40
1.0
 40
1.0
 40
1.0
 40
1.0
 10
70.90782283349884
 20
214.2461045980297
 30
0.0
 10
70.91619288750547
 20
214.2382710521539
 30
0.0
 10
70.93294353485155
 20
214.2225940966251
 30
0.0
 10
71.06157350671583
 20
214.1635178740226
 30
0.0
 10
71.25039517724525
 20
214.0750666078154
 30
0.0
 10
71.47870819351054
 20
213.9560910424659
 30
0.0
 10
71.64418750576206
 20
213.8724051368108
 30
0.0
 10
71.72448950016548
 20
213.831794953966
 30
0.0
  0
SPLINE
  5
2D0
330
1F
100
AcDbEntity
  8
0
  6
Continuous
 62
     7
370
    25
100
AcDbSpline
210
0.0
220
0.0
230
1.0
 70
     8
 71
     3
 72
    13
 73
     9
 74
     0
 42
0.00000001
 43
0.00000001
 40
0.0
 40
0.0
 40
0.0
 40
0.0
 40
0.2661750985946613
 40
0.4638367513028972
 40
0.576695274978194
 40
0.7033085142479515
 40
0.8442698922376891
 40
1.0
 40
1.0
 40
1.0
 40
1.0
 10
326.7578228334988
 20
214.6484616206326
 30
0.0
 10
326.8122423550941
 20
214.636474305506
 30
0.0
 10
326.9070738184333
 20
214.6155852090635
 30
0.0
 10
327.0106876683879
 20
214.4857811725762
 30
0.0
 10
327.0673729808007
 20
214.3522233607736
 30
0.0
 10
327.1031266411579
 20
214.2120063222757
 30
0.0
 10
327.1321645707698
 20
214.0351084933324
 30
0.0
 10
327.14446363183
 20
213.9017784380635
 30
0.0
 10
327.1509192741261
 20
213.831794953966
 30
0.0
  0
SPLINE
  5
2D1
330
1F
100
AcDbEntity
  8
0
  6
Continuous
 62
     7
370
    25
100
AcDbSpline
210
0.0
220
0.0
230
1.0
 70
     8
 71
     3
 72
    13
 73
     9
 74
     0
 42
0.00000001
 43
0.00000001
 40
0.0
 40
0.0
 40
0.0
 40
0.0
 40
0.2600137669378195
 40
0.4714262643551745
 40
0.6022093438025847
 40
0.7334298614409089
 40
0.8657965732806434
 40
1.0
 40
1.0
 40
1.0
 40
1.0
 10
71.72448950016555
 20
213.831794953966
 30
0.0
 10
71.67103489155303
 20
213.937123826595
 30
0.0
 10
71.57411730619762
 20
214.1280937030635
 30
0.0
 10
71.46272638245907
 20
214.3446713797148
 30
0.0
 10
71.39712465600357
 20
214.4859056606622
 30
0.0
 10
71.35498569122129
 20
214.5761548716099
 30
0.0
 10
71.3246203391314
 20
214.6367469468967
 30
0.0
 10
71.31501541032556
 20
214.6445388335666
 30
0.0
 10
71.31017985610296
 20
214.6484616206326
 30
0.0
  0
LINE
  5
2D2
330
1F
100
AcDbEntity
  8
0
  6
Continuous
 62
     7
370
    25
100
AcDbLine
 10
89.6411561668
 20
214.6484616206
 30
0.0
 11
326.7578228335
 21
214.6484616206
 31
0.0
  0
SPLINE
  5
2D3
330
1F
100
AcDbEntity
  8
0
  6
Continuous
 62
     7
370
    25
100
AcDbSpline
210
0.0
220
0.0
230
1.0
 70
     8
 71
     3
 72
    12
 73
     8
 74
     0
 42
0.00000001
 43
0.00000001
 40
0.0
 40
0.0
 40
0.0
 40
0.0
 40
0.1626534294464862
 40
0.3248949696216447
 40
0.4983641218916549
 40
0.7633599665959176
 40
1.0
 40
1.0
 40
1.0
 40
1.0
 10
71.30782283349882
 20
214.2461045980297
 30
0.0
 10
71.31169024256693
 20
214.2388080004968
 30
0.0
 10
71.31941526721575
 20
214.2242332826942
 30
0.0
 10
71.37592243832131
 20
214.1726896647441
 30
0.0
 10
71.46762429385869
 20
214.089549854514
 30
0.0
 10
71.58663452539645
 20
213.9685871003377
 30
0.0
 10
71.68030276005173
 20
213.8756410250379
 30
0.0
 10
71.72448950016548
 20
213.831794953966
 30
0.0
  0
LINE
  5
2D4
330
1F
100
AcDbEntity
  8
0
  6
Continuous
 62
     7
370
    25
100
AcDbLine
 10
70.9078228335
 20
214.246104598
 30
0.0
 11
71.3078228335
 21
214.246104598
 31
0.0
  0
SPLINE
  5
2D5
330
1F
100
AcDbEntity
  8
0
  6
Continuous
 62
     7
370
    25
100
AcDbSpline
210
0.0
220
0.0
230
1.0
 70
     8
 71
     3
 72
    13
 73
     9
 74
     0
 42
0.00000001
 43
0.00000001
 40
0.0
 40
0.0
 40
0.0
 40
0.0
 40
0.2851228532111439
 40
0.507642534877386
 40
0.6367481965594926
 40
0.760542749357013
 40
0.8809356351081803
 40
1.0
 40
1.0
 40
1.0
 40
1.0
 10
71.72448950016553
 20
213.831794953966
 30
0.0
 10
71.67142752275099
 20
213.8851695145471
 30
0.0
 10
71.5769541530546
 20
213.980199418065
 30
0.0
 10
71.46552455355722
 20
214.0905245617194
 30
0.0
 10
71.39817943373373
 20
214.1643418411539
 30
0.0
 10
71.3556596093253
 20
214.2108467363374
 30
0.0
 10
71.32487262858541
 20
214.2423001576682
 30
0.0
 10
71.31505929864787
 20
214.2464154101871
 30
0.0
 10
71.31017985610295
 20
214.2484616206326
 30
0.0
  0
LINE
  5
2D6
330
1F
100
AcDbEntity
  8
0
  6
Continuous
 62
     7
370
    25
100
AcDbLine
 10
71.3101798561
 20
214.6484616206
 30
0.0
 11
71.3101798561
 21
214.2484616206
 31
0.0
  0
LINE
  5
2D7
330
1F
100
AcDbEntity
  8
0
  6
Continuous
 62
     7
370
    25
100
AcDbLine
 10
327.5744895002
 20
213.831794954
 30
0.0
 11
327.1744895002
 21
213.831794954
 31
0.0
  0
SPLINE
  5
2D8
330
1F
100
AcDbEntity
  8
0
  6
Continuous
 62
     7
370
    25
100
AcDbSpline
210
0.0
220
0.0
230
1.0
 70
     8
 71
     3
 72
     9
 73
     5
 74
     0
 42
0.00000001
 43
0.00000001
 40
0.0
 40
0.0
 40
0.0
 40
0.0
 40
0.7624803780740851
 40
1.0
 40
1.0
 40
1.0
 40
1.0
 10
327.1744895001656
 20
213.831794953966
 30
0.0
 10
327.1720234235054
 20
213.8789214507689
 30
0.0
 10
327.1687891413768
 20
213.9407282829943
 30
0.0
 10
327.1400159916009
 20
213.9904021631184
 30
0.0
 10
327.1331818039445
 20
214.0022006843451
 30
0.0
  0
SPLINE
  5
2D9
330
1F
100
AcDbEntity
  8
0
  6
Continuous
 62
     7
370
    25
100
AcDbSpline
210
0.0
220
0.0
230
1.0
 70
     8
 71
     3
 72
    12
 73
     8
 74
     0
 42
0.00000001
 43
0.00000001
 40
0.0
 40
0.0
 40
0.0
 40
0.0
 40
0.2026829072298977
 40
0.4054374564821477
 40
0.6078856586274679
 40
0.8102916597481014
 40
1.0
 40
1.0
 40
1.0
 40
1.0
 10
327.5744895001656
 20
213.831794953966
 30
0.0
 10
327.5655928947365
 20
213.9228653384748
 30
0.0
 10
327.5477965392087
 20
214.1050382980042
 30
0.0
 10
327.4102530457541
 20
214.3459126588472
 30
0.0
 10
327.2158891730452
 20
214.5233083596831
 30
0.0
 10
326.9912698435776
 20
214.6294967511103
 30
0.0
 10
326.8339402593359
 20
214.6422779601571
 30
0.0
 10
326.7578228334989
 20
214.6484616206327
 30
0.0
  0
ARC
  5
2DA
330
1F
100
AcDbEntity
  8
0
  6
Continuous
 62
     7
370
    25
100
AcDbCircle
 10
326.7578228335
 20
202.6857147845
 30
0.0
 40
0.8166666666666629
100
AcDbArc
 50
294.0
 51
360.0
  0
LINE
  5
2DB
330
1F
100
AcDbEntity
  8
0
  6
Continuous
 62
     7
370
    25
100
AcDbLine
 10
327.089991092
 20
201.9396526607
 30
0.0
 11
314.2430325979
 21
196.2198182202
 31
0.0
  0
LINE
  5
2DC
330
1F
100
AcDbEntity
  8
0
  6
Continuous
 62
     7
370
    25
100
AcDbLine
 10
314.2430325979
 20
196.2198182202
 30
0.0
 11
314.0803379406
 21
196.5852364032
 31
0.0
  0
LINE
  5
2DD
330
1F
100
AcDbEntity
  8
0
  6
Continuous
 62
     7
370
    25
100
AcDbLine
 10
326.9272964348
 20
202.3050708438
 30
0.0
 11
314.0803379406
 21
196.5852364032
 31
0.0
  0
ARC
  5
2DE
330
1F
100
AcDbEntity
  8
0
  6
Continuous
 62
     7
370
    25
100
AcDbCircle
 10
326.7578228335
 20
202.6857147845
 30
0.0
 40
0.4166666666666856
100
AcDbArc
 50
294.0
 51
360.0
  0
LINE
  5
2DF
330
1F
100
AcDbEntity
  8
0
  6
Continuous
 62
     7
370
    25
100
AcDbLine
 10
327.1744895002
 20
213.831794954
 30
0.0
 11
327.1744895002
 21
202.6857147845
 31
0.0
  0
LINE
  5
2E0
330
1F
100
AcDbEntity
  8
0
  6
Continuous
 62
     7
370
    25
100
AcDbLine
 10
327.5744895002
 20
213.831794954
 30
0.0
 11
327.5744895002
 21
202.6857147845
 31
0.0
  0
LINE
  5
2E1
330
1F
100
AcDbEntity
  8
0
  6
Continuous
 62
     7
370
    25
100
AcDbLine
 10
306.0078228335
 20
114.732354584
 30
0.0
 11
305.6244895002
 21
114.732354584
 31
0.0
  0
LINE
  5
2E2
330
1F
100
AcDbEntity
  8
0
  6
Continuous
 62
     7
370
    25
100
AcDbLine
 10
306.0078228335
 20
114.982354584
 30
0.0
 11
306.0078228335
 21
114.732354584
 31
0.0
  0
LINE
  5
2E3
330
1F
100
AcDbEntity
  8
0
  6
Continuous
 62
     7
370
    25
100
AcDbLine
 10
306.0078228335
 20
114.732354584
 30
0.0
 11
306.3078228335
 21
114.732354584
 31
0.0
  0
LINE
  5
2E4
330
1F
100
AcDbEntity
  8
0
  6
Continuous
 62
     7
370
    25
100
AcDbLine
 10
306.7406838922
 20
114.732354584
 30
0.0
 11
306.8179174265
 21
114.732354584
 31
0.0
  0
ARC
  5
2E5
330
1F
100
AcDbEntity
  8
0
  6
Continuous
 62
     7
370
    25
100
AcDbCircle
 10
324.9578228335
 20
115.5490212506
 30
0.0
 40
0.8166666666666859
100
AcDbArc
 50
288.5769283696
 51
316.0621604805
  0
LINE
  5
2E6
330
1F
100
AcDbEntity
  8
0
  6
Continuous
 62
     7
370
    25
100
AcDbLine
 10
202.7024260405
 20
113.7656879173
 30
0.0
 11
203.4798862932
 21
113.7656879173
 31
0.0
  0
LINE
  5
2E7
330
1F
100
AcDbEntity
  8
0
  6
Continuous
 62
     7
370
    25
100
AcDbLine
 10
202.4801460742
 20
113.432354584
 30
0.0
 11
203.7021662595
 21
113.432354584
 31
0.0
  0
SPLINE
  5
2E8
330
1F
100
AcDbEntity
  8
0
  6
Continuous
 62
     7
370
    25
100
AcDbSpline
210
0.0
220
0.0
230
1.0
 70
     8
 71
     3
 72
    12
 73
     8
 74
     0
 42
0.00000001
 43
0.00000001
 40
0.0
 40
0.0
 40
0.0
 40
0.0
 40
0.1928947997657431
 40
0.4122214398807169
 40
0.6315552886407746
 40
0.8508890083769802
 40
1.0
 40
1.0
 40
1.0
 40
1.0
 10
208.374489500164
 20
112.5156879172985
 30
0.0
 10
208.3593462166257
 20
112.4433751638232
 30
0.0
 10
208.3269846073327
 20
112.2888408404743
 30
0.0
 10
208.2773122454451
 20
112.0744642376357
 30
0.0
 10
208.2256045360222
 20
111.9044656326222
 30
0.0
 10
208.1793465916903
 20
111.8124560195767
 30
0.0
 10
208.1504726393299
 20
111.8028918904645
 30
0.0
 10
208.1387872397685
 20
111.7990212506318
 30
0.0
  0
LINE
  5
2E9
330
1F
100
AcDbEntity
  8
0
  6
Continuous
 62
     7
370
    25
100
AcDbLine
 10
192.3578228335
 20
111.7990212506
 30
0.0
 11
208.1387872398
 21
111.7990212506
 31
0.0
  0
CIRCLE
  5
2EA
330
1F
100
AcDbEntity
  8
0
  6
Continuous
 62
     7
370
    25
100
AcDbCircle
 10
203.0911561668
 20
113.2656879173
 30
0.0
 40
0.6333333333333258
  0
SPLINE
  5
2EB
330
1F
100
AcDbEntity
  8
0
  6
Continuous
 62
     7
370
    25
100
AcDbSpline
210
0.0
220
0.0
230
1.0
 70
     8
 71
     3
 72
     9
 73
     5
 74
     0
 42
0.00000001
 43
0.00000001
 40
0.0
 40
0.0
 40
0.0
 40
0.0
 40
0.4331613033539681
 40
1.0
 40
1.0
 40
1.0
 40
1.0
 10
208.312539823167
 20
114.2990212506323
 30
0.0
 10
208.321502621876
 20
114.2606006745046
 30
0.0
 10
208.3421942179153
 20
114.171902594066
 30
0.0
 10
208.3628059645602
 20
114.0722020460122
 30
0.0
 10
208.374489500164
 20
114.0156879172985
 30
0.0
  0
LINE
  5
2EC
330
1F
100
AcDbEntity
  8
0
  6
Continuous
 62
     7
370
    25
100
AcDbLine
 10
125.6911561668
 20
114.0156879173
 30
0.0
 11
125.6244895002
 21
114.0156879173
 31
0.0
  0
LINE
  5
2ED
330
1F
100
AcDbEntity
  8
0
  6
Continuous
 62
     7
370
    25
100
AcDbLine
 10
125.6911561668
 20
112.5156879173
 30
0.0
 11
125.6244895002
 21
112.5156879173
 31
0.0
  0
LINE
  5
2EE
330
1F
100
AcDbEntity
  8
0
  6
Continuous
 62
     7
370
    25
100
AcDbLine
 10
125.6244895002
 20
114.0156879173
 30
0.0
 11
125.6244895002
 21
112.5156879173
 31
0.0
  0
LINE
  5
2EF
330
1F
100
AcDbEntity
  8
0
  6
Continuous
 62
     7
370
    25
100
AcDbLine
 10
209.0911561668
 20
114.0156879173
 30
0.0
 11
208.3744895002
 21
114.0156879173
 31
0.0
  0
LINE
  5
2F0
330
1F
100
AcDbEntity
  8
0
  6
Continuous
 62
     7
370
    25
100
AcDbLine
 10
209.0911561668
 20
114.0156879173
 30
0.0
 11
209.0911561668
 21
112.5156879173
 31
0.0
  0
LINE
  5
2F1
330
1F
100
AcDbEntity
  8
0
  6
Continuous
 62
     7
370
    25
100
AcDbLine
 10
209.0911561668
 20
112.5156879173
 30
0.0
 11
208.3744895002
 21
112.5156879173
 31
0.0
  0
SPLINE
  5
2F2
330
1F
100
AcDbEntity
  8
0
  6
Continuous
 62
     7
370
    25
100
AcDbSpline
210
0.0
220
0.0
230
1.0
 70
     8
 71
     3
 72
     9
 73
     5
 74
     0
 42
0.00000001
 43
0.00000001
 40
0.0
 40
0.0
 40
0.0
 40
0.0
 40
0.7439149879536766
 40
1.0
 40
1.0
 40
1.0
 40
1.0
 10
125.6244895001636
 20
112.5156879172986
 30
0.0
 10
125.6271405288522
 20
112.4417767099996
 30
0.0
 10
125.6307041466465
 20
112.3424223368578
 30
0.0
 10
125.6788314784791
 20
112.2575133979275
 30
0.0
 10
125.6911561668312
 20
112.2357694912787
 30
0.0
  0
SPLINE
  5
2F3
330
1F
100
AcDbEntity
  8
0
  6
Continuous
 62
     7
370
    25
100
AcDbSpline
210
0.0
220
0.0
230
1.0
 70
     8
 71
     3
 72
     9
 73
     5
 74
     0
 42
0.00000001
 43
0.00000001
 40
0.0
 40
0.0
 40
0.0
 40
0.0
 40
0.416739561998476
 40
1.0
 40
1.0
 40
1.0
 40
1.0
 10
125.6911561668312
 20
114.2913951646476
 30
0.0
 10
125.673121946936
 20
114.2554474974922
 30
0.0
 10
125.6298473900192
 20
114.1691881872817
 30
0.0
 10
125.6264633037839
 20
114.0722361847565
 30
0.0
 10
125.624489500164
 20
114.0156879172985
 30
0.0
  0
SPLINE
  5
2F4
330
1F
100
AcDbEntity
  8
0
  6
Continuous
 62
     7
370
    25
100
AcDbSpline
210
0.0
220
0.0
230
1.0
 70
     8
 71
     3
 72
    12
 73
     8
 74
     0
 42
0.00000001
 43
0.00000001
 40
0.0
 40
0.0
 40
0.0
 40
0.0
 40
0.1928947997657626
 40
0.4122214398807538
 40
0.6315552886408335
 40
0.8508890083770556
 40
1.0
 40
1.0
 40
1.0
 40
1.0
 10
208.374489500164
 20
111.7990212506318
 30
0.0
 10
208.4468022536393
 20
111.8054391513077
 30
0.0
 10
208.6013365769883
 20
111.81915437982
 30
0.0
 10
208.8157131798269
 20
111.9336543024661
 30
0.0
 10
208.9857117848403
 20
112.1156866925027
 30
0.0
 10
209.0777213978858
 20
112.3219983717851
 30
0.0
 10
209.087285526998
 20
112.4598847640686
 30
0.0
 10
209.0911561668306
 20
112.5156879172985
 30
0.0
  0
LINE
  5
2F5
330
1F
100
AcDbEntity
  8
0
  6
Continuous
 62
     7
370
    25
100
AcDbLine
 10
208.3744895002
 20
111.7990212506
 30
0.0
 11
208.3744895002
 21
112.0156879173
 31
0.0
  0
SPLINE
  5
2F6
330
1F
100
AcDbEntity
  8
0
  6
Continuous
 62
     7
370
    25
100
AcDbSpline
210
0.0
220
0.0
230
1.0
 70
     8
 71
     3
 72
    12
 73
     8
 74
     0
 42
0.00000001
 43
0.00000001
 40
0.0
 40
0.0
 40
0.0
 40
0.0
 40
0.2241743151501358
 40
0.4483910025872943
 40
0.6726078467289494
 40
0.8968244803948814
 40
1.0
 40
1.0
 40
1.0
 40
1.0
 10
208.374489500164
 20
112.0156879172985
 30
0.0
 10
208.4331851616257
 20
112.0217187986201
 30
0.0
 10
208.550587578904
 20
112.0337817011899
 30
0.0
 10
208.7052519737738
 20
112.1275594909498
 30
0.0
 10
208.8185455789076
 20
112.2645074972805
 30
0.0
 10
208.8689958044701
 20
112.4034310305716
 30
0.0
 10
208.8731730638789
 20
112.4887881676263
 30
0.0
 10
208.874489500164
 20
112.5156879172985
 30
0.0
  0
SPLINE
  5
2F7
330
1F
100
AcDbEntity
  8
0
  6
Continuous
 62
     7
370
    25
100
AcDbSpline
210
0.0
220
0.0
230
1.0
 70
     8
 71
     3
 72
     9
 73
     5
 74
     0
 42
0.00000001
 43
0.00000001
 40
0.0
 40
0.0
 40
0.0
 40
0.0
 40
0.5772550276690166
 40
1.0
 40
1.0
 40
1.0
 40
1.0
 10
208.874489500164
 20
114.0156879172985
 30
0.0
 10
208.8698005903299
 20
114.0752311533134
 30
0.0
 10
208.8616778203072
 20
114.1783800791103
 30
0.0
 10
208.8036277571839
 20
114.2631747358255
 30
0.0
 10
208.779087384855
 20
114.2990212506323
 30
0.0
  0
SPLINE
  5
2F8
330
1F
100
AcDbEntity
  8
0
  6
Continuous
 62
     7
370
    25
100
AcDbSpline
210
0.0
220
0.0
230
1.0
 70
     8
 71
     3
 72
     9
 73
     5
 74
     0
 42
0.00000001
 43
0.00000001
 40
0.0
 40
0.0
 40
0.0
 40
0.0
 40
0.7342129134297286
 40
1.0
 40
1.0
 40
1.0
 40
1.0
 10
209.0911561668307
 20
114.0156879172985
 30
0.0
 10
209.0883979249966
 20
114.0895643712005
 30
0.0
 10
209.0846411920604
 20
114.1901843038531
 30
0.0
 10
209.0357318689343
 20
114.276167916685
 30
0.0
 10
209.0227324024345
 20
114.2990212506323
 30
0.0
  0
LINE
  5
2F9
330
1F
100
AcDbEntity
  8
0
  6
Continuous
 62
     7
370
    25
100
AcDbLine
 10
208.2564499715
 20
112.0156879173
 30
0.0
 11
208.3744895002
 21
112.0156879173
 31
0.0
  0
LINE
  5
2FA
330
1F
100
AcDbEntity
  8
0
  6
Continuous
 62
     7
370
    25
100
AcDbLine
 10
208.1387872398
 20
111.7990212506
 30
0.0
 11
208.3744895002
 21
111.7990212506
 31
0.0
  0
LINE
  5
2FB
330
1F
100
AcDbEntity
  8
0
  6
Continuous
 62
     7
370
    25
100
AcDbLine
 10
203.4613051192
 20
113.7795953643
 30
0.0
 11
202.7210072144
 21
113.7795953643
 31
0.0
  0
LINE
  5
2FC
330
1F
100
AcDbEntity
  8
0
  6
Continuous
 62
     7
370
    25
100
AcDbLine
 10
202.7210072144
 20
112.7517804702
 30
0.0
 11
203.4613051192
 21
112.7517804702
 31
0.0
  0
LINE
  5
2FD
330
1F
100
AcDbEntity
  8
0
  6
Continuous
 62
     7
370
    25
100
AcDbLine
 10
202.4801460742
 20
113.0990212506
 30
0.0
 11
203.7021662595
 21
113.0990212506
 31
0.0
  0
LINE
  5
2FE
330
1F
100
AcDbEntity
  8
0
  6
Continuous
 62
     7
370
    25
100
AcDbLine
 10
203.4798862932
 20
112.7656879173
 30
0.0
 11
202.7024260405
 21
112.7656879173
 31
0.0
  0
LINE
  5
2FF
330
1F
100
AcDbEntity
  8
0
  6
Continuous
 62
     7
370
    25
100
AcDbLine
 10
203.1744895002
 20
113.7656879173
 30
0.0
 11
203.1744895002
 21
113.7795953643
 31
0.0
  0
LINE
  5
300
330
1F
100
AcDbEntity
  8
0
  6
Continuous
 62
     7
370
    25
100
AcDbLine
 10
192.3578228335
 20
114.0490212506
 30
0.0
 11
192.3578228335
 21
114.2990212506
 31
0.0
  0
LINE
  5
301
330
1F
100
AcDbEntity
  8
0
  6
Continuous
 62
     7
370
    25
100
AcDbLine
 10
125.6911561668
 20
114.2990212506
 30
0.0
 11
125.6911561668
 21
114.0490212506
 31
0.0
  0
LINE
  5
302
330
1F
100
AcDbEntity
  8
0
  6
Continuous
 62
     7
370
    25
100
AcDbLine
 10
192.3578228335
 20
114.0490212506
 30
0.0
 11
192.3578228335
 21
111.5490212506
 31
0.0
  0
LINE
  5
303
330
1F
100
AcDbEntity
  8
0
  6
Continuous
 62
     7
370
    25
100
AcDbLine
 10
125.6911561668
 20
111.5490212506
 30
0.0
 11
125.6911561668
 21
114.0490212506
 31
0.0
  0
LINE
  5
304
330
1F
100
AcDbEntity
  8
0
  6
Continuous
 62
     7
370
    25
100
AcDbLine
 10
192.3578228335
 20
111.5490212506
 30
0.0
 11
192.3578228335
 21
110.8656879173
 31
0.0
  0
LINE
  5
305
330
1F
100
AcDbEntity
  8
0
  6
Continuous
 62
     7
370
    25
100
AcDbLine
 10
192.3578228335
 20
110.8656879173
 30
0.0
 11
125.6911561668
 21
110.8656879173
 31
0.0
  0
LINE
  5
306
330
1F
100
AcDbEntity
  8
0
  6
Continuous
 62
     7
370
    25
100
AcDbLine
 10
125.6911561668
 20
110.8656879173
 30
0.0
 11
125.6911561668
 21
111.5490212506
 31
0.0
  0
LINE
  5
307
330
1F
100
AcDbEntity
  8
0
  6
Continuous
 62
     7
370
    25
100
AcDbLine
 10
325.9078228335
 20
144.2990212544
 30
0.0
 11
326.3411561668
 21
144.2990212544
 31
0.0
  0
LINE
  5
308
330
1F
100
AcDbEntity
  8
0
  6
Continuous
 62
     7
370
    25
100
AcDbLine
 10
325.9078228335
 20
124.2990212544
 30
0.0
 11
326.3411561668
 21
124.2990212544
 31
0.0
  0
LINE
  5
309
330
1F
100
AcDbEntity
  8
0
  6
Continuous
 62
     7
370
    25
100
AcDbLine
 10
326.5744895002
 20
143.2990212544
 30
0.0
 11
326.5744895002
 21
125.2990212544
 31
0.0
  0
LINE
  5
30A
330
1F
100
AcDbEntity
  8
0
  6
Continuous
 62
     7
370
    25
100
AcDbLine
 10
326.5744895002
 20
125.2990212544
 30
0.0
 11
326.5744895002
 21
124.5323545877
 31
0.0
  0
ARC
  5
30B
330
1F
100
AcDbEntity
  8
0
  6
Continuous
 62
     7
370
    25
100
AcDbCircle
 10
326.3411561668
 20
124.5323545877
 30
0.0
 40
0.2333333333333485
100
AcDbArc
 50
270.0
 51
0.0
  0
ARC
  5
30C
330
1F
100
AcDbEntity
  8
0
  6
Continuous
 62
     7
370
    25
100
AcDbCircle
 10
326.3411561668
 20
144.0656879211
 30
0.0
 40
0.2333333333333485
100
AcDbArc
 50
0.0
 51
90.0
  0
LINE
  5
30D
330
1F
100
AcDbEntity
  8
0
  6
Continuous
 62
     7
370
    25
100
AcDbLine
 10
326.5744895002
 20
144.0656879211
 30
0.0
 11
326.5744895002
 21
143.2990212544
 31
0.0
  0
LINE
  5
30E
330
1F
100
AcDbEntity
  8
0
  6
Continuous
 62
     7
370
    25
100
AcDbLine
 10
326.8744895002
 20
131.2054172847
 30
0.0
 11
326.6078228335
 21
131.2054172847
 31
0.0
  0
LINE
  5
30F
330
1F
100
AcDbEntity
  8
0
  6
Continuous
 62
     7
370
    25
100
AcDbLine
 10
326.8078228335
 20
132.1207806369
 30
0.0
 11
326.6078228335
 21
132.1207806369
 31
0.0
  0
SPLINE
  5
310
330
1F
100
AcDbEntity
  8
0
  6
Continuous
 62
     7
370
    25
100
AcDbSpline
210
0.0
220
0.0
230
1.0
 70
     8
 71
     3
 72
    13
 73
     9
 74
     0
 42
0.00000001
 43
0.00000001
 40
0.0
 40
0.0
 40
0.0
 40
0.0
 40
0.5009309979774421
 40
0.6507948024137937
 40
0.8237451349369447
 40
0.8940623268557587
 40
0.9650962829680682
 40
1.0
 40
1.0
 40
1.0
 40
1.0
 10
326.8744895001651
 20
131.9981282759252
 30
0.0
 10
326.872834888313
 20
132.0214527808314
 30
0.0
 10
326.8706852653155
 20
132.051755290804
 30
0.0
 10
326.8537935119046
 20
132.088759891631
 30
0.0
 10
326.8416348516592
 20
132.1055801982725
 30
0.0
 10
326.8271777133371
 20
132.1161393535685
 30
0.0
 10
326.8168518456885
 20
132.1202710081973
 30
0.0
 10
326.8100604291808
 20
132.1206543392335
 30
0.0
 10
326.8078228334984
 20
132.1207806368726
 30
0.0
  0
SPLINE
  5
311
330
1F
100
AcDbEntity
  8
0
  6
Continuous
 62
     7
370
    25
100
AcDbSpline
210
0.0
220
0.0
230
1.0
 70
    24
 71
     3
 72
     9
 73
     5
 74
     0
 42
0.00000001
 43
0.00000001
 40
0.0
 40
0.0
 40
0.0
 40
0.0
 40
0.5602971526030567
 40
1.0
 40
1.0
 40
1.0
 40
1.0
 10
326.8744895001651
 20
131.9981282759252
 30
0.0
 10
326.8744895001651
 20
131.8360673735167
 30
0.0
 10
326.8744895001651
 20
131.5468263847742
 30
0.0
 10
326.8744895001651
 20
131.3096877969614
 30
0.0
 10
326.8744895001651
 20
131.2054172846725
 30
0.0
  0
SPLINE
  5
312
330
1F
100
AcDbEntity
  8
0
  6
Continuous
 62
     7
370
    25
100
AcDbSpline
210
0.0
220
0.0
230
1.0
 70
    24
 71
     3
 72
     9
 73
     5
 74
     0
 42
0.00000001
 43
0.00000001
 40
0.0
 40
0.0
 40
0.0
 40
0.0
 40
0.5669729882934283
 40
1.0
 40
1.0
 40
1.0
 40
1.0
 10
326.8744895001651
 20
133.5055742463393
 30
0.0
 10
326.8744895001651
 20
133.2301493361819
 30
0.0
 10
326.8744895001651
 20
132.7443679747341
 30
0.0
 10
326.8744895001651
 20
132.312105986954
 30
0.0
 10
326.8744895001651
 20
132.1249248701112
 30
0.0
  0
SPLINE
  5
313
330
1F
100
AcDbEntity
  8
0
  6
Continuous
 62
     7
370
    25
100
AcDbSpline
210
0.0
220
0.0
230
1.0
 70
     8
 71
     3
 72
    13
 73
     9
 74
     0
 42
0.00000001
 43
0.00000001
 40
0.0
 40
0.0
 40
0.0
 40
0.0
 40
0.1567540792092224
 40
0.3129663376268033
 40
0.5186785480131156
 40
0.7803589142288212
 40
0.992048899335064
 40
1.0
 40
1.0
 40
1.0
 40
1.0
 10
326.8078228334984
 20
133.5377006084398
 30
0.0
 10
326.8141150305
 20
133.5374457259494
 30
0.0
 10
326.8266776755115
 20
133.5369368419705
 30
0.0
 10
326.844885200777
 20
133.5328268527668
 30
0.0
 10
326.8615784192601
 20
133.5257411622405
 30
0.0
 10
326.8720824720657
 20
133.5161701944109
 30
0.0
 10
326.874463669066
 20
133.508973119062
 30
0.0
 10
326.8744885977366
 20
133.5056929884613
 30
0.0
 10
326.8744895001651
 20
133.5055742463393
 30
0.0
  0
LINE
  5
314
330
1F
100
AcDbEntity
  8
0
  6
Continuous
 62
     7
370
    25
100
AcDbLine
 10
326.6078228335
 20
132.1207806365
 30
0.0
 11
326.5744895002
 21
132.1207806365
 31
0.0
  0
LINE
  5
315
330
1F
100
AcDbEntity
  8
0
  6
Continuous
 62
     7
370
    25
100
AcDbLine
 10
326.6078228335
 20
131.2054172847
 30
0.0
 11
326.5744895002
 21
131.2054172847
 31
0.0
  0
LINE
  5
316
330
1F
100
AcDbEntity
  8
0
  6
Continuous
 62
     7
370
    25
100
AcDbLine
 10
326.8078228335
 20
133.5377006084
 30
0.0
 11
326.7596378748
 21
133.5377006084
 31
0.0
  0
LINE
  5
317
330
1F
100
AcDbEntity
  8
0
  6
Continuous
 62
     7
370
    25
100
AcDbLine
 10
326.8744895002
 20
130.4583038844
 30
0.0
 11
326.5744895002
 21
130.4583038844
 31
0.0
  0
SPLINE
  5
318
330
1F
100
AcDbEntity
  8
0
  6
Continuous
 62
     7
370
    25
100
AcDbSpline
210
0.0
220
0.0
230
1.0
 70
    24
 71
     3
 72
     9
 73
     5
 74
     0
 42
0.00000001
 43
0.00000001
 40
0.0
 40
0.0
 40
0.0
 40
0.0
 40
0.5610118497912416
 40
1.0
 40
1.0
 40
1.0
 40
1.0
 10
326.8744895001651
 20
131.2054172846725
 30
0.0
 10
326.8744895001651
 20
131.0276648989949
 30
0.0
 10
326.8744895001651
 20
130.7108224192082
 30
0.0
 10
326.8744895001651
 20
130.5353390180693
 30
0.0
 10
326.8744895001651
 20
130.458303884411
 30
0.0
  0
LINE
  5
319
330
1F
100
AcDbEntity
  8
0
  6
Continuous
 62
     7
370
    25
100
AcDbLine
 10
326.6078228335
 20
125.7990212544
 30
0.0
 11
326.5744895002
 21
125.7990212544
 31
0.0
  0
LINE
  5
31A
330
1F
100
AcDbEntity
  8
0
  6
Continuous
 62
     7
370
    25
100
AcDbLine
 10
326.6078228335
 20
128.1323545877
 30
0.0
 11
326.5744895002
 21
128.1323545877
 31
0.0
  0
LINE
  5
31B
330
1F
100
AcDbEntity
  8
0
  6
Continuous
 62
     7
370
    25
100
AcDbLine
 10
326.6078228335
 20
125.7990212544
 30
0.0
 11
326.6078228335
 21
128.1323545877
 31
0.0
  0
SPLINE
  5
31C
330
1F
100
AcDbEntity
  8
0
  6
Continuous
 62
     7
370
    25
100
AcDbSpline
210
0.0
220
0.0
230
1.0
 70
    24
 71
     3
 72
    11
 73
     7
 74
     0
 42
0.00000001
 43
0.00000001
 40
0.0
 40
0.0
 40
0.0
 40
0.0
 40
0.3751044444072438
 40
0.6855260840481435
 40
0.874182840824182
 40
1.0
 40
1.0
 40
1.0
 40
1.0
 10
326.6078228334984
 20
140.6294251734502
 30
0.0
 10
326.6078228334984
 20
140.3116518252658
 30
0.0
 10
326.6078228334984
 20
139.7309017908587
 30
0.0
 10
326.6078228334983
 20
138.9776424707642
 30
0.0
 10
326.6078228334984
 20
138.452827920308
 30
0.0
 10
326.6078228334984
 20
138.1959603000552
 30
0.0
 10
326.6078228334984
 20
138.0931907136917
 30
0.0
  0
SPLINE
  5
31D
330
1F
100
AcDbEntity
  8
0
  6
Continuous
 62
     7
370
    25
100
AcDbSpline
210
0.0
220
0.0
230
1.0
 70
    24
 71
     3
 72
     9
 73
     5
 74
     0
 42
0.00000001
 43
0.00000001
 40
0.0
 40
0.0
 40
0.0
 40
0.0
 40
0.5599330517606386
 40
1.0
 40
1.0
 40
1.0
 40
1.0
 10
326.6078228334984
 20
132.7069350156922
 30
0.0
 10
326.6078228334984
 20
132.596747052859
 30
0.0
 10
326.6078228334984
 20
132.3999593074549
 30
0.0
 10
326.6078228334984
 20
132.2769050834061
 30
0.0
 10
326.6078228334984
 20
132.222752986561
 30
0.0
  0
LINE
  5
31E
330
1F
100
AcDbEntity
  8
0
  6
Continuous
 62
     7
370
    25
100
AcDbLine
 10
326.6078228335
 20
141.7292899795
 30
0.0
 11
326.5744895002
 21
141.7292899795
 31
0.0
  0
SPLINE
  5
31F
330
1F
100
AcDbEntity
  8
0
  6
Continuous
 62
     7
370
    25
100
AcDbSpline
210
0.0
220
0.0
230
1.0
 70
    24
 71
     3
 72
     9
 73
     5
 74
     0
 42
0.00000001
 43
0.00000001
 40
0.0
 40
0.0
 40
0.0
 40
0.0
 40
0.4900919240908789
 40
0.9999999999999999
 40
0.9999999999999999
 40
0.9999999999999999
 40
0.9999999999999999
 10
326.6078228334984
 20
141.7292899795134
 30
0.0
 10
326.6078228334984
 20
141.5572600785951
 30
0.0
 10
326.6078228334984
 20
141.2062444987374
 30
0.0
 10
326.6078228334984
 20
140.8242216892098
 30
0.0
 10
326.6078228334984
 20
140.6294251734502
 30
0.0
  0
SPLINE
  5
320
330
1F
100
AcDbEntity
  8
0
  6
Continuous
 62
     7
370
    25
100
AcDbSpline
210
0.0
220
0.0
230
1.0
 70
    24
 71
     3
 72
    10
 73
     6
 74
     0
 42
0.00000001
 43
0.00000001
 40
0.0
 40
0.0
 40
0.0
 40
0.0
 40
0.3569843858091908
 40
0.6573966884603902
 40
1.0
 40
1.0
 40
1.0
 40
1.0
 10
326.6078228334984
 20
138.0931907136917
 30
0.0
 10
326.6078228334984
 20
137.9165350142466
 30
0.0
 10
326.6078228334984
 20
137.5912186238682
 30
0.0
 10
326.6078228334984
 20
137.1257073691356
 30
0.0
 10
326.6078228334984
 20
136.8483796922426
 30
0.0
 10
326.6078228334984
 20
136.700617525371
 30
0.0
  0
SPLINE
  5
321
330
1F
100
AcDbEntity
  8
0
  6
Continuous
 62
     7
370
    25
100
AcDbSpline
210
0.0
220
0.0
230
1.0
 70
    24
 71
     3
 72
     9
 73
     5
 74
     0
 42
0.00000001
 43
0.00000001
 40
0.0
 40
0.0
 40
0.0
 40
0.0
 40
0.5599648327524467
 40
1.0
 40
1.0
 40
1.0
 40
1.0
 10
326.8744895001651
 20
130.458303884411
 30
0.0
 10
326.8744895001651
 20
130.434849477116
 30
0.0
 10
326.8744895001651
 20
130.3929639765931
 30
0.0
 10
326.8744895001651
 20
130.3623416062327
 30
0.0
 10
326.8744895001651
 20
130.3488666863697
 30
0.0
  0
LINE
  5
322
330
1F
100
AcDbEntity
  8
0
  6
Continuous
 62
     7
370
    25
100
AcDbLine
 10
326.6078228335
 20
125.7691067245
 30
0.0
 11
326.5744895002
 21
125.7691067245
 31
0.0
  0
SPLINE
  5
323
330
1F
100
AcDbEntity
  8
0
  6
Continuous
 62
     7
370
    25
100
AcDbSpline
210
0.0
220
0.0
230
1.0
 70
    24
 71
     3
 72
    11
 73
     7
 74
     0
 42
0.00000001
 43
0.00000001
 40
0.0
 40
0.0
 40
0.0
 40
0.0
 40
0.2345443893679958
 40
0.5541492401839928
 40
0.9006184946692299
 40
1.0
 40
1.0
 40
1.0
 40
1.0
 10
326.6078228334984
 20
130.3488666863697
 30
0.0
 10
326.6078228334983
 20
130.344124867003
 30
0.0
 10
326.6078228334984
 20
130.3329215480655
 30
0.0
 10
326.6078228334984
 20
130.3160577658376
 30
0.0
 10
326.6078228334984
 20
130.3014553998945
 30
0.0
 10
326.6078228334984
 20
130.2997025433372
 30
0.0
 10
326.6078228334984
 20
130.2993118262206
 30
0.0
  0
SPLINE
  5
324
330
1F
100
AcDbEntity
  8
0
  6
Continuous
 62
     7
370
    25
100
AcDbSpline
210
0.0
220
0.0
230
1.0
 70
     8
 71
     3
 72
    10
 73
     6
 74
     0
 42
0.00000001
 43
0.00000001
 40
0.0
 40
0.0
 40
0.0
 40
0.0
 40
0.1551221709109037
 40
0.6271916026069744
 40
1.0
 40
1.0
 40
1.0
 40
1.0
 10
326.8581308424768
 20
130.3006943318855
 30
0.0
 10
326.859856481996
 20
130.3006434787731
 30
0.0
 10
326.8668336059567
 20
130.3004378689308
 30
0.0
 10
326.8728731962088
 20
130.3014003033406
 30
0.0
 10
326.8739946504455
 20
130.3025499934434
 30
0.0
 10
326.8744895001651
 20
130.3030573024411
 30
0.0
  0
SPLINE
  5
325
330
1F
100
AcDbEntity
  8
0
  6
Continuous
 62
     7
370
    25
100
AcDbSpline
210
0.0
220
0.0
230
1.0
 70
    24
 71
     3
 72
    10
 73
     6
 74
     0
 42
0.00000001
 43
0.00000001
 40
0.0
 40
0.0
 40
0.0
 40
0.0
 40
0.2683051385037983
 40
0.6339144971234074
 40
1.0
 40
1.0
 40
1.0
 40
1.0
 10
326.8744895001651
 20
130.3488666863697
 30
0.0
 10
326.8744895001651
 20
130.3442950994418
 30
0.0
 10
326.8744895001651
 20
130.3334939823087
 30
0.0
 10
326.8744895001651
 20
130.3165012501811
 30
0.0
 10
326.8744895001651
 20
130.3075405620519
 30
0.0
 10
326.8744895001651
 20
130.3030573024411
 30
0.0
  0
LINE
  5
326
330
1F
100
AcDbEntity
  8
0
  6
Continuous
 62
     7
370
    25
100
AcDbLine
 10
326.7078228335
 20
140.7720143525
 30
0.0
 11
326.6078228335
 21
140.7720143525
 31
0.0
  0
LINE
  5
327
330
1F
100
AcDbEntity
  8
0
  6
Continuous
 62
     7
370
    25
100
AcDbLine
 10
326.7078228335
 20
137.6283765813
 30
0.0
 11
326.6078228335
 21
137.6283765813
 31
0.0
  0
SPLINE
  5
328
330
1F
100
AcDbEntity
  8
0
  6
Continuous
 62
     7
370
    25
100
AcDbSpline
210
0.0
220
0.0
230
1.0
 70
     8
 71
     3
 72
    13
 73
     9
 74
     0
 42
0.00000001
 43
0.00000001
 40
0.0
 40
0.0
 40
0.0
 40
0.0
 40
0.2144106032242601
 40
0.4288180648253644
 40
0.6433163608513884
 40
0.8580059598690575
 40
0.9692699385219796
 40
1.0
 40
1.0
 40
1.0
 40
1.0
 10
326.7078228334984
 20
140.7720143525027
 30
0.0
 10
326.7153143034294
 20
140.7720345897921
 30
0.0
 10
326.7302971335237
 20
140.7720750640743
 30
0.0
 10
326.750236814076
 20
140.7723906924015
 30
0.0
 10
326.7654151379534
 20
140.7728552049647
 30
0.0
 10
326.77267839658
 20
140.7733433592234
 30
0.0
 10
326.774398907432
 20
140.7736825488947
 30
0.0
 10
326.774473382436
 20
140.7738182154464
 30
0.0
 10
326.7744895001651
 20
140.7738475761257
 30
0.0
  0
SPLINE
  5
329
330
1F
100
AcDbEntity
  8
0
  6
Continuous
 62
     7
370
    25
100
AcDbSpline
210
0.0
220
0.0
230
1.0
 70
    24
 71
     3
 72
    12
 73
     8
 74
     0
 42
0.00000001
 43
0.00000001
 40
0.0
 40
0.0
 40
0.0
 40
0.0
 40
0.1356221674872258
 40
0.4487829797144373
 40
0.8684519763841412
 40
0.978897839721615
 40
1.0
 40
1.0
 40
1.0
 40
1.0
 10
326.7744895001651
 20
140.7738475761257
 30
0.0
 10
326.7744895001651
 20
140.6067692730865
 30
0.0
 10
326.7744895001651
 20
140.053895800609
 30
0.0
 10
326.7744895001651
 20
139.1188456621893
 30
0.0
 10
326.774489500165
 20
138.2616696407497
 30
0.0
 10
326.7744895001651
 20
137.7590007153477
 30
0.0
 10
326.7744895001651
 20
137.6452618661823
 30
0.0
 10
326.7744895001651
 20
137.6270165489286
 30
0.0
  0
SPLINE
  5
32A
330
1F
100
AcDbEntity
  8
0
  6
Continuous
 62
     7
370
    25
100
AcDbSpline
210
0.0
220
0.0
230
1.0
 70
     8
 71
     3
 72
    13
 73
     9
 74
     0
 42
0.00000001
 43
0.00000001
 40
0.0
 40
0.0
 40
0.0
 40
0.0
 40
0.1346403205576044
 40
0.2685886899288538
 40
0.4615120346878883
 40
0.7373034193144066
 40
0.9927087075800239
 40
1.0
 40
1.0
 40
1.0
 40
1.0
 10
326.7078228334984
 20
137.6283765813191
 30
0.0
 10
326.7136603395338
 20
137.6283672181509
 30
0.0
 10
326.7253053511616
 20
137.6283485399342
 30
0.0
 10
326.7426191492195
 20
137.6281967108737
 30
0.0
 10
326.7597478026512
 20
137.6279172315755
 30
0.0
 10
326.7716085073923
 20
137.627504423494
 30
0.0
 10
326.7744638378495
 20
137.6271792887847
 30
0.0
 10
326.7744888071285
 20
137.6270209438811
 30
0.0
 10
326.7744895001651
 20
137.6270165489286
 30
0.0
  0
LINE
  5
32B
330
1F
100
AcDbEntity
  8
0
  6
Continuous
 62
     7
370
    25
100
AcDbLine
 10
326.6078228335
 20
135.3783613269
 30
0.0
 11
326.5744895002
 21
135.3783613269
 31
0.0
  0
SPLINE
  5
32C
330
1F
100
AcDbEntity
  8
0
  6
Continuous
 62
     7
370
    25
100
AcDbSpline
210
0.0
220
0.0
230
1.0
 70
    24
 71
     3
 72
     9
 73
     5
 74
     0
 42
0.00000001
 43
0.00000001
 40
0.0
 40
0.0
 40
0.0
 40
0.0
 40
0.6300374952833073
 40
1.0
 40
1.0
 40
1.0
 40
1.0
 10
326.6078228334984
 20
136.700617525371
 30
0.0
 10
326.6078228334984
 20
136.3885181719178
 30
0.0
 10
326.6078228334984
 20
135.8931518551671
 30
0.0
 10
326.6078228334984
 20
135.51738206111
 30
0.0
 10
326.6078228334984
 20
135.3783613269038
 30
0.0
  0
SPLINE
  5
32D
330
1F
100
AcDbEntity
  8
0
  6
Continuous
 62
     7
370
    25
100
AcDbSpline
210
0.0
220
0.0
230
1.0
 70
    24
 71
     3
 72
    14
 73
    10
 74
     0
 42
0.00000001
 43
0.00000001
 40
0.0
 40
0.0
 40
0.0
 40
0.0
 40
0.0409843114162117
 40
0.092797493379314
 40
0.1440945466118578
 40
0.2388115754488615
 40
0.3290760720023763
 40
0.7911260148625886
 40
1.0
 40
1.0
 40
1.0
 40
1.0
 10
326.7744895001651
 20
141.295749205067
 30
0.0
 10
326.7744895001651
 20
141.2958541844677
 30
0.0
 10
326.7744895001651
 20
141.2960918809156
 30
0.0
 10
326.7744895001651
 20
141.2836447274958
 30
0.0
 10
326.7744895001651
 20
141.2559330100251
 30
0.0
 10
326.7744895001651
 20
141.2143935782504
 30
0.0
 10
326.7744895001651
 20
141.0941558108807
 30
0.0
 10
326.7744895001651
 20
140.9438326229974
 30
0.0
 10
326.7744895001651
 20
140.8142039507247
 30
0.0
 10
326.7744895001651
 20
140.7738475761257
 30
0.0
  0
SPLINE
  5
32E
330
1F
100
AcDbEntity
  8
0
  6
Continuous
 62
     7
370
    25
100
AcDbSpline
210
0.0
220
0.0
230
1.0
 70
    24
 71
     3
 72
     9
 73
     5
 74
     0
 42
0.00000001
 43
0.00000001
 40
0.0
 40
0.0
 40
0.0
 40
0.0
 40
0.5607659425828625
 40
0.9999999999999999
 40
0.9999999999999999
 40
0.9999999999999999
 40
0.9999999999999999
 10
326.6078228334984
 20
133.4982385244544
 30
0.0
 10
326.6078228334983
 20
133.3393859332255
 30
0.0
 10
326.6078228334983
 20
133.0561080463816
 30
0.0
 10
326.6078228334984
 20
132.8134977295329
 30
0.0
 10
326.6078228334984
 20
132.7069350156922
 30
0.0
  0
SPLINE
  5
32F
330
1F
100
AcDbEntity
  8
0
  6
Continuous
 62
     7
370
    25
100
AcDbSpline
210
0.0
220
0.0
230
1.0
 70
    24
 71
     3
 72
    11
 73
     7
 74
     0
 42
0.00000001
 43
0.00000001
 40
0.0
 40
0.0
 40
0.0
 40
0.0
 40
0.2105248554328083
 40
0.440845662182209
 40
0.799752977574385
 40
1.0
 40
1.0
 40
1.0
 40
1.0
 10
326.7078228334984
 20
135.3833711849995
 30
0.0
 10
326.7078228334984
 20
135.5497924731503
 30
0.0
 10
326.7078228334984
 20
135.8982838796649
 30
0.0
 10
326.7078228334984
 20
136.5221667484521
 30
0.0
 10
326.7078228334984
 20
137.1519214438986
 30
0.0
 10
326.7078228334984
 20
137.5027398263925
 30
0.0
 10
326.7078228334984
 20
137.6283765813191
 30
0.0
  0
SPLINE
  5
330
330
1F
100
AcDbEntity
  8
0
  6
Continuous
 62
     7
370
    25
100
AcDbSpline
210
0.0
220
0.0
230
1.0
 70
    24
 71
     3
 72
    12
 73
     8
 74
     0
 42
0.00000001
 43
0.00000001
 40
0.0
 40
0.0
 40
0.0
 40
0.0
 40
0.0553777771015633
 40
0.217591816343242
 40
0.5654031607080167
 40
0.7911054112461662
 40
1.0
 40
1.0
 40
1.0
 40
1.0
 10
326.7744895001651
 20
137.6270165489286
 30
0.0
 10
326.7744895001651
 20
137.5972174372849
 30
0.0
 10
326.7744895001651
 20
137.4801299851097
 30
0.0
 10
326.7744895001651
 20
137.0844119539086
 30
0.0
 10
326.7744895001651
 20
136.5082511563317
 30
0.0
 10
326.7744895001651
 20
135.8874066159814
 30
0.0
 10
326.7744895001651
 20
135.5403827616826
 30
0.0
 10
326.7744895001651
 20
135.3735812602045
 30
0.0
  0
LINE
  5
331
330
1F
100
AcDbEntity
  8
0
  6
Continuous
 62
     7
370
    25
100
AcDbLine
 10
326.7078228335
 20
133.5255542656
 30
0.0
 11
326.6078228335
 21
133.5255542656
 31
0.0
  0
SPLINE
  5
332
330
1F
100
AcDbEntity
  8
0
  6
Continuous
 62
     7
370
    25
100
AcDbSpline
210
0.0
220
0.0
230
1.0
 70
     8
 71
     3
 72
    12
 73
     8
 74
     0
 42
0.00000001
 43
0.00000001
 40
0.0
 40
0.0
 40
0.0
 40
0.0
 40
0.2502079373957293
 40
0.5010675466637179
 40
0.7321499458055979
 40
0.9367681045063033
 40
1.0
 40
1.0
 40
1.0
 40
1.0
 10
326.7744895001651
 20
133.5559614020996
 30
0.0
 10
326.7736164146021
 20
133.5523015398375
 30
0.0
 10
326.7718679695063
 20
133.5449722831246
 30
0.0
 10
326.757956465538
 20
133.5350860972011
 30
0.0
 10
326.7380559825006
 20
133.528226068703
 30
0.0
 10
326.7200315343266
 20
133.5257402720918
 30
0.0
 10
326.7101545199452
 20
133.5255897901669
 30
0.0
 10
326.7078228334984
 20
133.5255542655994
 30
0.0
  0
SPLINE
  5
333
330
1F
100
AcDbEntity
  8
0
  6
Continuous
 62
     7
370
    25
100
AcDbSpline
210
0.0
220
0.0
230
1.0
 70
    24
 71
     3
 72
    12
 73
     8
 74
     0
 42
0.00000001
 43
0.00000001
 40
0.0
 40
0.0
 40
0.0
 40
0.0
 40
0.0257530614908179
 40
0.319084349410278
 40
0.5886973728798124
 40
0.8624963763895799
 40
1.0
 40
1.0
 40
1.0
 40
1.0
 10
326.7744895001651
 20
135.3735812602045
 30
0.0
 10
326.7744895001651
 20
135.3558835411072
 30
0.0
 10
326.7744895001651
 20
135.1366061093256
 30
0.0
 10
326.7744895001651
 20
134.7309091578162
 30
0.0
 10
326.7744895001651
 20
134.189802881516
 30
0.0
 10
326.7744895001651
 20
133.8019940754903
 30
0.0
 10
326.7744895001651
 20
133.6176049859195
 30
0.0
 10
326.7744895001651
 20
133.5559614020996
 30
0.0
  0
LINE
  5
334
330
1F
100
AcDbEntity
  8
0
  6
Continuous
 62
     7
370
    25
100
AcDbLine
 10
326.6078228335
 20
133.5255542656
 30
0.0
 11
326.5744895002
 21
133.5255542656
 31
0.0
  0
SPLINE
  5
335
330
1F
100
AcDbEntity
  8
0
  6
Continuous
 62
     7
370
    25
100
AcDbSpline
210
0.0
220
0.0
230
1.0
 70
    24
 71
     3
 72
    10
 73
     6
 74
     0
 42
0.00000001
 43
0.00000001
 40
0.0
 40
0.0
 40
0.0
 40
0.0
 40
0.3117248602455082
 40
0.5932732926868284
 40
1.0
 40
1.0
 40
1.0
 40
1.0
 10
326.6078228334984
 20
135.3783613269038
 30
0.0
 10
326.6078228334984
 20
135.1612473286732
 30
0.0
 10
326.6078228334984
 20
134.7480369850477
 30
0.0
 10
326.6078228334983
 20
134.079035712243
 30
0.0
 10
326.6078228334984
 20
133.7311390205065
 30
0.0
 10
326.6078228334984
 20
133.5255542655994
 30
0.0
  0
LINE
  5
336
330
1F
100
AcDbEntity
  8
0
  6
Continuous
 62
     7
370
    25
100
AcDbLine
 10
326.6078228335
 20
133.5255542656
 30
0.0
 11
326.6078228335
 21
133.4982385245
 31
0.0
  0
SPLINE
  5
337
330
1F
100
AcDbEntity
  8
0
  6
Continuous
 62
     7
370
    25
100
AcDbSpline
210
0.0
220
0.0
230
1.0
 70
     8
 71
     3
 72
    12
 73
     8
 74
     0
 42
0.00000001
 43
0.00000001
 40
0.0
 40
0.0
 40
0.0
 40
0.0
 40
0.0000082321050558
 40
0.0492564968434145
 40
0.5785655373581375
 40
0.9312895502352673
 40
1.0
 40
1.0
 40
1.0
 40
1.0
 10
326.8078228334984
 20
133.5377006084398
 30
0.0
 10
326.8078228334984
 20
133.5377069780569
 30
0.0
 10
326.8078228335587
 20
133.5758193468727
 30
0.0
 10
326.8078228331773
 20
134.024879594592
 30
0.0
 10
326.8078228335949
 20
134.7835010392575
 30
0.0
 10
326.8078228334954
 20
135.5558452502316
 30
0.0
 10
326.8078228334979
 20
135.8821263860962
 30
0.0
 10
326.8078228334984
 20
135.9353230882701
 30
0.0
  0
SPLINE
  5
338
330
1F
100
AcDbEntity
  8
0
  6
Continuous
 62
     7
370
    25
100
AcDbSpline
210
0.0
220
0.0
230
1.0
 70
    24
 71
     3
 72
    13
 73
     9
 74
     0
 42
0.00000001
 43
0.00000001
 40
0.0
 40
0.0
 40
0.0
 40
0.0
 40
0.0669140144574932
 40
0.4109741467866639
 40
0.8935630472092444
 40
0.929472170566334
 40
0.9721331224593511
 40
1.0
 40
1.0
 40
1.0
 40
1.0
 10
326.8744895001651
 20
135.9146956134908
 30
0.0
 10
326.8744895001651
 20
135.8625869564935
 30
0.0
 10
326.8744895001651
 20
135.5425447198513
 30
0.0
 10
326.874489500165
 20
134.812293834978
 30
0.0
 10
326.8744895001652
 20
134.1060124278624
 30
0.0
 10
326.8744895001651
 20
133.665265340861
 30
0.0
 10
326.8744895001651
 20
133.5821165265148
 30
0.0
 10
326.8744895001651
 20
133.527252184248
 30
0.0
 10
326.8744895001651
 20
133.5055742463393
 30
0.0
  0
SPLINE
  5
339
330
1F
100
AcDbEntity
  8
0
  6
Continuous
 62
     7
370
    25
100
AcDbSpline
210
0.0
220
0.0
230
1.0
 70
    24
 71
     3
 72
    11
 73
     7
 74
     0
 42
0.00000001
 43
0.00000001
 40
0.0
 40
0.0
 40
0.0
 40
0.0
 40
0.2594507833922085
 40
0.6053353512628492
 40
0.951148006933891
 40
1.0
 40
1.0
 40
1.0
 40
1.0
 10
326.8744895001651
 20
140.1236547128765
 30
0.0
 10
326.8744895001651
 20
140.0273253479393
 30
0.0
 10
326.8744895001651
 20
139.8025753232957
 30
0.0
 10
326.8744895001651
 20
139.3737196687581
 30
0.0
 10
326.8744895001651
 20
139.0305029104643
 30
0.0
 10
326.8744895001651
 20
138.8569248236608
 30
0.0
 10
326.8744895001651
 20
138.8354391509002
 30
0.0
  0
SPLINE
  5
33A
330
1F
100
AcDbEntity
  8
0
  6
Continuous
 62
     7
370
    25
100
AcDbSpline
210
0.0
220
0.0
230
1.0
 70
     8
 71
     3
 72
    12
 73
     8
 74
     0
 42
0.00000001
 43
0.00000001
 40
0.0
 40
0.0
 40
0.0
 40
0.0
 40
0.2146924559328487
 40
0.4293848948885148
 40
0.6440778262487893
 40
0.8587718150234365
 40
0.9999999999999999
 40
0.9999999999999999
 40
0.9999999999999999
 40
0.9999999999999999
 10
326.8078228334984
 20
136.9368293709364
 30
0.0
 10
326.8153177337927
 20
136.9362086461595
 30
0.0
 10
326.8303075337885
 20
136.9349671966548
 30
0.0
 10
326.8502857646074
 20
136.9252861737497
 30
0.0
 10
326.8653626759431
 20
136.911037950081
 30
0.0
 10
326.8733514151129
 20
136.8952495948523
 30
0.0
 10
326.8741661982033
 20
136.8848171788647
 30
0.0
 10
326.8744895001651
 20
136.8806776470133
 30
0.0
  0
SPLINE
  5
33B
330
1F
100
AcDbEntity
  8
0
  6
Continuous
 62
     7
370
    25
100
AcDbSpline
210
0.0
220
0.0
230
1.0
 70
    24
 71
     3
 72
    11
 73
     7
 74
     0
 42
0.00000001
 43
0.00000001
 40
0.0
 40
0.0
 40
0.0
 40
0.0
 40
0.0700162226520639
 40
0.4298933146259135
 40
0.6949732655893054
 40
1.0
 40
1.0
 40
1.0
 40
1.0
 10
326.8744895001651
 20
136.8806776470133
 30
0.0
 10
326.8744895001651
 20
136.8641372525949
 30
0.0
 10
326.874489500165
 20
136.7625807173746
 30
0.0
 10
326.8744895001651
 20
136.5660360765726
 30
0.0
 10
326.8744895001651
 20
136.2536922131014
 30
0.0
 10
326.8744895001651
 20
136.0328524835381
 30
0.0
 10
326.8744895001651
 20
135.9146956134908
 30
0.0
  0
SPLINE
  5
33C
330
1F
100
AcDbEntity
  8
0
  6
Continuous
 62
     7
370
    25
100
AcDbSpline
210
0.0
220
0.0
230
1.0
 70
     8
 71
     3
 72
    22
 73
    18
 74
     0
 42
0.00000001
 43
0.00000001
 40
0.0
 40
0.0
 40
0.0
 40
0.0
 40
0.1989689958644247
 40
0.4605293532522637
 40
0.6365175913235503
 40
0.7548571907057611
 40
0.8344285976549396
 40
0.8879703002696533
 40
0.9240589350258517
 40
0.9484589225722942
 40
0.9650399728217708
 40
0.9763989229066148
 40
0.986786147780981
 40
0.9925239529413246
 40
0.9962999976569871
 40
0.9990389462419521
 40
1.0
 40
1.0
 40
1.0
 40
1.0
 10
326.8744895001651
 20
137.8020778623981
 30
0.0
 10
326.8741141457271
 20
137.8431079014041
 30
0.0
 10
326.8732453584278
 20
137.9380751461512
 30
0.0
 10
326.8666051244373
 20
138.0697392112012
 30
0.0
 10
326.857185499571
 20
138.1849018844807
 30
0.0
 10
326.8484445567479
 20
138.2623940362743
 30
0.0
 10
326.8409533470809
 20
138.3144439930965
 30
0.0
 10
326.8346959604523
 20
138.3493545494084
 30
0.0
 10
326.8295157801749
 20
138.3727423262768
 30
0.0
 10
326.8252241965704
 20
138.3883910399099
 30
0.0
 10
326.8216522638137
 20
138.398851835884
 30
0.0
 10
326.8184299938409
 20
138.4063064250164
 30
0.0
 10
326.8155247063966
 20
138.4114149125551
 30
0.0
 10
326.8127061454168
 20
138.4146873551431
 30
0.0
 10
326.8104836721153
 20
138.416238160742
 30
0.0
 10
326.8088646661192
 20
138.4167553053345
 30
0.0
 10
326.8080376468655
 20
138.4167867810978
 30
0.0
 10
326.8078228334984
 20
138.4167949567414
 30
0.0
  0
SPLINE
  5
33D
330
1F
100
AcDbEntity
  8
0
  6
Continuous
 62
     7
370
    25
100
AcDbSpline
210
0.0
220
0.0
230
1.0
 70
    24
 71
     3
 72
    12
 73
     8
 74
     0
 42
0.00000001
 43
0.00000001
 40
0.0
 40
0.0
 40
0.0
 40
0.0
 40
0.1234331263574033
 40
0.2468662461668844
 40
0.3702993652736485
 40
0.4937324842169893
 40
1.0
 40
1.0
 40
1.0
 40
1.0
 10
326.8744895001651
 20
138.8354391509002
 30
0.0
 10
326.8744895001651
 20
138.7929285031191
 30
0.0
 10
326.8744895001651
 20
138.707907209812
 30
0.0
 10
326.8744895001651
 20
138.5803569347288
 30
0.0
 10
326.8744895001651
 20
138.4528040646785
 30
0.0
 10
326.8744895001651
 20
138.1933766015367
 30
0.0
 10
326.8744895001651
 20
137.9764681747531
 30
0.0
 10
326.8744895001651
 20
137.8020778623981
 30
0.0
  0
SPLINE
  5
33E
330
1F
100
AcDbEntity
  8
0
  6
Continuous
 62
     7
370
    25
100
AcDbSpline
210
0.0
220
0.0
230
1.0
 70
    24
 71
     3
 72
     9
 73
     5
 74
     0
 42
0.00000001
 43
0.00000001
 40
0.0
 40
0.0
 40
0.0
 40
0.0
 40
0.5600010633154038
 40
1.0
 40
1.0
 40
1.0
 40
1.0
 10
326.6078228334984
 20
129.4876355583377
 30
0.0
 10
326.6078228334984
 20
129.4876328585569
 30
0.0
 10
326.6078228334984
 20
129.4876280375288
 30
0.0
 10
326.6078228334984
 20
129.4876232165392
 30
0.0
 10
326.6078228334984
 20
129.4876210953089
 30
0.0
  0
LINE
  5
33F
330
1F
100
AcDbEntity
  8
0
  6
Continuous
 62
     7
370
    25
100
AcDbLine
 10
326.6078228335
 20
129.4876247263
 30
0.0
 11
326.5744895002
 21
129.4876247263
 31
0.0
  0
SPLINE
  5
340
330
1F
100
AcDbEntity
  8
0
  6
Continuous
 62
     7
370
    25
100
AcDbSpline
210
0.0
220
0.0
230
1.0
 70
    24
 71
     3
 72
    12
 73
     8
 74
     0
 42
0.00000001
 43
0.00000001
 40
0.0
 40
0.0
 40
0.0
 40
0.0
 40
0.0317022981163396
 40
0.4845259175036038
 40
0.8569922657268443
 40
0.9585698679564144
 40
1.0
 40
1.0
 40
1.0
 40
1.0
 10
326.6078228334984
 20
130.2355527669467
 30
0.0
 10
326.6078228334984
 20
130.2250667769148
 30
0.0
 10
326.6078228334985
 20
130.0648028767237
 30
0.0
 10
326.6078228334983
 20
129.8611332250733
 30
0.0
 10
326.6078228334983
 20
129.6447203426702
 30
0.0
 10
326.6078228334984
 20
129.5357501867695
 30
0.0
 10
326.6078228334984
 20
129.4984435092697
 30
0.0
 10
326.6078228334984
 20
129.4876355583378
 30
0.0
  0
LINE
  5
341
330
1F
100
AcDbEntity
  8
0
  6
Continuous
 62
     7
370
    25
100
AcDbLine
 10
326.8744895002
 20
136.938584037
 30
0.0
 11
326.7744895002
 21
136.938584037
 31
0.0
  0
SPLINE
  5
342
330
1F
100
AcDbEntity
  8
0
  6
Continuous
 62
     7
370
    25
100
AcDbSpline
210
0.0
220
0.0
230
1.0
 70
    24
 71
     3
 72
     9
 73
     5
 74
     0
 42
0.00000001
 43
0.00000001
 40
0.0
 40
0.0
 40
0.0
 40
0.0
 40
0.5272561673338598
 40
1.0
 40
1.0
 40
1.0
 40
1.0
 10
326.8744895001651
 20
137.8020778623981
 30
0.0
 10
326.8744895001651
 20
137.649672495764
 30
0.0
 10
326.8744895001651
 20
137.3606187566589
 30
0.0
 10
326.8744895001651
 20
137.0740551939532
 30
0.0
 10
326.8744895001651
 20
136.9385840370173
 30
0.0
  0
SPLINE
  5
343
330
1F
100
AcDbEntity
  8
0
  6
Continuous
 62
     7
370
    25
100
AcDbSpline
210
0.0
220
0.0
230
1.0
 70
     8
 71
     3
 72
    14
 73
    10
 74
     0
 42
0.00000001
 43
0.00000001
 40
0.0
 40
0.0
 40
0.0
 40
0.0
 40
0.0000038064494543
 40
0.3515023251168923
 40
0.5589765442671252
 40
0.7659078388021769
 40
0.8149231610662421
 40
0.9149340679912635
 40
1.0
 40
1.0
 40
1.0
 40
1.0
 10
326.8078228334984
 20
140.166522482291
 30
0.0
 10
326.8078228334984
 20
140.1665275879691
 30
0.0
 10
326.8078228331885
 20
140.6380057229565
 30
0.0
 10
326.8078228335818
 20
141.3195253857866
 30
0.0
 10
326.8078228334805
 20
142.1075014923756
 30
0.0
 10
326.8078228334993
 20
142.4883190369717
 30
0.0
 10
326.8078228334982
 20
142.7030826339982
 30
0.0
 10
326.8078228334985
 20
142.8180786739622
 30
0.0
 10
326.8078228334984
 20
142.8312189147021
 30
0.0
 10
326.8078228334984
 20
142.8372584971361
 30
0.0
  0
SPLINE
  5
344
330
1F
100
AcDbEntity
  8
0
  6
Continuous
 62
     7
370
    25
100
AcDbSpline
210
0.0
220
0.0
230
1.0
 70
    24
 71
     3
 72
    10
 73
     6
 74
     0
 42
0.00000001
 43
0.00000001
 40
0.0
 40
0.0
 40
0.0
 40
0.0
 40
0.2895109318873226
 40
0.6444284159994683
 40
1.0
 40
1.0
 40
1.0
 40
1.0
 10
326.6078228334984
 20
142.8334577814967
 30
0.0
 10
326.6078228334984
 20
142.8099924772036
 30
0.0
 10
326.6078228334984
 20
142.7577605674171
 30
0.0
 10
326.6078228334984
 20
142.3773187996144
 30
0.0
 10
326.6078228334984
 20
142.0231882610014
 30
0.0
 10
326.6078228334984
 20
141.8459599795134
 30
0.0
  0
LINE
  5
345
330
1F
100
AcDbEntity
  8
0
  6
Continuous
 62
     7
370
    25
100
AcDbLine
 10
326.6078228335
 20
140.5127585068
 30
0.0
 11
326.6078228335
 21
140.1665224823
 31
0.0
  0
LINE
  5
346
330
1F
100
AcDbEntity
  8
0
  6
Continuous
 62
     7
370
    25
100
AcDbLine
 10
326.8744895002
 20
136.938584037
 30
0.0
 11
326.8744895002
 21
136.880677647
 31
0.0
  0
SPLINE
  5
347
330
1F
100
AcDbEntity
  8
0
  6
Continuous
 62
     7
370
    25
100
AcDbSpline
210
0.0
220
0.0
230
1.0
 70
    24
 71
     3
 72
    11
 73
     7
 74
     0
 42
0.00000001
 43
0.00000001
 40
0.0
 40
0.0
 40
0.0
 40
0.0
 40
0.2837025948834815
 40
0.5579210124184274
 40
0.7750227467053988
 40
1.0
 40
1.0
 40
1.0
 40
1.0
 10
326.7744895001651
 20
129.0805823021923
 30
0.0
 10
326.7744895001651
 20
129.0780138876349
 30
0.0
 10
326.7744895001651
 20
129.0729629206151
 30
0.0
 10
326.7744895001651
 20
129.0620396189369
 30
0.0
 10
326.7744895001651
 20
129.0515279863802
 30
0.0
 10
326.7744895001651
 20
129.0457183134865
 30
0.0
 10
326.7744895001651
 20
129.0427617281548
 30
0.0
  0
LINE
  5
348
330
1F
100
AcDbEntity
  8
0
  6
Continuous
 62
     7
370
    25
100
AcDbLine
 10
326.7744895002
 20
129.0427617282
 30
0.0
 11
326.7744895002
 21
128.9230734481
 31
0.0
  0
LINE
  5
349
330
1F
100
AcDbEntity
  8
0
  6
Continuous
 62
     7
370
    25
100
AcDbLine
 10
326.7744895002
 20
129.4876210953
 30
0.0
 11
326.6078228335
 21
129.4876210953
 31
0.0
  0
LINE
  5
34A
330
1F
100
AcDbEntity
  8
0
  6
Continuous
 62
     7
370
    25
100
AcDbLine
 10
326.7744895002
 20
129.4876210953
 30
0.0
 11
326.7744895002
 21
129.0805823022
 31
0.0
  0
SPLINE
  5
34B
330
1F
100
AcDbEntity
  8
0
  6
Continuous
 62
     7
370
    25
100
AcDbSpline
210
0.0
220
0.0
230
1.0
 70
    24
 71
     3
 72
    10
 73
     6
 74
     0
 42
0.00000001
 43
0.00000001
 40
0.0
 40
0.0
 40
0.0
 40
0.0
 40
0.4321127952274673
 40
0.8499190842998112
 40
0.9999999999999999
 40
0.9999999999999999
 40
0.9999999999999999
 40
0.9999999999999999
 10
326.7744895001651
 20
128.9230734481218
 30
0.0
 10
326.7744895001651
 20
128.9198748689072
 30
0.0
 10
326.774489500165
 20
128.9135836098953
 30
0.0
 10
326.7744895001651
 20
128.9096682353704
 30
0.0
 10
326.7744895001651
 20
128.9099765116446
 30
0.0
 10
326.7744895001651
 20
128.9100579827275
 30
0.0
  0
SPLINE
  5
34C
330
1F
100
AcDbEntity
  8
0
  6
Continuous
 62
     7
370
    25
100
AcDbSpline
210
0.0
220
0.0
230
1.0
 70
    24
 71
     3
 72
     9
 73
     5
 74
     0
 42
0.00000001
 43
0.00000001
 40
0.0
 40
0.0
 40
0.0
 40
0.0
 40
0.233047055479171
 40
1.0
 40
1.0
 40
1.0
 40
1.0
 10
326.7744895001651
 20
130.3005297656546
 30
0.0
 10
326.7744895001651
 20
130.2327436435936
 30
0.0
 10
326.7744895001651
 20
129.941874823468
 30
0.0
 10
326.7744895001651
 20
129.6847917304701
 30
0.0
 10
326.7744895001651
 20
129.4876210953089
 30
0.0
  0
LINE
  5
34D
330
1F
100
AcDbEntity
  8
0
  6
Continuous
 62
     7
370
    25
100
AcDbLine
 10
326.9411561668
 20
133.4681771083
 30
0.0
 11
326.8744895002
 21
133.4681771083
 31
0.0
  0
LINE
  5
34E
330
1F
100
AcDbEntity
  8
0
  6
Continuous
 62
     7
370
    25
100
AcDbLine
 10
326.9411561668
 20
133.9304345593
 30
0.0
 11
326.9222920546
 21
134.0546366458
 31
0.0
  0
SPLINE
  5
34F
330
1F
100
AcDbEntity
  8
0
  6
Continuous
 62
     7
370
    25
100
AcDbSpline
210
0.0
220
0.0
230
1.0
 70
    24
 71
     3
 72
     9
 73
     5
 74
     0
 42
0.00000001
 43
0.00000001
 40
0.0
 40
0.0
 40
0.0
 40
0.0
 40
0.4977665372076318
 40
1.0
 40
1.0
 40
1.0
 40
1.0
 10
326.9411561668317
 20
133.9304345592662
 30
0.0
 10
326.9411561668317
 20
133.8523091618615
 30
0.0
 10
326.9411561668317
 20
133.6953572746516
 30
0.0
 10
326.9411561668317
 20
133.5441290055363
 30
0.0
 10
326.9411561668317
 20
133.4681771082664
 30
0.0
  0
SPLINE
  5
350
330
1F
100
AcDbEntity
  8
0
  6
Continuous
 62
     7
370
    25
100
AcDbSpline
210
0.0
220
0.0
230
1.0
 70
     8
 71
     3
 72
    10
 73
     6
 74
     0
 42
0.00000001
 43
0.00000001
 40
0.0
 40
0.0
 40
0.0
 40
0.0
 40
0.2759401981403432
 40
0.5510181873259203
 40
1.0
 40
1.0
 40
1.0
 40
1.0
 10
326.9222920546385
 20
134.0546366457677
 30
0.0
 10
326.9222769080354
 20
134.0546851618514
 30
0.0
 10
326.9222466621565
 20
134.0547820424244
 30
0.0
 10
326.9222111053014
 20
134.0549528454173
 30
0.0
 10
326.9221741133435
 20
134.0550794969725
 30
0.0
 10
326.9221511750225
 20
134.0551580322602
 30
0.0
  0
SPLINE
  5
351
330
1F
100
AcDbEntity
  8
0
  6
Continuous
 62
     7
370
    25
100
AcDbSpline
210
0.0
220
0.0
230
1.0
 70
    24
 71
     3
 72
    12
 73
     8
 74
     0
 42
0.00000001
 43
0.00000001
 40
0.0
 40
0.0
 40
0.0
 40
0.0
 40
0.2407543826762554
 40
0.4814845857731688
 40
0.7227007837137048
 40
0.9647389857599723
 40
1.0
 40
1.0
 40
1.0
 40
1.0
 10
326.9411561668317
 20
134.81849402038
 30
0.0
 10
326.9411561668317
 20
134.7563293111988
 30
0.0
 10
326.9411561668317
 20
134.6320061361974
 30
0.0
 10
326.9411561668317
 20
134.449638024668
 30
0.0
 10
326.9411561668318
 20
134.2456090727292
 30
0.0
 10
326.9411561668317
 20
134.0467495518809
 30
0.0
 10
326.9411561668317
 20
133.9435564609362
 30
0.0
 10
326.9411561668317
 20
133.9304345592662
 30
0.0
  0
LINE
  5
352
330
1F
100
AcDbEntity
  8
0
  6
Continuous
 62
     7
370
    25
100
AcDbLine
 10
326.9411561668
 20
133.4016860006
 30
0.0
 11
326.8744895002
 21
133.4016860006
 31
0.0
  0
LINE
  5
353
330
1F
100
AcDbEntity
  8
0
  6
Continuous
 62
     7
370
    25
100
AcDbLine
 10
326.9411561668
 20
133.4681771083
 30
0.0
 11
326.9411561668
 21
133.4016860006
 31
0.0
  0
SPLINE
  5
354
330
1F
100
AcDbEntity
  8
0
  6
Continuous
 62
     7
370
    25
100
AcDbSpline
210
0.0
220
0.0
230
1.0
 70
    24
 71
     3
 72
    11
 73
     7
 74
     0
 42
0.00000001
 43
0.00000001
 40
0.0
 40
0.0
 40
0.0
 40
0.0
 40
0.2836334925933188
 40
0.5568379161088562
 40
0.7740293154991672
 40
1.0
 40
1.0
 40
1.0
 40
1.0
 10
326.7744895001651
 20
128.7070206212872
 30
0.0
 10
326.7744895001651
 20
128.7035066570047
 30
0.0
 10
326.7744895001651
 20
128.6966079352407
 30
0.0
 10
326.7744895001651
 20
128.6849025549222
 30
0.0
 10
326.7744895001651
 20
128.6749522364233
 30
0.0
 10
326.7744895001651
 20
128.6703855732663
 30
0.0
 10
326.7744895001651
 20
128.6680570076309
 30
0.0
  0
LINE
  5
355
330
1F
100
AcDbEntity
  8
0
  6
Continuous
 62
     7
370
    25
100
AcDbLine
 10
326.7744895002
 20
128.848760247
 30
0.0
 11
326.7744895002
 21
128.7070206213
 31
0.0
  0
LINE
  5
356
330
1F
100
AcDbEntity
  8
0
  6
Continuous
 62
     7
370
    25
100
AcDbLine
 10
326.7744895002
 20
128.6680570076
 30
0.0
 11
326.7744895002
 21
128.5492611006
 31
0.0
  0
SPLINE
  5
357
330
1F
100
AcDbEntity
  8
0
  6
Continuous
 62
     7
370
    25
100
AcDbSpline
210
0.0
220
0.0
230
1.0
 70
    24
 71
     3
 72
     9
 73
     5
 74
     0
 42
0.00000001
 43
0.00000001
 40
0.0
 40
0.0
 40
0.0
 40
0.0
 40
0.638036880327377
 40
1.0
 40
1.0
 40
1.0
 40
1.0
 10
326.7744895001651
 20
128.5492611006329
 30
0.0
 10
326.7744895001651
 20
128.5469350889719
 30
0.0
 10
326.7744895001651
 20
128.5432895134061
 30
0.0
 10
326.7744895001651
 20
128.543528359263
 30
0.0
 10
326.7744895001651
 20
128.5436148126545
 30
0.0
  0
SPLINE
  5
358
330
1F
100
AcDbEntity
  8
0
  6
Continuous
 62
     7
370
    25
100
AcDbSpline
210
0.0
220
0.0
230
1.0
 70
     8
 71
     3
 72
    13
 73
     9
 74
     0
 42
0.00000001
 43
0.00000001
 40
0.0
 40
0.0
 40
0.0
 40
0.0
 40
0.0505534090001264
 40
0.1414832367535043
 40
0.3561381692542897
 40
0.5707669301294551
 40
0.7853832500110656
 40
1.0
 40
1.0
 40
1.0
 40
1.0
 10
326.9411561668317
 20
135.5099240013055
 30
0.0
 10
326.9411140965353
 20
135.5103935720229
 30
0.0
 10
326.9409963548868
 20
135.5117077541183
 30
0.0
 10
326.9390790708623
 20
135.5149860298745
 30
0.0
 10
326.932108192059
 20
135.5195560943809
 30
0.0
 10
326.9169267938199
 20
135.5240731343143
 30
0.0
 10
326.8969776232026
 20
135.5271435071914
 30
0.0
 10
326.8819855461851
 20
135.5275371470649
 30
0.0
 10
326.8744895001651
 20
135.5277339671989
 30
0.0
  0
SPLINE
  5
359
330
1F
100
AcDbEntity
  8
0
  6
Continuous
 62
     7
370
    25
100
AcDbSpline
210
0.0
220
0.0
230
1.0
 70
    24
 71
     3
 72
    10
 73
     6
 74
     0
 42
0.00000001
 43
0.00000001
 40
0.0
 40
0.0
 40
0.0
 40
0.0
 40
0.2096449205512435
 40
0.6857745536381888
 40
1.0
 40
1.0
 40
1.0
 40
1.0
 10
326.9411561668317
 20
135.5099240013055
 30
0.0
 10
326.9411561668317
 20
135.4544528060663
 30
0.0
 10
326.9411561668317
 20
135.2729996420454
 30
0.0
 10
326.9411561668317
 20
135.0153886440817
 30
0.0
 10
326.9411561668317
 20
134.8745056008607
 30
0.0
 10
326.9411561668317
 20
134.81849402038
 30
0.0
  0
SPLINE
  5
35A
330
1F
100
AcDbEntity
  8
0
  6
Continuous
 62
     7
370
    25
100
AcDbSpline
210
0.0
220
0.0
230
1.0
 70
     8
 71
     3
 72
    13
 73
     9
 74
     0
 42
0.00000001
 43
0.00000001
 40
0.0
 40
0.0
 40
0.0
 40
0.0
 40
0.0182758915911216
 40
0.1463941204418617
 40
0.361239033447033
 40
0.5746080366154427
 40
0.7872921551815827
 40
0.9999999999999999
 40
0.9999999999999999
 40
0.9999999999999999
 40
0.9999999999999999
 10
326.9411561668317
 20
141.2740529849154
 30
0.0
 10
326.9411503669737
 20
141.2744928863987
 30
0.0
 10
326.9411039087685
 20
141.2780165990673
 30
0.0
 10
326.9394641009877
 20
141.2866952557376
 30
0.0
 10
326.931892439675
 20
141.2993270094265
 30
0.0
 10
326.9167153101842
 20
141.3109630295983
 30
0.0
 10
326.8968568365411
 20
141.3188581691353
 30
0.0
 10
326.8819455561829
 20
141.3198713750298
 30
0.0
 10
326.8744895001651
 20
141.3203780062329
 30
0.0
  0
SPLINE
  5
35B
330
1F
100
AcDbEntity
  8
0
  6
Continuous
 62
     7
370
    25
100
AcDbSpline
210
0.0
220
0.0
230
1.0
 70
    24
 71
     3
 72
    12
 73
     8
 74
     0
 42
0.00000001
 43
0.00000001
 40
0.0
 40
0.0
 40
0.0
 40
0.0
 40
0.1899262298909445
 40
0.4281628939875439
 40
0.6742763293270285
 40
0.8359068300961737
 40
0.9999999999999999
 40
0.9999999999999999
 40
0.9999999999999999
 40
0.9999999999999999
 10
326.9411561668317
 20
141.2740529849154
 30
0.0
 10
326.9411561668317
 20
141.0418561150358
 30
0.0
 10
326.9411561668317
 20
140.5183998033954
 30
0.0
 10
326.9411561668317
 20
139.5856272836477
 30
0.0
 10
326.9411561668317
 20
138.6557514987691
 30
0.0
 10
326.9411561668317
 20
137.8174663952302
 30
0.0
 10
326.9411561668317
 20
137.3419278849321
 30
0.0
 10
326.9411561668317
 20
137.1023609495451
 30
0.0
  0
SPLINE
  5
35C
330
1F
100
AcDbEntity
  8
0
  6
Continuous
 62
     7
370
    25
100
AcDbSpline
210
0.0
220
0.0
230
1.0
 70
    24
 71
     3
 72
    11
 73
     7
 74
     0
 42
0.00000001
 43
0.00000001
 40
0.0
 40
0.0
 40
0.0
 40
0.0
 40
0.2624776957506
 40
0.5251490441700506
 40
0.788058605866068
 40
1.0
 40
1.0
 40
1.0
 40
1.0
 10
326.9411561668317
 20
137.1023609495451
 30
0.0
 10
326.9411561668317
 20
136.9633220657804
 30
0.0
 10
326.9411561668317
 20
136.6851417171505
 30
0.0
 10
326.9411561668317
 20
136.263649414974
 30
0.0
 10
326.9411561668317
 20
135.8684825093601
 30
0.0
 10
326.9411561668317
 20
135.6205737341974
 30
0.0
 10
326.9411561668317
 20
135.5099240013055
 30
0.0
  0
SPLINE
  5
35D
330
1F
100
AcDbEntity
  8
0
  6
Continuous
 62
     7
370
    25
100
AcDbSpline
210
0.0
220
0.0
230
1.0
 70
    24
 71
     3
 72
     9
 73
     5
 74
     0
 42
0.00000001
 43
0.00000001
 40
0.0
 40
0.0
 40
0.0
 40
0.0
 40
0.6962882941774249
 40
0.9999999999999999
 40
0.9999999999999999
 40
0.9999999999999999
 40
0.9999999999999999
 10
326.9411561668317
 20
141.4789431135875
 30
0.0
 10
326.9411561668317
 20
141.437292452366
 30
0.0
 10
326.9411561668317
 20
141.3774743259237
 30
0.0
 10
326.9411561668317
 20
141.298145943317
 30
0.0
 10
326.9411561668317
 20
141.2740529849154
 30
0.0
  0
SPLINE
  5
35E
330
1F
100
AcDbEntity
  8
0
  6
Continuous
 62
     7
370
    25
100
AcDbSpline
210
0.0
220
0.0
230
1.0
 70
     8
 71
     3
 72
    12
 73
     8
 74
     0
 42
0.00000001
 43
0.00000001
 40
0.0
 40
0.0
 40
0.0
 40
0.0
 40
0.1449902770435387
 40
0.2761106250825896
 40
0.4978362536085424
 40
0.7094067732543587
 40
1.0
 40
1.0
 40
1.0
 40
1.0
 10
306.3078228334986
 20
114.5680449436622
 30
0.0
 10
306.3117872399536
 20
114.575375117443
 30
0.0
 10
306.3193368133917
 20
114.5893342525372
 30
0.0
 10
306.3874849530096
 20
114.626735524236
 30
0.0
 10
306.5167843417078
 20
114.6908943169186
 30
0.0
 10
306.7281893973625
 20
114.8221560446495
 30
0.0
 10
306.8947629912985
 20
114.9236321631616
 30
0.0
 10
306.9911561668319
 20
114.9823545877252
 30
0.0
  0
LINE
  5
35F
330
1F
100
AcDbEntity
  8
0
  6
Continuous
 62
     7
370
    25
100
AcDbLine
 10
306.3078228335
 20
155.1966642318
 30
0.0
 11
306.3078228335
 21
114.5680449437
 31
0.0
  0
SPLINE
  5
360
330
1F
100
AcDbEntity
  8
0
  6
Continuous
 62
     7
370
    25
100
AcDbSpline
210
0.0
220
0.0
230
1.0
 70
     8
 71
     3
 72
    13
 73
     9
 74
     0
 42
0.00000001
 43
0.00000001
 40
0.0
 40
0.0
 40
0.0
 40
0.0
 40
0.2939013609152833
 40
0.4990027775956601
 40
0.6180897938089219
 40
0.7406274349533541
 40
0.8676278513953924
 40
1.0
 40
1.0
 40
1.0
 40
1.0
 10
306.991156166832
 20
154.7823545877249
 30
0.0
 10
306.892964967016
 20
154.8411411638194
 30
0.0
 10
306.7262502526266
 20
154.9409524224851
 30
0.0
 10
306.5469382720528
 20
155.0539493927027
 30
0.0
 10
306.4379497957058
 20
155.1167473721785
 30
0.0
 10
306.3673002008958
 20
155.1551865685389
 30
0.0
 10
306.3176994376628
 20
155.1831784588538
 30
0.0
 10
306.3111601786333
 20
155.1921073336939
 30
0.0
 10
306.3078228334987
 20
155.1966642317876
 30
0.0
  0
LINE
  5
361
330
1F
100
AcDbEntity
  8
0
  6
Continuous
 62
     7
370
    25
100
AcDbLine
 10
306.3078228335
 20
155.1966642318
 30
0.0
 11
306.5744895002
 21
155.1966642318
 31
0.0
  0
SPLINE
  5
362
330
1F
100
AcDbEntity
  8
0
  6
Continuous
 62
     7
370
    25
100
AcDbSpline
210
0.0
220
0.0
230
1.0
 70
     8
 71
     3
 72
    13
 73
     9
 74
     0
 42
0.00000001
 43
0.00000001
 40
0.0
 40
0.0
 40
0.0
 40
0.0
 40
0.3154965231073394
 40
0.5289946986931656
 40
0.6468348646212124
 40
0.7632608916491447
 40
0.8803133480099935
 40
1.0
 40
1.0
 40
1.0
 40
1.0
 10
306.991156166832
 20
154.7823545877249
 30
0.0
 10
306.9315874148707
 20
154.8408079361264
 30
0.0
 10
306.8317081715595
 20
154.9388169763552
 30
0.0
 10
306.7224060820238
 20
155.0518573635082
 30
0.0
 10
306.6548300240883
 20
155.1158466920849
 30
0.0
 10
306.6113172420526
 20
155.1546922737743
 30
0.0
 10
306.5806527063925
 20
155.1829984517045
 30
0.0
 10
306.5765590854786
 20
155.1920753057138
 30
0.0
 10
306.5744895001653
 20
155.1966642317876
 30
0.0
  0
SPLINE
  5
363
330
1F
100
AcDbEntity
  8
0
  6
Continuous
 62
     7
370
    25
100
AcDbSpline
210
0.0
220
0.0
230
1.0
 70
     8
 71
     3
 72
    12
 73
     8
 74
     0
 42
0.00000001
 43
0.00000001
 40
0.0
 40
0.0
 40
0.0
 40
0.0
 40
0.230169378202043
 40
0.4604221642957046
 40
0.6906753391242267
 40
0.9209283614223317
 40
1.0
 40
1.0
 40
1.0
 40
1.0
 10
306.5768465227691
 20
155.4656879210582
 30
0.0
 10
306.6086430443537
 20
155.4569954849602
 30
0.0
 10
306.6722476098238
 20
155.4396074628327
 30
0.0
 10
306.76767819069
 20
155.3047041345962
 30
0.0
 10
306.8630499007021
 20
155.108694849344
 30
0.0
 10
306.9377548365052
 20
154.9206866340666
 30
0.0
 10
306.9802844600287
 20
154.8105169095272
 30
0.0
 10
306.991156166832
 20
154.7823545877249
 30
0.0
  0
LINE
  5
364
330
1F
100
AcDbEntity
  8
0
  6
Continuous
 62
     7
370
    25
100
AcDbLine
 10
306.5768465228
 20
155.4656879211
 30
0.0
 11
325.2009192742
 21
155.4656879211
 31
0.0
  0
SPLINE
  5
365
330
1F
100
AcDbEntity
  8
0
  6
Continuous
 62
     7
370
    25
100
AcDbSpline
210
0.0
220
0.0
230
1.0
 70
     8
 71
     3
 72
    11
 73
     7
 74
     0
 42
0.00000001
 43
0.00000001
 40
0.0
 40
0.0
 40
0.0
 40
0.0
 40
0.2500000000000074
 40
0.4999999999999991
 40
0.7500000000000066
 40
1.0
 40
1.0
 40
1.0
 40
1.0
 10
325.2244895001651
 20
154.7823545877249
 30
0.0
 10
325.2225253146646
 20
154.8718965676592
 30
0.0
 10
325.2185969436635
 20
155.0509805275277
 30
0.0
 10
325.212704387162
 20
155.2768529012106
 30
0.0
 10
325.2068118306603
 20
155.4348731968442
 30
0.0
 10
325.2028834596593
 20
155.4554163463202
 30
0.0
 10
325.2009192741588
 20
155.4656879210582
 30
0.0
  0
SPLINE
  5
366
330
1F
100
AcDbEntity
  8
0
  6
Continuous
 62
     7
370
    25
100
AcDbSpline
210
0.0
220
0.0
230
1.0
 70
     8
 71
     3
 72
    11
 73
     7
 74
     0
 42
0.00000001
 43
0.00000001
 40
0.0
 40
0.0
 40
0.0
 40
0.0
 40
0.2543030279684695
 40
0.5087793961833572
 40
0.7632567853905947
 40
1.0
 40
1.0
 40
1.0
 40
1.0
 10
306.5768465227691
 20
155.1990212543916
 30
0.0
 10
306.6119721322827
 20
155.1925350305282
 30
0.0
 10
306.682247293934
 20
155.179558161605
 30
0.0
 10
306.7876657058314
 20
155.0799010505958
 30
0.0
 10
306.8906881189664
 20
154.9412439543811
 30
0.0
 10
306.9584826629913
 20
154.8340274572787
 30
0.0
 10
306.991156166832
 20
154.7823545877249
 30
0.0
  0
LINE
  5
367
330
1F
100
AcDbEntity
  8
0
  6
Continuous
 62
     7
370
    25
100
AcDbLine
 10
306.5768465228
 20
155.1990212544
 30
0.0
 11
306.5768465228
 21
155.4656879211
 31
0.0
  0
SPLINE
  5
368
330
1F
100
AcDbEntity
  8
0
  6
Continuous
 62
     7
370
    25
100
AcDbSpline
210
0.0
220
0.0
230
1.0
 70
     8
 71
     3
 72
    12
 73
     8
 74
     0
 42
0.00000001
 43
0.00000001
 40
0.0
 40
0.0
 40
0.0
 40
0.0
 40
0.2301699461467805
 40
0.4604227344550359
 40
0.6906759109411501
 40
0.9209289349058842
 40
0.9999999999999999
 40
0.9999999999999999
 40
0.9999999999999999
 40
0.9999999999999999
 10
306.9911561668319
 20
114.9823545877253
 30
0.0
 10
306.9593595660693
 20
114.8999948197793
 30
0.0
 10
306.8957549203952
 20
114.7352456411763
 30
0.0
 10
306.8003242619179
 20
114.5198698604812
 30
0.0
 10
306.7049525518444
 20
114.3652212682875
 30
0.0
 10
306.6302476949313
 20
114.3042849522149
 30
0.0
 10
306.5877181505815
 20
114.300092859402
 30
0.0
 10
306.5768465227689
 20
114.2990212543916
 30
0.0
  0
LINE
  5
369
330
1F
100
AcDbEntity
  8
0
  6
Continuous
 62
     7
370
    25
100
AcDbLine
 10
306.5768465228
 20
114.5656879211
 30
0.0
 11
306.5768465228
 21
114.2990212544
 31
0.0
  0
SPLINE
  5
36A
330
1F
100
AcDbEntity
  8
0
  6
Continuous
 62
     7
370
    25
100
AcDbSpline
210
0.0
220
0.0
230
1.0
 70
     8
 71
     3
 72
    11
 73
     7
 74
     0
 42
0.00000001
 43
0.00000001
 40
0.0
 40
0.0
 40
0.0
 40
0.0
 40
0.2542997317784614
 40
0.5087760894399306
 40
0.7632534766319562
 40
1.0
 40
1.0
 40
1.0
 40
1.0
 10
306.9911561668319
 20
114.9823545877252
 30
0.0
 10
306.9560310179866
 20
114.9268105856403
 30
0.0
 10
306.8857563238471
 20
114.815684002946
 30
0.0
 10
306.7803383627307
 20
114.6763668691481
 30
0.0
 10
306.6773154990771
 20
114.5829854040597
 30
0.0
 10
306.6095204882745
 20
114.5713133129324
 30
0.0
 10
306.576846522769
 20
114.5656879210582
 30
0.0
  0
SPLINE
  5
36B
330
1F
100
AcDbEntity
  8
0
  6
Continuous
 62
     7
370
    25
100
AcDbSpline
210
0.0
220
0.0
230
1.0
 70
     8
 71
     3
 72
    13
 73
     9
 74
     0
 42
0.00000001
 43
0.00000001
 40
0.0
 40
0.0
 40
0.0
 40
0.0
 40
0.1320604386455246
 40
0.2532852048036373
 40
0.3647466336578842
 40
0.4678314401008678
 40
0.6871869339526107
 40
1.0
 40
1.0
 40
1.0
 40
1.0
 10
306.5744895001653
 20
114.5680449436622
 30
0.0
 10
306.5769230636509
 20
114.5753818265217
 30
0.0
 10
306.5815905146467
 20
114.5894535946965
 30
0.0
 10
306.6149941700455
 20
114.6195213330038
 30
0.0
 10
306.6582496698043
 20
114.6550717405659
 30
0.0
 10
306.7250222222573
 20
114.7144068340243
 30
0.0
 10
306.8333740647162
 20
114.8247517080459
 30
0.0
 10
306.9327450705256
 20
114.924009839749
 30
0.0
 10
306.9911561668319
 20
114.9823545877252
 30
0.0
  0
LINE
  5
36C
330
1F
100
AcDbEntity
  8
0
  6
Continuous
 62
     7
370
    25
100
AcDbLine
 10
306.3078228335
 20
114.5680449437
 30
0.0
 11
306.5744895002
 21
114.5680449437
 31
0.0
  0
LINE
  5
36D
330
1F
100
AcDbEntity
  8
0
  6
Continuous
 62
     7
370
    25
100
AcDbLine
 10
306.5768465228
 20
114.2990212544
 30
0.0
 11
325.1773490481
 21
114.2990212544
 31
0.0
  0
SPLINE
  5
36E
330
1F
100
AcDbEntity
  8
0
  6
Continuous
 62
     7
370
    25
100
AcDbSpline
210
0.0
220
0.0
230
1.0
 70
     8
 71
     3
 72
    11
 73
     7
 74
     0
 42
0.00000001
 43
0.00000001
 40
0.0
 40
0.0
 40
0.0
 40
0.0
 40
0.2500000000000336
 40
0.5000000000000173
 40
0.7500000000000137
 40
1.0
 40
1.0
 40
1.0
 40
1.0
 10
325.1773490480858
 20
114.2990212543916
 30
0.0
 10
325.1812774190923
 20
114.3092928291296
 30
0.0
 10
325.1891341611056
 20
114.3298359786056
 30
0.0
 10
325.2009192741254
 20
114.4878562742392
 30
0.0
 10
325.2127043871452
 20
114.7137286479221
 30
0.0
 10
325.2205611291584
 20
114.8928126077906
 30
0.0
 10
325.224489500165
 20
114.9823545877249
 30
0.0
  0
LINE
  5
36F
330
1F
100
AcDbEntity
  8
0
  6
Continuous
 62
     7
370
    25
100
AcDbLine
 10
325.9078228335
 20
154.7823545877
 30
0.0
 11
325.9078228335
 21
114.9823545877
 31
0.0
  0
LINE
  5
370
330
1F
100
AcDbEntity
  8
0
  6
Continuous
 62
     7
370
    25
100
AcDbLine
 10
325.9078228335
 20
114.9823545877
 30
0.0
 11
325.2244895002
 21
114.9823545877
 31
0.0
  0
LINE
  5
371
330
1F
100
AcDbEntity
  8
0
  6
Continuous
 62
     7
370
    25
100
AcDbLine
 10
325.2244895002
 20
154.7823545877
 30
0.0
 11
325.9078228335
 21
154.7823545877
 31
0.0
  0
LINE
  5
372
330
1F
100
AcDbEntity
  8
0
  6
Continuous
 62
     7
370
    25
100
AcDbLine
 10
325.2244895002
 20
155.1990212544
 30
0.0
 11
325.2244895002
 21
155.4656879211
 31
0.0
  0
ARC
  5
373
330
1F
100
AcDbEntity
  8
0
  6
Continuous
 62
     7
370
    25
100
AcDbCircle
 10
325.2244895002
 20
154.7823545877
 30
0.0
 40
0.4166666666666856
100
AcDbArc
 50
0.0
 51
90.0
  0
ARC
  5
374
330
1F
100
AcDbEntity
  8
0
  6
Continuous
 62
     7
370
    25
100
AcDbCircle
 10
325.2244895002
 20
154.7823545877
 30
0.0
 40
0.6833333333333371
100
AcDbArc
 50
0.0
 51
90.0
  0
LINE
  5
375
330
1F
100
AcDbEntity
  8
0
  6
Continuous
 62
     7
370
    25
100
AcDbLine
 10
325.2244895002
 20
114.5656879211
 30
0.0
 11
325.2244895002
 21
114.2990212544
 31
0.0
  0
ARC
  5
376
330
1F
100
AcDbEntity
  8
0
  6
Continuous
 62
     7
370
    25
100
AcDbCircle
 10
325.2244895002
 20
114.9823545877
 30
0.0
 40
0.4166666666666856
100
AcDbArc
 50
270.0
 51
359.9999999998
  0
ARC
  5
377
330
1F
100
AcDbEntity
  8
0
  6
Continuous
 62
     7
370
    25
100
AcDbCircle
 10
325.2244895002
 20
114.9823545877
 30
0.0
 40
0.683333333333394
100
AcDbArc
 50
270.0
 51
359.9999999999
  0
LINE
  5
378
330
1F
100
AcDbEntity
  8
0
  6
Continuous
 62
     7
370
    25
100
AcDbLine
 10
325.2244895002
 20
114.2990212544
 30
0.0
 11
325.1773490481
 21
114.2990212544
 31
0.0
  0
LINE
  5
379
330
1F
100
AcDbEntity
  8
0
  6
Continuous
 62
     7
370
    25
100
AcDbLine
 10
325.2009192741
 20
155.4656879211
 30
0.0
 11
325.2244895002
 21
155.4656879211
 31
0.0
  0
LWPOLYLINE
  5
37A
330
1F
100
AcDbEntity
  8
0
  6
Continuous
 62
     7
370
    25
100
AcDbPolyline
 90
        3
 70
   128
 43
0.0
 10
74.5779517332
 20
201.9656879173
 10
74.528802575
 20
202.0527347393
 10
74.4663679845
 20
202.1323545851
  0
LINE
  5
37B
330
1F
100
AcDbEntity
  8
0
  6
Continuous
 62
     7
370
    25
100
AcDbLine
 10
70.9078228335
 20
201.6990212506
 30
0.0
 11
70.9078228335
 21
202.3490212506
 31
0.0
  0
LINE
  5
37C
330
1F
100
AcDbEntity
  8
0
  6
Continuous
 62
     7
370
    25
100
AcDbLine
 10
70.9078228335
 20
202.3490212506
 30
0.0
 11
71.3078228335
 21
202.3490212506
 31
0.0
  0
LINE
  5
37D
330
1F
100
AcDbEntity
  8
0
  6
Continuous
 62
     7
370
    25
100
AcDbLine
 10
70.9078228335
 20
202.5347116077
 30
0.0
 11
70.9078228335
 21
202.3490212506
 31
0.0
  0
LINE
  5
37E
330
1F
100
AcDbEntity
  8
0
  6
Continuous
 62
     7
370
    25
100
AcDbLine
 10
71.3078228335
 20
202.5347116077
 30
0.0
 11
71.3078228335
 21
202.3490212506
 31
0.0
  0
ARC
  5
37F
330
1F
100
AcDbEntity
  8
0
  6
Continuous
 62
     7
370
    25
100
AcDbCircle
 10
71.7244895002
 20
214.0656879173
 30
0.0
 40
0.8166666666666486
100
AcDbArc
 50
136.5303630577
 51
167.0507739864
  0
LINE
  5
380
330
1F
100
AcDbEntity
  8
0
  6
Continuous
 62
     7
370
    25
100
AcDbLine
 10
305.6244895002
 20
201.282354584
 30
0.0
 11
306.3078228335
 21
201.282354584
 31
0.0
  0
LINE
  5
381
330
1F
100
AcDbEntity
  8
0
  6
Continuous
 62
     7
370
    25
100
AcDbLine
 10
306.3078228335
 20
197.6156879185
 30
0.0
 11
306.3078228335
 21
196.3513991504
 31
0.0
  0
LINE
  5
382
330
1F
100
AcDbEntity
  8
0
  6
Continuous
 62
     7
370
    25
100
AcDbLine
 10
306.3078228335
 20
196.0847324837
 30
0.0
 11
306.3078228335
 21
195.6323545877
 31
0.0
  0
LINE
  5
383
330
1F
100
AcDbEntity
  8
0
  6
Continuous
 62
     7
370
    25
100
AcDbLine
 10
306.3078228335
 20
156.3323545877
 30
0.0
 11
306.3078228335
 21
155.8990212544
 31
0.0
  0
LINE
  5
384
330
1F
100
AcDbEntity
  8
0
  6
Continuous
 62
     7
370
    25
100
AcDbLine
 10
306.3078228335
 20
155.6323545877
 30
0.0
 11
306.3078228335
 21
114.982354584
 31
0.0
  0
LINE
  5
385
330
1F
100
AcDbEntity
  8
0
  6
Continuous
 62
     7
370
    25
100
AcDbLine
 10
306.3078228335
 20
114.982354584
 30
0.0
 11
305.6244895002
 21
114.982354584
 31
0.0
  0
LINE
  5
386
330
1F
100
AcDbEntity
  8
0
  6
Continuous
 62
     7
370
    25
100
AcDbLine
 10
71.3244895002
 20
114.2990212506
 30
0.0
 11
71.3244895002
 21
114.982354584
 31
0.0
  0
LINE
  5
387
330
1F
100
AcDbEntity
  8
0
  6
Continuous
 62
     7
370
    25
100
AcDbLine
 10
71.3244895002
 20
114.2990212506
 30
0.0
 11
305.6244895002
 21
114.2990212506
 31
0.0
  0
LINE
  5
388
330
1F
100
AcDbEntity
  8
0
  6
Continuous
 62
     7
370
    25
100
AcDbLine
 10
305.6244895002
 20
114.2990212506
 30
0.0
 11
305.6244895002
 21
114.982354584
 31
0.0
  0
LINE
  5
389
330
1F
100
AcDbEntity
  8
0
  6
Continuous
 62
     7
370
    25
100
AcDbLine
 10
71.3244895002
 20
201.282354584
 30
0.0
 11
70.6411561668
 21
201.282354584
 31
0.0
  0
LINE
  5
38A
330
1F
100
AcDbEntity
  8
0
  6
Continuous
 62
     7
370
    25
100
AcDbLine
 10
70.6411561668
 20
114.982354584
 30
0.0
 11
71.3244895002
 21
114.982354584
 31
0.0
  0
LINE
  5
38B
330
1F
100
AcDbEntity
  8
0
  6
Continuous
 62
     7
370
    25
100
AcDbLine
 10
70.6411561668
 20
114.982354584
 30
0.0
 11
70.6411561668
 21
201.282354584
 31
0.0
  0
LINE
  5
38C
330
1F
100
AcDbEntity
  8
0
  6
Continuous
 62
     7
370
    25
100
AcDbLine
 10
71.3244895002
 20
201.282354584
 30
0.0
 11
71.3244895002
 21
201.9656879173
 31
0.0
  0
LINE
  5
38D
330
1F
100
AcDbEntity
  8
0
  6
Continuous
 62
     7
370
    25
100
AcDbLine
 10
71.3244895002
 20
201.9656879173
 30
0.0
 11
305.6244895002
 21
201.9656879173
 31
0.0
  0
LINE
  5
38E
330
1F
100
AcDbEntity
  8
0
  6
Continuous
 62
     7
370
    25
100
AcDbLine
 10
305.6244895002
 20
201.282354584
 30
0.0
 11
305.6244895002
 21
201.9656879173
 31
0.0
  0
LINE
  5
38F
330
1F
100
AcDbEntity
  8
0
  6
Continuous
 62
     7
370
    25
100
AcDbLine
 10
306.0411561668
 20
114.5656879173
 30
0.0
 11
306.0411561668
 21
114.2990212506
 31
0.0
  0
LINE
  5
390
330
1F
100
AcDbEntity
  8
0
  6
Continuous
 62
     7
370
    25
100
AcDbLine
 10
306.0411561668
 20
114.5656879173
 30
0.0
 11
305.6244895002
 21
114.5656879173
 31
0.0
  0
LINE
  5
391
330
1F
100
AcDbEntity
  8
0
  6
Continuous
 62
     7
370
    25
100
AcDbLine
 10
306.0411561668
 20
114.2990212506
 30
0.0
 11
305.6244895002
 21
114.2990212506
 31
0.0
  0
LINE
  5
392
330
1F
100
AcDbEntity
  8
0
  6
Continuous
 62
     7
370
    25
100
AcDbLine
 10
70.9078228335
 20
114.5656879173
 30
0.0
 11
70.9078228335
 21
114.982354584
 31
0.0
  0
LINE
  5
393
330
1F
100
AcDbEntity
  8
0
  6
Continuous
 62
     7
370
    25
100
AcDbLine
 10
70.9078228335
 20
114.5656879173
 30
0.0
 11
70.6411561668
 21
114.5656879173
 31
0.0
  0
LINE
  5
394
330
1F
100
AcDbEntity
  8
0
  6
Continuous
 62
     7
370
    25
100
AcDbLine
 10
70.6411561668
 20
114.5656879173
 30
0.0
 11
70.6411561668
 21
114.982354584
 31
0.0
  0
LINE
  5
395
330
1F
100
AcDbEntity
  8
0
  6
Continuous
 62
     7
370
    25
100
AcDbLine
 10
305.6244895002
 20
201.9656879173
 30
0.0
 11
306.0411561668
 21
201.9656879173
 31
0.0
  0
LINE
  5
396
330
1F
100
AcDbEntity
  8
0
  6
Continuous
 62
     7
370
    25
100
AcDbLine
 10
305.6244895002
 20
201.6990212506
 30
0.0
 11
306.0411561668
 21
201.6990212506
 31
0.0
  0
LINE
  5
397
330
1F
100
AcDbEntity
  8
0
  6
Continuous
 62
     7
370
    25
100
AcDbLine
 10
306.0411561668
 20
201.6990212506
 30
0.0
 11
306.0411561668
 21
201.9656879173
 31
0.0
  0
LINE
  5
398
330
1F
100
AcDbEntity
  8
0
  6
Continuous
 62
     7
370
    25
100
AcDbLine
 10
70.9078228335
 20
201.6990212506
 30
0.0
 11
70.6411561668
 21
201.6990212506
 31
0.0
  0
LINE
  5
399
330
1F
100
AcDbEntity
  8
0
  6
Continuous
 62
     7
370
    25
100
AcDbLine
 10
70.9078228335
 20
201.282354584
 30
0.0
 11
70.9078228335
 21
201.6990212506
 31
0.0
  0
LINE
  5
39A
330
1F
100
AcDbEntity
  8
0
  6
Continuous
 62
     7
370
    25
100
AcDbLine
 10
70.6411561668
 20
201.282354584
 30
0.0
 11
70.6411561668
 21
201.6990212506
 31
0.0
  0
LINE
  5
39B
330
1F
100
AcDbEntity
  8
0
  6
Continuous
 62
     7
370
    25
100
AcDbLine
 10
77.5744895002
 20
202.1323545851
 30
0.0
 11
77.5744895002
 21
201.9656879173
 31
0.0
  0
LINE
  5
39C
330
1F
100
AcDbEntity
  8
0
  6
Continuous
 62
     7
370
    25
100
AcDbLine
 10
306.0411561668
 20
201.9656879173
 30
0.0
 11
306.0411561668
 21
202.382354584
 31
0.0
  0
LINE
  5
39D
330
1F
100
AcDbEntity
  8
0
  6
Continuous
 62
     7
370
    25
100
AcDbLine
 10
306.0411561668
 20
202.4656879173
 30
0.0
 11
306.0411561668
 21
202.382354584
 31
0.0
  0
LINE
  5
39E
330
1F
100
AcDbEntity
  8
0
  6
Continuous
 62
     7
370
    25
100
AcDbLine
 10
306.0411561668
 20
202.4656879173
 30
0.0
 11
305.5578228323
 21
202.9490212518
 31
0.0
  0
LINE
  5
39F
330
1F
100
AcDbEntity
  8
0
  6
Continuous
 62
     7
370
    25
100
AcDbLine
 10
309.3078228335
 20
155.6323545877
 30
0.0
 11
309.3078228335
 21
155.4656879211
 31
0.0
  0
LINE
  5
3A0
330
1F
100
AcDbEntity
  8
0
  6
CENTERX2
 62
     7
370
    18
100
AcDbLine
 10
71.3078228335
 20
129.732354584
 30
0.0
 11
70.9078228335
 21
129.732354584
 31
0.0
  0
LINE
  5
3A1
330
1F
100
AcDbEntity
  8
0
  6
CENTERX2
 62
     7
370
    18
100
AcDbLine
 10
71.3078228335
 20
129.732354584
 30
0.0
 11
70.9078228335
 21
129.732354584
 31
0.0
  0
LINE
  5
3A2
330
1F
100
AcDbEntity
  8
0
  6
CENTERX2
 62
     7
370
    18
100
AcDbLine
 10
94.7744895002
 20
102.8990212506
 30
0.0
 11
94.7744895002
 21
66.5656879173
 31
0.0
  0
LINE
  5
3A3
330
1F
100
AcDbEntity
  8
0
  6
CENTERX2
 62
     7
370
    18
100
AcDbLine
 10
94.7744895002
 20
97.7971844842
 30
0.0
 11
94.7744895002
 21
84.1026947835
 31
0.0
  0
LINE
  5
3A4
330
1F
100
AcDbEntity
  8
0
  6
CENTERX2
 62
     7
370
    18
100
AcDbLine
 10
94.7744895002
 20
102.8990212506
 30
0.0
 11
94.7744895002
 21
93.232354584
 31
0.0
  0
LINE
  5
3A5
330
1F
100
AcDbEntity
  8
0
  6
CENTERX2
 62
     7
370
    18
100
AcDbLine
 10
94.7744895002
 20
113.8990212506
 30
0.0
 11
94.7744895002
 21
114.5656879173
 31
0.0
  0
LINE
  5
3A6
330
1F
100
AcDbEntity
  8
0
  6
CENTERX2
 62
     7
370
    18
100
AcDbLine
 10
94.7744895002
 20
76.4598349019
 30
0.0
 11
94.7744895002
 21
58.8099598937
 31
0.0
  0
LINE
  5
3A7
330
1F
100
AcDbEntity
  8
0
  6
CENTERX2
 62
     7
370
    18
100
AcDbLine
 10
94.7744895002
 20
113.8990212506
 30
0.0
 11
94.7744895002
 21
70.5765432325
 31
0.0
  0
LINE
  5
3A8
330
1F
100
AcDbEntity
  8
0
  6
CENTERX2
 62
     7
370
    18
100
AcDbLine
 10
94.7744895002
 20
119.6977795057
 30
0.0
 11
94.7744895002
 21
100.8015047405
 31
0.0
  0
LINE
  5
3A9
330
1F
100
AcDbEntity
  8
0
  6
CENTERX2
 62
     7
370
    18
100
AcDbLine
 10
94.7744895002
 20
113.3990212506
 30
0.0
 11
94.7744895002
 21
70.5765432325
 31
0.0
  0
LINE
  5
3AA
330
1F
100
AcDbEntity
  8
0
  6
CENTERX2
 62
     7
370
    18
100
AcDbLine
 10
94.7744895002
 20
76.591885358
 30
0.0
 11
94.7744895002
 21
58.5458589816
 31
0.0
  0
LINE
  5
3AB
330
1F
100
AcDbEntity
  8
0
  6
CENTERX2
 62
     7
370
    18
100
AcDbLine
 10
94.7744895002
 20
70.319055491
 30
0.0
 11
94.7744895002
 21
68.5656879173
 31
0.0
  0
LINE
  5
3AC
330
1F
100
AcDbEntity
  8
0
  6
CENTERX2
 62
     7
370
    18
100
AcDbLine
 10
94.7744895002
 20
68.5656879173
 30
0.0
 11
94.7744895002
 21
68.6040371554
 31
0.0
  0
LINE
  5
3AD
330
1F
100
AcDbEntity
  8
0
  6
CENTERX2
 62
     7
370
    18
100
AcDbLine
 10
94.7744895002
 20
70.3574047291
 30
0.0
 11
94.7744895002
 21
68.6040371554
 31
0.0
  0
LINE
  5
3AE
330
1F
100
AcDbEntity
  8
0
  6
CENTERX2
 62
     7
370
    18
100
AcDbLine
 10
94.7744895002
 20
70.6080199175
 30
0.0
 11
94.7744895002
 21
54.481023917
 31
0.0
  0
LINE
  5
3AF
330
1F
100
AcDbEntity
  8
0
  6
CENTERX2
 62
     7
370
    18
100
AcDbLine
 10
94.7744895002
 20
66.5656879173
 30
0.0
 11
94.7744895002
 21
65.232354584
 31
0.0
  0
LINE
  5
3B0
330
1F
100
AcDbEntity
  8
0
  6
CENTERX2
 62
     7
370
    18
100
AcDbLine
 10
94.7744895002
 20
71.232354584
 30
0.0
 11
94.7744895002
 21
66.5656879173
 31
0.0
  0
LINE
  5
3B1
330
1F
100
AcDbEntity
  8
0
  6
CENTERX2
 62
     7
370
    18
100
AcDbLine
 10
94.7744895002
 20
71.232354584
 30
0.0
 11
94.7744895002
 21
65.232354584
 31
0.0
  0
LINE
  5
3B2
330
1F
100
AcDbEntity
  8
0
  6
CENTERX2
 62
     7
370
    18
100
AcDbLine
 10
94.7744895002
 20
70.2764104917
 30
0.0
 11
94.7744895002
 21
55.1442427686
 31
0.0
  0
LINE
  5
3B3
330
1F
100
AcDbEntity
  8
0
  6
CENTERX2
 62
     7
370
    18
100
AcDbLine
 10
94.7744895002
 20
65.1490212506
 30
0.0
 11
94.7744895002
 21
65.982354584
 31
0.0
  0
LINE
  5
3B4
330
1F
100
AcDbEntity
  8
0
  6
CENTERX2
 62
     7
370
    18
100
AcDbLine
 10
94.7744895002
 20
64.5656879173
 30
0.0
 11
94.7744895002
 21
65.5791653914
 31
0.0
  0
LINE
  5
3B5
330
1F
100
AcDbEntity
  8
0
  6
CENTERX2
 62
     7
370
    18
100
AcDbLine
 10
291.1078228335
 20
102.8990212506
 30
0.0
 11
291.1078228335
 21
66.5656879173
 31
0.0
  0
LINE
  5
3B6
330
1F
100
AcDbEntity
  8
0
  6
CENTERX2
 62
     7
370
    18
100
AcDbLine
 10
291.1078228335
 20
97.7971844842
 30
0.0
 11
291.1078228335
 21
84.1026947835
 31
0.0
  0
LINE
  5
3B7
330
1F
100
AcDbEntity
  8
0
  6
CENTERX2
 62
     7
370
    18
100
AcDbLine
 10
291.1078228335
 20
102.8990212506
 30
0.0
 11
291.1078228335
 21
93.232354584
 31
0.0
  0
LINE
  5
3B8
330
1F
100
AcDbEntity
  8
0
  6
CENTERX2
 62
     7
370
    18
100
AcDbLine
 10
291.1078228335
 20
113.8990212506
 30
0.0
 11
291.1078228335
 21
114.5656879173
 31
0.0
  0
LINE
  5
3B9
330
1F
100
AcDbEntity
  8
0
  6
CENTERX2
 62
     7
370
    18
100
AcDbLine
 10
291.1078228335
 20
76.4598349019
 30
0.0
 11
291.1078228335
 21
58.8099598937
 31
0.0
  0
LINE
  5
3BA
330
1F
100
AcDbEntity
  8
0
  6
CENTERX2
 62
     7
370
    18
100
AcDbLine
 10
291.1078228335
 20
113.8990212506
 30
0.0
 11
291.1078228335
 21
70.5765432325
 31
0.0
  0
LINE
  5
3BB
330
1F
100
AcDbEntity
  8
0
  6
CENTERX2
 62
     7
370
    18
100
AcDbLine
 10
291.1078228335
 20
119.6977795057
 30
0.0
 11
291.1078228335
 21
100.8015047405
 31
0.0
  0
LINE
  5
3BC
330
1F
100
AcDbEntity
  8
0
  6
CENTERX2
 62
     7
370
    18
100
AcDbLine
 10
291.1078228335
 20
113.3990212506
 30
0.0
 11
291.1078228335
 21
70.5765432325
 31
0.0
  0
LINE
  5
3BD
330
1F
100
AcDbEntity
  8
0
  6
CENTERX2
 62
     7
370
    18
100
AcDbLine
 10
291.1078228335
 20
76.591885358
 30
0.0
 11
291.1078228335
 21
58.5458589816
 31
0.0
  0
LINE
  5
3BE
330
1F
100
AcDbEntity
  8
0
  6
CENTERX2
 62
     7
370
    18
100
AcDbLine
 10
291.1078228335
 20
70.319055491
 30
0.0
 11
291.1078228335
 21
68.5656879173
 31
0.0
  0
LINE
  5
3BF
330
1F
100
AcDbEntity
  8
0
  6
CENTERX2
 62
     7
370
    18
100
AcDbLine
 10
291.1078228335
 20
68.5656879173
 30
0.0
 11
291.1078228335
 21
68.6040371554
 31
0.0
  0
LINE
  5
3C0
330
1F
100
AcDbEntity
  8
0
  6
CENTERX2
 62
     7
370
    18
100
AcDbLine
 10
291.1078228335
 20
70.3574047291
 30
0.0
 11
291.1078228335
 21
68.6040371554
 31
0.0
  0
LINE
  5
3C1
330
1F
100
AcDbEntity
  8
0
  6
CENTERX2
 62
     7
370
    18
100
AcDbLine
 10
291.1078228335
 20
70.6080199175
 30
0.0
 11
291.1078228335
 21
54.481023917
 31
0.0
  0
LINE
  5
3C2
330
1F
100
AcDbEntity
  8
0
  6
CENTERX2
 62
     7
370
    18
100
AcDbLine
 10
291.1078228335
 20
66.5656879173
 30
0.0
 11
291.1078228335
 21
65.232354584
 31
0.0
  0
LINE
  5
3C3
330
1F
100
AcDbEntity
  8
0
  6
CENTERX2
 62
     7
370
    18
100
AcDbLine
 10
291.1078228335
 20
71.232354584
 30
0.0
 11
291.1078228335
 21
66.5656879173
 31
0.0
  0
LINE
  5
3C4
330
1F
100
AcDbEntity
  8
0
  6
CENTERX2
 62
     7
370
    18
100
AcDbLine
 10
291.1078228335
 20
71.232354584
 30
0.0
 11
291.1078228335
 21
65.232354584
 31
0.0
  0
LINE
  5
3C5
330
1F
100
AcDbEntity
  8
0
  6
CENTERX2
 62
     7
370
    18
100
AcDbLine
 10
291.1078228335
 20
70.2764104917
 30
0.0
 11
291.1078228335
 21
55.1442427686
 31
0.0
  0
LINE
  5
3C6
330
1F
100
AcDbEntity
  8
0
  6
CENTERX2
 62
     7
370
    18
100
AcDbLine
 10
291.1078228335
 20
65.1490212506
 30
0.0
 11
291.1078228335
 21
65.982354584
 31
0.0
  0
LINE
  5
3C7
330
1F
100
AcDbEntity
  8
0
  6
CENTERX2
 62
     7
370
    18
100
AcDbLine
 10
291.1078228335
 20
64.5656879173
 30
0.0
 11
291.1078228335
 21
65.5791653914
 31
0.0
  0
LINE
  5
3C8
330
1F
100
AcDbEntity
  8
0
  6
CENTERX2
 62
     7
370
    18
100
AcDbLine
 10
94.7744895002
 20
102.8990212506
 30
0.0
 11
94.7744895002
 21
66.5656879173
 31
0.0
  0
LINE
  5
3C9
330
1F
100
AcDbEntity
  8
0
  6
CENTERX2
 62
     7
370
    18
100
AcDbLine
 10
94.7744895002
 20
97.7971844842
 30
0.0
 11
94.7744895002
 21
84.1026947835
 31
0.0
  0
LINE
  5
3CA
330
1F
100
AcDbEntity
  8
0
  6
CENTERX2
 62
     7
370
    18
100
AcDbLine
 10
94.7744895002
 20
102.8990212506
 30
0.0
 11
94.7744895002
 21
93.232354584
 31
0.0
  0
LINE
  5
3CB
330
1F
100
AcDbEntity
  8
0
  6
CENTERX2
 62
     7
370
    18
100
AcDbLine
 10
94.7744895002
 20
113.8990212506
 30
0.0
 11
94.7744895002
 21
114.5656879173
 31
0.0
  0
LINE
  5
3CC
330
1F
100
AcDbEntity
  8
0
  6
CENTERX2
 62
     7
370
    18
100
AcDbLine
 10
94.7744895002
 20
76.4598349019
 30
0.0
 11
94.7744895002
 21
58.8099598937
 31
0.0
  0
LINE
  5
3CD
330
1F
100
AcDbEntity
  8
0
  6
CENTERX2
 62
     7
370
    18
100
AcDbLine
 10
94.7744895002
 20
113.8990212506
 30
0.0
 11
94.7744895002
 21
70.5765432325
 31
0.0
  0
LINE
  5
3CE
330
1F
100
AcDbEntity
  8
0
  6
CENTERX2
 62
     7
370
    18
100
AcDbLine
 10
94.7744895002
 20
119.6977795057
 30
0.0
 11
94.7744895002
 21
100.8015047405
 31
0.0
  0
LINE
  5
3CF
330
1F
100
AcDbEntity
  8
0
  6
CENTERX2
 62
     7
370
    18
100
AcDbLine
 10
94.7744895002
 20
113.3990212506
 30
0.0
 11
94.7744895002
 21
70.5765432325
 31
0.0
  0
LINE
  5
3D0
330
1F
100
AcDbEntity
  8
0
  6
CENTERX2
 62
     7
370
    18
100
AcDbLine
 10
94.7744895002
 20
76.591885358
 30
0.0
 11
94.7744895002
 21
58.5458589816
 31
0.0
  0
LINE
  5
3D1
330
1F
100
AcDbEntity
  8
0
  6
CENTERX2
 62
     7
370
    18
100
AcDbLine
 10
94.7744895002
 20
70.319055491
 30
0.0
 11
94.7744895002
 21
68.5656879173
 31
0.0
  0
LINE
  5
3D2
330
1F
100
AcDbEntity
  8
0
  6
CENTERX2
 62
     7
370
    18
100
AcDbLine
 10
94.7744895002
 20
68.5656879173
 30
0.0
 11
94.7744895002
 21
68.6040371554
 31
0.0
  0
LINE
  5
3D3
330
1F
100
AcDbEntity
  8
0
  6
CENTERX2
 62
     7
370
    18
100
AcDbLine
 10
94.7744895002
 20
70.3574047291
 30
0.0
 11
94.7744895002
 21
68.6040371554
 31
0.0
  0
LINE
  5
3D4
330
1F
100
AcDbEntity
  8
0
  6
CENTERX2
 62
     7
370
    18
100
AcDbLine
 10
94.7744895002
 20
70.6080199175
 30
0.0
 11
94.7744895002
 21
54.481023917
 31
0.0
  0
LINE
  5
3D5
330
1F
100
AcDbEntity
  8
0
  6
CENTERX2
 62
     7
370
    18
100
AcDbLine
 10
94.7744895002
 20
66.5656879173
 30
0.0
 11
94.7744895002
 21
65.232354584
 31
0.0
  0
LINE
  5
3D6
330
1F
100
AcDbEntity
  8
0
  6
CENTERX2
 62
     7
370
    18
100
AcDbLine
 10
94.7744895002
 20
71.232354584
 30
0.0
 11
94.7744895002
 21
66.5656879173
 31
0.0
  0
LINE
  5
3D7
330
1F
100
AcDbEntity
  8
0
  6
CENTERX2
 62
     7
370
    18
100
AcDbLine
 10
94.7744895002
 20
71.232354584
 30
0.0
 11
94.7744895002
 21
65.232354584
 31
0.0
  0
LINE
  5
3D8
330
1F
100
AcDbEntity
  8
0
  6
CENTERX2
 62
     7
370
    18
100
AcDbLine
 10
94.7744895002
 20
70.2764104917
 30
0.0
 11
94.7744895002
 21
55.1442427686
 31
0.0
  0
LINE
  5
3D9
330
1F
100
AcDbEntity
  8
0
  6
CENTERX2
 62
     7
370
    18
100
AcDbLine
 10
94.7744895002
 20
65.1490212506
 30
0.0
 11
94.7744895002
 21
65.982354584
 31
0.0
  0
LINE
  5
3DA
330
1F
100
AcDbEntity
  8
0
  6
CENTERX2
 62
     7
370
    18
100
AcDbLine
 10
94.7744895002
 20
64.5656879173
 30
0.0
 11
94.7744895002
 21
65.5791653914
 31
0.0
  0
LINE
  5
3DB
330
1F
100
AcDbEntity
  8
0
  6
CENTERX2
 62
     7
370
    18
100
AcDbLine
 10
291.1078228335
 20
102.8990212506
 30
0.0
 11
291.1078228335
 21
66.5656879173
 31
0.0
  0
LINE
  5
3DC
330
1F
100
AcDbEntity
  8
0
  6
CENTERX2
 62
     7
370
    18
100
AcDbLine
 10
291.1078228335
 20
97.7971844842
 30
0.0
 11
291.1078228335
 21
84.1026947835
 31
0.0
  0
LINE
  5
3DD
330
1F
100
AcDbEntity
  8
0
  6
CENTERX2
 62
     7
370
    18
100
AcDbLine
 10
291.1078228335
 20
102.8990212506
 30
0.0
 11
291.1078228335
 21
93.232354584
 31
0.0
  0
LINE
  5
3DE
330
1F
100
AcDbEntity
  8
0
  6
CENTERX2
 62
     7
370
    18
100
AcDbLine
 10
291.1078228335
 20
113.8990212506
 30
0.0
 11
291.1078228335
 21
114.5656879173
 31
0.0
  0
LINE
  5
3DF
330
1F
100
AcDbEntity
  8
0
  6
CENTERX2
 62
     7
370
    18
100
AcDbLine
 10
291.1078228335
 20
76.4598349019
 30
0.0
 11
291.1078228335
 21
58.8099598937
 31
0.0
  0
LINE
  5
3E0
330
1F
100
AcDbEntity
  8
0
  6
CENTERX2
 62
     7
370
    18
100
AcDbLine
 10
291.1078228335
 20
113.8990212506
 30
0.0
 11
291.1078228335
 21
70.5765432325
 31
0.0
  0
LINE
  5
3E1
330
1F
100
AcDbEntity
  8
0
  6
CENTERX2
 62
     7
370
    18
100
AcDbLine
 10
291.1078228335
 20
119.6977795057
 30
0.0
 11
291.1078228335
 21
100.8015047405
 31
0.0
  0
LINE
  5
3E2
330
1F
100
AcDbEntity
  8
0
  6
CENTERX2
 62
     7
370
    18
100
AcDbLine
 10
291.1078228335
 20
113.3990212506
 30
0.0
 11
291.1078228335
 21
70.5765432325
 31
0.0
  0
LINE
  5
3E3
330
1F
100
AcDbEntity
  8
0
  6
CENTERX2
 62
     7
370
    18
100
AcDbLine
 10
291.1078228335
 20
76.591885358
 30
0.0
 11
291.1078228335
 21
58.5458589816
 31
0.0
  0
LINE
  5
3E4
330
1F
100
AcDbEntity
  8
0
  6
CENTERX2
 62
     7
370
    18
100
AcDbLine
 10
291.1078228335
 20
70.319055491
 30
0.0
 11
291.1078228335
 21
68.5656879173
 31
0.0
  0
LINE
  5
3E5
330
1F
100
AcDbEntity
  8
0
  6
CENTERX2
 62
     7
370
    18
100
AcDbLine
 10
291.1078228335
 20
68.5656879173
 30
0.0
 11
291.1078228335
 21
68.6040371554
 31
0.0
  0
LINE
  5
3E6
330
1F
100
AcDbEntity
  8
0
  6
CENTERX2
 62
     7
370
    18
100
AcDbLine
 10
291.1078228335
 20
70.3574047291
 30
0.0
 11
291.1078228335
 21
68.6040371554
 31
0.0
  0
LINE
  5
3E7
330
1F
100
AcDbEntity
  8
0
  6
CENTERX2
 62
     7
370
    18
100
AcDbLine
 10
291.1078228335
 20
70.6080199175
 30
0.0
 11
291.1078228335
 21
54.481023917
 31
0.0
  0
LINE
  5
3E8
330
1F
100
AcDbEntity
  8
0
  6
CENTERX2
 62
     7
370
    18
100
AcDbLine
 10
291.1078228335
 20
66.5656879173
 30
0.0
 11
291.1078228335
 21
65.232354584
 31
0.0
  0
LINE
  5
3E9
330
1F
100
AcDbEntity
  8
0
  6
CENTERX2
 62
     7
370
    18
100
AcDbLine
 10
291.1078228335
 20
71.232354584
 30
0.0
 11
291.1078228335
 21
66.5656879173
 31
0.0
  0
LINE
  5
3EA
330
1F
100
AcDbEntity
  8
0
  6
CENTERX2
 62
     7
370
    18
100
AcDbLine
 10
291.1078228335
 20
71.232354584
 30
0.0
 11
291.1078228335
 21
65.232354584
 31
0.0
  0
LINE
  5
3EB
330
1F
100
AcDbEntity
  8
0
  6
CENTERX2
 62
     7
370
    18
100
AcDbLine
 10
291.1078228335
 20
70.2764104917
 30
0.0
 11
291.1078228335
 21
55.1442427686
 31
0.0
  0
LINE
  5
3EC
330
1F
100
AcDbEntity
  8
0
  6
CENTERX2
 62
     7
370
    18
100
AcDbLine
 10
291.1078228335
 20
65.1490212506
 30
0.0
 11
291.1078228335
 21
65.982354584
 31
0.0
  0
LINE
  5
3ED
330
1F
100
AcDbEntity
  8
0
  6
CENTERX2
 62
     7
370
    18
100
AcDbLine
 10
291.1078228335
 20
64.5656879173
 30
0.0
 11
291.1078228335
 21
65.5791653914
 31
0.0
  0
LINE
  5
3EE
330
1F
100
AcDbEntity
  8
0
  6
CENTERX2
 62
     7
370
    18
100
AcDbLine
 10
68.7826549105
 20
129.732354584
 30
0.0
 11
67.2911907565
 21
129.732354584
 31
0.0
  0
LINE
  5
3EF
330
1F
100
AcDbEntity
  8
0
  6
CENTERX2
 62
     7
370
    18
100
AcDbLine
 10
68.5699591937
 20
129.732354584
 30
0.0
 11
69.583550113
 21
129.732354584
 31
0.0
  0
LINE
  5
3F0
330
1F
100
AcDbEntity
  8
0
  6
CENTERX2
 62
     7
370
    18
100
AcDbLine
 10
68.5558059449
 20
129.732354584
 30
0.0
 11
69.6118566107
 21
129.732354584
 31
0.0
  0
LINE
  5
3F1
330
1F
100
AcDbEntity
  8
0
  6
CENTERX2
 62
     7
370
    18
100
AcDbLine
 10
68.5692129834
 20
129.732354584
 30
0.0
 11
69.5850425338
 21
129.732354584
 31
0.0
  0
LINE
  5
3F2
330
1F
100
AcDbEntity
  8
0
  6
CENTERX2
 62
     7
370
    18
100
AcDbLine
 10
68.5699591937
 20
129.732354584
 30
0.0
 11
69.583550113
 21
129.732354584
 31
0.0
  0
LINE
  5
3F3
330
1F
100
AcDbEntity
  8
0
  6
CENTERX2
 62
     7
370
    18
100
AcDbLine
 10
68.5558059449
 20
129.732354584
 30
0.0
 11
69.6118566107
 21
129.732354584
 31
0.0
  0
LINE
  5
3F4
330
1F
100
AcDbEntity
  8
0
  6
CENTERX2
 62
     7
370
    18
100
AcDbLine
 10
68.5692129834
 20
129.732354584
 30
0.0
 11
69.5850425338
 21
129.732354584
 31
0.0
  0
LINE
  5
3F5
330
1F
100
AcDbEntity
  8
0
  6
CENTERX2
 62
     7
370
    18
100
AcDbLine
 10
67.5130993503
 20
129.732354584
 30
0.0
 11
66.4972697999
 21
129.732354584
 31
0.0
  0
LINE
  5
3F6
330
1F
100
AcDbEntity
  8
0
  6
CENTERX2
 62
     7
370
    18
100
AcDbLine
 10
67.5265063888
 20
129.732354584
 30
0.0
 11
66.470455723
 21
129.732354584
 31
0.0
  0
LINE
  5
3F7
330
1F
100
AcDbEntity
  8
0
  6
CENTERX2
 62
     7
370
    18
100
AcDbLine
 10
67.5123531399
 20
129.732354584
 30
0.0
 11
66.4987622206
 21
129.732354584
 31
0.0
  0
LINE
  5
3F8
330
1F
100
AcDbEntity
  8
0
  6
CENTERX2
 62
     7
370
    18
100
AcDbLine
 10
67.5130993503
 20
129.732354584
 30
0.0
 11
66.4972697999
 21
129.732354584
 31
0.0
  0
LINE
  5
3F9
330
1F
100
AcDbEntity
  8
0
  6
CENTERX2
 62
     7
370
    18
100
AcDbLine
 10
67.5265063888
 20
129.732354584
 30
0.0
 11
66.470455723
 21
129.732354584
 31
0.0
  0
LINE
  5
3FA
330
1F
100
AcDbEntity
  8
0
  6
CENTERX2
 62
     7
370
    18
100
AcDbLine
 10
67.5123531399
 20
129.732354584
 30
0.0
 11
66.4987622206
 21
129.732354584
 31
0.0
  0
LINE
  5
3FB
330
1F
100
AcDbEntity
  8
0
  6
CENTERX2
 62
     7
370
    18
100
AcDbLine
 10
65.1744895002
 20
129.732354584
 30
0.0
 11
67.2911907565
 21
129.732354584
 31
0.0
  0
LINE
  5
3FC
330
1F
100
AcDbEntity
  8
0
  6
CENTERX2
 62
     7
370
    18
100
AcDbLine
 10
68.8993561668
 20
129.732354584
 30
0.0
 11
68.7826549105
 21
129.732354584
 31
0.0
  0
LINE
  5
3FD
330
1F
100
AcDbEntity
  8
0
  6
CENTERX2
 62
     7
370
    18
100
AcDbLine
 10
70.9078228335
 20
129.732354584
 30
0.0
 11
68.8993561668
 21
129.732354584
 31
0.0
  0
LINE
  5
3FE
330
1F
100
AcDbEntity
  8
0
  6
CENTERX2
 62
     7
370
    18
100
AcDbLine
 10
66.8578228335
 20
129.732354584
 30
0.0
 11
67.0911561668
 21
129.732354584
 31
0.0
  0
LINE
  5
3FF
330
1F
100
AcDbEntity
  8
0
  6
CENTERX2
 62
     7
370
    18
100
AcDbLine
 10
66.8578228335
 20
129.732354584
 30
0.0
 11
67.0911561668
 21
129.732354584
 31
0.0
  0
LINE
  5
400
330
1F
100
AcDbEntity
  8
0
  6
CENTERX2
 62
     7
370
    18
100
AcDbLine
 10
66.8578228335
 20
129.732354584
 30
0.0
 11
67.0911561668
 21
129.732354584
 31
0.0
  0
LINE
  5
401
330
1F
100
AcDbEntity
  8
0
  6
CENTERX2
 62
     7
370
    18
100
AcDbLine
 10
64.9911561668
 20
129.732354584
 30
0.0
 11
66.6911561668
 21
129.732354584
 31
0.0
  0
LINE
  5
402
330
1F
100
AcDbEntity
  8
0
  6
CENTERX2
 62
     7
370
    18
100
AcDbLine
 10
64.9911561668
 20
129.732354584
 30
0.0
 11
66.6911561668
 21
129.732354584
 31
0.0
  0
LINE
  5
403
330
1F
100
AcDbEntity
  8
0
  6
CENTERX2
 62
     7
370
    18
100
AcDbLine
 10
66.6911561668
 20
129.732354584
 30
0.0
 11
64.9911561668
 21
129.732354584
 31
0.0
  0
LINE
  5
404
330
1F
100
AcDbEntity
  8
0
  6
CENTERX2
 62
     7
370
    18
100
AcDbLine
 10
66.6911561668
 20
129.732354584
 30
0.0
 11
64.9911561668
 21
129.732354584
 31
0.0
  0
LINE
  5
405
330
1F
100
AcDbEntity
  8
0
  6
CENTERX2
 62
     7
370
    18
100
AcDbLine
 10
64.8259895002
 20
129.732354584
 30
0.0
 11
71.3078228335
 21
129.732354584
 31
0.0
  0
LINE
  5
406
330
1F
100
AcDbEntity
  8
0
  6
CENTERX2
 62
     7
370
    18
100
AcDbLine
 10
64.8259895002
 20
129.732354584
 30
0.0
 11
64.6411561668
 21
129.732354584
 31
0.0
  0
LINE
  5
407
330
1F
100
AcDbEntity
  8
0
  6
CENTERX2
 62
     7
370
    18
100
AcDbLine
 10
72.4275463167
 20
129.732354584
 30
0.0
 11
73.4433758671
 21
129.732354584
 31
0.0
  0
LINE
  5
408
330
1F
100
AcDbEntity
  8
0
  6
CENTERX2
 62
     7
370
    18
100
AcDbLine
 10
72.4141392782
 20
129.732354584
 30
0.0
 11
73.470189944
 21
129.732354584
 31
0.0
  0
LINE
  5
409
330
1F
100
AcDbEntity
  8
0
  6
CENTERX2
 62
     7
370
    18
100
AcDbLine
 10
72.4282925271
 20
129.732354584
 30
0.0
 11
73.4418834464
 21
129.732354584
 31
0.0
  0
LINE
  5
40A
330
1F
100
AcDbEntity
  8
0
  6
CENTERX2
 62
     7
370
    18
100
AcDbLine
 10
72.4275463167
 20
129.732354584
 30
0.0
 11
73.4433758671
 21
129.732354584
 31
0.0
  0
LINE
  5
40B
330
1F
100
AcDbEntity
  8
0
  6
CENTERX2
 62
     7
370
    18
100
AcDbLine
 10
72.4141392782
 20
129.732354584
 30
0.0
 11
73.470189944
 21
129.732354584
 31
0.0
  0
LINE
  5
40C
330
1F
100
AcDbEntity
  8
0
  6
CENTERX2
 62
     7
370
    18
100
AcDbLine
 10
72.4282925271
 20
129.732354584
 30
0.0
 11
73.4418834464
 21
129.732354584
 31
0.0
  0
LINE
  5
40D
330
1F
100
AcDbEntity
  8
0
  6
CENTERX2
 62
     7
370
    18
100
AcDbLine
 10
70.9078228335
 20
129.732354584
 30
0.0
 11
70.7244895002
 21
129.732354584
 31
0.0
  0
LINE
  5
40E
330
1F
100
AcDbEntity
  8
0
  6
CENTERX2
 62
     7
370
    18
100
AcDbLine
 10
70.9078228335
 20
129.732354584
 30
0.0
 11
70.7244895002
 21
129.732354584
 31
0.0
  0
LINE
  5
40F
330
1F
100
AcDbEntity
  8
0
  6
CENTERX2
 62
     7
370
    18
100
AcDbLine
 10
70.9078228335
 20
129.732354584
 30
0.0
 11
70.7244895002
 21
129.732354584
 31
0.0
  0
LINE
  5
410
330
1F
100
AcDbEntity
  8
0
  6
CENTERX2
 62
     7
370
    18
100
AcDbLine
 10
70.9078228335
 20
129.732354584
 30
0.0
 11
70.7244895002
 21
129.732354584
 31
0.0
  0
LINE
  5
411
330
1F
100
AcDbEntity
  8
0
  6
CENTERX2
 62
     7
370
    18
100
AcDbLine
 10
70.9078228335
 20
129.732354584
 30
0.0
 11
70.7244895002
 21
129.732354584
 31
0.0
  0
LINE
  5
412
330
1F
100
AcDbEntity
  8
0
  6
CENTERX2
 62
     7
370
    18
100
AcDbLine
 10
70.9078228335
 20
129.732354584
 30
0.0
 11
70.7244895002
 21
129.732354584
 31
0.0
  0
LINE
  5
413
330
1F
100
AcDbEntity
  8
0
  6
CENTERX2
 62
     7
370
    18
100
AcDbLine
 10
70.9078228335
 20
129.732354584
 30
0.0
 11
70.7244895002
 21
129.732354584
 31
0.0
  0
LINE
  5
414
330
1F
100
AcDbEntity
  8
0
  6
CENTERX2
 62
     7
370
    18
100
AcDbLine
 10
70.9078228335
 20
129.732354584
 30
0.0
 11
70.7244895002
 21
129.732354584
 31
0.0
  0
LINE
  5
415
330
1F
100
AcDbEntity
  8
0
  6
CENTERX2
 62
     7
370
    18
100
AcDbLine
 10
70.9078228335
 20
129.732354584
 30
0.0
 11
70.7244895002
 21
129.732354584
 31
0.0
  0
LINE
  5
416
330
1F
100
AcDbEntity
  8
0
  6
CENTERX2
 62
     7
370
    18
100
AcDbLine
 10
70.9078228335
 20
129.732354584
 30
0.0
 11
70.7244895002
 21
129.732354584
 31
0.0
  0
LINE
  5
417
330
1F
100
AcDbEntity
  8
0
  6
CENTERX2
 62
     7
370
    18
100
AcDbLine
 10
70.9078228335
 20
129.732354584
 30
0.0
 11
70.7244895002
 21
129.732354584
 31
0.0
  0
LINE
  5
418
330
1F
100
AcDbEntity
  8
0
  6
CENTERX2
 62
     7
370
    18
100
AcDbLine
 10
70.9078228335
 20
129.732354584
 30
0.0
 11
70.7244895002
 21
129.732354584
 31
0.0
  0
LINE
  5
419
330
1F
100
AcDbEntity
  8
0
  6
CENTERX2
 62
     7
370
    18
100
AcDbLine
 10
70.9078228335
 20
129.732354584
 30
0.0
 11
70.7244895002
 21
129.732354584
 31
0.0
  0
LINE
  5
41A
330
1F
100
AcDbEntity
  8
0
  6
CENTERX2
 62
     7
370
    18
100
AcDbLine
 10
70.9078228335
 20
129.732354584
 30
0.0
 11
70.7244895002
 21
129.732354584
 31
0.0
  0
LINE
  5
41B
330
1F
100
AcDbEntity
  8
0
  6
CENTERX2
 62
     7
370
    18
100
AcDbLine
 10
70.9078228335
 20
129.732354584
 30
0.0
 11
70.7244895002
 21
129.732354584
 31
0.0
  0
LINE
  5
41C
330
1F
100
AcDbEntity
  8
0
  6
CENTERX2
 62
     7
370
    18
100
AcDbLine
 10
70.9078228335
 20
129.732354584
 30
0.0
 11
70.7244895002
 21
129.732354584
 31
0.0
  0
LINE
  5
41D
330
1F
100
AcDbEntity
  8
0
  6
CENTERX2
 62
     7
370
    18
100
AcDbLine
 10
70.9078228335
 20
129.732354584
 30
0.0
 11
70.7244895002
 21
129.732354584
 31
0.0
  0
LINE
  5
41E
330
1F
100
AcDbEntity
  8
0
  6
CENTERX2
 62
     7
370
    18
100
AcDbLine
 10
70.9078228335
 20
129.732354584
 30
0.0
 11
70.7244895002
 21
129.732354584
 31
0.0
  0
LINE
  5
41F
330
1F
100
AcDbEntity
  8
0
  6
CENTERX2
 62
     7
370
    18
100
AcDbLine
 10
70.9078228335
 20
129.732354584
 30
0.0
 11
70.7244895002
 21
129.732354584
 31
0.0
  0
LINE
  5
420
330
1F
100
AcDbEntity
  8
0
  6
CENTERX2
 62
     7
370
    18
100
AcDbLine
 10
70.9078228335
 20
129.732354584
 30
0.0
 11
70.7244895002
 21
129.732354584
 31
0.0
  0
LINE
  5
421
330
1F
100
AcDbEntity
  8
0
  6
CENTERX2
 62
     7
370
    18
100
AcDbLine
 10
70.9078228335
 20
129.732354584
 30
0.0
 11
70.7244895002
 21
129.732354584
 31
0.0
  0
LINE
  5
422
330
1F
100
AcDbEntity
  8
0
  6
CENTERX2
 62
     7
370
    18
100
AcDbLine
 10
70.5993215771
 20
129.732354584
 30
0.0
 11
69.1078574232
 21
129.732354584
 31
0.0
  0
LINE
  5
423
330
1F
100
AcDbEntity
  8
0
  6
CENTERX2
 62
     7
370
    18
100
AcDbLine
 10
70.3866258604
 20
129.732354584
 30
0.0
 11
71.4002167797
 21
129.732354584
 31
0.0
  0
LINE
  5
424
330
1F
100
AcDbEntity
  8
0
  6
CENTERX2
 62
     7
370
    18
100
AcDbLine
 10
70.3724726116
 20
129.732354584
 30
0.0
 11
71.4285232774
 21
129.732354584
 31
0.0
  0
LINE
  5
425
330
1F
100
AcDbEntity
  8
0
  6
CENTERX2
 62
     7
370
    18
100
AcDbLine
 10
70.38587965
 20
129.732354584
 30
0.0
 11
71.4017092004
 21
129.732354584
 31
0.0
  0
LINE
  5
426
330
1F
100
AcDbEntity
  8
0
  6
CENTERX2
 62
     7
370
    18
100
AcDbLine
 10
70.3866258604
 20
129.732354584
 30
0.0
 11
71.4002167797
 21
129.732354584
 31
0.0
  0
LINE
  5
427
330
1F
100
AcDbEntity
  8
0
  6
CENTERX2
 62
     7
370
    18
100
AcDbLine
 10
70.3724726116
 20
129.732354584
 30
0.0
 11
71.4285232774
 21
129.732354584
 31
0.0
  0
LINE
  5
428
330
1F
100
AcDbEntity
  8
0
  6
CENTERX2
 62
     7
370
    18
100
AcDbLine
 10
70.38587965
 20
129.732354584
 30
0.0
 11
71.4017092004
 21
129.732354584
 31
0.0
  0
LINE
  5
429
330
1F
100
AcDbEntity
  8
0
  6
CENTERX2
 62
     7
370
    18
100
AcDbLine
 10
69.329766017
 20
129.732354584
 30
0.0
 11
68.3139364666
 21
129.732354584
 31
0.0
  0
LINE
  5
42A
330
1F
100
AcDbEntity
  8
0
  6
CENTERX2
 62
     7
370
    18
100
AcDbLine
 10
69.3431730554
 20
129.732354584
 30
0.0
 11
68.2871223896
 21
129.732354584
 31
0.0
  0
LINE
  5
42B
330
1F
100
AcDbEntity
  8
0
  6
CENTERX2
 62
     7
370
    18
100
AcDbLine
 10
69.3290198066
 20
129.732354584
 30
0.0
 11
68.3154288873
 21
129.732354584
 31
0.0
  0
LINE
  5
42C
330
1F
100
AcDbEntity
  8
0
  6
CENTERX2
 62
     7
370
    18
100
AcDbLine
 10
69.329766017
 20
129.732354584
 30
0.0
 11
68.3139364666
 21
129.732354584
 31
0.0
  0
LINE
  5
42D
330
1F
100
AcDbEntity
  8
0
  6
CENTERX2
 62
     7
370
    18
100
AcDbLine
 10
69.3431730554
 20
129.732354584
 30
0.0
 11
68.2871223896
 21
129.732354584
 31
0.0
  0
LINE
  5
42E
330
1F
100
AcDbEntity
  8
0
  6
CENTERX2
 62
     7
370
    18
100
AcDbLine
 10
69.3290198066
 20
129.732354584
 30
0.0
 11
68.3154288873
 21
129.732354584
 31
0.0
  0
LINE
  5
42F
330
1F
100
AcDbEntity
  8
0
  6
CENTERX2
 62
     7
370
    18
100
AcDbLine
 10
66.9911561668
 20
129.732354584
 30
0.0
 11
69.1078574232
 21
129.732354584
 31
0.0
  0
LINE
  5
430
330
1F
100
AcDbEntity
  8
0
  6
CENTERX2
 62
     7
370
    18
100
AcDbLine
 10
70.7160228335
 20
129.732354584
 30
0.0
 11
70.5993215771
 21
129.732354584
 31
0.0
  0
LINE
  5
431
330
1F
100
AcDbEntity
  8
0
  6
CENTERX2
 62
     7
370
    18
100
AcDbLine
 10
70.7244895002
 20
129.732354584
 30
0.0
 11
70.7160228335
 21
129.732354584
 31
0.0
  0
LINE
  5
432
330
1F
100
AcDbEntity
  8
0
  6
CENTERX2
 62
     7
370
    18
100
AcDbLine
 10
66.2493215771
 20
129.732354584
 30
0.0
 11
64.7578574232
 21
129.732354584
 31
0.0
  0
LINE
  5
433
330
1F
100
AcDbEntity
  8
0
  6
CENTERX2
 62
     7
370
    18
100
AcDbLine
 10
66.0366258604
 20
129.732354584
 30
0.0
 11
67.0502167797
 21
129.732354584
 31
0.0
  0
LINE
  5
434
330
1F
100
AcDbEntity
  8
0
  6
CENTERX2
 62
     7
370
    18
100
AcDbLine
 10
66.0224726116
 20
129.732354584
 30
0.0
 11
67.0785232774
 21
129.732354584
 31
0.0
  0
LINE
  5
435
330
1F
100
AcDbEntity
  8
0
  6
CENTERX2
 62
     7
370
    18
100
AcDbLine
 10
66.03587965
 20
129.732354584
 30
0.0
 11
67.0517092004
 21
129.732354584
 31
0.0
  0
LINE
  5
436
330
1F
100
AcDbEntity
  8
0
  6
CENTERX2
 62
     7
370
    18
100
AcDbLine
 10
66.0366258604
 20
129.732354584
 30
0.0
 11
67.0502167797
 21
129.732354584
 31
0.0
  0
LINE
  5
437
330
1F
100
AcDbEntity
  8
0
  6
CENTERX2
 62
     7
370
    18
100
AcDbLine
 10
66.0224726116
 20
129.732354584
 30
0.0
 11
67.0785232774
 21
129.732354584
 31
0.0
  0
LINE
  5
438
330
1F
100
AcDbEntity
  8
0
  6
CENTERX2
 62
     7
370
    18
100
AcDbLine
 10
66.03587965
 20
129.732354584
 30
0.0
 11
67.0517092004
 21
129.732354584
 31
0.0
  0
LINE
  5
439
330
1F
100
AcDbEntity
  8
0
  6
CENTERX2
 62
     7
370
    18
100
AcDbLine
 10
64.979766017
 20
129.732354584
 30
0.0
 11
63.9639364666
 21
129.732354584
 31
0.0
  0
LINE
  5
43A
330
1F
100
AcDbEntity
  8
0
  6
CENTERX2
 62
     7
370
    18
100
AcDbLine
 10
64.9931730554
 20
129.732354584
 30
0.0
 11
63.9371223896
 21
129.732354584
 31
0.0
  0
LINE
  5
43B
330
1F
100
AcDbEntity
  8
0
  6
CENTERX2
 62
     7
370
    18
100
AcDbLine
 10
64.9790198066
 20
129.732354584
 30
0.0
 11
63.9654288873
 21
129.732354584
 31
0.0
  0
LINE
  5
43C
330
1F
100
AcDbEntity
  8
0
  6
CENTERX2
 62
     7
370
    18
100
AcDbLine
 10
64.979766017
 20
129.732354584
 30
0.0
 11
63.9639364666
 21
129.732354584
 31
0.0
  0
LINE
  5
43D
330
1F
100
AcDbEntity
  8
0
  6
CENTERX2
 62
     7
370
    18
100
AcDbLine
 10
64.9931730554
 20
129.732354584
 30
0.0
 11
63.9371223896
 21
129.732354584
 31
0.0
  0
LINE
  5
43E
330
1F
100
AcDbEntity
  8
0
  6
CENTERX2
 62
     7
370
    18
100
AcDbLine
 10
64.9790198066
 20
129.732354584
 30
0.0
 11
63.9654288873
 21
129.732354584
 31
0.0
  0
LINE
  5
43F
330
1F
100
AcDbEntity
  8
0
  6
CENTERX2
 62
     7
370
    18
100
AcDbLine
 10
64.6411561668
 20
129.732354584
 30
0.0
 11
64.7578574232
 21
129.732354584
 31
0.0
  0
LINE
  5
440
330
1F
100
AcDbEntity
  8
0
  6
CENTERX2
 62
     7
370
    18
100
AcDbLine
 10
66.3660228335
 20
129.732354584
 30
0.0
 11
66.2493215771
 21
129.732354584
 31
0.0
  0
LINE
  5
441
330
1F
100
AcDbEntity
  8
0
  6
CENTERX2
 62
     7
370
    18
100
AcDbLine
 10
68.3744895002
 20
129.732354584
 30
0.0
 11
66.3660228335
 21
129.732354584
 31
0.0
  0
LINE
  5
442
330
1F
100
AcDbEntity
  8
0
  6
CENTERX2
 62
     7
370
    18
100
AcDbLine
 10
66.6911561668
 20
129.732354584
 30
0.0
 11
66.4578228335
 21
129.732354584
 31
0.0
  0
LINE
  5
443
330
1F
100
AcDbEntity
  8
0
  6
CENTERX2
 62
     7
370
    18
100
AcDbLine
 10
66.6911561668
 20
129.732354584
 30
0.0
 11
66.4578228335
 21
129.732354584
 31
0.0
  0
LINE
  5
444
330
1F
100
AcDbEntity
  8
0
  6
CENTERX2
 62
     7
370
    18
100
AcDbLine
 10
66.6911561668
 20
129.732354584
 30
0.0
 11
66.4578228335
 21
129.732354584
 31
0.0
  0
LINE
  5
445
330
1F
100
AcDbEntity
  8
0
  6
CENTERX2
 62
     7
370
    18
100
AcDbLine
 10
68.5578228335
 20
129.732354584
 30
0.0
 11
66.8578228335
 21
129.732354584
 31
0.0
  0
LINE
  5
446
330
1F
100
AcDbEntity
  8
0
  6
CENTERX2
 62
     7
370
    18
100
AcDbLine
 10
68.5578228335
 20
129.732354584
 30
0.0
 11
66.8578228335
 21
129.732354584
 31
0.0
  0
LINE
  5
447
330
1F
100
AcDbEntity
  8
0
  6
CENTERX2
 62
     7
370
    18
100
AcDbLine
 10
66.8578228335
 20
129.732354584
 30
0.0
 11
68.5578228335
 21
129.732354584
 31
0.0
  0
LINE
  5
448
330
1F
100
AcDbEntity
  8
0
  6
CENTERX2
 62
     7
370
    18
100
AcDbLine
 10
66.8578228335
 20
129.732354584
 30
0.0
 11
68.5578228335
 21
129.732354584
 31
0.0
  0
LINE
  5
449
330
1F
100
AcDbEntity
  8
0
  6
CENTERX2
 62
     7
370
    18
100
AcDbLine
 10
64.2411561668
 20
129.732354584
 30
0.0
 11
73.9078228335
 21
129.732354584
 31
0.0
  0
LINE
  5
44A
330
1F
100
AcDbEntity
  8
0
  6
CENTERX2
 62
     7
370
    18
100
AcDbLine
 10
68.4078228335
 20
129.732354584
 30
0.0
 11
70.4078228335
 21
129.732354584
 31
0.0
  0
LINE
  5
44B
330
1F
100
AcDbEntity
  8
0
  6
CENTERX2
 62
     7
370
    18
100
AcDbLine
 10
68.4078228335
 20
129.732354584
 30
0.0
 11
70.4078228335
 21
129.732354584
 31
0.0
  0
LINE
  5
44C
330
1F
100
AcDbEntity
  8
0
  6
CENTERX2
 62
     7
370
    18
100
AcDbLine
 10
68.4078228335
 20
129.732354584
 30
0.0
 11
70.4078228335
 21
129.732354584
 31
0.0
  0
LINE
  5
44D
330
1F
100
AcDbEntity
  8
0
  6
CENTERX2
 62
     7
370
    18
100
AcDbLine
 10
68.4078228335
 20
129.732354584
 30
0.0
 11
70.4078228335
 21
129.732354584
 31
0.0
  0
LINE
  5
44E
330
1F
100
AcDbEntity
  8
0
  6
CENTERX2
 62
     7
370
    18
100
AcDbLine
 10
68.4078228335
 20
129.732354584
 30
0.0
 11
70.4078228335
 21
129.732354584
 31
0.0
  0
LINE
  5
44F
330
1F
100
AcDbEntity
  8
0
  6
CENTERX2
 62
     7
370
    18
100
AcDbLine
 10
68.4078228335
 20
129.732354584
 30
0.0
 11
70.4078228335
 21
129.732354584
 31
0.0
  0
LINE
  5
450
330
1F
100
AcDbEntity
  8
0
  6
CENTERX2
 62
     7
370
    18
100
AcDbLine
 10
73.9078228335
 20
129.732354584
 30
0.0
 11
70.4078228335
 21
129.732354584
 31
0.0
  0
LINE
  5
451
330
1F
100
AcDbEntity
  8
0
  6
CENTERX2
 62
     7
370
    18
100
AcDbLine
 10
74.0744895002
 20
129.732354584
 30
0.0
 11
73.9078228335
 21
129.732354584
 31
0.0
  0
LINE
  5
452
330
1F
100
AcDbEntity
  8
0
  6
CENTERX2
 62
     7
370
    18
100
AcDbLine
 10
73.9078228335
 20
129.732354584
 30
0.0
 11
74.0744895002
 21
129.732354584
 31
0.0
  0
LINE
  5
453
330
1F
100
AcDbEntity
  8
0
  6
CENTERX2
 62
     7
370
    18
100
AcDbLine
 10
64.2411561668
 20
129.732354584
 30
0.0
 11
68.4078228335
 21
129.732354584
 31
0.0
  0
LINE
  5
454
330
1F
100
AcDbEntity
  8
0
  6
CENTERX2
 62
     7
370
    18
100
AcDbLine
 10
61.2411561668
 20
129.732354584
 30
0.0
 11
64.2411561668
 21
129.732354584
 31
0.0
  0
LINE
  5
455
330
1F
100
AcDbEntity
  8
0
  6
CENTERX2
 62
     7
370
    18
100
AcDbLine
 10
64.2411561668
 20
129.732354584
 30
0.0
 11
61.2411561668
 21
129.732354584
 31
0.0
  0
LINE
  5
456
330
1F
100
AcDbEntity
  8
0
  6
CENTERX2
 62
     7
370
    18
100
AcDbLine
 10
70.4078228335
 20
129.732354584
 30
0.0
 11
70.9078228335
 21
129.732354584
 31
0.0
  0
LINE
  5
457
330
1F
100
AcDbEntity
  8
0
  6
CENTERX2
 62
     7
370
    18
100
AcDbLine
 10
70.4078228335
 20
129.732354584
 30
0.0
 11
70.9078228335
 21
129.732354584
 31
0.0
  0
LINE
  5
458
330
1F
100
AcDbEntity
  8
0
  6
CENTERX2
 62
     7
370
    18
100
AcDbLine
 10
62.4078228335
 20
129.732354584
 30
0.0
 11
67.0744895002
 21
129.732354584
 31
0.0
  0
LINE
  5
459
330
1F
100
AcDbEntity
  8
0
  6
CENTERX2
 62
     7
370
    18
100
AcDbLine
 10
62.7411561668
 20
129.732354584
 30
0.0
 11
67.0744895002
 21
129.732354584
 31
0.0
  0
LINE
  5
45A
330
1F
100
AcDbEntity
  8
0
  6
CENTERX2
 62
     7
370
    18
100
AcDbLine
 10
62.7411561668
 20
129.732354584
 30
0.0
 11
62.4078228335
 21
129.732354584
 31
0.0
  0
LINE
  5
45B
330
1F
100
AcDbEntity
  8
0
  6
CENTERX2
 62
     7
370
    18
100
AcDbLine
 10
62.7411561668
 20
129.732354584
 30
0.0
 11
67.0744895002
 21
129.732354584
 31
0.0
  0
LINE
  5
45C
330
1F
100
AcDbEntity
  8
0
  6
CENTERX2
 62
     7
370
    18
100
AcDbLine
 10
62.7411561668
 20
129.732354584
 30
0.0
 11
62.4078228335
 21
129.732354584
 31
0.0
  0
LINE
  5
45D
330
1F
100
AcDbEntity
  8
0
  6
CENTERX2
 62
     7
370
    18
100
AcDbLine
 10
62.7411561668
 20
129.732354584
 30
0.0
 11
67.0744895002
 21
129.732354584
 31
0.0
  0
LINE
  5
45E
330
1F
100
AcDbEntity
  8
0
  6
CENTERX2
 62
     7
370
    18
100
AcDbLine
 10
62.7411561668
 20
129.732354584
 30
0.0
 11
62.4078228335
 21
129.732354584
 31
0.0
  0
LINE
  5
45F
330
1F
100
AcDbEntity
  8
0
  6
CENTERX2
 62
     7
370
    18
100
AcDbLine
 10
62.7411561668
 20
129.732354584
 30
0.0
 11
67.0744895002
 21
129.732354584
 31
0.0
  0
LINE
  5
460
330
1F
100
AcDbEntity
  8
0
  6
CENTERX2
 62
     7
370
    18
100
AcDbLine
 10
62.7411561668
 20
129.732354584
 30
0.0
 11
62.4078228335
 21
129.732354584
 31
0.0
  0
LINE
  5
461
330
1F
100
AcDbEntity
  8
0
  6
CENTERX2
 62
     7
370
    18
100
AcDbLine
 10
62.7411561668
 20
129.732354584
 30
0.0
 11
67.0744895002
 21
129.732354584
 31
0.0
  0
LINE
  5
462
330
1F
100
AcDbEntity
  8
0
  6
CENTERX2
 62
     7
370
    18
100
AcDbLine
 10
62.7411561668
 20
129.732354584
 30
0.0
 11
62.4078228335
 21
129.732354584
 31
0.0
  0
LINE
  5
463
330
1F
100
AcDbEntity
  8
0
  6
CENTERX2
 62
     7
370
    18
100
AcDbLine
 10
62.7411561668
 20
129.732354584
 30
0.0
 11
62.4078228335
 21
129.732354584
 31
0.0
  0
LINE
  5
464
330
1F
100
AcDbEntity
  8
0
  6
CENTERX2
 62
     7
370
    18
100
AcDbLine
 10
62.7411561668
 20
129.732354584
 30
0.0
 11
67.0744895002
 21
129.732354584
 31
0.0
  0
LINE
  5
465
330
1F
100
AcDbEntity
  8
0
  6
CENTERX2
 62
     7
370
    18
100
AcDbLine
 10
58.0744895002
 20
129.732354584
 30
0.0
 11
60.7411561668
 21
129.732354584
 31
0.0
  0
LINE
  5
466
330
1F
100
AcDbEntity
  8
0
  6
CENTERX2
 62
     7
370
    18
100
AcDbLine
 10
62.4078228335
 20
129.732354584
 30
0.0
 11
60.7411561668
 21
129.732354584
 31
0.0
  0
LINE
  5
467
330
1F
100
AcDbEntity
  8
0
  6
CENTERX2
 62
     7
370
    18
100
AcDbLine
 10
59.8411561668
 20
129.732354584
 30
0.0
 11
62.4078228335
 21
129.732354584
 31
0.0
  0
LINE
  5
468
330
1F
100
AcDbEntity
  8
0
  6
CENTERX2
 62
     7
370
    18
100
AcDbLine
 10
56.5224616444
 20
129.732354584
 30
0.0
 11
70.4785452117
 21
129.732354584
 31
0.0
  0
LINE
  5
469
330
1F
100
AcDbEntity
  8
0
  6
CENTERX2
 62
     7
370
    18
100
AcDbLine
 10
64.9078228335
 20
129.732354584
 30
0.0
 11
61.2411561668
 21
129.732354584
 31
0.0
  0
LINE
  5
46A
330
1F
100
AcDbEntity
  8
0
  6
CENTERX2
 62
     7
370
    18
100
AcDbLine
 10
64.9078228335
 20
129.732354584
 30
0.0
 11
61.2411561668
 21
129.732354584
 31
0.0
  0
LINE
  5
46B
330
1F
100
AcDbEntity
  8
0
  6
CENTERX2
 62
     7
370
    18
100
AcDbLine
 10
73.6411561668
 20
129.732354584
 30
0.0
 11
71.3078228335
 21
129.732354584
 31
0.0
  0
LINE
  5
46C
330
1F
100
AcDbEntity
  8
0
  6
CENTERX2
 62
     7
370
    18
100
AcDbLine
 10
73.3078228335
 20
129.732354584
 30
0.0
 11
71.3078228335
 21
129.732354584
 31
0.0
  0
LINE
  5
46D
330
1F
100
AcDbEntity
  8
0
  6
CENTERX2
 62
     7
370
    18
100
AcDbLine
 10
73.3078228335
 20
129.732354584
 30
0.0
 11
73.6411561668
 21
129.732354584
 31
0.0
  0
LINE
  5
46E
330
1F
100
AcDbEntity
  8
0
  6
CENTERX2
 62
     7
370
    18
100
AcDbLine
 10
73.3078228335
 20
129.732354584
 30
0.0
 11
71.3078228335
 21
129.732354584
 31
0.0
  0
LINE
  5
46F
330
1F
100
AcDbEntity
  8
0
  6
CENTERX2
 62
     7
370
    18
100
AcDbLine
 10
73.3078228335
 20
129.732354584
 30
0.0
 11
73.6411561668
 21
129.732354584
 31
0.0
  0
LINE
  5
470
330
1F
100
AcDbEntity
  8
0
  6
CENTERX2
 62
     7
370
    18
100
AcDbLine
 10
73.3078228335
 20
129.732354584
 30
0.0
 11
71.3078228335
 21
129.732354584
 31
0.0
  0
LINE
  5
471
330
1F
100
AcDbEntity
  8
0
  6
CENTERX2
 62
     7
370
    18
100
AcDbLine
 10
73.3078228335
 20
129.732354584
 30
0.0
 11
73.6411561668
 21
129.732354584
 31
0.0
  0
LINE
  5
472
330
1F
100
AcDbEntity
  8
0
  6
CENTERX2
 62
     7
370
    18
100
AcDbLine
 10
73.3078228335
 20
129.732354584
 30
0.0
 11
71.3078228335
 21
129.732354584
 31
0.0
  0
LINE
  5
473
330
1F
100
AcDbEntity
  8
0
  6
CENTERX2
 62
     7
370
    18
100
AcDbLine
 10
73.3078228335
 20
129.732354584
 30
0.0
 11
73.6411561668
 21
129.732354584
 31
0.0
  0
LINE
  5
474
330
1F
100
AcDbEntity
  8
0
  6
CENTERX2
 62
     7
370
    18
100
AcDbLine
 10
73.3078228335
 20
129.732354584
 30
0.0
 11
71.3078228335
 21
129.732354584
 31
0.0
  0
LINE
  5
475
330
1F
100
AcDbEntity
  8
0
  6
CENTERX2
 62
     7
370
    18
100
AcDbLine
 10
73.3078228335
 20
129.732354584
 30
0.0
 11
73.6411561668
 21
129.732354584
 31
0.0
  0
LINE
  5
476
330
1F
100
AcDbEntity
  8
0
  6
CENTERX2
 62
     7
370
    18
100
AcDbLine
 10
73.3078228335
 20
129.732354584
 30
0.0
 11
73.6411561668
 21
129.732354584
 31
0.0
  0
LINE
  5
477
330
1F
100
AcDbEntity
  8
0
  6
CENTERX2
 62
     7
370
    18
100
AcDbLine
 10
73.3078228335
 20
129.732354584
 30
0.0
 11
71.3078228335
 21
129.732354584
 31
0.0
  0
ENDSEC
  0
SECTION
  2
OBJECTS
  0
DICTIONARY
  5
C
330
0
100
AcDbDictionary
281
     1
  3
ACAD_GROUP
350
D
  3
ACAD_LAYOUT
350
1A
  3
ACAD_MLINESTYLE
350
17
  3
ACAD_PLOTSETTINGS
350
19
  3
ACAD_PLOTSTYLENAME
350
E
  3
ACAD_SCALELIST
350
47
  3
DWGPROPS
350
478
  0
DICTIONARY
  5
D
102
{ACAD_REACTORS
330
C
102
}
330
C
100
AcDbDictionary
281
     1
  0
DICTIONARY
  5
1A
102
{ACAD_REACTORS
330
C
102
}
330
C
100
AcDbDictionary
281
     1
  3
Layout1
350
1E
  3
Layout2
350
26
  3
Model
350
22
  0
DICTIONARY
  5
17
102
{ACAD_REACTORS
330
C
102
}
330
C
100
AcDbDictionary
281
     1
  3
Standard
350
18
  0
DICTIONARY
  5
19
102
{ACAD_REACTORS
330
C
102
}
330
C
100
AcDbDictionary
281
     1
  0
ACDBDICTIONARYWDFLT
  5
E
102
{ACAD_REACTORS
330
C
102
}
330
C
100
AcDbDictionary
281
     1
  3
Normal
350
F
100
AcDbDictionaryWithDefault
340
F
  0
DICTIONARY
  5
47
102
{ACAD_REACTORS
330
C
102
}
330
C
100
AcDbDictionary
281
     1
  3
A0
350
48
  3
A1
350
49
  3
A2
350
4A
  3
A3
350
4B
  3
A4
350
4C
  3
A5
350
4D
  3
A6
350
4E
  3
A7
350
4F
  3
A8
350
50
  3
A9
350
51
  3
B0
350
52
  3
B1
350
53
  3
B2
350
54
  3
B3
350
55
  3
B4
350
56
  3
B5
350
57
  3
B6
350
58
  3
B7
350
59
  3
B8
350
5A
  3
B9
350
5B
  3
C0
350
5C
  3
C1
350
5D
  3
C2
350
5E
  3
C3
350
5F
  3
C4
350
60
  3
C5
350
61
  3
C6
350
62
  3
C7
350
63
  3
C8
350
64
  3
C9
350
65
  3
D0
350
66
  3
D1
350
67
  3
D2
350
68
  0
XRECORD
  5
478
102
{ACAD_REACTORS
330
C
102
}
330
C
100
AcDbXrecord
280
     1
  1
DWGPROPS COOKIE
  2

  3

  4

  6

  7

  8
rnd10
  9

300
=
301
=
302
=
303
=
304
=
305
=
306
=
307
=
308
=
309
=
 40
0.0
 41
2460195.543983715
 42
2460195.54398463
  1

 90
        0
  0
LAYOUT
  5
1E
102
{ACAD_REACTORS
330
1A
102
}
330
1A
100
AcDbPlotSettings
  1

  2
none_device
  4

  6

 40
0.0
 41
0.0
 42
0.0
 43
0.0
 44
0.0
 45
0.0
 46
0.0
 47
0.0
 48
0.0
 49
0.0
140
0.0
141
0.0
142
1.0
143
1.0
 70
   688
 72
     1
 73
     0
 74
     5
  7

 75
    16
147
1.0
148
0.0
149
0.0
100
AcDbLayout
  1
Layout1
 70
     1
 71
     1
 10
0.0
 20
0.0
 11
420.0
 21
297.0
 12
0.0
 22
0.0
 32
0.0
 14
1.0000000000E+20
 24
1.0000000000E+20
 34
1.0000000000E+20
 15
-1.0000000000E+20
 25
-1.0000000000E+20
 35
-1.0000000000E+20
146
0.0
 13
0.0
 23
0.0
 33
0.0
 16
1.0
 26
0.0
 36
0.0
 17
0.0
 27
1.0
 37
0.0
 76
     0
330
1B
  0
LAYOUT
  5
26
102
{ACAD_REACTORS
330
1A
102
}
330
1A
100
AcDbPlotSettings
  1

  2
none_device
  4

  6

 40
0.0
 41
0.0
 42
0.0
 43
0.0
 44
0.0
 45
0.0
 46
0.0
 47
0.0
 48
0.0
 49
0.0
140
0.0
141
0.0
142
1.0
143
1.0
 70
   688
 72
     1
 73
     0
 74
     5
  7

 75
    16
147
1.0
148
0.0
149
0.0
100
AcDbLayout
  1
Layout2
 70
     1
 71
     2
 10
0.0
 20
0.0
 11
0.0
 21
0.0
 12
0.0
 22
0.0
 32
0.0
 14
0.0
 24
0.0
 34
0.0
 15
0.0
 25
0.0
 35
0.0
146
0.0
 13
0.0
 23
0.0
 33
0.0
 16
1.0
 26
0.0
 36
0.0
 17
0.0
 27
1.0
 37
0.0
 76
     0
330
23
  0
LAYOUT
  5
22
102
{ACAD_REACTORS
330
1A
102
}
330
1A
100
AcDbPlotSettings
  1

  2
none_device
  4
Letter_(8.50_x_11.00_Inches)
  6

 40
6.35
 41
6.35
 42
6.35000508
 43
6.35000508
 44
215.9
 45
279.4
 46
0.0
 47
0.0
 48
0.0
 49
0.0
140
0.0
141
0.0
142
1.0
143
1.0
 70
  1712
 72
     1
 73
     0
 74
     0
  7

 75
     0
147
1.0
148
0.0
149
0.0
100
AcDbLayout
  1
Model
 70
     1
 71
     0
 10
0.0
 20
0.0
 11
420.0
 21
297.0
 12
0.0
 22
0.0
 32
0.0
 14
0.0
 24
0.0
 34
0.0
 15
420.0
 25
297.0
 35
0.0
146
0.0
 13
0.0
 23
0.0
 33
0.0
 16
1.0
 26
0.0
 36
0.0
 17
0.0
 27
1.0
 37
0.0
 76
     0
330
1F
331
29
  0
MLINESTYLE
  5
18
102
{ACAD_REACTORS
330
17
102
}
330
17
100
AcDbMlineStyle
  2
Standard
 70
     0
  3

 62
   256
 51
90.0
 52
90.0
 71
     2
 49
0.5
 62
   256
  6
BYLAYER
 49
-0.5
 62
   256
  6
BYLAYER
  0
ACDBPLACEHOLDER
  5
F
102
{ACAD_REACTORS
330
E
102
}
330
E
  0
SCALE
  5
48
102
{ACAD_REACTORS
330
47
102
}
330
47
100
AcDbScale
 70
     0
300
1:1
140
1.0
141
1.0
290
     1
  0
SCALE
  5
49
102
{ACAD_REACTORS
330
47
102
}
330
47
100
AcDbScale
 70
     0
300
1:2
140
1.0
141
2.0
290
     0
  0
SCALE
  5
4A
102
{ACAD_REACTORS
330
47
102
}
330
47
100
AcDbScale
 70
     0
300
1:4
140
1.0
141
4.0
290
     0
  0
SCALE
  5
4B
102
{ACAD_REACTORS
330
47
102
}
330
47
100
AcDbScale
 70
     0
300
1:5
140
1.0
141
5.0
290
     0
  0
SCALE
  5
4C
102
{ACAD_REACTORS
330
47
102
}
330
47
100
AcDbScale
 70
     0
300
1:8
140
1.0
141
8.0
290
     0
  0
SCALE
  5
4D
102
{ACAD_REACTORS
330
47
102
}
330
47
100
AcDbScale
 70
     0
300
1:10
140
1.0
141
10.0
290
     0
  0
SCALE
  5
4E
102
{ACAD_REACTORS
330
47
102
}
330
47
100
AcDbScale
 70
     0
300
1:16
140
1.0
141
16.0
290
     0
  0
SCALE
  5
4F
102
{ACAD_REACTORS
330
47
102
}
330
47
100
AcDbScale
 70
     0
300
1:20
140
1.0
141
20.0
290
     0
  0
SCALE
  5
50
102
{ACAD_REACTORS
330
47
102
}
330
47
100
AcDbScale
 70
     0
300
1:30
140
1.0
141
30.0
290
     0
  0
SCALE
  5
51
102
{ACAD_REACTORS
330
47
102
}
330
47
100
AcDbScale
 70
     0
300
1:40
140
1.0
141
40.0
290
     0
  0
SCALE
  5
52
102
{ACAD_REACTORS
330
47
102
}
330
47
100
AcDbScale
 70
     0
300
1:50
140
1.0
141
50.0
290
     0
  0
SCALE
  5
53
102
{ACAD_REACTORS
330
47
102
}
330
47
100
AcDbScale
 70
     0
300
1:100
140
1.0
141
100.0
290
     0
  0
SCALE
  5
54
102
{ACAD_REACTORS
330
47
102
}
330
47
100
AcDbScale
 70
     0
300
2:1
140
2.0
141
1.0
290
     0
  0
SCALE
  5
55
102
{ACAD_REACTORS
330
47
102
}
330
47
100
AcDbScale
 70
     0
300
4:1
140
4.0
141
1.0
290
     0
  0
SCALE
  5
56
102
{ACAD_REACTORS
330
47
102
}
330
47
100
AcDbScale
 70
     0
300
8:1
140
8.0
141
1.0
290
     0
  0
SCALE
  5
57
102
{ACAD_REACTORS
330
47
102
}
330
47
100
AcDbScale
 70
     0
300
10:1
140
10.0
141
1.0
290
     0
  0
SCALE
  5
58
102
{ACAD_REACTORS
330
47
102
}
330
47
100
AcDbScale
 70
     0
300
100:1
140
100.0
141
1.0
290
     0
  0
SCALE
  5
59
102
{ACAD_REACTORS
330
47
102
}
330
47
100
AcDbScale
 70
     0
300
1/128" = 1'-0"
140
0.0078125
141
12.0
290
     0
  0
SCALE
  5
5A
102
{ACAD_REACTORS
330
47
102
}
330
47
100
AcDbScale
 70
     0
300
1/64" = 1'-0"
140
0.015625
141
12.0
290
     0
  0
SCALE
  5
5B
102
{ACAD_REACTORS
330
47
102
}
330
47
100
AcDbScale
 70
     0
300
1/32" = 1'-0"
140
0.03125
141
12.0
290
     0
  0
SCALE
  5
5C
102
{ACAD_REACTORS
330
47
102
}
330
47
100
AcDbScale
 70
     0
300
1/16" = 1'-0"
140
0.0625
141
12.0
290
     0
  0
SCALE
  5
5D
102
{ACAD_REACTORS
330
47
102
}
330
47
100
AcDbScale
 70
     0
300
3/32" = 1'-0"
140
0.09375
141
12.0
290
     0
  0
SCALE
  5
5E
102
{ACAD_REACTORS
330
47
102
}
330
47
100
AcDbScale
 70
     0
300
1/8" = 1'-0"
140
0.125
141
12.0
290
     0
  0
SCALE
  5
5F
102
{ACAD_REACTORS
330
47
102
}
330
47
100
AcDbScale
 70
     0
300
3/16" = 1'-0"
140
0.1875
141
12.0
290
     0
  0
SCALE
  5
60
102
{ACAD_REACTORS
330
47
102
}
330
47
100
AcDbScale
 70
     0
300
1/4" = 1'-0"
140
0.25
141
12.0
290
     0
  0
SCALE
  5
61
102
{ACAD_REACTORS
330
47
102
}
330
47
100
AcDbScale
 70
     0
300
3/8" = 1'-0"
140
0.375
141
12.0
290
     0
  0
SCALE
  5
62
102
{ACAD_REACTORS
330
47
102
}
330
47
100
AcDbScale
 70
     0
300
1/2" = 1'-0"
140
0.5
141
12.0
290
     0
  0
SCALE
  5
63
102
{ACAD_REACTORS
330
47
102
}
330
47
100
AcDbScale
 70
     0
300
3/4" = 1'-0"
140
0.75
141
12.0
290
     0
  0
SCALE
  5
64
102
{ACAD_REACTORS
330
47
102
}
330
47
100
AcDbScale
 70
     0
300
1" = 1'-0"
140
1.0
141
12.0
290
     0
  0
SCALE
  5
65
102
{ACAD_REACTORS
330
47
102
}
330
47
100
AcDbScale
 70
     0
300
1-1/2" = 1'-0"
140
1.5
141
12.0
290
     0
  0
SCALE
  5
66
102
{ACAD_REACTORS
330
47
102
}
330
47
100
AcDbScale
 70
     0
300
3" = 1'-0"
140
3.0
141
12.0
290
     0
  0
SCALE
  5
67
102
{ACAD_REACTORS
330
47
102
}
330
47
100
AcDbScale
 70
     0
300
6" = 1'-0"
140
6.0
141
12.0
290
     0
  0
SCALE
  5
68
102
{ACAD_REACTORS
330
47
102
}
330
47
100
AcDbScale
 70
     0
300
1'-0" = 1'-0"
140
12.0
141
12.0
290
     0
  0
ENDSEC
  0
EOF
