  0
SECTION
  2
HEADER
  9
$ACADVER
  1
AC1015
  9
$ACADMAINTVER
 70
     6
  9
$DWGCODEPAGE
  3
ANSI_1252
  9
$INSBASE
 10
0.0
 20
0.0
 30
0.0
  9
$EXTMIN
 10
0.0
 20
0.0
 30
0.0
  9
$EXTMAX
 10
420.0
 20
297.0
 30
0.0
  9
$LIMMIN
 10
0.0
 20
0.0
  9
$LIMMAX
 10
420.0
 20
297.0
  9
$ORTHOMODE
 70
     0
  9
$REGENMODE
 70
     1
  9
$FILLMODE
 70
     1
  9
$QTEXTMODE
 70
     0
  9
$MIRRTEXT
 70
     1
  9
$LTSCALE
 40
1.0
  9
$ATTMODE
 70
     1
  9
$TEXTSIZE
 40
3.5
  9
$TRACEWID
 40
1.0
  9
$TEXTSTYLE
  7
Standard
  9
$CLAYER
  8
0
  9
$CELTYPE
  6
ByLayer
  9
$CECOLOR
 62
   256
  9
$CELTSCALE
 40
1.0
  9
$DISPSILH
 70
     0
  9
$DIMSCALE
 40
1.0
  9
$DIMASZ
 40
3.302
  9
$DIMEXO
 40
1.0
  9
$DIMDLI
 40
3.75
  9
$DIMRND
 40
0.0
  9
$DIMDLE
 40
0.0
  9
$DIMEXE
 40
1.0
  9
$DIMTP
 40
0.0
  9
$DIMTM
 40
0.0
  9
$DIMTXT
 40
3.5
  9
$DIMCEN
 40
2.5
  9
$DIMTSZ
 40
0.0
  9
$DIMTOL
 70
     0
  9
$DIMLIM
 70
     0
  9
$DIMTIH
 70
     1
  9
$DIMTOH
 70
     1
  9
$DIMSE1
 70
     0
  9
$DIMSE2
 70
     0
  9
$DIMTAD
 70
     1
  9
$DIMZIN
 70
     0
  9
$DIMBLK
  1

  9
$DIMASO
 70
     1
  9
$DIMSHO
 70
     1
  9
$DIMPOST
  1

  9
$DIMAPOST
  1

  9
$DIMALT
 70
     0
  9
$DIMALTD
 70
     3
  9
$DIMALTF
 40
0.0393700787
  9
$DIMLFAC
 40
5.0
  9
$DIMTOFL
 70
     1
  9
$DIMTVP
 40
0.0
  9
$DIMTIX
 70
     0
  9
$DIMSOXD
 70
     0
  9
$DIMSAH
 70
     0
  9
$DIMBLK1
  1

  9
$DIMBLK2
  1

  9
$DIMSTYLE
  2
ISO-25
  9
$DIMCLRD
 70
     0
  9
$DIMCLRE
 70
     0
  9
$DIMCLRT
 70
     0
  9
$DIMTFAC
 40
1.0
  9
$DIMGAP
 40
5.0
  9
$DIMJUST
 70
     0
  9
$DIMSD1
 70
     0
  9
$DIMSD2
 70
     0
  9
$DIMTOLJ
 70
     0
  9
$DIMTZIN
 70
     0
  9
$DIMALTZ
 70
     0
  9
$DIMALTTZ
 70
     0
  9
$DIMUPT
 70
     0
  9
$DIMDEC
 70
     1
  9
$DIMTDEC
 70
     1
  9
$DIMALTU
 70
     2
  9
$DIMALTTD
 70
     3
  9
$DIMTXSTY
  7
Standard
  9
$DIMAUNIT
 70
     0
  9
$DIMADEC
 70
     1
  9
$DIMALTRND
 40
0.0
  9
$DIMAZIN
 70
     0
  9
$DIMDSEP
 70
    44
  9
$DIMATFIT
 70
     3
  9
$DIMFRAC
 70
     0
  9
$DIMLDRBLK
  1

  9
$DIMLUNIT
 70
     2
  9
$DIMLWD
 70
    -2
  9
$DIMLWE
 70
    -2
  9
$DIMTMOVE
 70
     0
  9
$LUNITS
 70
     2
  9
$LUPREC
 70
     1
  9
$SKETCHINC
 40
1.0
  9
$FILLETRAD
 40
10.0
  9
$AUNITS
 70
     0
  9
$AUPREC
 70
     1
  9
$MENU
  1
.
  9
$ELEVATION
 40
0.0
  9
$PELEVATION
 40
0.0
  9
$THICKNESS
 40
0.0
  9
$LIMCHECK
 70
     0
  9
$CHAMFERA
 40
0.0
  9
$CHAMFERB
 40
0.0
  9
$CHAMFERC
 40
0.0
  9
$CHAMFERD
 40
0.0
  9
$SKPOLY
 70
     0
  9
$TDCREATE
 40
2460195.323365232
  9
$TDUCREATE
 40
2460195.281698565
  9
$TDUPDATE
 40
2460195.32336559
  9
$TDUUPDATE
 40
2460195.281698924
  9
$TDINDWG
 40
0.0000000116
  9
$TDUSRTIMER
 40
0.0000000116
  9
$USRTIMER
 70
     1
  9
$ANGBASE
 50
0.0
  9
$ANGDIR
 70
     0
  9
$PDMODE
 70
     0
  9
$PDSIZE
 40
-1.0
  9
$PLINEWID
 40
0.0
  9
$SPLFRAME
 70
     0
  9
$SPLINETYPE
 70
     6
  9
$SPLINESEGS
 70
     8
  9
$HANDSEED
  5
4BD
  9
$SURFTAB1
 70
     6
  9
$SURFTAB2
 70
     6
  9
$SURFTYPE
 70
     6
  9
$SURFU
 70
     6
  9
$SURFV
 70
     6
  9
$UCSBASE
  2

  9
$UCSNAME
  2

  9
$UCSORG
 10
0.0
 20
0.0
 30
0.0
  9
$UCSXDIR
 10
1.0
 20
0.0
 30
0.0
  9
$UCSYDIR
 10
0.0
 20
1.0
 30
0.0
  9
$UCSORTHOREF
  2

  9
$UCSORTHOVIEW
 70
     0
  9
$UCSORGTOP
 10
0.0
 20
0.0
 30
0.0
  9
$UCSORGBOTTOM
 10
0.0
 20
0.0
 30
0.0
  9
$UCSORGLEFT
 10
0.0
 20
0.0
 30
0.0
  9
$UCSORGRIGHT
 10
0.0
 20
0.0
 30
0.0
  9
$UCSORGFRONT
 10
0.0
 20
0.0
 30
0.0
  9
$UCSORGBACK
 10
0.0
 20
0.0
 30
0.0
  9
$PUCSBASE
  2

  9
$PUCSNAME
  2

  9
$PUCSORG
 10
0.0
 20
0.0
 30
0.0
  9
$PUCSXDIR
 10
1.0
 20
0.0
 30
0.0
  9
$PUCSYDIR
 10
0.0
 20
1.0
 30
0.0
  9
$PUCSORTHOREF
  2

  9
$PUCSORTHOVIEW
 70
     0
  9
$PUCSORGTOP
 10
0.0
 20
0.0
 30
0.0
  9
$PUCSORGBOTTOM
 10
0.0
 20
0.0
 30
0.0
  9
$PUCSORGLEFT
 10
0.0
 20
0.0
 30
0.0
  9
$PUCSORGRIGHT
 10
0.0
 20
0.0
 30
0.0
  9
$PUCSORGFRONT
 10
0.0
 20
0.0
 30
0.0
  9
$PUCSORGBACK
 10
0.0
 20
0.0
 30
0.0
  9
$USERI1
 70
     0
  9
$USERI2
 70
     0
  9
$USERI3
 70
     0
  9
$USERI4
 70
     0
  9
$USERI5
 70
     0
  9
$USERR1
 40
0.0
  9
$USERR2
 40
0.0
  9
$USERR3
 40
0.0
  9
$USERR4
 40
0.0
  9
$USERR5
 40
0.0
  9
$WORLDVIEW
 70
     1
  9
$SHADEDGE
 70
     3
  9
$SHADEDIF
 70
    70
  9
$TILEMODE
 70
     1
  9
$MAXACTVP
 70
    64
  9
$PINSBASE
 10
0.0
 20
0.0
 30
0.0
  9
$PLIMCHECK
 70
     0
  9
$PEXTMIN
 10
1.0000000000E+20
 20
1.0000000000E+20
 30
1.0000000000E+20
  9
$PEXTMAX
 10
-1.0000000000E+20
 20
-1.0000000000E+20
 30
-1.0000000000E+20
  9
$PLIMMIN
 10
0.0
 20
0.0
  9
$PLIMMAX
 10
420.0
 20
297.0
  9
$UNITMODE
 70
     0
  9
$VISRETAIN
 70
     1
  9
$PLINEGEN
 70
     0
  9
$PSLTSCALE
 70
     1
  9
$TREEDEPTH
 70
  3020
  9
$CMLSTYLE
  2
Standard
  9
$CMLJUST
 70
     0
  9
$CMLSCALE
 40
20.0
  9
$PROXYGRAPHICS
 70
     1
  9
$MEASUREMENT
 70
     1
  9
$CELWEIGHT
370
    -1
  9
$ENDCAPS
280
     0
  9
$JOINSTYLE
280
     0
  9
$LWDISPLAY
290
     1
  9
$INSUNITS
 70
     4
  9
$HYPERLINKBASE
  1

  9
$STYLESHEET
  1

  9
$XEDIT
290
     1
  9
$CEPSNTYPE
380
     0
  9
$PSTYLEMODE
290
     1
  9
$FINGERPRINTGUID
  2
{095fd14b-4c3d-4ea0-8807-5de72c2ada8b}
  9
$VERSIONGUID
  2
{FAEB1C32-E019-11D5-929B-00C0DF256EC4}
  9
$EXTNAMES
290
     1
  9
$PSVPSCALE
 40
0.0
  9
$OLESTARTUP
290
     0
  0
ENDSEC
  0
SECTION
  2
CLASSES
  0
CLASS
  1
ACDBDICTIONARYWDFLT
  2
AcDbDictionaryWithDefault
  3
ObjectDBX Classes
 90
        0
280
     0
281
     0
  0
CLASS
  1
VISUALSTYLE
  2
AcDbVisualStyle
  3
ObjectDBX Classes
 90
     4095
280
     0
281
     0
  0
CLASS
  1
MATERIAL
  2
AcDbMaterial
  3
ObjectDBX Classes
 90
     1153
280
     0
281
     0
  0
CLASS
  1
SCALE
  2
AcDbScale
  3
ObjectDBX Classes
 90
     1153
280
     0
281
     0
  0
CLASS
  1
TABLESTYLE
  2
AcDbTableStyle
  3
ObjectDBX Classes
 90
     4095
280
     0
281
     0
  0
CLASS
  1
MLEADERSTYLE
  2
AcDbMLeaderStyle
  3
ACDB_MLEADERSTYLE_CLASS
 90
     4095
280
     0
281
     0
  0
CLASS
  1
SUN
  2
AcDbSun
  3
SCENEOE
 90
     1153
280
     0
281
     0
  0
CLASS
  1
ACDBPLACEHOLDER
  2
AcDbPlaceHolder
  3
ObjectDBX Classes
 90
        0
280
     0
281
     0
  0
CLASS
  1
LAYOUT
  2
AcDbLayout
  3
ObjectDBX Classes
 90
        0
280
     0
281
     0
  0
ENDSEC
  0
SECTION
  2
TABLES
  0
TABLE
  2
VPORT
  5
8
330
0
100
AcDbSymbolTable
 70
     1
  0
VPORT
  5
29
330
8
100
AcDbSymbolTableRecord
100
AcDbViewportTableRecord
  2
*Active
 70
     0
 10
0.0
 20
0.0
 11
1.0
 21
1.0
 12
210.0
 22
148.5
 13
0.0
 23
0.0
 14
10.0
 24
10.0
 15
10.0
 25
10.0
 16
0.0
 26
0.0
 36
1.0
 17
0.0
 27
0.0
 37
0.0
 40
297.0
 41
1.4141414141
 42
50.0
 43
0.0
 44
0.0
 50
0.0
 51
0.0
 71
     0
 72
  2000
 73
     1
 74
     3
 75
     0
 76
     0
 77
     0
 78
     0
281
     0
 65
     1
110
0.0
120
0.0
130
0.0
111
1.0
121
0.0
131
0.0
112
0.0
122
1.0
132
0.0
 79
     0
146
0.0
  0
ENDTAB
  0
TABLE
  2
LTYPE
  5
5
330
0
100
AcDbSymbolTable
 70
     6
  0
LTYPE
  5
14
330
5
100
AcDbSymbolTableRecord
100
AcDbLinetypeTableRecord
  2
ByBlock
 70
     0
  3

 72
    65
 73
     0
 40
0.0
  0
LTYPE
  5
15
330
5
100
AcDbSymbolTableRecord
100
AcDbLinetypeTableRecord
  2
ByLayer
 70
     0
  3

 72
    65
 73
     0
 40
0.0
  0
LTYPE
  5
16
330
5
100
AcDbSymbolTableRecord
100
AcDbLinetypeTableRecord
  2
Continuous
 70
     0
  3
Solid line
 72
    65
 73
     0
 40
0.0
  0
LTYPE
  5
6E
330
5
100
AcDbSymbolTableRecord
100
AcDbLinetypeTableRecord
  2
HIDDEN
 70
     0
  3
Hidden __ __ __ __ __ __ __ __ __ __ __ __ __ __
 72
    65
 73
     2
 40
1.905
 49
1.27
 74
     0
 49
-0.635
 74
     0
  0
LTYPE
  5
6F
330
5
100
AcDbSymbolTableRecord
100
AcDbLinetypeTableRecord
  2
PHANTOM
 70
     0
  3
Phantom ______  __  __  ______  __  __  ______
 72
    65
 73
     6
 40
12.7
 49
6.35
 74
     0
 49
-1.27
 74
     0
 49
1.27
 74
     0
 49
-1.27
 74
     0
 49
1.27
 74
     0
 49
-1.27
 74
     0
  0
LTYPE
  5
70
330
5
100
AcDbSymbolTableRecord
100
AcDbLinetypeTableRecord
  2
CENTER
 70
     0
  3
Center ____ _ ____ _ ____ _ ____ _ ____ _ ____
 72
    65
 73
     4
 40
10.16
 49
6.35
 74
     0
 49
-1.27
 74
     0
 49
1.27
 74
     0
 49
-1.27
 74
     0
  0
LTYPE
  5
71
330
5
100
AcDbSymbolTableRecord
100
AcDbLinetypeTableRecord
  2
CENTERX2
 70
     0
  3
Center (2x) ________  __  ________  __  _____
 72
    65
 73
     4
 40
20.32
 49
12.7
 74
     0
 49
-2.54
 74
     0
 49
2.54
 74
     0
 49
-2.54
 74
     0
  0
LTYPE
  5
72
330
5
100
AcDbSymbolTableRecord
100
AcDbLinetypeTableRecord
  2
DOT2
 70
     0
  3
Dot (.5x) ........................................
 72
    65
 73
     2
 40
0.635
 49
0.0
 74
     0
 49
-0.635
 74
     0
  0
ENDTAB
  0
TABLE
  2
LAYER
  5
2
330
0
100
AcDbSymbolTable
 70
     5
  0
LAYER
  5
10
330
2
100
AcDbSymbolTableRecord
100
AcDbLayerTableRecord
  2
0
 70
     0
 62
     7
  6
Continuous
370
    -3
390
F
  0
LAYER
  5
73
330
2
100
AcDbSymbolTableRecord
100
AcDbLayerTableRecord
  2
FORMAT
 70
     0
 62
     7
  6
Continuous
370
    -3
390
F
  0
LAYER
  5
74
330
2
100
AcDbSymbolTableRecord
100
AcDbLayerTableRecord
  2
SLD-0
 70
     0
 62
     1
  6
Continuous
370
    -3
390
F
  0
LAYER
  5
75
330
2
100
AcDbSymbolTableRecord
100
AcDbLayerTableRecord
  2
WATERMARK
 70
     0
 62
    20
  6
Continuous
370
    -3
390
F
  0
LAYER
  5
76
330
2
100
AcDbSymbolTableRecord
100
AcDbLayerTableRecord
  2
PRIMARY
 70
     0
 62
   179
  6
Continuous
370
    -3
390
F
  0
ENDTAB
  0
TABLE
  2
STYLE
  5
3
330
0
100
AcDbSymbolTable
 70
     1
  0
STYLE
  5
11
330
3
100
AcDbSymbolTableRecord
100
AcDbTextStyleTableRecord
  2
Standard
 70
     0
 40
0.0
 41
1.0
 50
0.0
 71
     0
 42
3.5
  3
txt
  4

  0
ENDTAB
  0
TABLE
  2
VIEW
  5
6
330
0
100
AcDbSymbolTable
 70
     0
  0
ENDTAB
  0
TABLE
  2
UCS
  5
7
330
0
100
AcDbSymbolTable
 70
     0
  0
ENDTAB
  0
TABLE
  2
APPID
  5
9
330
0
100
AcDbSymbolTable
 70
     1
  0
APPID
  5
12
330
9
100
AcDbSymbolTableRecord
100
AcDbRegAppTableRecord
  2
ACAD
 70
     0
  0
ENDTAB
  0
TABLE
  2
DIMSTYLE
  5
A
330
0
100
AcDbSymbolTable
 70
     1
100
AcDbDimStyleTable
  0
DIMSTYLE
105
27
330
A
100
AcDbSymbolTableRecord
100
AcDbDimStyleTableRecord
  2
ISO-25
 70
     0
 41
2.5
 42
0.625
 43
3.75
 44
1.25
 73
     0
 74
     0
 77
     1
 78
     8
140
2.5
141
2.5
143
0.0393700787
147
0.625
171
     3
172
     1
178
     0
271
     2
272
     2
274
     3
278
    44
283
     0
284
     8
340
11
  0
ENDTAB
  0
TABLE
  2
BLOCK_RECORD
  5
1
330
0
100
AcDbSymbolTable
 70
     2
  0
BLOCK_RECORD
  5
1F
330
1
100
AcDbSymbolTableRecord
100
AcDbBlockTableRecord
  2
*Model_Space
340
22
  0
BLOCK_RECORD
  5
1B
330
1
100
AcDbSymbolTableRecord
100
AcDbBlockTableRecord
  2
*Paper_Space
340
1E
  0
BLOCK_RECORD
  5
23
330
1
100
AcDbSymbolTableRecord
100
AcDbBlockTableRecord
  2
*Paper_Space0
340
26
  0
BLOCK_RECORD
  5
77
330
1
100
AcDbSymbolTableRecord
100
AcDbBlockTableRecord
  2
Falcon Logo 2020
340
0
  0
ENDTAB
  0
ENDSEC
  0
SECTION
  2
BLOCKS
  0
BLOCK
  5
20
330
1F
100
AcDbEntity
  8
0
100
AcDbBlockBegin
  2
*Model_Space
 70
     0
 10
0.0
 20
0.0
 30
0.0
  3
*Model_Space
  1

  0
ENDBLK
  5
21
330
1F
100
AcDbEntity
  8
0
100
AcDbBlockEnd
  0
BLOCK
  5
1C
330
1B
100
AcDbEntity
 67
     1
  8
0
100
AcDbBlockBegin
  2
*Paper_Space
 70
     0
 10
0.0
 20
0.0
 30
0.0
  3
*Paper_Space
  1

  0
ENDBLK
  5
1D
330
1B
100
AcDbEntity
 67
     1
  8
0
100
AcDbBlockEnd
  0
BLOCK
  5
24
330
23
100
AcDbEntity
  8
0
100
AcDbBlockBegin
  2
*Paper_Space0
 70
     0
 10
0.0
 20
0.0
 30
0.0
  3
*Paper_Space0
  1

  0
ENDBLK
  5
25
330
23
100
AcDbEntity
  8
0
100
AcDbBlockEnd
  0
BLOCK
  5
78
330
77
100
AcDbEntity
  8
0
100
AcDbBlockBegin
  2
Falcon Logo 2020
 70
     0
 10
0.0
 20
0.0
 30
0.0
  3
Falcon Logo 2020
  1

  0
LINE
  5
7A
330
77
100
AcDbEntity
  8
0
  6
Continuous
 62
     7
370
    18
100
AcDbLine
 10
0.2366362149
 20
-25.099120703
 30
0.0
 11
0.1890676051
 21
-25.1850754693
 31
0.0
  0
LINE
  5
7B
330
77
100
AcDbEntity
  8
0
  6
Continuous
 62
     7
370
    18
100
AcDbLine
 10
-8.9546345587
 20
-34.8305583248
 30
0.0
 11
-8.8845902523
 21
-34.8534799981
 31
0.0
  0
LINE
  5
7C
330
77
100
AcDbEntity
  8
0
  6
Continuous
 62
     7
370
    18
100
AcDbLine
 10
1.3975224119
 20
-24.3176861209
 30
0.0
 11
1.0342487254
 21
-24.0430667658
 31
0.0
  0
LINE
  5
7D
330
77
100
AcDbEntity
  8
0
  6
Continuous
 62
     7
370
    18
100
AcDbLine
 10
-1.344635895
 20
-16.4400365624
 30
0.0
 11
-1.3491582948
 21
-16.4379044226
 31
0.0
  0
LINE
  5
7E
330
77
100
AcDbEntity
  8
0
  6
Continuous
 62
     7
370
    18
100
AcDbLine
 10
7.8090812831
 20
-19.1315273814
 30
0.0
 11
7.8091802885
 21
-19.1313230883
 31
0.0
  0
LINE
  5
7F
330
77
100
AcDbEntity
  8
0
  6
Continuous
 62
     7
370
    18
100
AcDbLine
 10
0.0
 20
-1.0296983168
 30
0.0
 11
0.0
 21
1.0296983168
 31
0.0
  0
LINE
  5
80
330
77
100
AcDbEntity
  8
0
  6
Continuous
 62
     7
370
    18
100
AcDbLine
 10
10.0154752928
 20
-30.4004736372
 30
0.0
 11
9.1539977041
 21
-32.0953773775
 31
0.0
  0
LINE
  5
81
330
77
100
AcDbEntity
  8
0
  6
Continuous
 62
     7
370
    18
100
AcDbLine
 10
9.1830081219
 20
-32.1843475956
 30
0.0
 11
9.481427996
 21
-32.3361036526
 31
0.0
  0
LINE
  5
82
330
77
100
AcDbEntity
  8
0
  6
Continuous
 62
     7
370
    18
100
AcDbLine
 10
9.5704389671
 20
-32.3070676322
 30
0.0
 11
10.4992725169
 21
-30.4794480227
 31
0.0
  0
LINE
  5
83
330
77
100
AcDbEntity
  8
0
  6
Continuous
 62
     7
370
    18
100
AcDbLine
 10
12.5467888882
 20
-29.3625787572
 30
0.0
 11
12.3419088888
 21
-29.0978910313
 31
0.0
  0
LINE
  5
84
330
77
100
AcDbEntity
  8
0
  6
Continuous
 62
     7
370
    18
100
AcDbLine
 10
12.8223724068
 20
-30.9599942873
 30
0.0
 11
13.2708466106
 21
-31.0149510216
 31
0.0
  0
LINE
  5
85
330
77
100
AcDbEntity
  8
0
  6
Continuous
 62
     7
370
    18
100
AcDbLine
 10
17.1692492954
 20
-27.2721969661
 30
0.0
 11
17.0622662115
 21
-26.8332975819
 31
0.0
  0
LINE
  5
86
330
77
100
AcDbEntity
  8
0
  6
Continuous
 62
     7
370
    18
100
AcDbLine
 10
9.2674260365
 20
-23.8703966174
 30
0.0
 11
9.2820724332
 21
-23.832346426
 31
0.0
  0
LINE
  5
87
330
77
100
AcDbEntity
  8
0
  6
Continuous
 62
     7
370
    18
100
AcDbLine
 10
7.0444852887
 20
-17.62223308
 30
0.0
 11
7.0437472733
 21
-17.6218725853
 31
0.0
  0
LINE
  5
88
330
77
100
AcDbEntity
  8
0
  6
Continuous
 62
     7
370
    18
100
AcDbLine
 10
3.3695709323
 20
-18.7150893908
 30
0.0
 11
3.3652686317
 21
-18.7077888488
 31
0.0
  0
LINE
  5
89
330
77
100
AcDbEntity
  8
0
  6
Continuous
 62
     7
370
    18
100
AcDbLine
 10
3.3652686317
 20
-18.7077888488
 30
0.0
 11
3.3711671796
 21
-18.8025827031
 31
0.0
  0
LINE
  5
8A
330
77
100
AcDbEntity
  8
0
  6
Continuous
 62
     7
370
    18
100
AcDbLine
 10
3.3963759391
 20
-19.2069459167
 30
0.0
 11
3.4149125726
 21
-19.5041559716
 31
0.0
  0
SPLINE
  5
8B
330
77
100
AcDbEntity
  8
0
  6
Continuous
 62
     7
370
    18
100
AcDbSpline
210
0.0
220
0.0
230
1.0
 70
     8
 71
     3
 72
     8
 73
     4
 74
     0
 42
0.00000001
 43
0.00000001
 40
0.0
 40
0.0
 40
0.0
 40
0.0
 40
1.0
 40
1.0
 40
1.0
 40
1.0
 10
5.852229029515427
 20
-28.4276388766053
 30
0.0
 10
5.825666155886172
 20
-28.53479889167665
 30
0.0
 10
5.788722307073408
 20
-28.64641728306218
 30
0.0
 10
5.745235939283002
 20
-28.75809747055379
 30
0.0
  0
SPLINE
  5
8C
330
77
100
AcDbEntity
  8
0
  6
Continuous
 62
     7
370
    18
100
AcDbSpline
210
0.0
220
0.0
230
1.0
 70
     8
 71
     2
 72
     6
 73
     3
 74
     0
 42
0.00000001
 43
0.00000001
 40
1.0
 40
1.0
 40
1.0
 40
2.0
 40
2.0
 40
2.0
 10
5.745235939283002
 20
-28.75809747055379
 30
0.0
 10
5.531735298312616
 20
-29.30641496529977
 30
0.0
 10
5.166807901578401
 20
-29.85360333242915
 30
0.0
  0
SPLINE
  5
8D
330
77
100
AcDbEntity
  8
0
  6
Continuous
 62
     7
370
    18
100
AcDbSpline
210
0.0
220
0.0
230
1.0
 70
     8
 71
     3
 72
     8
 73
     4
 74
     0
 42
0.00000001
 43
0.00000001
 40
2.0
 40
2.0
 40
2.0
 40
2.0
 40
3.0
 40
3.0
 40
3.0
 40
3.0
 10
5.166807901578401
 20
-29.85360333242915
 30
0.0
 10
6.311772697024359
 20
-30.87441642829223
 30
0.0
 10
9.719836507960874
 20
-30.34731494120714
 30
0.0
 10
10.01547729021294
 20
-30.40048416895655
 30
0.0
  0
SPLINE
  5
8E
330
77
100
AcDbEntity
  8
0
  6
Continuous
 62
     7
370
    18
100
AcDbSpline
210
0.0
220
0.0
230
1.0
 70
     8
 71
     3
 72
     8
 73
     4
 74
     0
 42
0.00000001
 43
0.00000001
 40
3.0
 40
3.0
 40
3.0
 40
3.0
 40
3.996689690837188
 40
3.996689690837188
 40
3.996689690837188
 40
3.996689690837188
 10
10.01547729021294
 20
-30.40048416895655
 30
0.0
 10
8.977607483441508
 20
-29.99967069988004
 30
0.0
 10
7.814529315873817
 20
-28.89614101828137
 30
0.0
 10
7.081020323903868
 20
-28.0410800019856
 30
0.0
  0
SPLINE
  5
8F
330
77
100
AcDbEntity
  8
0
  6
Continuous
 62
     7
370
    18
100
AcDbSpline
210
0.0
220
0.0
230
1.0
 70
     8
 71
     3
 72
    14
 73
    10
 74
     0
 42
0.00000001
 43
0.00000001
 40
7.0
 40
7.0
 40
7.0
 40
7.0
 40
8.0
 40
9.0
 40
10.0
 40
11.0
 40
12.0
 40
13.0
 40
14.0
 40
14.0
 40
14.0
 40
14.0
 10
12.78899862649789
 20
-20.9206021766667
 30
0.0
 10
12.75298627797974
 20
-20.92674765647992
 30
0.0
 10
12.68640696953537
 20
-20.93826917416036
 30
0.0
 10
12.46146607510041
 20
-20.9609736022742
 30
0.0
 10
12.36316736583912
 20
-20.81710288078964
 30
0.0
 10
12.19029292109663
 20
-20.56395973963105
 30
0.0
 10
12.22319183016533
 20
-20.44637053703358
 30
0.0
 10
12.12701487946805
 20
-20.29328089794294
 30
0.0
 10
12.03084102575803
 20
-20.14019618848106
 30
0.0
 10
11.83537120556004
 20
-19.86366120251053
 30
0.0
  0
SPLINE
  5
90
330
77
100
AcDbEntity
  8
0
  6
Continuous
 62
     7
370
    18
100
AcDbSpline
210
0.0
220
0.0
230
1.0
 70
     8
 71
     3
 72
    14
 73
    10
 74
     0
 42
0.00000001
 43
0.00000001
 40
0.0
 40
0.0
 40
0.0
 40
0.0
 40
1.0
 40
2.0
 40
3.0
 40
4.0
 40
5.0
 40
6.0
 40
7.0
 40
7.0
 40
7.0
 40
7.0
 10
11.83537120556004
 20
-19.86366120251053
 30
0.0
 10
12.96786884091336
 20
-20.09916183373696
 30
0.0
 10
13.13102812036816
 20
-20.67672009866099
 30
0.0
 10
13.16182644407878
 20
-20.79181058502865
 30
0.0
 10
13.18921773799899
 20
-20.89522906612286
 30
0.0
 10
13.07031240695495
 20
-20.89476265907842
 30
0.0
 10
12.9537126753755
 20
-20.89486911556055
 30
0.0
 10
12.90248106064455
 20
-20.90139629528142
 30
0.0
 10
12.82501097501607
 20
-20.91445669685353
 30
0.0
 10
12.78899862649789
 20
-20.9206021766667
 30
0.0
  0
SPLINE
  5
91
330
77
100
AcDbEntity
  8
0
  6
Continuous
 62
     7
370
    18
100
AcDbSpline
210
0.0
220
0.0
230
1.0
 70
     8
 71
     3
 72
     8
 73
     4
 74
     0
 42
0.00000001
 43
0.00000001
 40
1.0
 40
1.0
 40
1.0
 40
1.0
 40
2.0
 40
2.0
 40
2.0
 40
2.0
 10
0.1890676050530227
 20
-25.18507546927273
 30
0.0
 10
-0.4758636182598079
 20
-26.36818656978759
 30
0.0
 10
-1.071372957931268
 20
-27.62135929727155
 30
0.0
 10
-1.848916090944628
 20
-28.7321574116595
 30
0.0
  0
SPLINE
  5
92
330
77
100
AcDbEntity
  8
0
  6
Continuous
 62
     7
370
    18
100
AcDbSpline
210
0.0
220
0.0
230
1.0
 70
     8
 71
     3
 72
     8
 73
     4
 74
     0
 42
0.00000001
 43
0.00000001
 40
5.0
 40
5.0
 40
5.0
 40
5.0
 40
6.0
 40
6.0
 40
6.0
 40
6.0
 10
5.741387158368082
 20
-27.62554423736086
 30
0.0
 10
5.846722846369613
 20
-27.83071469821159
 30
0.0
 10
5.917083786139072
 20
-28.10116493603904
 30
0.0
 10
5.852229029515427
 20
-28.4276388766053
 30
0.0
  0
SPLINE
  5
93
330
77
100
AcDbEntity
  8
0
  6
Continuous
 62
     7
370
    18
100
AcDbSpline
210
0.0
220
0.0
230
1.0
 70
     8
 71
     3
 72
     8
 73
     4
 74
     0
 42
0.00000001
 43
0.00000001
 40
2.0
 40
2.0
 40
2.0
 40
2.0
 40
3.0
 40
3.0
 40
3.0
 40
3.0
 10
-1.848916090944628
 20
-28.7321574116595
 30
0.0
 10
-2.58099700615287
 20
-29.77807514316875
 30
0.0
 10
-3.400555133943328
 20
-30.75794226768769
 30
0.0
 10
-4.320163121001804
 20
-31.64441810803642
 30
0.0
  0
SPLINE
  5
94
330
77
100
AcDbEntity
  8
0
  6
Continuous
 62
     7
370
    18
100
AcDbSpline
210
0.0
220
0.0
230
1.0
 70
     8
 71
     3
 72
     8
 73
     4
 74
     0
 42
0.00000001
 43
0.00000001
 40
3.0
 40
3.0
 40
3.0
 40
3.0
 40
4.0
 40
4.0
 40
4.0
 40
4.0
 10
-4.320163121001804
 20
-31.64441810803642
 30
0.0
 10
-5.502285688120724
 20
-32.78397107599655
 30
0.0
 10
-6.842602889403164
 20
-33.79629665674205
 30
0.0
 10
-8.312643520423714
 20
-34.53636241310925
 30
0.0
  0
SPLINE
  5
95
330
77
100
AcDbEntity
  8
0
  6
Continuous
 62
     7
370
    18
100
AcDbSpline
210
0.0
220
0.0
230
1.0
 70
     8
 71
     3
 72
     8
 73
     4
 74
     0
 42
0.00000001
 43
0.00000001
 40
0.0
 40
0.0
 40
0.0
 40
0.0
 40
1.0
 40
1.0
 40
1.0
 40
1.0
 10
13.16248097184179
 20
-22.77811969809535
 30
0.0
 10
13.32158274024408
 20
-22.71852038409298
 30
0.0
 10
13.49557540158558
 20
-22.54791198237409
 30
0.0
 10
13.60867884934522
 20
-22.41373778363303
 30
0.0
  0
SPLINE
  5
96
330
77
100
AcDbEntity
  8
0
  6
Continuous
 62
     7
370
    18
100
AcDbSpline
210
0.0
220
0.0
230
1.0
 70
     8
 71
     3
 72
     8
 73
     4
 74
     0
 42
0.00000001
 43
0.00000001
 40
1.0
 40
1.0
 40
1.0
 40
1.0
 40
2.0
 40
2.0
 40
2.0
 40
2.0
 10
13.60867884934522
 20
-22.41373778363303
 30
0.0
 10
14.06883090410567
 20
-21.86791668638103
 30
0.0
 10
13.93824647055738
 20
-21.10927008942834
 30
0.0
 10
13.63564806322252
 20
-20.52311487241799
 30
0.0
  0
SPLINE
  5
97
330
77
100
AcDbEntity
  8
0
  6
Continuous
 62
     7
370
    18
100
AcDbSpline
210
0.0
220
0.0
230
1.0
 70
     8
 71
     3
 72
     8
 73
     4
 74
     0
 42
0.00000001
 43
0.00000001
 40
2.0
 40
2.0
 40
2.0
 40
2.0
 40
3.0
 40
3.0
 40
3.0
 40
3.0
 10
13.63564806322252
 20
-20.52311487241799
 30
0.0
 10
13.28964627126481
 20
-19.85285410357718
 30
0.0
 10
12.67648338579735
 20
-19.35824964276486
 30
0.0
 10
12.02812778214086
 20
-18.99653111143571
 30
0.0
  0
SPLINE
  5
98
330
77
100
AcDbEntity
  8
0
  6
Continuous
 62
     7
370
    18
100
AcDbSpline
210
0.0
220
0.0
230
1.0
 70
     8
 71
     3
 72
     8
 73
     4
 74
     0
 42
0.00000001
 43
0.00000001
 40
3.0
 40
3.0
 40
3.0
 40
3.0
 40
4.0
 40
4.0
 40
4.0
 40
4.0
 10
12.02812778214086
 20
-18.99653111143571
 30
0.0
 10
11.39165828893943
 20
-18.64115679256055
 30
0.0
 10
10.65675821014571
 20
-18.52555054647402
 30
0.0
 10
9.935944716227333
 20
-18.57712058838266
 30
0.0
  0
SPLINE
  5
99
330
77
100
AcDbEntity
  8
0
  6
Continuous
 62
     7
370
    18
100
AcDbSpline
210
0.0
220
0.0
230
1.0
 70
     8
 71
     3
 72
     8
 73
     4
 74
     0
 42
0.00000001
 43
0.00000001
 40
4.0
 40
4.0
 40
4.0
 40
4.0
 40
5.0
 40
5.0
 40
5.0
 40
5.0
 10
9.935944716227333
 20
-18.57712058838266
 30
0.0
 10
9.765303020833768
 20
-18.58949090353762
 30
0.0
 10
9.595649831281627
 20
-18.61121519850877
 30
0.0
 10
9.427025317953943
 20
-18.6398242200312
 30
0.0
  0
SPLINE
  5
9A
330
77
100
AcDbEntity
  8
0
  6
Continuous
 62
     7
370
    18
100
AcDbSpline
210
0.0
220
0.0
230
1.0
 70
     8
 71
     3
 72
     8
 73
     4
 74
     0
 42
0.00000001
 43
0.00000001
 40
5.0
 40
5.0
 40
5.0
 40
5.0
 40
6.0
 40
6.0
 40
6.0
 40
6.0
 10
9.427025317953943
 20
-18.6398242200312
 30
0.0
 10
9.401841746024298
 20
-18.64325493737991
 30
0.0
 10
9.375930374221884
 20
-18.6474270753044
 30
0.0
 10
9.347977710247896
 20
-18.65350684706063
 30
0.0
  0
SPLINE
  5
9B
330
77
100
AcDbEntity
  8
0
  6
Continuous
 62
     7
370
    18
100
AcDbSpline
210
0.0
220
0.0
230
1.0
 70
     8
 71
     3
 72
     8
 73
     4
 74
     0
 42
0.00000001
 43
0.00000001
 40
6.0
 40
6.0
 40
6.0
 40
6.0
 40
7.0
 40
7.0
 40
7.0
 40
7.0
 10
9.347977710247896
 20
-18.65350684706063
 30
0.0
 10
9.3154844368747
 20
-18.66059198688143
 30
0.0
 10
9.281612371694376
 20
-18.66928222686759
 30
0.0
 10
9.248401750735159
 20
-18.67721589591814
 30
0.0
  0
SPLINE
  5
9C
330
77
100
AcDbEntity
  8
0
  6
Continuous
 62
     7
370
    18
100
AcDbSpline
210
0.0
220
0.0
230
1.0
 70
     8
 71
     3
 72
     8
 73
     4
 74
     0
 42
0.00000001
 43
0.00000001
 40
7.0
 40
7.0
 40
7.0
 40
7.0
 40
8.0
 40
8.0
 40
8.0
 40
8.0
 10
9.248401750735159
 20
-18.67721589591814
 30
0.0
 10
8.828729172017946
 20
-18.76183233709977
 30
0.0
 10
8.416325576603711
 20
-18.88669856103988
 30
0.0
 10
8.018919595305736
 20
-19.04403200074751
 30
0.0
  0
SPLINE
  5
9D
330
77
100
AcDbEntity
  8
0
  6
Continuous
 62
     7
370
    18
100
AcDbSpline
210
0.0
220
0.0
230
1.0
 70
     8
 71
     3
 72
     8
 73
     4
 74
     0
 42
0.00000001
 43
0.00000001
 40
8.0
 40
8.0
 40
8.0
 40
8.0
 40
9.0
 40
9.0
 40
9.0
 40
9.0
 10
8.018919595305736
 20
-19.04403200074751
 30
0.0
 10
7.948718757678904
 20
-19.07224882816383
 30
0.0
 10
7.878767955532004
 20
-19.10158741935046
 30
0.0
 10
7.809081283087698
 20
-19.13152738138843
 30
0.0
  0
SPLINE
  5
9E
330
77
100
AcDbEntity
  8
0
  6
Continuous
 62
     7
370
    18
100
AcDbSpline
210
0.0
220
0.0
230
1.0
 70
     8
 71
     3
 72
     8
 73
     4
 74
     0
 42
0.00000001
 43
0.00000001
 40
10.0
 40
10.0
 40
10.0
 40
10.0
 40
11.0
 40
11.0
 40
11.0
 40
11.0
 10
7.809180288493772
 20
-19.13132308829617
 30
0.0
 10
7.802761398942892
 20
-19.13413367961332
 30
0.0
 10
7.796378564323003
 20
-19.1370921325915
 30
0.0
 10
7.789959674772166
 20
-19.13990272390857
 30
0.0
  0
SPLINE
  5
9F
330
77
100
AcDbEntity
  8
0
  6
Continuous
 62
     7
370
    18
100
AcDbSpline
210
0.0
220
0.0
230
1.0
 70
     8
 71
     3
 72
     8
 73
     4
 74
     0
 42
0.00000001
 43
0.00000001
 40
11.0
 40
11.0
 40
11.0
 40
11.0
 40
12.0
 40
12.0
 40
12.0
 40
12.0
 10
7.789959674772166
 20
-19.13990272390857
 30
0.0
 10
7.727199483469478
 20
-19.16702581234913
 30
0.0
 10
7.664805832448564
 20
-19.19491328366098
 30
0.0
 10
7.602701913775588
 20
-19.22344287883286
 30
0.0
  0
SPLINE
  5
A0
330
77
100
AcDbEntity
  8
0
  6
Continuous
 62
     7
370
    18
100
AcDbSpline
210
0.0
220
0.0
230
1.0
 70
     8
 71
     3
 72
     8
 73
     4
 74
     0
 42
0.00000001
 43
0.00000001
 40
12.0
 40
12.0
 40
12.0
 40
12.0
 40
13.0
 40
13.0
 40
13.0
 40
13.0
 10
7.602701913775588
 20
-19.22344287883286
 30
0.0
 10
7.217113319687935
 20
-19.39705344743212
 30
0.0
 10
5.997001551904617
 20
-20.08735799660829
 30
0.0
 10
5.62103742160189
 20
-20.28524495509878
 30
0.0
  0
SPLINE
  5
A1
330
77
100
AcDbEntity
  8
0
  6
Continuous
 62
     7
370
    18
100
AcDbSpline
210
0.0
220
0.0
230
1.0
 70
     8
 71
     3
 72
     8
 73
     4
 74
     0
 42
0.00000001
 43
0.00000001
 40
4.0
 40
4.0
 40
4.0
 40
4.0
 40
5.0
 40
5.0
 40
5.0
 40
5.0
 10
-8.312643520423714
 20
-34.53636241310925
 30
0.0
 10
-8.411034639160002
 20
-34.58584183701119
 30
0.0
 10
-8.836966871753177
 20
-34.8700258468235
 30
0.0
 10
-8.954634558748669
 20
-34.83055832481292
 30
0.0
  0
SPLINE
  5
A2
330
77
100
AcDbEntity
  8
0
  6
Continuous
 62
     7
370
    18
100
AcDbSpline
210
0.0
220
0.0
230
1.0
 70
     8
 71
     3
 72
     8
 73
     4
 74
     0
 42
0.00000001
 43
0.00000001
 40
6.0
 40
6.0
 40
6.0
 40
6.0
 40
7.0
 40
7.0
 40
7.0
 40
7.0
 10
-8.884590252340216
 20
-34.8534799981297
 30
0.0
 10
-1.619323899915008
 20
-33.84056501948026
 30
0.0
 10
-0.8849007908736523
 20
-28.48090738365391
 30
0.0
 10
1.39752241185063
 20
-24.31768612090927
 30
0.0
  0
SPLINE
  5
A3
330
77
100
AcDbEntity
  8
0
  6
Continuous
 62
     7
370
    18
100
AcDbSpline
210
0.0
220
0.0
230
1.0
 70
     8
 71
     3
 72
     8
 73
     4
 74
     0
 42
0.00000001
 43
0.00000001
 40
15.0
 40
15.0
 40
15.0
 40
15.0
 40
16.0
 40
16.0
 40
16.0
 40
16.0
 10
7.61666402024219
 20
-16.14061015178518
 30
0.0
 10
6.37712430883088
 20
-11.21974897891878
 30
0.0
 10
0.5014966551233776
 20
-9.115775052417424
 30
0.0
 10
1.502064263494276
 20
-1.771589632457653
 30
0.0
  0
SPLINE
  5
A4
330
77
100
AcDbEntity
  8
0
  6
Continuous
 62
     7
370
    18
100
AcDbSpline
210
0.0
220
0.0
230
1.0
 70
     8
 71
     2
 72
     6
 73
     3
 74
     0
 42
0.00000001
 43
0.00000001
 40
16.0
 40
16.0
 40
16.0
 40
17.0
 40
17.0
 40
17.0
 10
1.502064263494301
 20
-1.771589632457637
 30
0.0
 10
0.8988127122367296
 20
-1.387303972091294
 30
0.0
 10
0.394445507708313
 20
-2.906964564311894
 30
0.0
  0
SPLINE
  5
A5
330
77
100
AcDbEntity
  8
0
  6
Continuous
 62
     7
370
    18
100
AcDbSpline
210
0.0
220
0.0
230
1.0
 70
     8
 71
     3
 72
     8
 73
     4
 74
     0
 42
0.00000001
 43
0.00000001
 40
17.0
 40
17.0
 40
17.0
 40
17.0
 40
18.0
 40
18.0
 40
18.0
 40
18.0
 10
0.3944455077083129
 20
-2.906964564311893
 30
0.0
 10
0.1589062916464202
 20
-2.432255303561799
 30
0.0
 10
0.0481326418671805
 20
-1.719165557923681
 30
0.0
 10
-0.0000000000000111
 20
-1.029698316824825
 30
0.0
  0
SPLINE
  5
A6
330
77
100
AcDbEntity
  8
0
  6
Continuous
 62
     7
370
    18
100
AcDbSpline
210
0.0
220
0.0
230
1.0
 70
     8
 71
     3
 72
     8
 73
     4
 74
     0
 42
0.00000001
 43
0.00000001
 40
19.0
 40
19.0
 40
19.0
 40
19.0
 40
20.0
 40
20.0
 40
20.0
 40
20.0
 10
-0.000000000000011
 20
1.029698316824825
 30
0.0
 10
-0.247605001678439
 20
0.9563586700206326
 30
0.0
 10
-0.4965992125871336
 20
0.8376424291228968
 30
0.0
 10
-0.7423932761695102
 20
0.6788199880206746
 30
0.0
  0
SPLINE
  5
A7
330
77
100
AcDbEntity
  8
0
  6
Continuous
 62
     7
370
    18
100
AcDbSpline
210
0.0
220
0.0
230
1.0
 70
     8
 71
     3
 72
     8
 73
     4
 74
     0
 42
0.00000001
 43
0.00000001
 40
20.0
 40
20.0
 40
20.0
 40
20.0
 40
21.0
 40
21.0
 40
21.0
 40
21.0
 10
-0.7423932761695041
 20
0.6788199880206758
 30
0.0
 10
-3.773706502500729
 20
-1.088364608817558
 30
0.0
 10
-5.828023551311025
 20
-6.502648922742776
 30
0.0
 10
-6.373622392678747
 20
-10.44545216301364
 30
0.0
  0
SPLINE
  5
A8
330
77
100
AcDbEntity
  8
0
  6
Continuous
 62
     7
370
    18
100
AcDbSpline
210
0.0
220
0.0
230
1.0
 70
     8
 71
     3
 72
     8
 73
     4
 74
     0
 42
0.00000001
 43
0.00000001
 40
21.0
 40
21.0
 40
21.0
 40
21.0
 40
22.0
 40
22.0
 40
22.0
 40
22.0
 10
-6.373622392678747
 20
-10.44545216301364
 30
0.0
 10
-6.534387006384851
 20
-11.6072393176462
 30
0.0
 10
-6.110986063680238
 20
-12.77235598421836
 30
0.0
 10
-5.239490498328086
 20
-13.55729186389973
 30
0.0
  0
SPLINE
  5
A9
330
77
100
AcDbEntity
  8
0
  6
Continuous
 62
     7
370
    18
100
AcDbSpline
210
0.0
220
0.0
230
1.0
 70
     8
 71
     3
 72
     8
 73
     4
 74
     0
 42
0.00000001
 43
0.00000001
 40
22.0
 40
22.0
 40
22.0
 40
22.0
 40
23.0
 40
23.0
 40
23.0
 40
23.0
 10
-5.239490498328086
 20
-13.55729186389973
 30
0.0
 10
-5.069093162935886
 20
-13.71072824031157
 30
0.0
 10
-4.812594020154235
 20
-13.94204896363468
 30
0.0
 10
-4.497635623981145
 20
-14.22616249222083
 30
0.0
  0
SPLINE
  5
AA
330
77
100
AcDbEntity
  8
0
  6
Continuous
 62
     7
370
    18
100
AcDbSpline
210
0.0
220
0.0
230
1.0
 70
     8
 71
     3
 72
     8
 73
     4
 74
     0
 42
0.00000001
 43
0.00000001
 40
23.0
 40
23.0
 40
23.0
 40
23.0
 40
24.0
 40
24.0
 40
24.0
 40
24.0
 10
-4.497635623981145
 20
-14.22616249222083
 30
0.0
 10
-7.377206548962273
 20
-14.3610427235814
 30
0.0
 10
-10.37603432623049
 20
-14.41258052682769
 30
0.0
 10
-13.47142906384564
 20
-11.50579972895087
 30
0.0
  0
SPLINE
  5
AB
330
77
100
AcDbEntity
  8
0
  6
Continuous
 62
     7
370
    18
100
AcDbSpline
210
0.0
220
0.0
230
1.0
 70
     8
 71
     2
 72
     6
 73
     3
 74
     0
 42
0.00000001
 43
0.00000001
 40
24.0
 40
24.0
 40
24.0
 40
25.0
 40
25.0
 40
25.0
 10
-13.47142906384564
 20
-11.50579972895087
 30
0.0
 10
-14.10688605414107
 20
-11.76335116991974
 30
0.0
 10
-13.20042236989913
 20
-13.00202096164688
 30
0.0
  0
SPLINE
  5
AC
330
77
100
AcDbEntity
  8
0
  6
Continuous
 62
     7
370
    18
100
AcDbSpline
210
0.0
220
0.0
230
1.0
 70
     8
 71
     3
 72
     8
 73
     4
 74
     0
 42
0.00000001
 43
0.00000001
 40
25.0
 40
25.0
 40
25.0
 40
25.0
 40
26.0
 40
26.0
 40
26.0
 40
26.0
 10
-13.20042236989913
 20
-13.00202096164688
 30
0.0
 10
-13.70207232315818
 20
-12.92204228168365
 30
0.0
 10
-14.32058558561591
 20
-12.6121679091681
 30
0.0
 10
-14.88582480126041
 20
-12.26649433731928
 30
0.0
  0
SPLINE
  5
AD
330
77
100
AcDbEntity
  8
0
  6
Continuous
 62
     7
370
    18
100
AcDbSpline
210
0.0
220
0.0
230
1.0
 70
     8
 71
     3
 72
     8
 73
     4
 74
     0
 42
0.00000001
 43
0.00000001
 40
26.0
 40
26.0
 40
26.0
 40
26.0
 40
27.0
 40
27.0
 40
27.0
 40
27.0
 10
-14.88582480126041
 20
-12.26649433731928
 30
0.0
 10
-15.11439138607148
 20
-12.10379107541082
 30
0.0
 10
-15.34298592256308
 20
-11.9411337926506
 30
0.0
 10
-15.57155250737237
 20
-11.77843053074102
 30
0.0
  0
SPLINE
  5
AE
330
77
100
AcDbEntity
  8
0
  6
Continuous
 62
     7
370
    18
100
AcDbSpline
210
0.0
220
0.0
230
1.0
 70
     8
 71
     3
 72
     8
 73
     4
 74
     0
 42
0.00000001
 43
0.00000001
 40
27.0
 40
27.0
 40
27.0
 40
27.0
 40
28.0
 40
28.0
 40
28.0
 40
28.0
 10
-15.57155250737237
 20
-11.77843053074102
 30
0.0
 10
-15.54626988054684
 20
-12.43496417244951
 30
0.0
 10
-15.44651697844639
 20
-13.43368074094347
 30
0.0
 10
-15.07122586658969
 20
-14.58147725173132
 30
0.0
  0
SPLINE
  5
AF
330
77
100
AcDbEntity
  8
0
  6
Continuous
 62
     7
370
    18
100
AcDbSpline
210
0.0
220
0.0
230
1.0
 70
     8
 71
     3
 72
     8
 73
     4
 74
     0
 42
0.00000001
 43
0.00000001
 40
28.0
 40
28.0
 40
28.0
 40
28.0
 40
29.0
 40
29.0
 40
29.0
 40
29.0
 10
-15.07122586658969
 20
-14.58147725173132
 30
0.0
 10
-14.14101186928763
 20
-17.42663227492847
 30
0.0
 10
-12.21890524301946
 20
-19.04448598632376
 30
0.0
 10
-11.57411800959374
 20
-19.5729627316439
 30
0.0
  0
SPLINE
  5
B0
330
77
100
AcDbEntity
  8
0
  6
Continuous
 62
     7
370
    18
100
AcDbSpline
210
0.0
220
0.0
230
1.0
 70
     8
 71
     3
 72
     8
 73
     4
 74
     0
 42
0.00000001
 43
0.00000001
 40
29.0
 40
29.0
 40
29.0
 40
29.0
 40
30.0
 40
30.0
 40
30.0
 40
30.0
 10
-11.57411800959374
 20
-19.5729627316439
 30
0.0
 10
-10.2278360673758
 20
-20.67639225726875
 30
0.0
 10
-8.968626575135383
 20
-21.18705865057519
 30
0.0
 10
-8.289256857954726
 20
-21.45628499958021
 30
0.0
  0
SPLINE
  5
B1
330
77
100
AcDbEntity
  8
0
  6
Continuous
 62
     7
370
    18
100
AcDbSpline
210
0.0
220
0.0
230
1.0
 70
     8
 71
     3
 72
     8
 73
     4
 74
     0
 42
0.00000001
 43
0.00000001
 40
30.0
 40
30.0
 40
30.0
 40
30.0
 40
31.0
 40
31.0
 40
31.0
 40
31.0
 10
-8.289256857954726
 20
-21.45628499958021
 30
0.0
 10
-6.483682376184763
 20
-22.17184513279697
 30
0.0
 10
-4.87477560776411
 20
-22.35351920351825
 30
0.0
 10
-3.81330444415229
 20
-22.39201571571204
 30
0.0
  0
SPLINE
  5
B2
330
77
100
AcDbEntity
  8
0
  6
Continuous
 62
     7
370
    18
100
AcDbSpline
210
0.0
220
0.0
230
1.0
 70
     8
 71
     3
 72
     8
 73
     4
 74
     0
 42
0.00000001
 43
0.00000001
 40
31.0
 40
31.0
 40
31.0
 40
31.0
 40
32.0
 40
32.0
 40
32.0
 40
32.0
 10
-3.81330444415229
 20
-22.39201571571204
 30
0.0
 10
-2.745750888684706
 20
-24.06170974884294
 30
0.0
 10
-1.264629867395483
 20
-24.91818512638145
 30
0.0
 10
0.2366295532190317
 20
-25.09914029792422
 30
0.0
  0
SPLINE
  5
B3
330
77
100
AcDbEntity
  8
0
  6
Continuous
 62
     7
370
    18
100
AcDbSpline
210
0.0
220
0.0
230
1.0
 70
     8
 71
     3
 72
     8
 73
     4
 74
     0
 42
0.00000001
 43
0.00000001
 40
32.0
 40
32.0
 40
32.0
 40
32.0
 40
33.0
 40
33.0
 40
33.0
 40
33.0
 10
0.2366295532190317
 20
-25.09914029792422
 30
0.0
 10
0.2368448266661417
 20
-25.0995734306171
 30
0.0
 10
0.2368448266661417
 20
-25.0995734306171
 30
0.0
 10
0.2370729014386109
 20
-25.10002693981265
 30
0.0
  0
SPLINE
  5
B4
330
77
100
AcDbEntity
  8
0
  6
Continuous
 62
     7
370
    18
100
AcDbSpline
210
0.0
220
0.0
230
1.0
 70
     8
 71
     3
 72
     8
 73
     4
 74
     0
 42
0.00000001
 43
0.00000001
 40
33.0
 40
33.0
 40
33.0
 40
33.0
 40
34.0
 40
34.0
 40
34.0
 40
34.0
 10
0.2370729014386109
 20
-25.10002693981265
 30
0.0
 10
-0.4473726928542233
 20
-26.30798726564406
 30
0.0
 10
-1.052723993388068
 20
-27.59471040392042
 30
0.0
 10
-1.848922752625017
 20
-28.73217700654635
 30
0.0
  0
SPLINE
  5
B5
330
77
100
AcDbEntity
  8
0
  6
Continuous
 62
     7
370
    18
100
AcDbSpline
210
0.0
220
0.0
230
1.0
 70
     8
 71
     3
 72
     8
 73
     4
 74
     0
 42
0.00000001
 43
0.00000001
 40
34.0
 40
34.0
 40
34.0
 40
34.0
 40
35.0
 40
35.0
 40
35.0
 40
35.0
 10
-1.848922752625017
 20
-28.73217700654635
 30
0.0
 10
-2.581016469155664
 20
-29.77807436155356
 30
0.0
 10
-3.400574596946121
 20
-30.75794148607251
 30
0.0
 10
-4.320169782681019
 20
-31.64443770292509
 30
0.0
  0
SPLINE
  5
B6
330
77
100
AcDbEntity
  8
0
  6
Continuous
 62
     7
370
    18
100
AcDbSpline
210
0.0
220
0.0
230
1.0
 70
     8
 71
     3
 72
     8
 73
     4
 74
     0
 42
0.00000001
 43
0.00000001
 40
35.0
 40
35.0
 40
35.0
 40
35.0
 40
36.0
 40
36.0
 40
36.0
 40
36.0
 10
-4.320169782681019
 20
-31.64443770292509
 30
0.0
 10
-5.502292349801121
 20
-32.78399067088333
 30
0.0
 10
-6.842609551083555
 20
-33.79631625162889
 30
0.0
 10
-8.312622230422718
 20
-34.53633602884937
 30
0.0
  0
SPLINE
  5
B7
330
77
100
AcDbEntity
  8
0
  6
Continuous
 62
     7
370
    18
100
AcDbSpline
210
0.0
220
0.0
230
1.0
 70
     8
 71
     3
 72
     8
 73
     4
 74
     0
 42
0.00000001
 43
0.00000001
 40
36.0
 40
36.0
 40
36.0
 40
36.0
 40
37.0
 40
37.0
 40
37.0
 40
37.0
 10
-8.312622230422718
 20
-34.53633602884937
 30
0.0
 10
-8.41100054783539
 20
-34.58583582925527
 30
0.0
 10
-8.836986334755972
 20
-34.87002506520831
 30
0.0
 10
-8.95464122042903
 20
-34.83057791969982
 30
0.0
  0
SPLINE
  5
B8
330
77
100
AcDbEntity
  8
0
  6
Continuous
 62
     7
370
    18
100
AcDbSpline
210
0.0
220
0.0
230
1.0
 70
     8
 71
     3
 72
     8
 73
     4
 74
     0
 42
0.00000001
 43
0.00000001
 40
37.0
 40
37.0
 40
37.0
 40
37.0
 40
38.0
 40
38.0
 40
38.0
 40
38.0
 10
-8.95464122042903
 20
-34.83057791969982
 30
0.0
 10
-7.855316701000916
 20
-35.19902224220693
 30
0.0
 10
-6.670985849771815
 20
-35.31257295399734
 30
0.0
 10
-5.520530485207503
 20
-35.38070666342594
 30
0.0
  0
SPLINE
  5
B9
330
77
100
AcDbEntity
  8
0
  6
Continuous
 62
     7
370
    18
100
AcDbSpline
210
0.0
220
0.0
230
1.0
 70
     8
 71
     3
 72
     8
 73
     4
 74
     0
 42
0.00000001
 43
0.00000001
 40
38.0
 40
38.0
 40
38.0
 40
38.0
 40
39.0
 40
39.0
 40
39.0
 40
39.0
 10
-5.520530485207503
 20
-35.38070666342594
 30
0.0
 10
-4.24400827120937
 20
-35.45626070172416
 30
0.0
 10
-2.850018941515092
 20
-35.37210723674404
 30
0.0
 10
-1.633497186371029
 20
-34.95381072794466
 30
0.0
  0
SPLINE
  5
BA
330
77
100
AcDbEntity
  8
0
  6
Continuous
 62
     7
370
    18
100
AcDbSpline
210
0.0
220
0.0
230
1.0
 70
     8
 71
     3
 72
     8
 73
     4
 74
     0
 42
0.00000001
 43
0.00000001
 40
39.0
 40
39.0
 40
39.0
 40
39.0
 40
40.0
 40
40.0
 40
40.0
 40
40.0
 10
-1.633497186371029
 20
-34.95381072794466
 30
0.0
 10
-1.161647758417268
 20
-34.79156986805435
 30
0.0
 10
-0.6998897419386533
 20
-34.60060003392512
 30
0.0
 10
-0.2417020015756544
 20
-34.40340438622162
 30
0.0
  0
SPLINE
  5
BB
330
77
100
AcDbEntity
  8
0
  6
Continuous
 62
     7
370
    18
100
AcDbSpline
210
0.0
220
0.0
230
1.0
 70
     8
 71
     3
 72
     8
 73
     4
 74
     0
 42
0.00000001
 43
0.00000001
 40
40.0
 40
40.0
 40
40.0
 40
40.0
 40
41.0
 40
41.0
 40
41.0
 40
41.0
 10
-0.2417020015756544
 20
-34.40340438622162
 30
0.0
 10
-0.1816605164030941
 20
-34.37756301425404
 30
0.0
 10
0.5680618153143264
 20
-34.09824266291977
 30
0.0
 10
0.5619671856328979
 20
-34.03977754396634
 30
0.0
  0
SPLINE
  5
BC
330
77
100
AcDbEntity
  8
0
  6
Continuous
 62
     7
370
    18
100
AcDbSpline
210
0.0
220
0.0
230
1.0
 70
     8
 71
     3
 72
     8
 73
     4
 74
     0
 42
0.00000001
 43
0.00000001
 40
41.0
 40
41.0
 40
41.0
 40
41.0
 40
42.0
 40
42.0
 40
42.0
 40
42.0
 10
0.5619671856328945
 20
-34.03977754396634
 30
0.0
 10
0.5009923545267035
 20
-33.45272868294924
 30
0.0
 10
0.3892408997618144
 20
-32.91033974047543
 30
0.0
 10
0.4097333630990446
 20
-32.31246460469481
 30
0.0
  0
SPLINE
  5
BD
330
77
100
AcDbEntity
  8
0
  6
Continuous
 62
     7
370
    18
100
AcDbSpline
210
0.0
220
0.0
230
1.0
 70
     8
 71
     3
 72
     8
 73
     4
 74
     0
 42
0.00000001
 43
0.00000001
 40
42.0
 40
42.0
 40
42.0
 40
42.0
 40
43.0
 40
43.0
 40
43.0
 40
43.0
 10
0.4097333630990446
 20
-32.31246460469481
 30
0.0
 10
0.4361451972772317
 20
-31.54089785432373
 30
0.0
 10
0.5999347140878322
 20
-30.80335021591472
 30
0.0
 10
0.781068330884661
 20
-30.05649778236755
 30
0.0
  0
SPLINE
  5
BE
330
77
100
AcDbEntity
  8
0
  6
Continuous
 62
     7
370
    18
100
AcDbSpline
210
0.0
220
0.0
230
1.0
 70
     8
 71
     2
 72
     6
 73
     3
 74
     0
 42
0.00000001
 43
0.00000001
 40
43.0
 40
43.0
 40
43.0
 40
44.0
 40
44.0
 40
44.0
 10
0.7810683308846645
 20
-30.05649778236755
 30
0.0
 10
2.019861532240659
 20
-29.56825285869967
 30
0.0
 10
2.258068961108365
 20
-29.47606436460191
 30
0.0
  0
SPLINE
  5
BF
330
77
100
AcDbEntity
  8
0
  6
Continuous
 62
     7
370
    18
100
AcDbSpline
210
0.0
220
0.0
230
1.0
 70
     8
 71
     3
 72
     8
 73
     4
 74
     0
 42
0.00000001
 43
0.00000001
 40
44.0
 40
44.0
 40
44.0
 40
44.0
 40
45.0
 40
45.0
 40
45.0
 40
45.0
 10
2.258068961108342
 20
-29.47606436460192
 30
0.0
 10
3.006698264126698
 20
-29.1863189469019
 30
0.0
 10
3.728021454602016
 20
-28.82750567245856
 30
0.0
 10
4.423057775498144
 20
-28.42657886572963
 30
0.0
  0
SPLINE
  5
C0
330
77
100
AcDbEntity
  8
0
  6
Continuous
 62
     7
370
    18
100
AcDbSpline
210
0.0
220
0.0
230
1.0
 70
     8
 71
     3
 72
     8
 73
     4
 74
     0
 42
0.00000001
 43
0.00000001
 40
45.0
 40
45.0
 40
45.0
 40
45.0
 40
46.0
 40
46.0
 40
46.0
 40
46.0
 10
4.423057775498167
 20
-28.42657886572961
 30
0.0
 10
4.868536225754158
 20
-28.16961728043866
 30
0.0
 10
5.301864108552885
 20
-27.8924103198887
 30
0.0
 10
5.741401688969919
 20
-27.62554000024407
 30
0.0
  0
SPLINE
  5
C1
330
77
100
AcDbEntity
  8
0
  6
Continuous
 62
     7
370
    18
100
AcDbSpline
210
0.0
220
0.0
230
1.0
 70
     8
 71
     3
 72
     8
 73
     4
 74
     0
 42
0.00000001
 43
0.00000001
 40
46.0
 40
46.0
 40
46.0
 40
46.0
 40
47.0
 40
47.0
 40
47.0
 40
47.0
 10
5.741401688969916
 20
-27.62554000024407
 30
0.0
 10
5.846716220532924
 20
-27.83071994248106
 30
0.0
 10
5.91709395351037
 20
-28.10115880837991
 30
0.0
 10
5.852221678941643
 20
-28.42763672804736
 30
0.0
  0
SPLINE
  5
C2
330
77
100
AcDbEntity
  8
0
  6
Continuous
 62
     7
370
    18
100
AcDbSpline
210
0.0
220
0.0
230
1.0
 70
     8
 71
     3
 72
     8
 73
     4
 74
     0
 42
0.00000001
 43
0.00000001
 40
47.0
 40
47.0
 40
47.0
 40
47.0
 40
48.0
 40
48.0
 40
48.0
 40
48.0
 10
5.852221678941643
 20
-28.42763672804736
 30
0.0
 10
5.825697879445541
 20
-28.53478547887384
 30
0.0
 10
5.788744133302801
 20
-28.64641216137642
 30
0.0
 10
5.745232449477395
 20
-28.75809491089348
 30
0.0
  0
SPLINE
  5
C3
330
77
100
AcDbEntity
  8
0
  6
Continuous
 62
     7
370
    18
100
AcDbSpline
210
0.0
220
0.0
230
1.0
 70
     8
 71
     2
 72
     6
 73
     3
 74
     0
 42
0.00000001
 43
0.00000001
 40
48.0
 40
48.0
 40
48.0
 40
49.0
 40
49.0
 40
49.0
 10
5.745232449477399
 20
-28.75809491089347
 30
0.0
 10
5.531726678391706
 20
-29.30640322476907
 30
0.0
 10
5.166798660391799
 20
-29.85361491693775
 30
0.0
  0
SPLINE
  5
C4
330
77
100
AcDbEntity
  8
0
  6
Continuous
 62
     7
370
    18
100
AcDbSpline
210
0.0
220
0.0
230
1.0
 70
     8
 71
     3
 72
     8
 73
     4
 74
     0
 42
0.00000001
 43
0.00000001
 40
49.0
 40
49.0
 40
49.0
 40
49.0
 40
50.0
 40
50.0
 40
50.0
 40
50.0
 10
5.166798660391799
 20
-29.85361491693775
 30
0.0
 10
6.311748821301538
 20
-30.87442349267374
 30
0.0
 10
9.719833011058038
 20
-30.34731936373517
 30
0.0
 10
10.01547529282146
 20
-30.40047363722643
 30
0.0
  0
SPLINE
  5
C5
330
77
100
AcDbEntity
  8
0
  6
Continuous
 62
     7
370
    18
100
AcDbSpline
210
0.0
220
0.0
230
1.0
 70
     8
 71
     3
 72
     8
 73
     4
 74
     0
 42
0.00000001
 43
0.00000001
 40
51.0
 40
51.0
 40
51.0
 40
51.0
 40
52.0
 40
52.0
 40
52.0
 40
52.0
 10
9.153997704124192
 20
-32.09537737749855
 30
0.0
 10
9.13746533104106
 20
-32.12795874790397
 30
0.0
 10
9.15043432665133
 20
-32.16778204466993
 30
0.0
 10
9.183008121878673
 20
-32.18434759557922
 30
0.0
  0
SPLINE
  5
C6
330
77
100
AcDbEntity
  8
0
  6
Continuous
 62
     7
370
    18
100
AcDbSpline
210
0.0
220
0.0
230
1.0
 70
     8
 71
     3
 72
     8
 73
     4
 74
     0
 42
0.00000001
 43
0.00000001
 40
53.0
 40
53.0
 40
53.0
 40
53.0
 40
54.0
 40
54.0
 40
54.0
 40
54.0
 10
9.481427995968861
 20
-32.33610365259894
 30
0.0
 10
9.51400179119618
 20
-32.35266920350812
 30
0.0
 10
9.553865840967733
 20
-32.33967460525203
 30
0.0
 10
9.570438967056274
 20
-32.30706763220036
 30
0.0
  0
SPLINE
  5
C7
330
77
100
AcDbEntity
  8
0
  6
Continuous
 62
     7
370
    18
100
AcDbSpline
210
0.0
220
0.0
230
1.0
 70
     8
 71
     3
 72
     8
 73
     4
 74
     0
 42
0.00000001
 43
0.00000001
 40
55.0
 40
55.0
 40
55.0
 40
55.0
 40
56.0
 40
56.0
 40
56.0
 40
56.0
 10
10.49927251692245
 20
-30.47944802269659
 30
0.0
 10
10.51193120516501
 20
-30.46811349836248
 30
0.0
 10
10.52226333020525
 20
-30.4588658263786
 30
0.0
 10
10.53488126544412
 20
-30.44755690468914
 30
0.0
  0
SPLINE
  5
C8
330
77
100
AcDbEntity
  8
0
  6
Continuous
 62
     7
370
    18
100
AcDbSpline
210
0.0
220
0.0
230
1.0
 70
     8
 71
     3
 72
     8
 73
     4
 74
     0
 42
0.00000001
 43
0.00000001
 40
56.0
 40
56.0
 40
56.0
 40
56.0
 40
57.0
 40
57.0
 40
57.0
 40
57.0
 10
10.53488126544413
 20
-30.44755690468914
 30
0.0
 10
10.94397733100252
 20
-30.30331240881152
 30
0.0
 10
11.82966874715053
 20
-29.98429676100319
 30
0.0
 10
12.53432218047716
 20
-29.45754287024319
 30
0.0
  0
SPLINE
  5
C9
330
77
100
AcDbEntity
  8
0
  6
Continuous
 62
     7
370
    18
100
AcDbSpline
210
0.0
220
0.0
230
1.0
 70
     8
 71
     3
 72
     8
 73
     4
 74
     0
 42
0.00000001
 43
0.00000001
 40
57.0
 40
57.0
 40
57.0
 40
57.0
 40
58.0
 40
58.0
 40
58.0
 40
58.0
 10
12.53432218047716
 20
-29.45754287024319
 30
0.0
 10
12.5642240877841
 20
-29.43520496265615
 30
0.0
 10
12.56963855743016
 20
-29.39207389927418
 30
0.0
 10
12.54678888824712
 20
-29.36257875718611
 30
0.0
  0
SPLINE
  5
CA
330
77
100
AcDbEntity
  8
0
  6
Continuous
 62
     7
370
    18
100
AcDbSpline
210
0.0
220
0.0
230
1.0
 70
     8
 71
     3
 72
     8
 73
     4
 74
     0
 42
0.00000001
 43
0.00000001
 40
59.0
 40
59.0
 40
59.0
 40
59.0
 40
60.0
 40
60.0
 40
60.0
 40
60.0
 10
12.34190888882302
 20
-29.09789103127773
 30
0.0
 10
12.31997516065779
 20
-29.06958242439806
 30
0.0
 10
12.28012241966975
 20
-29.06441030595369
 30
0.0
 10
12.25140704757306
 20
-29.08583227252173
 30
0.0
  0
SPLINE
  5
CB
330
77
100
AcDbEntity
  8
0
  6
Continuous
 62
     7
370
    18
100
AcDbSpline
210
0.0
220
0.0
230
1.0
 70
     8
 71
     3
 72
     8
 73
     4
 74
     0
 42
0.00000001
 43
0.00000001
 40
60.0
 40
60.0
 40
60.0
 40
60.0
 40
61.0
 40
61.0
 40
61.0
 40
61.0
 10
12.25140704757306
 20
-29.08583227252173
 30
0.0
 10
11.61813304861152
 20
-29.55810881407591
 30
0.0
 10
10.80862034190002
 20
-29.85498500376039
 30
0.0
 10
10.41032416844674
 20
-29.99588325594667
 30
0.0
  0
SPLINE
  5
CC
330
77
100
AcDbEntity
  8
0
  6
Continuous
 62
     7
370
    18
100
AcDbSpline
210
0.0
220
0.0
230
1.0
 70
     8
 71
     3
 72
     8
 73
     4
 74
     0
 42
0.00000001
 43
0.00000001
 40
61.0
 40
61.0
 40
61.0
 40
61.0
 40
62.0
 40
62.0
 40
62.0
 40
62.0
 10
10.41032416844674
 20
-29.99588325594667
 30
0.0
 10
10.11835353580004
 20
-29.93880243613075
 30
0.0
 10
9.785406052735285
 20
-29.78148435767264
 30
0.0
 10
9.416902124193346
 20
-29.50966772742371
 30
0.0
  0
SPLINE
  5
CD
330
77
100
AcDbEntity
  8
0
  6
Continuous
 62
     7
370
    18
100
AcDbSpline
210
0.0
220
0.0
230
1.0
 70
     8
 71
     3
 72
     8
 73
     4
 74
     0
 42
0.00000001
 43
0.00000001
 40
62.0
 40
62.0
 40
62.0
 40
62.0
 40
63.0
 40
63.0
 40
63.0
 40
63.0
 10
9.416902124193346
 20
-29.50966772742371
 30
0.0
 10
9.407944475865712
 20
-29.50119955155471
 30
0.0
 10
9.394588799105467
 20
-29.49143050250025
 30
0.0
 10
9.376572020348016
 20
-29.48021324667389
 30
0.0
  0
SPLINE
  5
CE
330
77
100
AcDbEntity
  8
0
  6
Continuous
 62
     7
370
    18
100
AcDbSpline
210
0.0
220
0.0
230
1.0
 70
     8
 71
     3
 72
     8
 73
     4
 74
     0
 42
0.00000001
 43
0.00000001
 40
63.0
 40
63.0
 40
63.0
 40
63.0
 40
64.0
 40
64.0
 40
64.0
 40
64.0
 10
9.376572020348016
 20
-29.48021324667389
 30
0.0
 10
9.145324806072944
 20
-29.30555303878837
 30
0.0
 10
8.900259957859191
 20
-29.0859189225671
 30
0.0
 10
8.642485564221985
 20
-28.81737501008692
 30
0.0
  0
SPLINE
  5
CF
330
77
100
AcDbEntity
  8
0
  6
Continuous
 62
     7
370
    18
100
AcDbSpline
210
0.0
220
0.0
230
1.0
 70
     8
 71
     2
 72
     6
 73
     3
 74
     0
 42
0.00000001
 43
0.00000001
 40
64.0
 40
64.0
 40
64.0
 40
65.0
 40
65.0
 40
65.0
 10
8.642485564221984
 20
-28.81737501008692
 30
0.0
 10
8.62781779716172
 20
-28.81266466885932
 30
0.0
 10
8.605249246441485
 20
-28.80533009248483
 30
0.0
  0
SPLINE
  5
D0
330
77
100
AcDbEntity
  8
0
  6
Continuous
 62
     7
370
    18
100
AcDbSpline
210
0.0
220
0.0
230
1.0
 70
     8
 71
     3
 72
     8
 73
     4
 74
     0
 42
0.00000001
 43
0.00000001
 40
65.0
 40
65.0
 40
65.0
 40
65.0
 40
66.0
 40
66.0
 40
66.0
 40
66.0
 10
8.605249246441483
 20
-28.80533009248483
 30
0.0
 10
8.441756705356795
 20
-28.62769111192185
 30
0.0
 10
8.288445022476992
 20
-28.44047320919115
 30
0.0
 10
8.160507965772787
 20
-28.26397079802058
 30
0.0
  0
SPLINE
  5
D1
330
77
100
AcDbEntity
  8
0
  6
Continuous
 62
     7
370
    18
100
AcDbSpline
210
0.0
220
0.0
230
1.0
 70
     8
 71
     3
 72
     8
 73
     4
 74
     0
 42
0.00000001
 43
0.00000001
 40
66.0
 40
66.0
 40
66.0
 40
66.0
 40
67.0
 40
67.0
 40
67.0
 40
67.0
 10
8.160507965772789
 20
-28.26397079802058
 30
0.0
 10
8.607151503975404
 20
-28.41906030303154
 30
0.0
 10
9.19232914263821
 20
-28.57237361567124
 30
0.0
 10
9.863974170124614
 20
-28.62737240380984
 30
0.0
  0
SPLINE
  5
D2
330
77
100
AcDbEntity
  8
0
  6
Continuous
 62
     7
370
    18
100
AcDbSpline
210
0.0
220
0.0
230
1.0
 70
     8
 71
     3
 72
     8
 73
     4
 74
     0
 42
0.00000001
 43
0.00000001
 40
67.0
 40
67.0
 40
67.0
 40
67.0
 40
68.0
 40
68.0
 40
68.0
 40
68.0
 10
9.863974170124614
 20
-28.62737240380984
 30
0.0
 10
9.929750373961975
 20
-28.63137718087538
 30
0.0
 10
9.995567330801844
 20
-28.63535635529414
 30
0.0
 10
10.05958246956674
 20
-28.63782455467626
 30
0.0
  0
SPLINE
  5
D3
330
77
100
AcDbEntity
  8
0
  6
Continuous
 62
     7
370
    18
100
AcDbSpline
210
0.0
220
0.0
230
1.0
 70
     8
 71
     3
 72
     8
 73
     4
 74
     0
 42
0.00000001
 43
0.00000001
 40
68.0
 40
68.0
 40
68.0
 40
68.0
 40
69.0
 40
69.0
 40
69.0
 40
69.0
 10
10.05958246956674
 20
-28.63782455467626
 30
0.0
 10
10.11127119041664
 20
-28.63985208217537
 30
0.0
 10
10.16294064545186
 20
-28.64456308025562
 30
0.0
 10
10.21460035848199
 20
-28.64618254964
 30
0.0
  0
SPLINE
  5
D4
330
77
100
AcDbEntity
  8
0
  6
Continuous
 62
     7
370
    18
100
AcDbSpline
210
0.0
220
0.0
230
1.0
 70
     8
 71
     3
 72
     8
 73
     4
 74
     0
 42
0.00000001
 43
0.00000001
 40
69.0
 40
69.0
 40
69.0
 40
69.0
 40
70.0
 40
70.0
 40
70.0
 40
70.0
 10
10.21460035848199
 20
-28.64618254964
 30
0.0
 10
10.21915118340657
 20
-28.64627909690886
 30
0.0
 10
10.22372526194017
 20
-28.64650312933368
 30
0.0
 10
10.22972170784432
 20
-28.64302011343959
 30
0.0
  0
SPLINE
  5
D5
330
77
100
AcDbEntity
  8
0
  6
Continuous
 62
     7
370
    18
100
AcDbSpline
210
0.0
220
0.0
230
1.0
 70
     8
 71
     3
 72
     8
 73
     4
 74
     0
 42
0.00000001
 43
0.00000001
 40
70.0
 40
70.0
 40
70.0
 40
70.0
 40
71.0
 40
71.0
 40
71.0
 40
71.0
 10
10.22972170784433
 20
-28.64302011343959
 30
0.0
 10
10.39542110854619
 20
-28.64648636439826
 30
0.0
 10
10.55222592049436
 20
-28.64556554872323
 30
0.0
 10
10.69525541603271
 20
-28.64198824855314
 30
0.0
  0
SPLINE
  5
D6
330
77
100
AcDbEntity
  8
0
  6
Continuous
 62
     7
370
    18
100
AcDbSpline
210
0.0
220
0.0
230
1.0
 70
     8
 71
     3
 72
     8
 73
     4
 74
     0
 42
0.00000001
 43
0.00000001
 40
71.0
 40
71.0
 40
71.0
 40
71.0
 40
72.0
 40
72.0
 40
72.0
 40
72.0
 10
10.6952554160327
 20
-28.64198824855314
 30
0.0
 10
10.93874918772079
 20
-28.62923420583628
 30
0.0
 10
12.86255814414376
 20
-28.44580125262167
 30
0.0
 10
13.43053046157378
 20
-28.5046888169102
 30
0.0
  0
SPLINE
  5
D7
330
77
100
AcDbEntity
  8
0
  6
Continuous
 62
     7
370
    18
100
AcDbSpline
210
0.0
220
0.0
230
1.0
 70
     8
 71
     3
 72
     8
 73
     4
 74
     0
 42
0.00000001
 43
0.00000001
 40
72.0
 40
72.0
 40
72.0
 40
72.0
 40
73.0
 40
73.0
 40
73.0
 40
73.0
 10
13.43053046157378
 20
-28.5046888169102
 30
0.0
 10
12.97694821790165
 20
-29.54354095615899
 30
0.0
 10
12.80375507038257
 20
-30.61054434437692
 30
0.0
 10
12.76467963112437
 20
-30.88580371497291
 30
0.0
  0
SPLINE
  5
D8
330
77
100
AcDbEntity
  8
0
  6
Continuous
 62
     7
370
    18
100
AcDbSpline
210
0.0
220
0.0
230
1.0
 70
     8
 71
     3
 72
     8
 73
     4
 74
     0
 42
0.00000001
 43
0.00000001
 40
73.0
 40
73.0
 40
73.0
 40
73.0
 40
74.0
 40
74.0
 40
74.0
 40
74.0
 10
12.76467963112437
 20
-30.88580371497291
 30
0.0
 10
12.75946694188426
 20
-30.92247061993447
 30
0.0
 10
12.78562558003658
 20
-30.95551385922744
 30
0.0
 10
12.8223724068011
 20
-30.95999428728276
 30
0.0
  0
SPLINE
  5
D9
330
77
100
AcDbEntity
  8
0
  6
Continuous
 62
     7
370
    18
100
AcDbSpline
210
0.0
220
0.0
230
1.0
 70
     8
 71
     3
 72
     8
 73
     4
 74
     0
 42
0.00000001
 43
0.00000001
 40
75.0
 40
75.0
 40
75.0
 40
75.0
 40
76.0
 40
76.0
 40
76.0
 40
76.0
 10
13.27084661062346
 20
-31.0149510216448
 30
0.0
 10
13.30643509061805
 20
-31.01930660488938
 30
0.0
 10
13.33913039971426
 20
-30.99490116531647
 30
0.0
 10
13.34433815412196
 20
-30.95940253133898
 30
0.0
  0
SPLINE
  5
DA
330
77
100
AcDbEntity
  8
0
  6
Continuous
 62
     7
370
    18
100
AcDbSpline
210
0.0
220
0.0
230
1.0
 70
     8
 71
     3
 72
     8
 73
     4
 74
     0
 42
0.00000001
 43
0.00000001
 40
76.0
 40
76.0
 40
76.0
 40
76.0
 40
77.0
 40
77.0
 40
77.0
 40
77.0
 10
13.34433815412196
 20
-30.95940253133898
 30
0.0
 10
13.3839863568229
 20
-30.68912606222256
 30
0.0
 10
13.56408992520232
 20
-29.60362871347513
 30
0.0
 10
14.02078503742013
 20
-28.61451474141115
 30
0.0
  0
SPLINE
  5
DB
330
77
100
AcDbEntity
  8
0
  6
Continuous
 62
     7
370
    18
100
AcDbSpline
210
0.0
220
0.0
230
1.0
 70
     8
 71
     3
 72
     8
 73
     4
 74
     0
 42
0.00000001
 43
0.00000001
 40
77.0
 40
77.0
 40
77.0
 40
77.0
 40
78.0
 40
78.0
 40
78.0
 40
78.0
 10
14.02078503742013
 20
-28.61451474141115
 30
0.0
 10
14.03051784933197
 20
-28.60422264166403
 30
0.0
 10
14.03832693001586
 20
-28.5959348321164
 30
0.0
 10
14.04805974192876
 20
-28.58564273237117
 30
0.0
  0
SPLINE
  5
DC
330
77
100
AcDbEntity
  8
0
  6
Continuous
 62
     7
370
    18
100
AcDbSpline
210
0.0
220
0.0
230
1.0
 70
     8
 71
     3
 72
     8
 73
     4
 74
     0
 42
0.00000001
 43
0.00000001
 40
78.0
 40
78.0
 40
78.0
 40
78.0
 40
79.0
 40
79.0
 40
79.0
 40
79.0
 10
14.04805974192877
 20
-28.58564273237117
 30
0.0
 10
14.36946299190545
 20
-28.42521597674384
 30
0.0
 10
15.82365074121367
 20
-27.67538698008446
 30
0.0
 10
17.12167999380672
 20
-27.35127481772455
 30
0.0
  0
SPLINE
  5
DD
330
77
100
AcDbEntity
  8
0
  6
Continuous
 62
     7
370
    18
100
AcDbSpline
210
0.0
220
0.0
230
1.0
 70
     8
 71
     3
 72
     8
 73
     4
 74
     0
 42
0.00000001
 43
0.00000001
 40
79.0
 40
79.0
 40
79.0
 40
79.0
 40
80.0
 40
80.0
 40
80.0
 40
80.0
 10
17.1216799938067
 20
-27.35127481772455
 30
0.0
 10
17.15690371849272
 20
-27.34247430066912
 30
0.0
 10
17.17784082126059
 20
-27.30749514968448
 30
0.0
 10
17.16924929537078
 20
-27.27219696609878
 30
0.0
  0
SPLINE
  5
DE
330
77
100
AcDbEntity
  8
0
  6
Continuous
 62
     7
370
    18
100
AcDbSpline
210
0.0
220
0.0
230
1.0
 70
     8
 71
     3
 72
     8
 73
     4
 74
     0
 42
0.00000001
 43
0.00000001
 40
81.0
 40
81.0
 40
81.0
 40
81.0
 40
82.0
 40
82.0
 40
82.0
 40
82.0
 10
17.06226621153357
 20
-26.8332975819211
 30
0.0
 10
17.05353856916747
 20
-26.79760179250334
 30
0.0
 10
17.01793344627307
 20
-26.77512547170584
 30
0.0
 10
16.98226613660748
 20
-26.78403415355417
 30
0.0
  0
SPLINE
  5
DF
330
77
100
AcDbEntity
  8
0
  6
Continuous
 62
     7
370
    18
100
AcDbSpline
210
0.0
220
0.0
230
1.0
 70
     8
 71
     3
 72
     8
 73
     4
 74
     0
 42
0.00000001
 43
0.00000001
 40
82.0
 40
82.0
 40
82.0
 40
82.0
 40
83.0
 40
83.0
 40
83.0
 40
83.0
 10
16.98226613660748
 20
-26.78403415355417
 30
0.0
 10
15.80703100274552
 20
-27.07715433462484
 30
0.0
 10
14.44247136659616
 20
-27.74853717091202
 30
0.0
 10
13.97401618096952
 20
-27.97182062237161
 30
0.0
  0
SPLINE
  5
E0
330
77
100
AcDbEntity
  8
0
  6
Continuous
 62
     7
370
    18
100
AcDbSpline
210
0.0
220
0.0
230
1.0
 70
     8
 71
     2
 72
     6
 73
     3
 74
     0
 42
0.00000001
 43
0.00000001
 40
83.0
 40
83.0
 40
83.0
 40
84.0
 40
84.0
 40
84.0
 10
13.97401618096952
 20
-27.97182062237161
 30
0.0
 10
13.76115166284069
 20
-28.0306975586193
 30
0.0
 10
13.62827019587519
 20
-28.06884456933804
 30
0.0
  0
SPLINE
  5
E1
330
77
100
AcDbEntity
  8
0
  6
Continuous
 62
     7
370
    18
100
AcDbSpline
210
0.0
220
0.0
230
1.0
 70
     8
 71
     2
 72
     6
 73
     3
 74
     0
 42
0.00000001
 43
0.00000001
 40
84.0
 40
84.0
 40
84.0
 40
85.0
 40
85.0
 40
85.0
 10
13.62827019587519
 20
-28.06884456933805
 30
0.0
 10
11.5526032886585
 20
-27.70008456573036
 30
0.0
 10
8.975295544280778
 20
-24.55390683673479
 30
0.0
  0
SPLINE
  5
E2
330
77
100
AcDbEntity
  8
0
  6
Continuous
 62
     7
370
    18
100
AcDbSpline
210
0.0
220
0.0
230
1.0
 70
     8
 71
     2
 72
     6
 73
     3
 74
     0
 42
0.00000001
 43
0.00000001
 40
8.0
 40
8.0
 40
8.0
 40
9.0
 40
9.0
 40
9.0
 10
1.034248725372328
 20
-24.04306676583063
 30
0.0
 10
0.5031359822839347
 20
-24.67424914238567
 30
0.0
 10
0.2366362148993398
 20
-25.09912070303729
 30
0.0
  0
SPLINE
  5
E3
330
77
100
AcDbEntity
  8
0
  6
Continuous
 62
     7
370
    18
100
AcDbSpline
210
0.0
220
0.0
230
1.0
 70
     8
 71
     3
 72
     8
 73
     4
 74
     0
 42
0.00000001
 43
0.00000001
 40
86.0
 40
86.0
 40
86.0
 40
86.0
 40
87.0
 40
87.0
 40
87.0
 40
87.0
 10
10.62007177823641
 20
-22.03794594188311
 30
0.0
 10
11.72219760878135
 20
-21.28087378904547
 30
0.0
 10
12.92971041173824
 20
-21.7396330529282
 30
0.0
 10
13.12249700197277
 20
-22.04761177879816
 30
0.0
  0
SPLINE
  5
E4
330
77
100
AcDbEntity
  8
0
  6
Continuous
 62
     7
370
    18
100
AcDbSpline
210
0.0
220
0.0
230
1.0
 70
     8
 71
     3
 72
     8
 73
     4
 74
     0
 42
0.00000001
 43
0.00000001
 40
87.0
 40
87.0
 40
87.0
 40
87.0
 40
88.0
 40
88.0
 40
88.0
 40
88.0
 10
13.12249700197277
 20
-22.04761177879816
 30
0.0
 10
13.26108412081468
 20
-22.26820779325175
 30
0.0
 10
13.22069296788121
 20
-22.53929203859532
 30
0.0
 10
13.16248097184179
 20
-22.77811969809535
 30
0.0
  0
SPLINE
  5
E5
330
77
100
AcDbEntity
  8
0
  6
Continuous
 62
     7
370
    18
100
AcDbSpline
210
0.0
220
0.0
230
1.0
 70
     8
 71
     3
 72
     8
 73
     4
 74
     0
 42
0.00000001
 43
0.00000001
 40
1.0
 40
1.0
 40
1.0
 40
1.0
 40
2.0
 40
2.0
 40
2.0
 40
2.0
 10
-12.97698727481876
 20
-11.94438967842669
 30
0.0
 10
-12.93408822057713
 20
-11.98055695107731
 30
0.0
 10
-12.89117871404966
 20
-12.0168313323847
 30
0.0
 10
-12.84833062834044
 20
-12.05192229234568
 30
0.0
  0
SPLINE
  5
E6
330
77
100
AcDbEntity
  8
0
  6
Continuous
 62
     7
370
    18
100
AcDbSpline
210
0.0
220
0.0
230
1.0
 70
     8
 71
     3
 72
     8
 73
     4
 74
     0
 42
0.00000001
 43
0.00000001
 40
0.0
 40
0.0
 40
0.0
 40
0.0
 40
1.0
 40
1.0
 40
1.0
 40
1.0
 10
-12.84833062834044
 20
-12.05192229234568
 30
0.0
 10
-12.89117977018919
 20
-12.01637729512133
 30
0.0
 10
-12.93406966504302
 20
-11.98085790053987
 30
0.0
 10
-12.97698727481876
 20
-11.94438967842669
 30
0.0
  0
SPLINE
  5
E7
330
77
100
AcDbEntity
  8
0
  6
Continuous
 62
     7
370
    18
100
AcDbSpline
210
0.0
220
0.0
230
1.0
 70
     8
 71
     3
 72
     8
 73
     4
 74
     0
 42
0.00000001
 43
0.00000001
 40
1.0
 40
1.0
 40
1.0
 40
1.0
 40
2.0
 40
2.0
 40
2.0
 40
2.0
 10
-13.12585089146288
 20
-11.81726812552848
 30
0.0
 10
-13.07617793437105
 20
-11.86068937846771
 30
0.0
 10
-13.02665471445727
 20
-11.90224380512823
 30
0.0
 10
-12.97698727481876
 20
-11.94438967842669
 30
0.0
  0
SPLINE
  5
E8
330
77
100
AcDbEntity
  8
0
  6
Continuous
 62
     7
370
    18
100
AcDbSpline
210
0.0
220
0.0
230
1.0
 70
     8
 71
     3
 72
     8
 73
     4
 74
     0
 42
0.00000001
 43
0.00000001
 40
0.0
 40
0.0
 40
0.0
 40
0.0
 40
1.0
 40
1.0
 40
1.0
 40
1.0
 10
-12.97698727481876
 20
-11.94438967842669
 30
0.0
 10
-13.02658495363045
 20
-11.90262626059936
 30
0.0
 10
-13.07617323629799
 20
-11.86051591416215
 30
0.0
 10
-13.12585089146288
 20
-11.81726812552848
 30
0.0
  0
SPLINE
  5
E9
330
77
100
AcDbEntity
  8
0
  6
Continuous
 62
     7
370
    18
100
AcDbSpline
210
0.0
220
0.0
230
1.0
 70
     8
 71
     3
 72
     8
 73
     4
 74
     0
 42
0.00000001
 43
0.00000001
 40
1.0
 40
1.0
 40
1.0
 40
1.0
 40
2.0
 40
2.0
 40
2.0
 40
2.0
 10
-13.4714083645441
 20
-11.50579973387192
 30
0.0
 10
-13.35607265135197
 20
-11.61411326446534
 30
0.0
 10
-13.24089747348539
 20
-11.71701440282046
 30
0.0
 10
-13.12585089146288
 20
-11.81726812552848
 30
0.0
  0
SPLINE
  5
EA
330
77
100
AcDbEntity
  8
0
  6
Continuous
 62
     7
370
    18
100
AcDbSpline
210
0.0
220
0.0
230
1.0
 70
     8
 71
     3
 72
     8
 73
     4
 74
     0
 42
0.00000001
 43
0.00000001
 40
0.0
 40
0.0
 40
0.0
 40
0.0
 40
1.0
 40
1.0
 40
1.0
 40
1.0
 10
-13.12585089146288
 20
-11.81726812552848
 30
0.0
 10
-13.24099048791926
 20
-11.71650446219232
 30
0.0
 10
-13.35623202143728
 20
-11.61358817347745
 30
0.0
 10
-13.4714083645441
 20
-11.50579973387192
 30
0.0
  0
SPLINE
  5
EB
330
77
100
AcDbEntity
  8
0
  6
Continuous
 62
     7
370
    18
100
AcDbSpline
210
0.0
220
0.0
230
1.0
 70
     8
 71
     3
 72
     8
 73
     4
 74
     0
 42
0.00000001
 43
0.00000001
 40
0.0
 40
0.0
 40
0.0
 40
0.0
 40
1.0
 40
1.0
 40
1.0
 40
1.0
 10
10.21461546345718
 20
-28.64617788443965
 30
0.0
 10
10.21918410196907
 20
-28.64627093080314
 30
0.0
 10
10.22372101727702
 20
-28.64652141251756
 30
0.0
 10
10.22970805870399
 20
-28.64302825278814
 30
0.0
  0
SPLINE
  5
EC
330
77
100
AcDbEntity
  8
0
  6
Continuous
 62
     7
370
    18
100
AcDbSpline
210
0.0
220
0.0
230
1.0
 70
     8
 71
     3
 72
     8
 73
     4
 74
     0
 42
0.00000001
 43
0.00000001
 40
1.0
 40
1.0
 40
1.0
 40
1.0
 40
2.0
 40
2.0
 40
2.0
 40
2.0
 10
10.22970805870399
 20
-28.64302825278814
 30
0.0
 10
10.39542645279408
 20
-28.64648116215303
 30
0.0
 10
10.55224712619552
 20
-28.64555481591909
 30
0.0
 10
10.69524471404092
 20
-28.64199596788804
 30
0.0
  0
SPLINE
  5
ED
330
77
100
AcDbEntity
  8
0
  6
Continuous
 62
     7
370
    18
100
AcDbSpline
210
0.0
220
0.0
230
1.0
 70
     8
 71
     3
 72
     8
 73
     4
 74
     0
 42
0.00000001
 43
0.00000001
 40
2.0
 40
2.0
 40
2.0
 40
2.0
 40
3.0
 40
3.0
 40
3.0
 40
3.0
 10
10.69524471404092
 20
-28.64199596788804
 30
0.0
 10
10.93878108149031
 20
-28.62922500765117
 30
0.0
 10
12.86256786793131
 20
-28.44579912729742
 30
0.0
 10
13.43053447184528
 20
-28.50468697828905
 30
0.0
  0
SPLINE
  5
EE
330
77
100
AcDbEntity
  8
0
  6
Continuous
 62
     7
370
    18
100
AcDbSpline
210
0.0
220
0.0
230
1.0
 70
     8
 71
     3
 72
     8
 73
     4
 74
     0
 42
0.00000001
 43
0.00000001
 40
3.0
 40
3.0
 40
3.0
 40
3.0
 40
4.0
 40
4.0
 40
4.0
 40
4.0
 10
13.43053447184528
 20
-28.50468697828905
 30
0.0
 10
11.96260748192116
 20
-28.37392053115179
 30
0.0
 10
10.1633950095022
 20
-27.12274869564028
 30
0.0
 10
9.151098102011504
 20
-26.42677276430952
 30
0.0
  0
SPLINE
  5
EF
330
77
100
AcDbEntity
  8
0
  6
Continuous
 62
     7
370
    18
100
AcDbSpline
210
0.0
220
0.0
230
1.0
 70
     8
 71
     3
 72
     8
 73
     4
 74
     0
 42
0.00000001
 43
0.00000001
 40
4.0
 40
4.0
 40
4.0
 40
4.0
 40
5.0
 40
5.0
 40
5.0
 40
5.0
 10
9.151098102011504
 20
-26.42677276430952
 30
0.0
 10
9.066774001144022
 20
-26.36879812840622
 30
0.0
 10
8.956675902463358
 20
-26.36572633462992
 30
0.0
 10
8.868930887547672
 20
-26.41838015454434
 30
0.0
  0
SPLINE
  5
F0
330
77
100
AcDbEntity
  8
0
  6
Continuous
 62
     7
370
    18
100
AcDbSpline
210
0.0
220
0.0
230
1.0
 70
     8
 71
     3
 72
     8
 73
     4
 74
     0
 42
0.00000001
 43
0.00000001
 40
5.0
 40
5.0
 40
5.0
 40
5.0
 40
6.0
 40
6.0
 40
6.0
 40
6.0
 10
8.868930887547672
 20
-26.41838015454434
 30
0.0
 10
8.137245193614708
 20
-26.85744836598368
 30
0.0
 10
6.503485492791613
 20
-27.54121410964402
 30
0.0
 10
5.741387155997157
 20
-27.6255445902606
 30
0.0
  0
SPLINE
  5
F1
330
77
100
AcDbEntity
  8
0
  6
Continuous
 62
     7
370
    18
100
AcDbSpline
210
0.0
220
0.0
230
1.0
 70
     8
 71
     2
 72
     6
 73
     3
 74
     0
 42
0.00000001
 43
0.00000001
 40
6.0
 40
6.0
 40
6.0
 40
7.0
 40
7.0
 40
7.0
 10
5.741387155997161
 20
-27.6255445902606
 30
0.0
 10
6.307502227055851
 20
-27.91539630107968
 30
0.0
 10
8.160512274320864
 20
-28.26397363103973
 30
0.0
  0
SPLINE
  5
F2
330
77
100
AcDbEntity
  8
0
  6
Continuous
 62
     7
370
    18
100
AcDbSpline
210
0.0
220
0.0
230
1.0
 70
     8
 71
     3
 72
     8
 73
     4
 74
     0
 42
0.00000001
 43
0.00000001
 40
7.0
 40
7.0
 40
7.0
 40
7.0
 40
8.0
 40
8.0
 40
8.0
 40
8.0
 10
8.160512274320864
 20
-28.26397363103973
 30
0.0
 10
8.607119606053496
 20
-28.41908372564989
 30
0.0
 10
9.192348948782854
 20
-28.5723594656304
 30
0.0
 10
9.863974461413067
 20
-28.62736281210606
 30
0.0
  0
SPLINE
  5
F3
330
77
100
AcDbEntity
  8
0
  6
Continuous
 62
     7
370
    18
100
AcDbSpline
210
0.0
220
0.0
230
1.0
 70
     8
 71
     3
 72
     8
 73
     4
 74
     0
 42
0.00000001
 43
0.00000001
 40
8.0
 40
8.0
 40
8.0
 40
8.0
 40
9.0
 40
9.0
 40
9.0
 40
9.0
 10
9.863974461413067
 20
-28.62736281210606
 30
0.0
 10
9.929765209251192
 20
-28.63135918423149
 30
0.0
 10
9.995575675609581
 20
-28.63534316840197
 30
0.0
 10
10.05956717050909
 20
-28.63784354557302
 30
0.0
  0
SPLINE
  5
F4
330
77
100
AcDbEntity
  8
0
  6
Continuous
 62
     7
370
    18
100
AcDbSpline
210
0.0
220
0.0
230
1.0
 70
     8
 71
     3
 72
     8
 73
     4
 74
     0
 42
0.00000001
 43
0.00000001
 40
9.0
 40
9.0
 40
9.0
 40
9.0
 40
10.0
 40
10.0
 40
10.0
 40
10.0
 10
10.05956717050909
 20
-28.63784354557302
 30
0.0
 10
10.11125739464263
 20
-28.63984923247316
 30
0.0
 10
10.16293232757963
 20
-28.6445665106095
 30
0.0
 10
10.21461546345718
 20
-28.64617788443965
 30
0.0
  0
SPLINE
  5
F5
330
77
100
AcDbEntity
  8
0
  6
Continuous
 62
     7
370
    18
100
AcDbSpline
210
0.0
220
0.0
230
1.0
 70
     8
 71
     3
 72
     8
 73
     4
 74
     0
 42
0.00000001
 43
0.00000001
 40
2.0
 40
2.0
 40
2.0
 40
2.0
 40
3.0
 40
3.0
 40
3.0
 40
3.0
 10
0.781062732010538
 20
-30.05650200510532
 30
0.0
 10
0.1140626469377116
 20
-30.75512103968738
 30
0.0
 10
-0.1792280526829951
 20
-32.7836717599449
 30
0.0
 10
0.56197195590197
 20
-34.03978273437906
 30
0.0
  0
SPLINE
  5
F6
330
77
100
AcDbEntity
  8
0
  6
Continuous
 62
     7
370
    18
100
AcDbSpline
210
0.0
220
0.0
230
1.0
 70
     8
 71
     3
 72
     8
 73
     4
 74
     0
 42
0.00000001
 43
0.00000001
 40
1.0
 40
1.0
 40
1.0
 40
1.0
 40
2.0
 40
2.0
 40
2.0
 40
2.0
 10
0.4097379340995931
 20
-32.31245563887509
 30
0.0
 10
0.4361424212053228
 20
-31.54090664650138
 30
0.0
 10
0.5999421143876079
 20
-30.80333732452794
 30
0.0
 10
0.781062732010538
 20
-30.05650200510532
 30
0.0
  0
SPLINE
  5
F7
330
77
100
AcDbEntity
  8
0
  6
Continuous
 62
     7
370
    18
100
AcDbSpline
210
0.0
220
0.0
230
1.0
 70
     8
 71
     3
 72
     8
 73
     4
 74
     0
 42
0.00000001
 43
0.00000001
 40
0.0
 40
0.0
 40
0.0
 40
0.0
 40
1.0
 40
1.0
 40
1.0
 40
1.0
 10
0.56197195590197
 20
-34.03978273437906
 30
0.0
 10
0.5009972121190077
 20
-33.45272095850807
 30
0.0
 10
0.3892431137951322
 20
-32.91035567089727
 30
0.0
 10
0.4097379340995931
 20
-32.31245563887509
 30
0.0
  0
SPLINE
  5
F8
330
77
100
AcDbEntity
  8
0
  6
Continuous
 62
     7
370
    18
100
AcDbSpline
210
0.0
220
0.0
230
1.0
 70
     8
 71
     3
 72
     8
 73
     4
 74
     0
 42
0.00000001
 43
0.00000001
 40
0.0
 40
0.0
 40
0.0
 40
0.0
 40
1.0
 40
1.0
 40
1.0
 40
1.0
 10
-13.20041683738652
 20
-13.00201936979761
 30
0.0
 10
-12.32154115485279
 20
-14.45520144446019
 30
0.0
 10
-7.761960537329054
 20
-16.44470317690969
 30
0.0
 10
-5.320322465359877
 20
-16.96155007555379
 30
0.0
  0
SPLINE
  5
F9
330
77
100
AcDbEntity
  8
0
  6
Continuous
 62
     7
370
    18
100
AcDbSpline
210
0.0
220
0.0
230
1.0
 70
     8
 71
     3
 72
     8
 73
     4
 74
     0
 42
0.00000001
 43
0.00000001
 40
1.0
 40
1.0
 40
1.0
 40
1.0
 40
2.0
 40
2.0
 40
2.0
 40
2.0
 10
-5.320322465359877
 20
-16.96155007555379
 30
0.0
 10
-5.809512907815261
 20
-18.73302606223522
 30
0.0
 10
-4.10582967731771
 20
-21.71579823494536
 30
0.0
 10
-3.813304494022616
 20
-22.3920269991983
 30
0.0
  0
SPLINE
  5
FA
330
77
100
AcDbEntity
  8
0
  6
Continuous
 62
     7
370
    18
100
AcDbSpline
210
0.0
220
0.0
230
1.0
 70
     8
 71
     2
 72
     6
 73
     3
 74
     0
 42
0.00000001
 43
0.00000001
 40
2.0
 40
2.0
 40
2.0
 40
3.0
 40
3.0
 40
3.0
 10
-3.813304494022616
 20
-22.3920269991983
 30
0.0
 10
-6.043590765584354
 20
-20.10932636703633
 30
0.0
 10
-6.677555282416556
 20
-17.81074155341886
 30
0.0
  0
SPLINE
  5
FB
330
77
100
AcDbEntity
  8
0
  6
Continuous
 62
     7
370
    18
100
AcDbSpline
210
0.0
220
0.0
230
1.0
 70
     8
 71
     2
 72
     6
 73
     3
 74
     0
 42
0.00000001
 43
0.00000001
 40
3.0
 40
3.0
 40
3.0
 40
4.0
 40
4.0
 40
4.0
 10
-6.677555282416556
 20
-17.81074155341886
 30
0.0
 10
-11.75039520923077
 20
-15.65450427384786
 30
0.0
 10
-13.20041683738652
 20
-13.00201936979761
 30
0.0
  0
SPLINE
  5
FC
330
77
100
AcDbEntity
  8
0
  6
Continuous
 62
     7
370
    18
100
AcDbSpline
210
0.0
220
0.0
230
1.0
 70
     8
 71
     2
 72
     6
 73
     3
 74
     0
 42
0.00000001
 43
0.00000001
 40
1.0
 40
1.0
 40
1.0
 40
2.0
 40
2.0
 40
2.0
 10
-1.349158294773173
 20
-16.43790442263529
 30
0.0
 10
-3.425676913677115
 20
-15.05901031383733
 30
0.0
 10
-4.497614924678368
 20
-14.22616249714356
 30
0.0
  0
SPLINE
  5
FD
330
77
100
AcDbEntity
  8
0
  6
Continuous
 62
     7
370
    18
100
AcDbSpline
210
0.0
220
0.0
230
1.0
 70
     8
 71
     3
 72
     8
 73
     4
 74
     0
 42
0.00000001
 43
0.00000001
 40
2.0
 40
2.0
 40
2.0
 40
2.0
 40
3.0
 40
3.0
 40
3.0
 40
3.0
 10
-4.497614924678368
 20
-14.22616249714356
 30
0.0
 10
-7.183559023213449
 20
-14.35196557735811
 30
0.0
 10
-9.97328197261404
 20
-14.40422605275014
 30
0.0
 10
-12.84833062834044
 20
-12.05192229234568
 30
0.0
  0
SPLINE
  5
FE
330
77
100
AcDbEntity
  8
0
  6
Continuous
 62
     7
370
    18
100
AcDbSpline
210
0.0
220
0.0
230
1.0
 70
     8
 71
     2
 72
     6
 73
     3
 74
     0
 42
0.00000001
 43
0.00000001
 40
3.0
 40
3.0
 40
3.0
 40
4.0
 40
4.0
 40
4.0
 10
-12.84833062834044
 20
-12.05192229234568
 30
0.0
 10
-8.926716496317836
 20
-15.30072905894997
 30
0.0
 10
-5.163233750484998
 20
-14.64433050232701
 30
0.0
  0
SPLINE
  5
FF
330
77
100
AcDbEntity
  8
0
  6
Continuous
 62
     7
370
    18
100
AcDbSpline
210
0.0
220
0.0
230
1.0
 70
     8
 71
     2
 72
     6
 73
     3
 74
     0
 42
0.00000001
 43
0.00000001
 40
4.0
 40
4.0
 40
4.0
 40
5.0
 40
5.0
 40
5.0
 10
-5.163233750484998
 20
-14.64433050232701
 30
0.0
 10
-3.522925431558867
 20
-15.98679375933487
 30
0.0
 10
-2.117352433414995
 20
-16.92051428596087
 30
0.0
  0
SPLINE
  5
100
330
77
100
AcDbEntity
  8
0
  6
Continuous
 62
     7
370
    18
100
AcDbSpline
210
0.0
220
0.0
230
1.0
 70
     8
 71
     3
 72
     8
 73
     4
 74
     0
 42
0.00000001
 43
0.00000001
 40
5.0
 40
5.0
 40
5.0
 40
5.0
 40
6.0
 40
6.0
 40
6.0
 40
6.0
 10
-2.117352433414995
 20
-16.92051428596087
 30
0.0
 10
-2.267881806210096
 20
-17.81976104868603
 30
0.0
 10
-2.407277268150154
 20
-19.21016616381927
 30
0.0
 10
-1.664620714277922
 20
-20.81035712110292
 30
0.0
  0
SPLINE
  5
101
330
77
100
AcDbEntity
  8
0
  6
Continuous
 62
     7
370
    18
100
AcDbSpline
210
0.0
220
0.0
230
1.0
 70
     8
 71
     3
 72
     8
 73
     4
 74
     0
 42
0.00000001
 43
0.00000001
 40
6.0
 40
6.0
 40
6.0
 40
6.0
 40
7.0
 40
7.0
 40
7.0
 40
7.0
 10
-1.664620714277922
 20
-20.81035712110292
 30
0.0
 10
-1.664312426395075
 20
-20.81130019442271
 30
0.0
 10
-1.664085644523588
 20
-20.81229447303425
 30
0.0
 10
-1.663777356640795
 20
-20.813237546354
 30
0.0
  0
SPLINE
  5
102
330
77
100
AcDbEntity
  8
0
  6
Continuous
 62
     7
370
    18
100
AcDbSpline
210
0.0
220
0.0
230
1.0
 70
     8
 71
     3
 72
     8
 73
     4
 74
     0
 42
0.00000001
 43
0.00000001
 40
7.0
 40
7.0
 40
7.0
 40
7.0
 40
8.0
 40
8.0
 40
8.0
 40
8.0
 10
-1.663777356640795
 20
-20.813237546354
 30
0.0
 10
-1.662901112489764
 20
-20.81490372147473
 30
0.0
 10
-1.661968964973327
 20
-20.81647793829811
 30
0.0
 10
-1.661092720823347
 20
-20.81814411341701
 30
0.0
  0
SPLINE
  5
103
330
77
100
AcDbEntity
  8
0
  6
Continuous
 62
     7
370
    18
100
AcDbSpline
210
0.0
220
0.0
230
1.0
 70
     8
 71
     3
 72
     8
 73
     4
 74
     0
 42
0.00000001
 43
0.00000001
 40
8.0
 40
8.0
 40
8.0
 40
8.0
 40
9.0
 40
9.0
 40
9.0
 40
9.0
 10
-1.661092720823347
 20
-20.81814411341701
 30
0.0
 10
-1.229373968722224
 20
-21.74517157116296
 30
0.0
 10
-0.5004685823514314
 20
-22.74228692212668
 30
0.0
 10
0.6942959165096505
 20
-23.75544460571742
 30
0.0
  0
SPLINE
  5
104
330
77
100
AcDbEntity
  8
0
  6
Continuous
 62
     7
370
    18
100
AcDbSpline
210
0.0
220
0.0
230
1.0
 70
     8
 71
     2
 72
     6
 73
     3
 74
     0
 42
0.00000001
 43
0.00000001
 40
9.0
 40
9.0
 40
9.0
 40
10.0
 40
10.0
 40
10.0
 10
0.6942959165096505
 20
-23.75544460571742
 30
0.0
 10
1.573046591396742
 20
-24.52641591715609
 30
0.0
 10
2.277251563960161
 20
-24.90565086721784
 30
0.0
  0
SPLINE
  5
105
330
77
100
AcDbEntity
  8
0
  6
Continuous
 62
     7
370
    18
100
AcDbSpline
210
0.0
220
0.0
230
1.0
 70
     8
 71
     3
 72
     8
 73
     4
 74
     0
 42
0.00000001
 43
0.00000001
 40
10.0
 40
10.0
 40
10.0
 40
10.0
 40
11.0
 40
11.0
 40
11.0
 40
11.0
 10
2.277251563960161
 20
-24.90565086721784
 30
0.0
 10
-0.3444737072681864
 20
-23.07744411042371
 30
0.0
 10
-1.384783611401682
 20
-21.0299715722269
 30
0.0
 10
-1.791077823248111
 20
-19.55173176913453
 30
0.0
  0
SPLINE
  5
106
330
77
100
AcDbEntity
  8
0
  6
Continuous
 62
     7
370
    18
100
AcDbSpline
210
0.0
220
0.0
230
1.0
 70
     8
 71
     3
 72
     8
 73
     4
 74
     0
 42
0.00000001
 43
0.00000001
 40
11.0
 40
11.0
 40
11.0
 40
11.0
 40
12.0
 40
12.0
 40
12.0
 40
12.0
 10
-1.791077823248111
 20
-19.55173176913453
 30
0.0
 10
-1.952004736442718
 20
-18.58763900877485
 30
0.0
 10
-1.857645689601465
 20
-17.53728176305358
 30
0.0
 10
-1.344635895048667
 20
-16.44003656241194
 30
0.0
  0
SPLINE
  5
107
330
77
100
AcDbEntity
  8
0
  6
Continuous
 62
     7
370
    18
100
AcDbSpline
210
0.0
220
0.0
230
1.0
 70
     8
 71
     3
 72
     8
 73
     4
 74
     0
 42
0.00000001
 43
0.00000001
 40
1.0
 40
1.0
 40
1.0
 40
1.0
 40
2.0
 40
2.0
 40
2.0
 40
2.0
 10
9.282072433202625
 20
-23.83234642604633
 30
0.0
 10
9.542961528798338
 20
-23.25329859518931
 30
0.0
 10
9.985495514983219
 20
-22.47632608388373
 30
0.0
 10
10.62007177823641
 20
-22.03794594188311
 30
0.0
  0
SPLINE
  5
108
330
77
100
AcDbEntity
  8
0
  6
Continuous
 62
     7
370
    18
100
AcDbSpline
210
0.0
220
0.0
230
1.0
 70
     8
 71
     3
 72
     8
 73
     4
 74
     0
 42
0.00000001
 43
0.00000001
 40
4.0
 40
4.0
 40
4.0
 40
4.0
 40
5.0
 40
5.0
 40
5.0
 40
5.0
 10
13.17134989821584
 20
-22.77125005992538
 30
0.0
 10
13.91734338198129
 20
-21.59974891081312
 30
0.0
 10
11.03631975087138
 20
-19.45853573582023
 30
0.0
 10
8.91093208540684
 20
-21.00902899615352
 30
0.0
  0
SPLINE
  5
109
330
77
100
AcDbEntity
  8
0
  6
Continuous
 62
     7
370
    18
100
AcDbSpline
210
0.0
220
0.0
230
1.0
 70
     8
 71
     3
 72
     8
 73
     4
 74
     0
 42
0.00000001
 43
0.00000001
 40
5.0
 40
5.0
 40
5.0
 40
5.0
 40
6.0
 40
6.0
 40
6.0
 40
6.0
 10
8.91093208540684
 20
-21.00902899615352
 30
0.0
 10
6.785544419941263
 20
-22.55952225648562
 30
0.0
 10
6.138264936105684
 20
-26.41214330901684
 30
0.0
 10
0.7891610119816483
 20
-30.05141434614796
 30
0.0
  0
SPLINE
  5
10A
330
77
100
AcDbEntity
  8
0
  6
Continuous
 62
     7
370
    18
100
AcDbSpline
210
0.0
220
0.0
230
1.0
 70
     8
 71
     2
 72
     6
 73
     3
 74
     0
 42
0.00000001
 43
0.00000001
 40
6.0
 40
6.0
 40
6.0
 40
7.0
 40
7.0
 40
7.0
 10
0.7891610119816483
 20
-30.05141434614796
 30
0.0
 10
2.027957268008918
 20
-29.56317356732477
 30
0.0
 10
2.266152999548186
 20
-29.47098631967676
 30
0.0
  0
SPLINE
  5
10B
330
77
100
AcDbEntity
  8
0
  6
Continuous
 62
     7
370
    18
100
AcDbSpline
210
0.0
220
0.0
230
1.0
 70
     8
 71
     3
 72
     8
 73
     4
 74
     0
 42
0.00000001
 43
0.00000001
 40
7.0
 40
7.0
 40
7.0
 40
7.0
 40
8.0
 40
8.0
 40
8.0
 40
8.0
 10
2.266152999548186
 20
-29.47098631967676
 30
0.0
 10
3.014801417132293
 20
-29.18122818076082
 30
0.0
 10
3.736118100429408
 20
-28.82241116458091
 30
0.0
 10
4.431146345693874
 20
-28.42149782758251
 30
0.0
  0
SPLINE
  5
10C
330
77
100
AcDbEntity
  8
0
  6
Continuous
 62
     7
370
    18
100
AcDbSpline
210
0.0
220
0.0
230
1.0
 70
     8
 71
     3
 72
     8
 73
     4
 74
     0
 42
0.00000001
 43
0.00000001
 40
9.0
 40
9.0
 40
9.0
 40
9.0
 40
10.0
 40
10.0
 40
10.0
 40
10.0
 10
5.741401688969916
 20
-27.62554000024407
 30
0.0
 10
7.060991710032899
 20
-26.77804674712032
 30
0.0
 10
8.443973707032603
 20
-26.09970911999108
 30
0.0
 10
9.267426036511852
 20
-23.87039661735003
 30
0.0
  0
SPLINE
  5
10D
330
77
100
AcDbEntity
  8
0
  6
Continuous
 62
     7
370
    18
100
AcDbSpline
210
0.0
220
0.0
230
1.0
 70
     8
 71
     3
 72
     8
 73
     4
 74
     0
 42
0.00000001
 43
0.00000001
 40
0.0
 40
0.0
 40
0.0
 40
0.0
 40
1.0
 40
1.0
 40
1.0
 40
1.0
 10
7.616643966539248
 20
-16.14063575935378
 30
0.0
 10
6.913790166466484
 20
-16.14488777689968
 30
0.0
 10
6.697443007890195
 20
-16.79416276836541
 30
0.0
 10
6.436018843175425
 20
-17.3230129233678
 30
0.0
  0
SPLINE
  5
10E
330
77
100
AcDbEntity
  8
0
  6
Continuous
 62
     7
370
    18
100
AcDbSpline
210
0.0
220
0.0
230
1.0
 70
     8
 71
     3
 72
     8
 73
     4
 74
     0
 42
0.00000001
 43
0.00000001
 40
1.0
 40
1.0
 40
1.0
 40
1.0
 40
2.0
 40
2.0
 40
2.0
 40
2.0
 10
6.436018843175425
 20
-17.3230129233678
 30
0.0
 10
5.948216897681968
 20
-18.30992905460965
 30
0.0
 10
5.052555161752526
 20
-19.5995436994
 30
0.0
 10
5.103926613042106
 20
-20.75366969743216
 30
0.0
  0
SPLINE
  5
10F
330
77
100
AcDbEntity
  8
0
  6
Continuous
 62
     7
370
    18
100
AcDbSpline
210
0.0
220
0.0
230
1.0
 70
     8
 71
     2
 72
     6
 73
     3
 74
     0
 42
0.00000001
 43
0.00000001
 40
2.0
 40
2.0
 40
2.0
 40
3.0
 40
3.0
 40
3.0
 10
5.103926613042106
 20
-20.75366969743216
 30
0.0
 10
5.110006812763316
 20
-21.55270934533252
 30
0.0
 10
5.893010450029737
 20
-21.89666129361517
 30
0.0
  0
SPLINE
  5
110
330
77
100
AcDbEntity
  8
0
  6
Continuous
 62
     7
370
    18
100
AcDbSpline
210
0.0
220
0.0
230
1.0
 70
     8
 71
     2
 72
     6
 73
     3
 74
     0
 42
0.00000001
 43
0.00000001
 40
3.0
 40
3.0
 40
3.0
 40
4.0
 40
4.0
 40
4.0
 10
5.893010450029737
 20
-21.89666129361517
 30
0.0
 10
5.064669634616712
 20
-21.16070169146862
 30
0.0
 10
5.897476922257513
 20
-19.59962191921445
 30
0.0
  0
SPLINE
  5
111
330
77
100
AcDbEntity
  8
0
  6
Continuous
 62
     7
370
    18
100
AcDbSpline
210
0.0
220
0.0
230
1.0
 70
     8
 71
     3
 72
     8
 73
     4
 74
     0
 42
0.00000001
 43
0.00000001
 40
4.0
 40
4.0
 40
4.0
 40
4.0
 40
5.0
 40
5.0
 40
5.0
 40
5.0
 10
5.897476922257513
 20
-19.59962191921445
 30
0.0
 10
6.365882597961094
 20
-18.72160531632978
 30
0.0
 10
6.783564254303969
 20
-18.1502556103958
 30
0.0
 10
6.961063665415703
 20
-17.79297771071811
 30
0.0
  0
SPLINE
  5
112
330
77
100
AcDbEntity
  8
0
  6
Continuous
 62
     7
370
    18
100
AcDbSpline
210
0.0
220
0.0
230
1.0
 70
     8
 71
     3
 72
     8
 73
     4
 74
     0
 42
0.00000001
 43
0.00000001
 40
5.0
 40
5.0
 40
5.0
 40
5.0
 40
6.0
 40
6.0
 40
6.0
 40
6.0
 10
6.961063665415703
 20
-17.79297771071811
 30
0.0
 10
6.969564036079641
 20
-17.77592889764838
 30
0.0
 10
6.978008503380095
 20
-17.75897204287472
 30
0.0
 10
6.986317910343667
 20
-17.74207161953264
 30
0.0
  0
SPLINE
  5
113
330
77
100
AcDbEntity
  8
0
  6
Continuous
 62
     7
370
    18
100
AcDbSpline
210
0.0
220
0.0
230
1.0
 70
     8
 71
     2
 72
     6
 73
     3
 74
     0
 42
0.00000001
 43
0.00000001
 40
6.0
 40
6.0
 40
6.0
 40
7.0
 40
7.0
 40
7.0
 10
6.986317910343667
 20
-17.74207161953264
 30
0.0
 10
7.02365081475716
 20
-17.66624177102196
 30
0.0
 10
7.044485288742809
 20
-17.62223308004855
 30
0.0
  0
SPLINE
  5
114
330
77
100
AcDbEntity
  8
0
  6
Continuous
 62
     7
370
    18
100
AcDbSpline
210
0.0
220
0.0
230
1.0
 70
     8
 71
     3
 72
     8
 73
     4
 74
     0
 42
0.00000001
 43
0.00000001
 40
8.0
 40
8.0
 40
8.0
 40
8.0
 40
9.0
 40
9.0
 40
9.0
 40
9.0
 10
7.043747273343362
 20
-17.62187258528872
 30
0.0
 10
7.259429684873595
 20
-17.1682239392887
 30
0.0
 10
7.409758570724429
 20
-16.77384940600867
 30
0.0
 10
7.501213874593598
 20
-16.5071459647044
 30
0.0
  0
SPLINE
  5
115
330
77
100
AcDbEntity
  8
0
  6
Continuous
 62
     7
370
    18
100
AcDbSpline
210
0.0
220
0.0
230
1.0
 70
     8
 71
     2
 72
     6
 73
     3
 74
     0
 42
0.00000001
 43
0.00000001
 40
9.0
 40
9.0
 40
9.0
 40
10.0
 40
10.0
 40
10.0
 10
7.501213874593598
 20
-16.5071459647044
 30
0.0
 10
7.58018144071422
 20
-16.27701921792476
 30
0.0
 10
7.616643966539248
 20
-16.14063575935378
 30
0.0
  0
SPLINE
  5
116
330
77
100
AcDbEntity
  8
0
  6
Continuous
 62
     7
370
    18
100
AcDbSpline
210
0.0
220
0.0
230
1.0
 70
     8
 71
     2
 72
     6
 73
     3
 74
     0
 42
0.00000001
 43
0.00000001
 40
0.0
 40
0.0
 40
0.0
 40
1.0
 40
1.0
 40
1.0
 10
0.3944126526828438
 20
-2.906969795378479
 30
0.0
 10
-0.9260675992531606
 20
-7.098093552135839
 30
0.0
 10
3.694246552495818
 20
-15.91394980485279
 30
0.0
  0
SPLINE
  5
117
330
77
100
AcDbEntity
  8
0
  6
Continuous
 62
     7
370
    18
100
AcDbSpline
210
0.0
220
0.0
230
1.0
 70
     8
 71
     3
 72
     8
 73
     4
 74
     0
 42
0.00000001
 43
0.00000001
 40
1.0
 40
1.0
 40
1.0
 40
1.0
 40
2.0
 40
2.0
 40
2.0
 40
2.0
 10
3.694246552495818
 20
-15.91394980485279
 30
0.0
 10
3.446899321752916
 20
-17.12012815823227
 30
0.0
 10
3.357918547908363
 20
-18.01529334045489
 30
0.0
 10
3.369570932292986
 20
-18.71508939083513
 30
0.0
  0
SPLINE
  5
118
330
77
100
AcDbEntity
  8
0
  6
Continuous
 62
     7
370
    18
100
AcDbSpline
210
0.0
220
0.0
230
1.0
 70
     8
 71
     3
 72
     8
 73
     4
 74
     0
 42
0.00000001
 43
0.00000001
 40
4.0
 40
4.0
 40
4.0
 40
4.0
 40
5.0
 40
5.0
 40
5.0
 40
5.0
 10
3.371167179561167
 20
-18.80258270306617
 30
0.0
 10
3.375320776009459
 20
-18.94553433452855
 30
0.0
 10
3.384065732186145
 20
-19.07969038264685
 30
0.0
 10
3.396375939104116
 20
-19.20694591668476
 30
0.0
  0
SPLINE
  5
119
330
77
100
AcDbEntity
  8
0
  6
Continuous
 62
     7
370
    18
100
AcDbSpline
210
0.0
220
0.0
230
1.0
 70
     8
 71
     2
 72
     6
 73
     3
 74
     0
 42
0.00000001
 43
0.00000001
 40
6.0
 40
6.0
 40
6.0
 40
7.0
 40
7.0
 40
7.0
 10
3.414912572583571
 20
-19.50415597158925
 30
0.0
 10
3.463733909636759
 20
-20.44034883554467
 30
0.0
 10
4.199514098340574
 20
-21.43655542025973
 30
0.0
  0
SPLINE
  5
11A
330
77
100
AcDbEntity
  8
0
  6
Continuous
 62
     7
370
    18
100
AcDbSpline
210
0.0
220
0.0
230
1.0
 70
     8
 71
     3
 72
     8
 73
     4
 74
     0
 42
0.00000001
 43
0.00000001
 40
7.0
 40
7.0
 40
7.0
 40
7.0
 40
8.0
 40
8.0
 40
8.0
 40
8.0
 10
4.199514098340574
 20
-21.43655542025973
 30
0.0
 10
4.209530614512485
 20
-21.44734234739126
 30
0.0
 10
4.217448187290456
 20
-21.45279791477912
 30
0.0
 10
4.226419929838382
 20
-21.46074569773323
 30
0.0
  0
SPLINE
  5
11B
330
77
100
AcDbEntity
  8
0
  6
Continuous
 62
     7
370
    18
100
AcDbSpline
210
0.0
220
0.0
230
1.0
 70
     8
 71
     2
 72
     6
 73
     3
 74
     0
 42
0.00000001
 43
0.00000001
 40
8.0
 40
8.0
 40
8.0
 40
9.0
 40
9.0
 40
9.0
 10
4.226419929838382
 20
-21.46074569773323
 30
0.0
 10
4.602113169577764
 20
-21.92169141031366
 30
0.0
 10
5.25588783635365
 20
-22.1084696061984
 30
0.0
  0
SPLINE
  5
11C
330
77
100
AcDbEntity
  8
0
  6
Continuous
 62
     7
370
    18
100
AcDbSpline
210
0.0
220
0.0
230
1.0
 70
     8
 71
     3
 72
     8
 73
     4
 74
     0
 42
0.00000001
 43
0.00000001
 40
9.0
 40
9.0
 40
9.0
 40
9.0
 40
10.0
 40
10.0
 40
10.0
 40
10.0
 10
5.25588783635365
 20
-22.1084696061984
 30
0.0
 10
4.722803653588975
 20
-21.69473771792311
 30
0.0
 10
4.555729374077984
 20
-21.23618402102321
 30
0.0
 10
4.5115397999614
 20
-20.91388289798429
 30
0.0
  0
SPLINE
  5
11D
330
77
100
AcDbEntity
  8
0
  6
Continuous
 62
     7
370
    18
100
AcDbSpline
210
0.0
220
0.0
230
1.0
 70
     8
 71
     3
 72
     8
 73
     4
 74
     0
 42
0.00000001
 43
0.00000001
 40
10.0
 40
10.0
 40
10.0
 40
10.0
 40
11.0
 40
11.0
 40
11.0
 40
11.0
 10
4.5115397999614
 20
-20.91388289798429
 30
0.0
 10
4.511444436489974
 20
-20.91345968950935
 30
0.0
 10
4.511458530710389
 20
-20.91293929659483
 30
0.0
 10
4.51136316724085
 20
-20.91251608811877
 30
0.0
  0
SPLINE
  5
11E
330
77
100
AcDbEntity
  8
0
  6
Continuous
 62
     7
370
    18
100
AcDbSpline
210
0.0
220
0.0
230
1.0
 70
     8
 71
     3
 72
     8
 73
     4
 74
     0
 42
0.00000001
 43
0.00000001
 40
11.0
 40
11.0
 40
11.0
 40
11.0
 40
12.0
 40
12.0
 40
12.0
 40
12.0
 10
4.51136316724085
 20
-20.91251608811877
 30
0.0
 10
4.492940501693147
 20
-20.77725000285986
 30
0.0
 10
4.49631721425359
 20
-20.66736453587088
 30
0.0
 10
4.503170896062897
 20
-20.59377375245777
 30
0.0
  0
SPLINE
  5
11F
330
77
100
AcDbEntity
  8
0
  6
Continuous
 62
     7
370
    18
100
AcDbSpline
210
0.0
220
0.0
230
1.0
 70
     8
 71
     3
 72
     8
 73
     4
 74
     0
 42
0.00000001
 43
0.00000001
 40
12.0
 40
12.0
 40
12.0
 40
12.0
 40
13.0
 40
13.0
 40
13.0
 40
13.0
 10
4.503170896062897
 20
-20.59377375245777
 30
0.0
 10
4.604013649449088
 20
-19.7965617294209
 30
0.0
 10
5.139276617404003
 20
-18.9096664850367
 30
0.0
 10
5.595548611273902
 20
-17.9099700673493
 30
0.0
  0
SPLINE
  5
120
330
77
100
AcDbEntity
  8
0
  6
Continuous
 62
     7
370
    18
100
AcDbSpline
210
0.0
220
0.0
230
1.0
 70
     8
 71
     2
 72
     6
 73
     3
 74
     0
 42
0.00000001
 43
0.00000001
 40
13.0
 40
13.0
 40
13.0
 40
14.0
 40
14.0
 40
14.0
 10
5.595548611273902
 20
-17.9099700673493
 30
0.0
 10
5.926118360772201
 20
-17.18568850106854
 30
0.0
 10
5.606497978493191
 20
-16.05075397327447
 30
0.0
  0
SPLINE
  5
121
330
77
100
AcDbEntity
  8
0
  6
Continuous
 62
     7
370
    18
100
AcDbSpline
210
0.0
220
0.0
230
1.0
 70
     8
 71
     3
 72
     8
 73
     4
 74
     0
 42
0.00000001
 43
0.00000001
 40
14.0
 40
14.0
 40
14.0
 40
14.0
 40
15.0
 40
15.0
 40
15.0
 40
15.0
 10
5.606497978493191
 20
-16.05075397327447
 30
0.0
 10
5.207525970226131
 20
-14.79026275050278
 30
0.0
 10
4.519773960143639
 20
-13.82671693217636
 30
0.0
 10
3.665223439147876
 20
-12.83569943160955
 30
0.0
  0
SPLINE
  5
122
330
77
100
AcDbEntity
  8
0
  6
Continuous
 62
     7
370
    18
100
AcDbSpline
210
0.0
220
0.0
230
1.0
 70
     8
 71
     3
 72
     8
 73
     4
 74
     0
 42
0.00000001
 43
0.00000001
 40
15.0
 40
15.0
 40
15.0
 40
15.0
 40
16.0
 40
16.0
 40
16.0
 40
16.0
 10
3.665223439147876
 20
-12.83569943160955
 30
0.0
 10
2.198391383191843
 20
-11.13462081873923
 30
0.0
 10
0.0517992661647096
 20
-7.209063579032926
 30
0.0
 10
0.3944126526828438
 20
-2.906969795378479
 30
0.0
  0
ENDBLK
  5
79
330
77
100
AcDbEntity
  8
0
100
AcDbBlockEnd
  0
ENDSEC
  0
SECTION
  2
ENTITIES
  0
LINE
  5
123
330
1F
100
AcDbEntity
  8
0
  6
Continuous
 62
     7
370
    25
100
AcDbLine
 10
149.0702699156
 20
103.7075104642
 30
0.0
 11
149.1544120512
 21
103.7560899489
 31
0.0
  0
LINE
  5
124
330
1F
100
AcDbEntity
  8
0
  6
Continuous
 62
     7
370
    25
100
AcDbLine
 10
149.1544120512
 20
103.7744010334
 30
0.0
 11
149.0702699156
 21
103.8229805181
 31
0.0
  0
LINE
  5
125
330
1F
100
AcDbEntity
  8
0
  6
Continuous
 62
     7
370
    25
100
AcDbLine
 10
149.118211067
 20
103.6798316275
 30
0.0
 11
149.0702699156
 21
103.7075104642
 31
0.0
  0
LINE
  5
126
330
1F
100
AcDbEntity
  8
0
  6
Continuous
 62
     7
370
    25
100
AcDbLine
 10
149.0702699156
 20
103.8229805181
 30
0.0
 11
149.1544120512
 21
103.8715600027
 31
0.0
  0
LINE
  5
127
330
1F
100
AcDbEntity
  8
0
  6
Continuous
 62
     7
370
    25
100
AcDbLine
 10
149.1544120512
 20
103.8898710872
 30
0.0
 11
149.0702699156
 21
103.9384505719
 31
0.0
  0
ARC
  5
128
330
1F
100
AcDbEntity
  8
0
  6
Continuous
 62
     7
370
    25
100
AcDbCircle
 10
131.8838068551
 20
514.5603169944
 30
0.0
 40
440.7800000033195
100
AcDbArc
 50
272.7637388312
 51
277.0752088068
  0
LINE
  5
129
330
1F
100
AcDbEntity
  8
0
  6
Continuous
 62
     7
370
    25
100
AcDbLine
 10
187.3710306309
 20
78.227832067
 30
0.0
 11
188.8134251125
 21
84.8437638457
 31
0.0
  0
ARC
  5
12A
330
1F
100
AcDbEntity
  8
0
  6
Continuous
 62
     7
370
    25
100
AcDbCircle
 10
129.2981679459
 20
539.3484342694
 30
0.0
 40
461.2999999421602
100
AcDbArc
 50
273.4015344915
 51
276.6267948235
  0
LINE
  5
12B
330
1F
100
AcDbEntity
  8
0
  6
Continuous
 62
     7
370
    25
100
AcDbLine
 10
155.2166461144
 20
79.9648379302
 30
0.0
 11
154.16933741
 21
84.8437638457
 31
0.0
  0
ARC
  5
12C
330
1F
100
AcDbEntity
  8
0
  6
Continuous
 62
     7
370
    25
100
AcDbCircle
 10
153.0696730073
 20
75.6913804365
 30
0.0
 40
1.400000003320708
100
AcDbArc
 50
192.1152418025
 51
272.7637388312
  0
LINE
  5
12D
330
1F
100
AcDbEntity
  8
0
  6
Continuous
 62
     7
370
    25
100
AcDbLine
 10
149.6731333574
 20
84.8437638457
 30
0.0
 11
151.7008545887
 21
75.3975503048
 31
0.0
  0
ARC
  5
12E
330
1F
100
AcDbEntity
  8
0
  6
Continuous
 62
     7
370
    25
100
AcDbCircle
 10
186.003162007
 20
78.5260525174
 30
0.0
 40
1.400000003320644
100
AcDbArc
 50
277.0752088068
 51
347.7009253301
  0
ARC
  5
12F
330
1F
100
AcDbEntity
  8
0
  6
Continuous
 62
     7
370
    25
100
AcDbCircle
 10
156.5854644731
 20
80.2586680491
 30
0.0
 40
1.39999994216153
100
AcDbArc
 50
192.1152418025
 51
273.4015344915
  0
ARC
  5
130
330
1F
100
AcDbEntity
  8
0
  6
Continuous
 62
     7
370
    25
100
AcDbCircle
 10
182.3714081758
 20
82.5210695335
 30
0.0
 40
1.399999942161396
100
AcDbArc
 50
276.6267948235
 51
347.7009253301
  0
LINE
  5
131
330
1F
100
AcDbEntity
  8
0
  6
Continuous
 62
     7
370
    25
100
AcDbLine
 10
184.31068423
 20
84.8437638457
 30
0.0
 11
183.73927674
 21
82.2228490962
 31
0.0
  0
SPLINE
  5
132
330
1F
100
AcDbEntity
  8
0
  6
Continuous
 62
     7
370
    25
100
AcDbSpline
210
0.0
220
0.0
230
1.0
 70
     8
 71
     3
 72
     9
 73
     5
 74
     0
 42
0.00000001
 43
0.00000001
 40
0.0
 40
0.0
 40
0.0
 40
0.0
 40
0.4593988493326117
 40
1.0
 40
1.0
 40
1.0
 40
1.0
 10
184.1213595874586
 20
246.4597915756393
 30
0.0
 10
184.0814399016492
 20
246.4512762374055
 30
0.0
 10
183.9945444166748
 20
246.4327404090155
 30
0.0
 10
183.9178289616989
 20
246.3876738075482
 30
0.0
 10
183.876356498465
 20
246.3633107509384
 30
0.0
  0
ARC
  5
133
330
1F
100
AcDbEntity
  8
0
  6
Continuous
 62
     7
370
    25
100
AcDbCircle
 10
242.3372305677
 20
86.594398571
 30
0.0
 40
0.200000000000028
100
AcDbArc
 50
281.9201320981
 51
350.5845175716
  0
ARC
  5
134
330
1F
100
AcDbEntity
  8
0
  6
Continuous
 62
     7
370
    25
100
AcDbCircle
 10
238.0833092635
 20
86.594398571
 30
0.0
 40
0.1999999999999953
100
AcDbArc
 50
189.4154824283
 51
258.0798679019
  0
LINE
  5
135
330
1F
100
AcDbEntity
  8
0
  6
Continuous
 62
     7
370
    25
100
AcDbLine
 10
242.5347627801
 20
86.5617569092
 30
0.0
 11
242.7110524137
 21
87.5437638457
 31
0.0
  0
LINE
  5
136
330
1F
100
AcDbEntity
  8
0
  6
Continuous
 62
     7
370
    25
100
AcDbLine
 10
237.8618204233
 20
86.6725030283
 30
0.0
 11
237.8796966027
 21
86.56437164
 31
0.0
  0
SPLINE
  5
137
330
1F
100
AcDbEntity
  8
0
  6
Continuous
 62
     7
370
    25
100
AcDbSpline
210
0.0
220
0.0
230
1.0
 70
     8
 71
     3
 72
     9
 73
     5
 74
     0
 42
0.00000001
 43
0.00000001
 40
0.0
 40
0.0
 40
0.0
 40
0.0
 40
0.2843586836860624
 40
1.0
 40
1.0
 40
1.0
 40
1.0
 10
237.7098692740041
 20
87.54376384570261
 30
0.0
 10
237.7267042460879
 20
87.46015901039351
 30
0.0
 10
237.7859075447723
 20
87.16614711588979
 30
0.0
 10
237.8301550677081
 20
86.87841559362901
 30
0.0
 10
237.8618204232656
 20
86.67250302829336
 30
0.0
  0
SPLINE
  5
138
330
1F
100
AcDbEntity
  8
0
  6
Continuous
 62
     7
370
    25
100
AcDbSpline
210
0.0
220
0.0
230
1.0
 70
     8
 71
     3
 72
    11
 73
     7
 74
     0
 42
0.00000001
 43
0.00000001
 40
0.0
 40
0.0
 40
0.0
 40
0.0
 40
0.0925535171473189
 40
0.4249799083408645
 40
0.7579032427931716
 40
1.0
 40
1.0
 40
1.0
 40
1.0
 10
241.0089336925481
 20
86.21936372420721
 30
0.0
 10
241.0543723122022
 20
86.22175919429176
 30
0.0
 10
241.263013766476
 20
86.23275852406691
 30
0.0
 10
241.6210775872189
 20
86.27209603879457
 30
0.0
 10
242.0342087042045
 20
86.33009668698199
 30
0.0
 10
242.2765210602948
 20
86.37838203055576
 30
0.0
 10
242.3785401662209
 20
86.3987112769063
 30
0.0
  0
SPLINE
  5
139
330
1F
100
AcDbEntity
  8
0
  6
Continuous
 62
     7
370
    25
100
AcDbSpline
210
0.0
220
0.0
230
1.0
 70
     8
 71
     3
 72
    12
 73
     8
 74
     0
 42
0.00000001
 43
0.00000001
 40
0.0
 40
0.0
 40
0.0
 40
0.0
 40
0.1036834819918529
 40
0.3447565350566027
 40
0.5855730551621439
 40
0.8263052096577903
 40
1.0
 40
1.0
 40
1.0
 40
1.0
 10
238.9794444772269
 20
86.25662361012432
 30
0.0
 10
239.0463969908753
 20
86.24899158130611
 30
0.0
 10
239.2690198829243
 20
86.22361442613847
 30
0.0
 10
239.6666521973188
 20
86.20056783565386
 30
0.0
 10
240.1612564299386
 20
86.18835007000929
 30
0.0
 10
240.6130319160366
 20
86.19399519951565
 30
0.0
 10
240.8920087908588
 20
86.21187143083664
 30
0.0
 10
241.0089336925481
 20
86.21936372420721
 30
0.0
  0
SPLINE
  5
13A
330
1F
100
AcDbEntity
  8
0
  6
Continuous
 62
     7
370
    25
100
AcDbSpline
210
0.0
220
0.0
230
1.0
 70
     8
 71
     3
 72
    10
 73
     6
 74
     0
 42
0.00000001
 43
0.00000001
 40
0.0
 40
0.0
 40
0.0
 40
0.0
 40
0.2502355006435855
 40
0.7279697107287307
 40
1.0
 40
1.0
 40
1.0
 40
1.0
 10
238.0419996649595
 20
86.3987112769063
 30
0.0
 10
238.1154561577653
 20
86.38395340612297
 30
0.0
 10
238.3291512637014
 20
86.34102071712618
 30
0.0
 10
238.6409163365562
 20
86.29091882951916
 30
0.0
 10
238.8893188384411
 20
86.2657539546479
 30
0.0
 10
238.9794444772269
 20
86.25662361012432
 30
0.0
  0
ARC
  5
13B
330
1F
100
AcDbEntity
  8
0
  6
Continuous
 62
     7
370
    25
100
AcDbCircle
 10
162.3372305677
 20
86.594398571
 30
0.0
 40
0.1999999999999953
100
AcDbArc
 50
281.9201320981
 51
350.5845175717
  0
ARC
  5
13C
330
1F
100
AcDbEntity
  8
0
  6
Continuous
 62
     7
370
    25
100
AcDbCircle
 10
158.0833092635
 20
86.594398571
 30
0.0
 40
0.1999999999999953
100
AcDbArc
 50
189.4154824283
 51
258.0798679019
  0
LINE
  5
13D
330
1F
100
AcDbEntity
  8
0
  6
Continuous
 62
     7
370
    25
100
AcDbLine
 10
162.5347627801
 20
86.5617569092
 30
0.0
 11
162.7110524137
 21
87.5437638457
 31
0.0
  0
LINE
  5
13E
330
1F
100
AcDbEntity
  8
0
  6
Continuous
 62
     7
370
    25
100
AcDbLine
 10
157.8618204233
 20
86.6725030283
 30
0.0
 11
157.8796966027
 21
86.56437164
 31
0.0
  0
SPLINE
  5
13F
330
1F
100
AcDbEntity
  8
0
  6
Continuous
 62
     7
370
    25
100
AcDbSpline
210
0.0
220
0.0
230
1.0
 70
     8
 71
     3
 72
     9
 73
     5
 74
     0
 42
0.00000001
 43
0.00000001
 40
0.0
 40
0.0
 40
0.0
 40
0.0
 40
0.2843586836834203
 40
1.0
 40
1.0
 40
1.0
 40
1.0
 10
157.7098692740093
 20
87.54376384570259
 30
0.0
 10
157.726704246093
 20
87.46015901039374
 30
0.0
 10
157.7859075447777
 20
87.16614711588826
 30
0.0
 10
157.8301550677138
 20
86.87841559362579
 30
0.0
 10
157.8618204232716
 20
86.67250302828808
 30
0.0
  0
SPLINE
  5
140
330
1F
100
AcDbEntity
  8
0
  6
Continuous
 62
     7
370
    25
100
AcDbSpline
210
0.0
220
0.0
230
1.0
 70
     8
 71
     3
 72
    11
 73
     7
 74
     0
 42
0.00000001
 43
0.00000001
 40
0.0
 40
0.0
 40
0.0
 40
0.0
 40
0.0925535171469119
 40
0.4249799083405936
 40
0.7579032427930403
 40
1.0
 40
1.0
 40
1.0
 40
1.0
 10
161.0089336925537
 20
86.21936372420807
 30
0.0
 10
161.0543723122076
 20
86.22175919429259
 30
0.0
 10
161.2630137664812
 20
86.2327585240677
 30
0.0
 10
161.6210775872238
 20
86.2720960387954
 30
0.0
 10
162.0342087042095
 20
86.33009668698271
 30
0.0
 10
162.2765210602999
 20
86.37838203055661
 30
0.0
 10
162.378540166226
 20
86.39871127690712
 30
0.0
  0
SPLINE
  5
141
330
1F
100
AcDbEntity
  8
0
  6
Continuous
 62
     7
370
    25
100
AcDbSpline
210
0.0
220
0.0
230
1.0
 70
     8
 71
     3
 72
    12
 73
     8
 74
     0
 42
0.00000001
 43
0.00000001
 40
0.0
 40
0.0
 40
0.0
 40
0.0
 40
0.1036834819918286
 40
0.3447565350564931
 40
0.5855730551619606
 40
0.8263052096575277
 40
0.9999999999999999
 40
0.9999999999999999
 40
0.9999999999999999
 40
0.9999999999999999
 10
158.9794444772319
 20
86.2566236101251
 30
0.0
 10
159.0463969908803
 20
86.24899158130687
 30
0.0
 10
159.2690198829292
 20
86.22361442613932
 30
0.0
 10
159.6666521973238
 20
86.20056783565461
 30
0.0
 10
160.1612564299435
 20
86.18835007001002
 30
0.0
 10
160.6130319160418
 20
86.19399519951648
 30
0.0
 10
160.8920087908642
 20
86.21187143083743
 30
0.0
 10
161.0089336925537
 20
86.21936372420807
 30
0.0
  0
SPLINE
  5
142
330
1F
100
AcDbEntity
  8
0
  6
Continuous
 62
     7
370
    25
100
AcDbSpline
210
0.0
220
0.0
230
1.0
 70
     8
 71
     3
 72
    10
 73
     6
 74
     0
 42
0.00000001
 43
0.00000001
 40
0.0
 40
0.0
 40
0.0
 40
0.0
 40
0.2502355006435868
 40
0.7279697107287395
 40
1.0
 40
1.0
 40
1.0
 40
1.0
 10
158.0419996649645
 20
86.3987112769071
 30
0.0
 10
158.1154561577703
 20
86.38395340612381
 30
0.0
 10
158.3291512637063
 20
86.34102071712697
 30
0.0
 10
158.6409163365611
 20
86.2909188295199
 30
0.0
 10
158.889318838446
 20
86.26575395464869
 30
0.0
 10
158.9794444772319
 20
86.2566236101251
 30
0.0
  0
ARC
  5
143
330
1F
100
AcDbEntity
  8
0
  6
Continuous
 62
     7
370
    25
100
AcDbCircle
 10
202.3372305677
 20
86.594398571
 30
0.0
 40
0.200000000000008
100
AcDbArc
 50
281.9201320981
 51
350.5845175716
  0
ARC
  5
144
330
1F
100
AcDbEntity
  8
0
  6
Continuous
 62
     7
370
    25
100
AcDbCircle
 10
198.0833092635
 20
86.594398571
 30
0.0
 40
0.200000000000008
100
AcDbArc
 50
189.4154824284
 51
258.0798679019
  0
LINE
  5
145
330
1F
100
AcDbEntity
  8
0
  6
Continuous
 62
     7
370
    25
100
AcDbLine
 10
202.5347627801
 20
86.5617569092
 30
0.0
 11
202.7110524137
 21
87.5437638457
 31
0.0
  0
LINE
  5
146
330
1F
100
AcDbEntity
  8
0
  6
Continuous
 62
     7
370
    25
100
AcDbLine
 10
197.8618204233
 20
86.6725030283
 30
0.0
 11
197.8796966027
 21
86.56437164
 31
0.0
  0
SPLINE
  5
147
330
1F
100
AcDbEntity
  8
0
  6
Continuous
 62
     7
370
    25
100
AcDbSpline
210
0.0
220
0.0
230
1.0
 70
     8
 71
     3
 72
     9
 73
     5
 74
     0
 42
0.00000001
 43
0.00000001
 40
0.0
 40
0.0
 40
0.0
 40
0.0
 40
0.2843586836833142
 40
1.0
 40
1.0
 40
1.0
 40
1.0
 10
197.7098692740093
 20
87.54376384570259
 30
0.0
 10
197.726704246093
 20
87.46015901039378
 30
0.0
 10
197.7859075447777
 20
87.16614711588832
 30
0.0
 10
197.8301550677138
 20
86.87841559362587
 30
0.0
 10
197.8618204232716
 20
86.67250302828822
 30
0.0
  0
SPLINE
  5
148
330
1F
100
AcDbEntity
  8
0
  6
Continuous
 62
     7
370
    25
100
AcDbSpline
210
0.0
220
0.0
230
1.0
 70
     8
 71
     3
 72
    11
 73
     7
 74
     0
 42
0.00000001
 43
0.00000001
 40
0.0
 40
0.0
 40
0.0
 40
0.0
 40
0.0925535171469217
 40
0.4249799083405957
 40
0.7579032427930527
 40
1.0
 40
1.0
 40
1.0
 40
1.0
 10
201.0089336925537
 20
86.2193637242082
 30
0.0
 10
201.0543723122076
 20
86.2217591942927
 30
0.0
 10
201.2630137664812
 20
86.23275852406779
 30
0.0
 10
201.6210775872238
 20
86.27209603879561
 30
0.0
 10
202.0342087042095
 20
86.33009668698278
 30
0.0
 10
202.2765210602999
 20
86.3783820305567
 30
0.0
 10
202.378540166226
 20
86.39871127690724
 30
0.0
  0
SPLINE
  5
149
330
1F
100
AcDbEntity
  8
0
  6
Continuous
 62
     7
370
    25
100
AcDbSpline
210
0.0
220
0.0
230
1.0
 70
     8
 71
     3
 72
    12
 73
     8
 74
     0
 42
0.00000001
 43
0.00000001
 40
0.0
 40
0.0
 40
0.0
 40
0.0
 40
0.1036834819918269
 40
0.3447565350564967
 40
0.5855730551619627
 40
0.8263052096575285
 40
1.0
 40
1.0
 40
1.0
 40
1.0
 10
198.9794444772319
 20
86.25662361012525
 30
0.0
 10
199.0463969908802
 20
86.248991581307
 30
0.0
 10
199.2690198829292
 20
86.22361442613936
 30
0.0
 10
199.6666521973238
 20
86.20056783565475
 30
0.0
 10
200.1612564299435
 20
86.18835007001022
 30
0.0
 10
200.6130319160418
 20
86.19399519951662
 30
0.0
 10
200.8920087908642
 20
86.21187143083759
 30
0.0
 10
201.0089336925537
 20
86.2193637242082
 30
0.0
  0
SPLINE
  5
14A
330
1F
100
AcDbEntity
  8
0
  6
Continuous
 62
     7
370
    25
100
AcDbSpline
210
0.0
220
0.0
230
1.0
 70
     8
 71
     3
 72
    10
 73
     6
 74
     0
 42
0.00000001
 43
0.00000001
 40
0.0
 40
0.0
 40
0.0
 40
0.0
 40
0.2502355006435881
 40
0.7279697107287403
 40
1.0
 40
1.0
 40
1.0
 40
1.0
 10
198.0419996649644
 20
86.39871127690724
 30
0.0
 10
198.1154561577703
 20
86.38395340612396
 30
0.0
 10
198.3291512637063
 20
86.34102071712712
 30
0.0
 10
198.6409163365611
 20
86.29091882952005
 30
0.0
 10
198.889318838446
 20
86.26575395464886
 30
0.0
 10
198.9794444772319
 20
86.25662361012525
 30
0.0
  0
ARC
  5
14B
330
1F
100
AcDbEntity
  8
0
  6
Continuous
 62
     7
370
    25
100
AcDbCircle
 10
222.3372305677
 20
86.594398571
 30
0.0
 40
0.1999999999999953
100
AcDbArc
 50
281.9201320981
 51
350.5845175717
  0
ARC
  5
14C
330
1F
100
AcDbEntity
  8
0
  6
Continuous
 62
     7
370
    25
100
AcDbCircle
 10
218.0833092635
 20
86.594398571
 30
0.0
 40
0.2
100
AcDbArc
 50
189.4154824284
 51
258.0798679019
  0
LINE
  5
14D
330
1F
100
AcDbEntity
  8
0
  6
Continuous
 62
     7
370
    25
100
AcDbLine
 10
222.5347627801
 20
86.5617569092
 30
0.0
 11
222.7110524137
 21
87.5437638457
 31
0.0
  0
LINE
  5
14E
330
1F
100
AcDbEntity
  8
0
  6
Continuous
 62
     7
370
    25
100
AcDbLine
 10
217.8618204233
 20
86.6725030283
 30
0.0
 11
217.8796966027
 21
86.56437164
 31
0.0
  0
SPLINE
  5
14F
330
1F
100
AcDbEntity
  8
0
  6
Continuous
 62
     7
370
    25
100
AcDbSpline
210
0.0
220
0.0
230
1.0
 70
     8
 71
     3
 72
     9
 73
     5
 74
     0
 42
0.00000001
 43
0.00000001
 40
0.0
 40
0.0
 40
0.0
 40
0.0
 40
0.2843586836805095
 40
1.0
 40
1.0
 40
1.0
 40
1.0
 10
217.7098692740063
 20
87.54376384570261
 30
0.0
 10
217.7267042460898
 20
87.460159010395
 30
0.0
 10
217.7859075447742
 20
87.16614711589082
 30
0.0
 10
217.8301550677101
 20
86.87841559362957
 30
0.0
 10
217.8618204232679
 20
86.67250302829193
 30
0.0
  0
SPLINE
  5
150
330
1F
100
AcDbEntity
  8
0
  6
Continuous
 62
     7
370
    25
100
AcDbSpline
210
0.0
220
0.0
230
1.0
 70
     8
 71
     3
 72
    11
 73
     7
 74
     0
 42
0.00000001
 43
0.00000001
 40
0.0
 40
0.0
 40
0.0
 40
0.0
 40
0.0925535171469125
 40
0.4249799083405954
 40
0.7579032427930485
 40
1.0
 40
1.0
 40
1.0
 40
1.0
 10
221.00893369255
 20
86.21936372421176
 30
0.0
 10
221.054372312204
 20
86.22175919429625
 30
0.0
 10
221.2630137664775
 20
86.23275852407147
 30
0.0
 10
221.6210775872202
 20
86.27209603879912
 30
0.0
 10
222.0342087042058
 20
86.33009668698638
 30
0.0
 10
222.2765210602961
 20
86.37838203056025
 30
0.0
 10
222.3785401662223
 20
86.3987112769108
 30
0.0
  0
SPLINE
  5
151
330
1F
100
AcDbEntity
  8
0
  6
Continuous
 62
     7
370
    25
100
AcDbSpline
210
0.0
220
0.0
230
1.0
 70
     8
 71
     3
 72
    12
 73
     8
 74
     0
 42
0.00000001
 43
0.00000001
 40
0.0
 40
0.0
 40
0.0
 40
0.0
 40
0.1036834819918259
 40
0.3447565350564947
 40
0.5855730551619563
 40
0.8263052096575233
 40
1.0
 40
1.0
 40
1.0
 40
1.0
 10
218.9794444772282
 20
86.2566236101288
 30
0.0
 10
219.0463969908766
 20
86.24899158131058
 30
0.0
 10
219.2690198829255
 20
86.22361442614292
 30
0.0
 10
219.6666521973201
 20
86.20056783565838
 30
0.0
 10
220.1612564299398
 20
86.18835007001377
 30
0.0
 10
220.6130319160381
 20
86.1939951995202
 30
0.0
 10
220.8920087908605
 20
86.21187143084116
 30
0.0
 10
221.00893369255
 20
86.21936372421176
 30
0.0
  0
SPLINE
  5
152
330
1F
100
AcDbEntity
  8
0
  6
Continuous
 62
     7
370
    25
100
AcDbSpline
210
0.0
220
0.0
230
1.0
 70
     8
 71
     3
 72
    10
 73
     6
 74
     0
 42
0.00000001
 43
0.00000001
 40
0.0
 40
0.0
 40
0.0
 40
0.0
 40
0.2502355006435867
 40
0.7279697107287347
 40
1.0
 40
1.0
 40
1.0
 40
1.0
 10
218.0419996649607
 20
86.3987112769108
 30
0.0
 10
218.1154561577666
 20
86.38395340612753
 30
0.0
 10
218.3291512637026
 20
86.34102071713073
 30
0.0
 10
218.6409163365574
 20
86.29091882952363
 30
0.0
 10
218.8893188384423
 20
86.26575395465241
 30
0.0
 10
218.9794444772282
 20
86.2566236101288
 30
0.0
  0
ARC
  5
153
330
1F
100
AcDbEntity
  8
0
  6
Continuous
 62
     7
370
    25
100
AcDbCircle
 10
182.3372305677
 20
86.594398571
 30
0.0
 40
0.2000000000000257
100
AcDbArc
 50
281.9201320981
 51
350.5845175717
  0
ARC
  5
154
330
1F
100
AcDbEntity
  8
0
  6
Continuous
 62
     7
370
    25
100
AcDbCircle
 10
178.0833092635
 20
86.594398571
 30
0.0
 40
0.200000000000028
100
AcDbArc
 50
189.4154824284
 51
258.0798679019
  0
LINE
  5
155
330
1F
100
AcDbEntity
  8
0
  6
Continuous
 62
     7
370
    25
100
AcDbLine
 10
182.5347627801
 20
86.5617569092
 30
0.0
 11
182.7110524137
 21
87.5437638457
 31
0.0
  0
LINE
  5
156
330
1F
100
AcDbEntity
  8
0
  6
Continuous
 62
     7
370
    25
100
AcDbLine
 10
177.8618204233
 20
86.6725030283
 30
0.0
 11
177.8796966027
 21
86.56437164
 31
0.0
  0
SPLINE
  5
157
330
1F
100
AcDbEntity
  8
0
  6
Continuous
 62
     7
370
    25
100
AcDbSpline
210
0.0
220
0.0
230
1.0
 70
     8
 71
     3
 72
     9
 73
     5
 74
     0
 42
0.00000001
 43
0.00000001
 40
0.0
 40
0.0
 40
0.0
 40
0.0
 40
0.2843586836832379
 40
1.0
 40
1.0
 40
1.0
 40
1.0
 10
177.7098692740093
 20
87.54376384570261
 30
0.0
 10
177.726704246093
 20
87.46015901039384
 30
0.0
 10
177.7859075447777
 20
87.16614711588844
 30
0.0
 10
177.8301550677138
 20
86.87841559362603
 30
0.0
 10
177.8618204232715
 20
86.67250302828833
 30
0.0
  0
SPLINE
  5
158
330
1F
100
AcDbEntity
  8
0
  6
Continuous
 62
     7
370
    25
100
AcDbSpline
210
0.0
220
0.0
230
1.0
 70
     8
 71
     3
 72
    11
 73
     7
 74
     0
 42
0.00000001
 43
0.00000001
 40
0.0
 40
0.0
 40
0.0
 40
0.0
 40
0.0925535171469207
 40
0.4249799083405973
 40
0.7579032427930544
 40
1.0
 40
1.0
 40
1.0
 40
1.0
 10
181.0089336925537
 20
86.21936372420829
 30
0.0
 10
181.0543723122076
 20
86.22175919429282
 30
0.0
 10
181.2630137664811
 20
86.23275852406798
 30
0.0
 10
181.6210775872238
 20
86.2720960387956
 30
0.0
 10
182.0342087042095
 20
86.33009668698304
 30
0.0
 10
182.2765210602998
 20
86.3783820305568
 30
0.0
 10
182.3785401662259
 20
86.39871127690735
 30
0.0
  0
SPLINE
  5
159
330
1F
100
AcDbEntity
  8
0
  6
Continuous
 62
     7
370
    25
100
AcDbSpline
210
0.0
220
0.0
230
1.0
 70
     8
 71
     3
 72
    12
 73
     8
 74
     0
 42
0.00000001
 43
0.00000001
 40
0.0
 40
0.0
 40
0.0
 40
0.0
 40
0.1036834819918284
 40
0.3447565350564976
 40
0.585573055161963
 40
0.8263052096575283
 40
1.0
 40
1.0
 40
1.0
 40
1.0
 10
178.9794444772319
 20
86.25662361012536
 30
0.0
 10
179.0463969908802
 20
86.24899158130711
 30
0.0
 10
179.2690198829292
 20
86.22361442613955
 30
0.0
 10
179.6666521973237
 20
86.20056783565492
 30
0.0
 10
180.1612564299435
 20
86.18835007001036
 30
0.0
 10
180.6130319160418
 20
86.1939951995167
 30
0.0
 10
180.8920087908641
 20
86.21187143083765
 30
0.0
 10
181.0089336925537
 20
86.21936372420829
 30
0.0
  0
SPLINE
  5
15A
330
1F
100
AcDbEntity
  8
0
  6
Continuous
 62
     7
370
    25
100
AcDbSpline
210
0.0
220
0.0
230
1.0
 70
     8
 71
     3
 72
    10
 73
     6
 74
     0
 42
0.00000001
 43
0.00000001
 40
0.0
 40
0.0
 40
0.0
 40
0.0
 40
0.2502355006435868
 40
0.7279697107287395
 40
1.0
 40
1.0
 40
1.0
 40
1.0
 10
178.0419996649644
 20
86.39871127690735
 30
0.0
 10
178.1154561577702
 20
86.38395340612405
 30
0.0
 10
178.3291512637063
 20
86.34102071712718
 30
0.0
 10
178.6409163365611
 20
86.29091882952015
 30
0.0
 10
178.889318838446
 20
86.26575395464894
 30
0.0
 10
178.9794444772319
 20
86.25662361012536
 30
0.0
  0
LINE
  5
15B
330
1F
100
AcDbEntity
  8
0
  6
Continuous
 62
     7
370
    25
100
AcDbLine
 10
245.5102801916
 20
87.1829599647
 30
0.0
 11
245.5102801916
 21
87.1822759244
 31
0.0
  0
LINE
  5
15C
330
1F
100
AcDbEntity
  8
0
  6
Continuous
 62
     7
370
    25
100
AcDbLine
 10
246.7102801916
 20
87.1822759244
 30
0.0
 11
246.7102801916
 21
87.1829599647
 31
0.0
  0
LINE
  5
15D
330
1F
100
AcDbEntity
  8
0
  6
Continuous
 62
     7
370
    25
100
AcDbLine
 10
245.7102801916
 20
87.1829599647
 30
0.0
 11
245.7102801916
 21
87.1822759244
 31
0.0
  0
LINE
  5
15E
330
1F
100
AcDbEntity
  8
0
  6
Continuous
 62
     7
370
    25
100
AcDbLine
 10
154.0584845906
 20
254.8337638457
 30
0.0
 11
154.0584845906
 21
254.8137638457
 31
0.0
  0
LINE
  5
15F
330
1F
100
AcDbEntity
  8
0
  6
Continuous
 62
     7
370
    25
100
AcDbLine
 10
158.7618166903
 20
254.8137638457
 30
0.0
 11
158.7618166903
 21
254.8337638457
 31
0.0
  0
LINE
  5
160
330
1F
100
AcDbEntity
  8
0
  6
Continuous
 62
     7
370
    25
100
AcDbLine
 10
159.0584845906
 20
254.8337638457
 30
0.0
 11
159.0584845906
 21
254.8137638457
 31
0.0
  0
LINE
  5
161
330
1F
100
AcDbEntity
  8
0
  6
Continuous
 62
     7
370
    25
100
AcDbLine
 10
163.7618166902
 20
254.8137638457
 30
0.0
 11
163.7618166902
 21
254.8337638457
 31
0.0
  0
LINE
  5
162
330
1F
100
AcDbEntity
  8
0
  6
Continuous
 62
     7
370
    25
100
AcDbLine
 10
219.2052699156
 20
250.6737638457
 30
0.0
 11
215.2052699156
 21
250.6737638457
 31
0.0
  0
LINE
  5
163
330
1F
100
AcDbEntity
  8
0
  6
Continuous
 62
     7
370
    25
100
AcDbLine
 10
215.2052699156
 20
249.6737638457
 30
0.0
 11
219.2052699156
 21
249.6737638457
 31
0.0
  0
LINE
  5
164
330
1F
100
AcDbEntity
  8
0
  6
Continuous
 62
     7
370
    25
100
AcDbLine
 10
193.2052699156
 20
249.6737638457
 30
0.0
 11
215.2052699156
 21
249.6737638457
 31
0.0
  0
LINE
  5
165
330
1F
100
AcDbEntity
  8
0
  6
Continuous
 62
     7
370
    25
100
AcDbLine
 10
215.2052699156
 20
250.6737638457
 30
0.0
 11
193.2052699156
 21
250.6737638457
 31
0.0
  0
LINE
  5
166
330
1F
100
AcDbEntity
  8
0
  6
Continuous
 62
     7
370
    25
100
AcDbLine
 10
193.2052699156
 20
250.6737638457
 30
0.0
 11
189.2052699156
 21
250.6737638457
 31
0.0
  0
LINE
  5
167
330
1F
100
AcDbEntity
  8
0
  6
Continuous
 62
     7
370
    25
100
AcDbLine
 10
189.2052699156
 20
249.6737638457
 30
0.0
 11
193.2052699156
 21
249.6737638457
 31
0.0
  0
LINE
  5
168
330
1F
100
AcDbEntity
  8
0
  6
Continuous
 62
     7
370
    25
100
AcDbLine
 10
239.3902699156
 20
242.9037638457
 30
0.0
 11
236.8502699156
 21
242.9037638457
 31
0.0
  0
LINE
  5
169
330
1F
100
AcDbEntity
  8
0
  6
Continuous
 62
     7
370
    25
100
AcDbLine
 10
248.9302699156
 20
242.9037638457
 30
0.0
 11
247.0102699156
 21
242.9037638457
 31
0.0
  0
LINE
  5
16A
330
1F
100
AcDbEntity
  8
0
  6
Continuous
 62
     7
370
    25
100
AcDbLine
 10
244.4702699156
 20
242.9037638457
 30
0.0
 11
241.9302699156
 21
242.9037638457
 31
0.0
  0
LINE
  5
16B
330
1F
100
AcDbEntity
  8
0
  6
Continuous
 62
     7
370
    25
100
AcDbLine
 10
173.4902699156
 20
242.9037638457
 30
0.0
 11
171.5702699156
 21
242.9037638457
 31
0.0
  0
LINE
  5
16C
330
1F
100
AcDbEntity
  8
0
  6
Continuous
 62
     7
370
    25
100
AcDbLine
 10
163.9502699156
 20
242.9037638457
 30
0.0
 11
161.4102699156
 21
242.9037638457
 31
0.0
  0
LINE
  5
16D
330
1F
100
AcDbEntity
  8
0
  6
Continuous
 62
     7
370
    25
100
AcDbLine
 10
169.0302699156
 20
242.9037638457
 30
0.0
 11
166.4902699156
 21
242.9037638457
 31
0.0
  0
LINE
  5
16E
330
1F
100
AcDbEntity
  8
0
  6
Continuous
 62
     7
370
    25
100
AcDbLine
 10
236.8502699156
 20
242.9037638457
 30
0.0
 11
234.9302699156
 21
242.9037638457
 31
0.0
  0
LINE
  5
16F
330
1F
100
AcDbEntity
  8
0
  6
Continuous
 62
     7
370
    25
100
AcDbLine
 10
241.9302699156
 20
242.9037638457
 30
0.0
 11
239.3902699156
 21
242.9037638457
 31
0.0
  0
LINE
  5
170
330
1F
100
AcDbEntity
  8
0
  6
Continuous
 62
     7
370
    25
100
AcDbLine
 10
247.0102699156
 20
242.9037638457
 30
0.0
 11
244.4702699156
 21
242.9037638457
 31
0.0
  0
LINE
  5
171
330
1F
100
AcDbEntity
  8
0
  6
Continuous
 62
     7
370
    25
100
AcDbLine
 10
161.4102699156
 20
242.9037638457
 30
0.0
 11
159.4902699156
 21
242.9037638457
 31
0.0
  0
LINE
  5
172
330
1F
100
AcDbEntity
  8
0
  6
Continuous
 62
     7
370
    25
100
AcDbLine
 10
171.5702699156
 20
242.9037638457
 30
0.0
 11
169.0302699156
 21
242.9037638457
 31
0.0
  0
LINE
  5
173
330
1F
100
AcDbEntity
  8
0
  6
Continuous
 62
     7
370
    25
100
AcDbLine
 10
166.4902699156
 20
242.9037638457
 30
0.0
 11
163.9502699156
 21
242.9037638457
 31
0.0
  0
LINE
  5
174
330
1F
100
AcDbEntity
  8
0
  6
Continuous
 62
     7
370
    25
100
AcDbLine
 10
149.0702699156
 20
103.7075104642
 30
0.0
 11
148.4102699156
 21
103.7075104642
 31
0.0
  0
LINE
  5
175
330
1F
100
AcDbEntity
  8
0
  6
Continuous
 62
     7
370
    25
100
AcDbLine
 10
149.1544120512
 20
103.7652454911
 30
0.0
 11
148.4102699156
 21
103.7652454911
 31
0.0
  0
LINE
  5
176
330
1F
100
AcDbEntity
  8
0
  6
Continuous
 62
     7
370
    25
100
AcDbLine
 10
149.0341373236
 20
103.4188353296
 30
0.0
 11
148.4102699156
 21
103.4188353296
 31
0.0
  0
LINE
  5
177
330
1F
100
AcDbEntity
  8
0
  6
Continuous
 62
     7
370
    25
100
AcDbLine
 10
149.0702699156
 20
103.4765703565
 30
0.0
 11
148.4102699156
 21
103.4765703565
 31
0.0
  0
LINE
  5
178
330
1F
100
AcDbEntity
  8
0
  6
Continuous
 62
     7
370
    25
100
AcDbLine
 10
149.0702699156
 20
103.8229805181
 30
0.0
 11
148.4102699156
 21
103.8229805181
 31
0.0
  0
LINE
  5
179
330
1F
100
AcDbEntity
  8
0
  6
Continuous
 62
     7
370
    25
100
AcDbLine
 10
149.0690742331
 20
103.5343053835
 30
0.0
 11
148.4102699156
 21
103.5343053835
 31
0.0
  0
LINE
  5
17A
330
1F
100
AcDbEntity
  8
0
  6
Continuous
 62
     7
370
    25
100
AcDbLine
 10
149.0702699156
 20
103.5920404104
 30
0.0
 11
148.4102699156
 21
103.5920404104
 31
0.0
  0
LINE
  5
17B
330
1F
100
AcDbEntity
  8
0
  6
Continuous
 62
     7
370
    25
100
AcDbLine
 10
149.1140375573
 20
103.6497754373
 30
0.0
 11
148.4102699156
 21
103.6497754373
 31
0.0
  0
LINE
  5
17C
330
1F
100
AcDbEntity
  8
0
  6
Continuous
 62
     7
370
    25
100
AcDbLine
 10
149.1544120512
 20
103.880715545
 30
0.0
 11
148.4102699156
 21
103.880715545
 31
0.0
  0
LINE
  5
17D
330
1F
100
AcDbEntity
  8
0
  6
Continuous
 62
     7
370
    25
100
AcDbLine
 10
149.0702699156
 20
103.9384505719
 30
0.0
 11
148.4102699156
 21
103.9384505719
 31
0.0
  0
LINE
  5
17E
330
1F
100
AcDbEntity
  8
0
  6
Continuous
 62
     7
370
    25
100
AcDbLine
 10
153.9100561593
 20
254.8137638457
 30
0.0
 11
153.9100561593
 21
254.7937638457
 31
0.0
  0
LINE
  5
17F
330
1F
100
AcDbEntity
  8
0
  6
Continuous
 62
     7
370
    25
100
AcDbLine
 10
153.9100964453
 20
254.8137638457
 30
0.0
 11
153.9100964453
 21
254.7937638457
 31
0.0
  0
LINE
  5
180
330
1F
100
AcDbEntity
  8
0
  6
Continuous
 62
     7
370
    25
100
AcDbLine
 10
153.9100561593
 20
254.7937638457
 30
0.0
 11
153.9100964453
 21
254.7937638457
 31
0.0
  0
LINE
  5
181
330
1F
100
AcDbEntity
  8
0
  6
Continuous
 62
     7
370
    25
100
AcDbLine
 10
153.9100561593
 20
254.8137638457
 30
0.0
 11
153.9100964453
 21
254.8137638457
 31
0.0
  0
LINE
  5
182
330
1F
100
AcDbEntity
  8
0
  6
Continuous
 62
     7
370
    25
100
AcDbLine
 10
183.910096445
 20
254.8137638457
 30
0.0
 11
183.910096445
 21
254.7937638457
 31
0.0
  0
LINE
  5
183
330
1F
100
AcDbEntity
  8
0
  6
Continuous
 62
     7
370
    25
100
AcDbLine
 10
153.9100964453
 20
254.8137638457
 30
0.0
 11
153.9101081282
 21
254.8137638457
 31
0.0
  0
LINE
  5
184
330
1F
100
AcDbEntity
  8
0
  6
Continuous
 62
     7
370
    25
100
AcDbLine
 10
169.5101371339
 20
254.8137638457
 30
0.0
 11
183.910096445
 21
254.8137638457
 31
0.0
  0
LINE
  5
185
330
1F
100
AcDbEntity
  8
0
  6
Continuous
 62
     7
370
    25
100
AcDbLine
 10
169.7763841866
 20
254.8337638457
 30
0.0
 11
169.7763841866
 21
254.8137638457
 31
0.0
  0
LINE
  5
186
330
1F
100
AcDbEntity
  8
0
  6
Continuous
 62
     7
370
    25
100
AcDbLine
 10
170.4379226404
 20
254.8337638457
 30
0.0
 11
170.4379226404
 21
254.8137638457
 31
0.0
  0
LINE
  5
187
330
1F
100
AcDbEntity
  8
0
  6
Continuous
 62
     7
370
    25
100
AcDbLine
 10
170.9199745038
 20
254.8337638457
 30
0.0
 11
170.9199745038
 21
254.8137638457
 31
0.0
  0
LINE
  5
188
330
1F
100
AcDbEntity
  8
0
  6
Continuous
 62
     7
370
    25
100
AcDbLine
 10
171.0878433663
 20
254.8337638457
 30
0.0
 11
171.0878433663
 21
254.8137638457
 31
0.0
  0
SPLINE
  5
189
330
1F
100
AcDbEntity
  8
0
  6
Continuous
 62
     7
370
    25
100
AcDbSpline
210
0.0
220
0.0
230
1.0
 70
    24
 71
     3
 72
    11
 73
     7
 74
     0
 42
0.00000001
 43
0.00000001
 40
0.0
 40
0.0
 40
0.0
 40
0.0
 40
0.3396701574715426
 40
0.5596871211805384
 40
0.7797848396328197
 40
1.0
 40
1.0
 40
1.0
 40
1.0
 10
171.0878433663316
 20
254.8337638457038
 30
0.0
 10
171.066778562321
 20
254.8337638457038
 30
0.0
 10
171.0320693031894
 20
254.8337638457038
 30
0.0
 10
170.9863509811288
 20
254.8337638457039
 30
0.0
 10
170.9512957375792
 20
254.8337638457039
 30
0.0
 10
170.9304167713788
 20
254.8337638457039
 30
0.0
 10
170.9199745038201
 20
254.8337638457039
 30
0.0
  0
LINE
  5
18A
330
1F
100
AcDbEntity
  8
0
  6
Continuous
 62
     7
370
    25
100
AcDbLine
 10
171.2430513236
 20
254.8337638457
 30
0.0
 11
171.2430513236
 21
254.8137638457
 31
0.0
  0
SPLINE
  5
18B
330
1F
100
AcDbEntity
  8
0
  6
Continuous
 62
     7
370
    25
100
AcDbSpline
210
0.0
220
0.0
230
1.0
 70
    24
 71
     3
 72
    11
 73
     7
 74
     0
 42
0.00000001
 43
0.00000001
 40
0.0
 40
0.0
 40
0.0
 40
0.0
 40
0.1251289731215066
 40
0.2504411273252808
 40
0.500297132212859
 40
1.0
 40
1.0
 40
1.0
 40
1.0
 10
171.2430513235972
 20
254.8337638457039
 30
0.0
 10
171.2421189065686
 20
254.8337638457039
 30
0.0
 10
171.2402527075105
 20
254.8337638457039
 30
0.0
 10
171.2209644032461
 20
254.8337638457039
 30
0.0
 10
171.1715018532868
 20
254.8337638457038
 30
0.0
 10
171.1213066386726
 20
254.8337638457038
 30
0.0
 10
171.0878433663316
 20
254.8337638457038
 30
0.0
  0
LINE
  5
18C
330
1F
100
AcDbEntity
  8
0
  6
Continuous
 62
     7
370
    25
100
AcDbLine
 10
173.489205273
 20
254.8337638457
 30
0.0
 11
173.489205273
 21
254.8137638457
 31
0.0
  0
LINE
  5
18D
330
1F
100
AcDbEntity
  8
0
  6
Continuous
 62
     7
370
    25
100
AcDbLine
 10
173.6570741355
 20
254.8337638457
 30
0.0
 11
173.6570741355
 21
254.8137638457
 31
0.0
  0
SPLINE
  5
18E
330
1F
100
AcDbEntity
  8
0
  6
Continuous
 62
     7
370
    25
100
AcDbSpline
210
0.0
220
0.0
230
1.0
 70
    24
 71
     3
 72
    11
 73
     7
 74
     0
 42
0.00000001
 43
0.00000001
 40
0.0
 40
0.0
 40
0.0
 40
0.0
 40
0.3396701574723051
 40
0.5596871211809212
 40
0.7797848396331067
 40
1.0
 40
1.0
 40
1.0
 40
1.0
 10
173.6570741355416
 20
254.8337638457035
 30
0.0
 10
173.6360093315309
 20
254.8337638457035
 30
0.0
 10
173.6013000723994
 20
254.8337638457035
 30
0.0
 10
173.5555817503387
 20
254.8337638457035
 30
0.0
 10
173.5205265067893
 20
254.8337638457035
 30
0.0
 10
173.4996475405887
 20
254.8337638457035
 30
0.0
 10
173.4892052730301
 20
254.8337638457035
 30
0.0
  0
LINE
  5
18F
330
1F
100
AcDbEntity
  8
0
  6
Continuous
 62
     7
370
    25
100
AcDbLine
 10
173.8122820928
 20
254.8337638457
 30
0.0
 11
173.8122820928
 21
254.8137638457
 31
0.0
  0
SPLINE
  5
190
330
1F
100
AcDbEntity
  8
0
  6
Continuous
 62
     7
370
    25
100
AcDbSpline
210
0.0
220
0.0
230
1.0
 70
    24
 71
     3
 72
    11
 73
     7
 74
     0
 42
0.00000001
 43
0.00000001
 40
0.0
 40
0.0
 40
0.0
 40
0.0
 40
0.1251289731221288
 40
0.2504411273256824
 40
0.500297132213397
 40
1.0
 40
1.0
 40
1.0
 40
1.0
 10
173.812282092807
 20
254.8337638457037
 30
0.0
 10
173.8113496757785
 20
254.8337638457037
 30
0.0
 10
173.8094834767206
 20
254.8337638457037
 30
0.0
 10
173.790195172456
 20
254.8337638457037
 30
0.0
 10
173.7407326224969
 20
254.8337638457037
 30
0.0
 10
173.6905374078827
 20
254.8337638457037
 30
0.0
 10
173.6570741355416
 20
254.8337638457035
 30
0.0
  0
LINE
  5
191
330
1F
100
AcDbEntity
  8
0
  6
Continuous
 62
     7
370
    25
100
AcDbLine
 10
174.3917693113
 20
254.8337638457
 30
0.0
 11
174.3917693113
 21
254.8137638457
 31
0.0
  0
LINE
  5
192
330
1F
100
AcDbEntity
  8
0
  6
Continuous
 62
     7
370
    25
100
AcDbLine
 10
175.0020252209
 20
254.8337638457
 30
0.0
 11
175.0020252209
 21
254.8137638457
 31
0.0
  0
LINE
  5
193
330
1F
100
AcDbEntity
  8
0
  6
Continuous
 62
     7
370
    25
100
AcDbLine
 10
169.6533080686
 20
254.8337638457
 30
0.0
 11
169.6533080686
 21
254.8137638457
 31
0.0
  0
LINE
  5
194
330
1F
100
AcDbEntity
  8
0
  6
Continuous
 62
     7
370
    25
100
AcDbLine
 10
169.6533080686
 20
254.8337638457
 30
0.0
 11
169.5259042225
 21
254.8337638457
 31
0.0
  0
LINE
  5
195
330
1F
100
AcDbEntity
  8
0
  6
Continuous
 62
     7
370
    25
100
AcDbLine
 10
170.5148465301
 20
254.8337638457
 30
0.0
 11
170.5148465301
 21
254.8137638457
 31
0.0
  0
LINE
  5
196
330
1F
100
AcDbEntity
  8
0
  6
Continuous
 62
     7
370
    25
100
AcDbLine
 10
170.8533080686
 20
254.8337638457
 30
0.0
 11
170.5148465301
 21
254.8337638457
 31
0.0
  0
LINE
  5
197
330
1F
100
AcDbEntity
  8
0
  6
Continuous
 62
     7
370
    25
100
AcDbLine
 10
170.8533080686
 20
254.8337638457
 30
0.0
 11
170.8533080686
 21
254.8137638457
 31
0.0
  0
LINE
  5
198
330
1F
100
AcDbEntity
  8
0
  6
Continuous
 62
     7
370
    25
100
AcDbLine
 10
170.5148463649
 20
254.8337638457
 30
0.0
 11
170.5148463649
 21
254.8137638457
 31
0.0
  0
LINE
  5
199
330
1F
100
AcDbEntity
  8
0
  6
Continuous
 62
     7
370
    25
100
AcDbLine
 10
170.5148465301
 20
254.8337638457
 30
0.0
 11
170.5148463649
 21
254.8337638457
 31
0.0
  0
LINE
  5
19A
330
1F
100
AcDbEntity
  8
0
  6
Continuous
 62
     7
370
    25
100
AcDbLine
 10
171.5712567865
 20
254.8337638457
 30
0.0
 11
171.5712567865
 21
254.8137638457
 31
0.0
  0
LINE
  5
19B
330
1F
100
AcDbEntity
  8
0
  6
Continuous
 62
     7
370
    25
100
AcDbLine
 10
171.9353593506
 20
254.8337638457
 30
0.0
 11
171.5712567865
 21
254.8337638457
 31
0.0
  0
LINE
  5
19C
330
1F
100
AcDbEntity
  8
0
  6
Continuous
 62
     7
370
    25
100
AcDbLine
 10
171.9353593506
 20
254.8337638457
 30
0.0
 11
171.9353593506
 21
254.8137638457
 31
0.0
  0
LINE
  5
19D
330
1F
100
AcDbEntity
  8
0
  6
Continuous
 62
     7
370
    25
100
AcDbLine
 10
171.5712566213
 20
254.8337638457
 30
0.0
 11
171.5712566213
 21
254.8137638457
 31
0.0
  0
LINE
  5
19E
330
1F
100
AcDbEntity
  8
0
  6
Continuous
 62
     7
370
    25
100
AcDbLine
 10
171.5712567865
 20
254.8337638457
 30
0.0
 11
171.5712566213
 21
254.8337638457
 31
0.0
  0
LINE
  5
19F
330
1F
100
AcDbEntity
  8
0
  6
Continuous
 62
     7
370
    25
100
AcDbLine
 10
172.1969779184
 20
254.8337638457
 30
0.0
 11
172.1969779184
 21
254.8137638457
 31
0.0
  0
SPLINE
  5
1A0
330
1F
100
AcDbEntity
  8
0
  6
Continuous
 62
     7
370
    25
100
AcDbSpline
210
0.0
220
0.0
230
1.0
 70
    24
 71
     3
 72
     9
 73
     5
 74
     0
 42
0.00000001
 43
0.00000001
 40
0.0
 40
0.0
 40
0.0
 40
0.0
 40
0.5600959248207593
 40
1.0
 40
1.0
 40
1.0
 40
1.0
 10
172.3412888378231
 20
254.8337638457037
 30
0.0
 10
172.3143020333113
 20
254.8337638457037
 30
0.0
 10
172.2661195643521
 20
254.8337638457037
 30
0.0
 10
172.2181013337587
 20
254.8337638457037
 30
0.0
 10
172.1969779184377
 20
254.8337638457037
 30
0.0
  0
LINE
  5
1A1
330
1F
100
AcDbEntity
  8
0
  6
Continuous
 62
     7
370
    25
100
AcDbLine
 10
172.468692684
 20
254.8337638457
 30
0.0
 11
172.468692684
 21
254.8137638457
 31
0.0
  0
LINE
  5
1A2
330
1F
100
AcDbEntity
  8
0
  6
Continuous
 62
     7
370
    25
100
AcDbLine
 10
172.468692684
 20
254.8337638457
 30
0.0
 11
172.3412888378
 21
254.8337638457
 31
0.0
  0
LINE
  5
1A3
330
1F
100
AcDbEntity
  8
0
  6
Continuous
 62
     7
370
    25
100
AcDbLine
 10
172.5712551751
 20
254.8337638457
 30
0.0
 11
172.5712551751
 21
254.8137638457
 31
0.0
  0
LINE
  5
1A4
330
1F
100
AcDbEntity
  8
0
  6
Continuous
 62
     7
370
    25
100
AcDbLine
 10
172.8635644788
 20
254.8337638457
 30
0.0
 11
172.8635644788
 21
254.8137638457
 31
0.0
  0
LINE
  5
1A5
330
1F
100
AcDbEntity
  8
0
  6
Continuous
 62
     7
370
    25
100
AcDbLine
 10
172.8635644788
 20
254.8337638457
 30
0.0
 11
172.5712551751
 21
254.8337638457
 31
0.0
  0
LINE
  5
1A6
330
1F
100
AcDbEntity
  8
0
  6
Continuous
 62
     7
370
    25
100
AcDbLine
 10
172.8738208891
 20
254.8337638457
 30
0.0
 11
172.8738208891
 21
254.8137638457
 31
0.0
  0
LINE
  5
1A7
330
1F
100
AcDbEntity
  8
0
  6
Continuous
 62
     7
370
    25
100
AcDbLine
 10
172.8738208891
 20
254.8337638457
 30
0.0
 11
172.8635644788
 21
254.8337638457
 31
0.0
  0
LINE
  5
1A8
330
1F
100
AcDbEntity
  8
0
  6
Continuous
 62
     7
370
    25
100
AcDbLine
 10
173.1712551751
 20
254.8337638457
 30
0.0
 11
173.1712551751
 21
254.8137638457
 31
0.0
  0
LINE
  5
1A9
330
1F
100
AcDbEntity
  8
0
  6
Continuous
 62
     7
370
    25
100
AcDbLine
 10
173.1712551751
 20
254.8337638457
 30
0.0
 11
172.8738208891
 21
254.8337638457
 31
0.0
  0
LINE
  5
1AA
330
1F
100
AcDbEntity
  8
0
  6
Continuous
 62
     7
370
    25
100
AcDbLine
 10
173.8994619147
 20
254.8337638457
 30
0.0
 11
173.8994619147
 21
254.8137638457
 31
0.0
  0
LINE
  5
1AB
330
1F
100
AcDbEntity
  8
0
  6
Continuous
 62
     7
370
    25
100
AcDbLine
 10
174.2635644788
 20
254.8337638457
 30
0.0
 11
173.8994619147
 21
254.8337638457
 31
0.0
  0
LINE
  5
1AC
330
1F
100
AcDbEntity
  8
0
  6
Continuous
 62
     7
370
    25
100
AcDbLine
 10
174.2635644788
 20
254.8337638457
 30
0.0
 11
174.2635644788
 21
254.8137638457
 31
0.0
  0
LINE
  5
1AD
330
1F
100
AcDbEntity
  8
0
  6
Continuous
 62
     7
370
    25
100
AcDbLine
 10
173.8994617495
 20
254.8337638457
 30
0.0
 11
173.8994617495
 21
254.8137638457
 31
0.0
  0
LINE
  5
1AE
330
1F
100
AcDbEntity
  8
0
  6
Continuous
 62
     7
370
    25
100
AcDbLine
 10
173.8994619147
 20
254.8337638457
 30
0.0
 11
173.8994617495
 21
254.8337638457
 31
0.0
  0
LINE
  5
1AF
330
1F
100
AcDbEntity
  8
0
  6
Continuous
 62
     7
370
    25
100
AcDbLine
 10
175.1251013289
 20
254.8337638457
 30
0.0
 11
175.1251013289
 21
254.8137638457
 31
0.0
  0
LINE
  5
1B0
330
1F
100
AcDbEntity
  8
0
  6
Continuous
 62
     7
370
    25
100
AcDbLine
 10
175.1251029404
 20
254.8337638457
 30
0.0
 11
175.1251029404
 21
254.8137638457
 31
0.0
  0
LINE
  5
1B1
330
1F
100
AcDbEntity
  8
0
  6
Continuous
 62
     7
370
    25
100
AcDbLine
 10
175.1251029404
 20
254.8337638457
 30
0.0
 11
175.1251013289
 21
254.8337638457
 31
0.0
  0
LINE
  5
1B2
330
1F
100
AcDbEntity
  8
0
  6
Continuous
 62
     7
370
    25
100
AcDbLine
 10
175.1866414019
 20
254.8337638457
 30
0.0
 11
175.1866414019
 21
254.8137638457
 31
0.0
  0
LINE
  5
1B3
330
1F
100
AcDbEntity
  8
0
  6
Continuous
 62
     7
370
    25
100
AcDbLine
 10
175.1866414019
 20
254.8337638457
 30
0.0
 11
175.1251029404
 21
254.8337638457
 31
0.0
  0
LINE
  5
1B4
330
1F
100
AcDbEntity
  8
0
  6
Continuous
 62
     7
370
    25
100
AcDbLine
 10
175.6095580686
 20
254.8337638457
 30
0.0
 11
175.6095580686
 21
254.8137638457
 31
0.0
  0
LINE
  5
1B5
330
1F
100
AcDbEntity
  8
0
  6
Continuous
 62
     7
370
    25
100
AcDbLine
 10
175.6095580686
 20
254.8337638457
 30
0.0
 11
175.1866401678
 21
254.8337638457
 31
0.0
  0
LINE
  5
1B6
330
1F
100
AcDbEntity
  8
0
  6
Continuous
 62
     7
370
    25
100
AcDbLine
 10
175.6225388378
 20
254.8337638457
 30
0.0
 11
175.6225388378
 21
254.8137638457
 31
0.0
  0
LINE
  5
1B7
330
1F
100
AcDbEntity
  8
0
  6
Continuous
 62
     7
370
    25
100
AcDbLine
 10
175.6225388378
 20
254.8337638457
 30
0.0
 11
175.6095580686
 21
254.8337638457
 31
0.0
  0
LINE
  5
1B8
330
1F
100
AcDbEntity
  8
0
  6
Continuous
 62
     7
370
    25
100
AcDbLine
 10
175.7251013289
 20
254.8337638457
 30
0.0
 11
175.7251013289
 21
254.8137638457
 31
0.0
  0
LINE
  5
1B9
330
1F
100
AcDbEntity
  8
0
  6
Continuous
 62
     7
370
    25
100
AcDbLine
 10
176.0174106327
 20
254.8337638457
 30
0.0
 11
176.0174106327
 21
254.8137638457
 31
0.0
  0
LINE
  5
1BA
330
1F
100
AcDbEntity
  8
0
  6
Continuous
 62
     7
370
    25
100
AcDbLine
 10
176.0174106327
 20
254.8337638457
 30
0.0
 11
175.7251013289
 21
254.8337638457
 31
0.0
  0
LINE
  5
1BB
330
1F
100
AcDbEntity
  8
0
  6
Continuous
 62
     7
370
    25
100
AcDbLine
 10
176.0276670429
 20
254.8337638457
 30
0.0
 11
176.0276670429
 21
254.8137638457
 31
0.0
  0
LINE
  5
1BC
330
1F
100
AcDbEntity
  8
0
  6
Continuous
 62
     7
370
    25
100
AcDbLine
 10
176.0276670429
 20
254.8337638457
 30
0.0
 11
176.0174106327
 21
254.8337638457
 31
0.0
  0
LINE
  5
1BD
330
1F
100
AcDbEntity
  8
0
  6
Continuous
 62
     7
370
    25
100
AcDbLine
 10
176.3251013289
 20
254.8337638457
 30
0.0
 11
176.3251013289
 21
254.8137638457
 31
0.0
  0
LINE
  5
1BE
330
1F
100
AcDbEntity
  8
0
  6
Continuous
 62
     7
370
    25
100
AcDbLine
 10
176.3251013289
 20
254.8337638457
 30
0.0
 11
176.0276670429
 21
254.8337638457
 31
0.0
  0
LINE
  5
1BF
330
1F
100
AcDbEntity
  8
0
  6
Continuous
 62
     7
370
    25
100
AcDbLine
 10
176.4174106327
 20
254.8337638457
 30
0.0
 11
176.4174106327
 21
254.8137638457
 31
0.0
  0
LINE
  5
1C0
330
1F
100
AcDbEntity
  8
0
  6
Continuous
 62
     7
370
    25
100
AcDbLine
 10
176.4789490942
 20
254.8337638457
 30
0.0
 11
176.4174106327
 21
254.8337638457
 31
0.0
  0
LINE
  5
1C1
330
1F
100
AcDbEntity
  8
0
  6
Continuous
 62
     7
370
    25
100
AcDbLine
 10
176.4789490942
 20
254.8337638457
 30
0.0
 11
176.4789490942
 21
254.8137638457
 31
0.0
  0
LINE
  5
1C2
330
1F
100
AcDbEntity
  8
0
  6
Continuous
 62
     7
370
    25
100
AcDbLine
 10
176.4174090212
 20
254.8337638457
 30
0.0
 11
176.4174090212
 21
254.8137638457
 31
0.0
  0
LINE
  5
1C3
330
1F
100
AcDbEntity
  8
0
  6
Continuous
 62
     7
370
    25
100
AcDbLine
 10
176.4174106327
 20
254.8337638457
 30
0.0
 11
176.4174090212
 21
254.8337638457
 31
0.0
  0
LINE
  5
1C4
330
1F
100
AcDbEntity
  8
0
  6
Continuous
 62
     7
370
    25
100
AcDbLine
 10
176.8122824275
 20
254.8337638457
 30
0.0
 11
176.8122824275
 21
254.8137638457
 31
0.0
  0
LINE
  5
1C5
330
1F
100
AcDbEntity
  8
0
  6
Continuous
 62
     7
370
    25
100
AcDbLine
 10
176.8738208891
 20
254.8337638457
 30
0.0
 11
176.8738208891
 21
254.8137638457
 31
0.0
  0
LINE
  5
1C6
330
1F
100
AcDbEntity
  8
0
  6
Continuous
 62
     7
370
    25
100
AcDbLine
 10
176.8738208891
 20
254.8337638457
 30
0.0
 11
176.8122824275
 21
254.8337638457
 31
0.0
  0
LINE
  5
1C7
330
1F
100
AcDbEntity
  8
0
  6
Continuous
 62
     7
370
    25
100
AcDbLine
 10
176.8122809814
 20
254.8337638457
 30
0.0
 11
176.8122809814
 21
254.8137638457
 31
0.0
  0
LINE
  5
1C8
330
1F
100
AcDbEntity
  8
0
  6
Continuous
 62
     7
370
    25
100
AcDbLine
 10
176.8122824275
 20
254.8337638457
 30
0.0
 11
176.8122809814
 21
254.8337638457
 31
0.0
  0
LINE
  5
1C9
330
1F
100
AcDbEntity
  8
0
  6
Continuous
 62
     7
370
    25
100
AcDbLine
 10
177.1233400956
 20
254.8337638457
 30
0.0
 11
177.1233400956
 21
254.8137638457
 31
0.0
  0
SPLINE
  5
1CA
330
1F
100
AcDbEntity
  8
0
  6
Continuous
 62
     7
370
    25
100
AcDbSpline
210
0.0
220
0.0
230
1.0
 70
    24
 71
     3
 72
     9
 73
     5
 74
     0
 42
0.00000001
 43
0.00000001
 40
0.0
 40
0.0
 40
0.0
 40
0.0
 40
0.5601278907768082
 40
1.0
 40
1.0
 40
1.0
 40
1.0
 10
177.26749076086
 20
254.8337638457039
 30
0.0
 10
177.2405230472631
 20
254.8337638457039
 30
0.0
 10
177.1923774111667
 20
254.8337638457039
 30
0.0
 10
177.1444305726251
 20
254.8337638457039
 30
0.0
 10
177.1233400956253
 20
254.8337638457039
 30
0.0
  0
LINE
  5
1CB
330
1F
100
AcDbEntity
  8
0
  6
Continuous
 62
     7
370
    25
100
AcDbLine
 10
177.391769607
 20
254.8337638457
 30
0.0
 11
177.391769607
 21
254.8137638457
 31
0.0
  0
LINE
  5
1CC
330
1F
100
AcDbEntity
  8
0
  6
Continuous
 62
     7
370
    25
100
AcDbLine
 10
177.391769607
 20
254.8337638457
 30
0.0
 11
177.2674907609
 21
254.8337638457
 31
0.0
  0
LINE
  5
1CD
330
1F
100
AcDbEntity
  8
0
  6
Continuous
 62
     7
370
    25
100
AcDbLine
 10
177.6412888136
 20
254.8337638457
 30
0.0
 11
177.6412888136
 21
254.8137638457
 31
0.0
  0
SPLINE
  5
1CE
330
1F
100
AcDbEntity
  8
0
  6
Continuous
 62
     7
370
    25
100
AcDbSpline
210
0.0
220
0.0
230
1.0
 70
    24
 71
     3
 72
     9
 73
     5
 74
     0
 42
0.00000001
 43
0.00000001
 40
0.0
 40
0.0
 40
0.0
 40
0.0
 40
0.5601278907770066
 40
1.0
 40
1.0
 40
1.0
 40
1.0
 10
177.7854394788045
 20
254.8337638457038
 30
0.0
 10
177.7584717652077
 20
254.8337638457038
 30
0.0
 10
177.7103261291113
 20
254.8337638457038
 30
0.0
 10
177.6623792905697
 20
254.8337638457038
 30
0.0
 10
177.6412888135698
 20
254.8337638457038
 30
0.0
  0
LINE
  5
1CF
330
1F
100
AcDbEntity
  8
0
  6
Continuous
 62
     7
370
    25
100
AcDbLine
 10
177.909718325
 20
254.8337638457
 30
0.0
 11
177.909718325
 21
254.8137638457
 31
0.0
  0
LINE
  5
1D0
330
1F
100
AcDbEntity
  8
0
  6
Continuous
 62
     7
370
    25
100
AcDbLine
 10
177.909718325
 20
254.8337638457
 30
0.0
 11
177.7854394788
 21
254.8337638457
 31
0.0
  0
LINE
  5
1D1
330
1F
100
AcDbEntity
  8
0
  6
Continuous
 62
     7
370
    25
100
AcDbLine
 10
178.0122808161
 20
254.8337638457
 30
0.0
 11
178.0122808161
 21
254.8137638457
 31
0.0
  0
LINE
  5
1D2
330
1F
100
AcDbEntity
  8
0
  6
Continuous
 62
     7
370
    25
100
AcDbLine
 10
178.3045901198
 20
254.8337638457
 30
0.0
 11
178.0122808161
 21
254.8337638457
 31
0.0
  0
LINE
  5
1D3
330
1F
100
AcDbEntity
  8
0
  6
Continuous
 62
     7
370
    25
100
AcDbLine
 10
178.3045901198
 20
254.8337638457
 30
0.0
 11
178.3045901198
 21
254.8137638457
 31
0.0
  0
LINE
  5
1D4
330
1F
100
AcDbEntity
  8
0
  6
Continuous
 62
     7
370
    25
100
AcDbLine
 10
178.3148465301
 20
254.8337638457
 30
0.0
 11
178.3148465301
 21
254.8137638457
 31
0.0
  0
LINE
  5
1D5
330
1F
100
AcDbEntity
  8
0
  6
Continuous
 62
     7
370
    25
100
AcDbLine
 10
178.3148465301
 20
254.8337638457
 30
0.0
 11
178.3045901198
 21
254.8337638457
 31
0.0
  0
LINE
  5
1D6
330
1F
100
AcDbEntity
  8
0
  6
Continuous
 62
     7
370
    25
100
AcDbLine
 10
178.6122808161
 20
254.8337638457
 30
0.0
 11
178.6122808161
 21
254.8137638457
 31
0.0
  0
LINE
  5
1D7
330
1F
100
AcDbEntity
  8
0
  6
Continuous
 62
     7
370
    25
100
AcDbLine
 10
178.6122808161
 20
254.8337638457
 30
0.0
 11
178.3148465301
 21
254.8337638457
 31
0.0
  0
LINE
  5
1D8
330
1F
100
AcDbEntity
  8
0
  6
Continuous
 62
     7
370
    25
100
AcDbLine
 10
178.9456157608
 20
254.8337638457
 30
0.0
 11
178.9456157608
 21
254.8137638457
 31
0.0
  0
LINE
  5
1D9
330
1F
100
AcDbEntity
  8
0
  6
Continuous
 62
     7
370
    25
100
AcDbLine
 10
179.0071542224
 20
254.8337638457
 30
0.0
 11
179.0071542224
 21
254.8137638457
 31
0.0
  0
LINE
  5
1DA
330
1F
100
AcDbEntity
  8
0
  6
Continuous
 62
     7
370
    25
100
AcDbLine
 10
179.0071542224
 20
254.8337638457
 30
0.0
 11
178.9456157608
 21
254.8337638457
 31
0.0
  0
LINE
  5
1DB
330
1F
100
AcDbEntity
  8
0
  6
Continuous
 62
     7
370
    25
100
AcDbLine
 10
178.9456141494
 20
254.8337638457
 30
0.0
 11
178.9456141494
 21
254.8137638457
 31
0.0
  0
LINE
  5
1DC
330
1F
100
AcDbEntity
  8
0
  6
Continuous
 62
     7
370
    25
100
AcDbLine
 10
178.9456157608
 20
254.8337638457
 30
0.0
 11
178.9456141494
 21
254.8337638457
 31
0.0
  0
LINE
  5
1DD
330
1F
100
AcDbEntity
  8
0
  6
Continuous
 62
     7
370
    25
100
AcDbLine
 10
179.430070889
 20
254.8337638457
 30
0.0
 11
179.430070889
 21
254.8137638457
 31
0.0
  0
LINE
  5
1DE
330
1F
100
AcDbEntity
  8
0
  6
Continuous
 62
     7
370
    25
100
AcDbLine
 10
179.430070889
 20
254.8337638457
 30
0.0
 11
179.0071529883
 21
254.8337638457
 31
0.0
  0
LINE
  5
1DF
330
1F
100
AcDbEntity
  8
0
  6
Continuous
 62
     7
370
    25
100
AcDbLine
 10
179.4430516583
 20
254.8337638457
 30
0.0
 11
179.4430516583
 21
254.8137638457
 31
0.0
  0
LINE
  5
1E0
330
1F
100
AcDbEntity
  8
0
  6
Continuous
 62
     7
370
    25
100
AcDbLine
 10
179.4430516583
 20
254.8337638457
 30
0.0
 11
179.430070889
 21
254.8337638457
 31
0.0
  0
LINE
  5
1E1
330
1F
100
AcDbEntity
  8
0
  6
Continuous
 62
     7
370
    25
100
AcDbLine
 10
179.550743966
 20
254.8337638457
 30
0.0
 11
179.550743966
 21
254.8137638457
 31
0.0
  0
LINE
  5
1E2
330
1F
100
AcDbEntity
  8
0
  6
Continuous
 62
     7
370
    25
100
AcDbLine
 10
179.9148465301
 20
254.8337638457
 30
0.0
 11
179.550743966
 21
254.8337638457
 31
0.0
  0
LINE
  5
1E3
330
1F
100
AcDbEntity
  8
0
  6
Continuous
 62
     7
370
    25
100
AcDbLine
 10
179.9148465301
 20
254.8337638457
 30
0.0
 11
179.9148465301
 21
254.8137638457
 31
0.0
  0
LINE
  5
1E4
330
1F
100
AcDbEntity
  8
0
  6
Continuous
 62
     7
370
    25
100
AcDbLine
 10
179.5507438007
 20
254.8337638457
 30
0.0
 11
179.5507438007
 21
254.8137638457
 31
0.0
  0
LINE
  5
1E5
330
1F
100
AcDbEntity
  8
0
  6
Continuous
 62
     7
370
    25
100
AcDbLine
 10
179.550743966
 20
254.8337638457
 30
0.0
 11
179.5507438007
 21
254.8337638457
 31
0.0
  0
LINE
  5
1E6
330
1F
100
AcDbEntity
  8
0
  6
Continuous
 62
     7
370
    25
100
AcDbLine
 10
180.0686910725
 20
254.8337638457
 30
0.0
 11
180.0686910725
 21
254.8137638457
 31
0.0
  0
LINE
  5
1E7
330
1F
100
AcDbEntity
  8
0
  6
Continuous
 62
     7
370
    25
100
AcDbLine
 10
180.0686926839
 20
254.8337638457
 30
0.0
 11
180.0686910725
 21
254.8337638457
 31
0.0
  0
LINE
  5
1E8
330
1F
100
AcDbEntity
  8
0
  6
Continuous
 62
     7
370
    25
100
AcDbLine
 10
180.0686926839
 20
254.8337638457
 30
0.0
 11
180.0686926839
 21
254.8137638457
 31
0.0
  0
LINE
  5
1E9
330
1F
100
AcDbEntity
  8
0
  6
Continuous
 62
     7
370
    25
100
AcDbLine
 10
180.1302311455
 20
254.8337638457
 30
0.0
 11
180.0686926839
 21
254.8337638457
 31
0.0
  0
LINE
  5
1EA
330
1F
100
AcDbEntity
  8
0
  6
Continuous
 62
     7
370
    25
100
AcDbLine
 10
180.1302311455
 20
254.8337638457
 30
0.0
 11
180.1302311455
 21
254.8137638457
 31
0.0
  0
LINE
  5
1EB
330
1F
100
AcDbEntity
  8
0
  6
Continuous
 62
     7
370
    25
100
AcDbLine
 10
180.4533080685
 20
254.8337638457
 30
0.0
 11
180.4533080685
 21
254.8137638457
 31
0.0
  0
LINE
  5
1EC
330
1F
100
AcDbEntity
  8
0
  6
Continuous
 62
     7
370
    25
100
AcDbLine
 10
180.5148465301
 20
254.8337638457
 30
0.0
 11
180.5148465301
 21
254.8137638457
 31
0.0
  0
LINE
  5
1ED
330
1F
100
AcDbEntity
  8
0
  6
Continuous
 62
     7
370
    25
100
AcDbLine
 10
180.5148465301
 20
254.8337638457
 30
0.0
 11
180.4533080685
 21
254.8337638457
 31
0.0
  0
LINE
  5
1EE
330
1F
100
AcDbEntity
  8
0
  6
Continuous
 62
     7
370
    25
100
AcDbLine
 10
180.4533074074
 20
254.8337638457
 30
0.0
 11
180.4533074074
 21
254.8137638457
 31
0.0
  0
LINE
  5
1EF
330
1F
100
AcDbEntity
  8
0
  6
Continuous
 62
     7
370
    25
100
AcDbLine
 10
180.4533080685
 20
254.8337638457
 30
0.0
 11
180.4533074074
 21
254.8337638457
 31
0.0
  0
LINE
  5
1F0
330
1F
100
AcDbEntity
  8
0
  6
Continuous
 62
     7
370
    25
100
AcDbLine
 10
180.6430516583
 20
254.8337638457
 30
0.0
 11
180.6430516583
 21
254.8137638457
 31
0.0
  0
LINE
  5
1F1
330
1F
100
AcDbEntity
  8
0
  6
Continuous
 62
     7
370
    25
100
AcDbLine
 10
180.7063529403
 20
254.8337638457
 30
0.0
 11
180.7063529403
 21
254.8137638457
 31
0.0
  0
LINE
  5
1F2
330
1F
100
AcDbEntity
  8
0
  6
Continuous
 62
     7
370
    25
100
AcDbLine
 10
180.7063529403
 20
254.8337638457
 30
0.0
 11
180.6430516583
 21
254.8337638457
 31
0.0
  0
LINE
  5
1F3
330
1F
100
AcDbEntity
  8
0
  6
Continuous
 62
     7
370
    25
100
AcDbLine
 10
180.8353581936
 20
254.8337638457
 30
0.0
 11
180.8353581936
 21
254.8137638457
 31
0.0
  0
LINE
  5
1F4
330
1F
100
AcDbEntity
  8
0
  6
Continuous
 62
     7
370
    25
100
AcDbLine
 10
180.8353581936
 20
254.8337638457
 30
0.0
 11
180.7063529403
 21
254.8337638457
 31
0.0
  0
LINE
  5
1F5
330
1F
100
AcDbEntity
  8
0
  6
Continuous
 62
     7
370
    25
100
AcDbLine
 10
181.0133240942
 20
254.8337638457
 30
0.0
 11
181.0133240942
 21
254.8137638457
 31
0.0
  0
LINE
  5
1F6
330
1F
100
AcDbEntity
  8
0
  6
Continuous
 62
     7
370
    25
100
AcDbLine
 10
181.0133240942
 20
254.8337638457
 30
0.0
 11
180.8353581936
 21
254.8337638457
 31
0.0
  0
LINE
  5
1F7
330
1F
100
AcDbEntity
  8
0
  6
Continuous
 62
     7
370
    25
100
AcDbLine
 10
181.0258240942
 20
254.8337638457
 30
0.0
 11
181.0258240942
 21
254.8137638457
 31
0.0
  0
LINE
  5
1F8
330
1F
100
AcDbEntity
  8
0
  6
Continuous
 62
     7
370
    25
100
AcDbLine
 10
181.0258240942
 20
254.8337638457
 30
0.0
 11
181.0133240942
 21
254.8337638457
 31
0.0
  0
LINE
  5
1F9
330
1F
100
AcDbEntity
  8
0
  6
Continuous
 62
     7
370
    25
100
AcDbLine
 10
181.2045889629
 20
254.8337638457
 30
0.0
 11
181.2045889629
 21
254.8137638457
 31
0.0
  0
LINE
  5
1FA
330
1F
100
AcDbEntity
  8
0
  6
Continuous
 62
     7
370
    25
100
AcDbLine
 10
181.2045889629
 20
254.8337638457
 30
0.0
 11
181.0258240942
 21
254.8337638457
 31
0.0
  0
LINE
  5
1FB
330
1F
100
AcDbEntity
  8
0
  6
Continuous
 62
     7
370
    25
100
AcDbLine
 10
181.3329555044
 20
254.8337638457
 30
0.0
 11
181.3329555044
 21
254.8137638457
 31
0.0
  0
LINE
  5
1FC
330
1F
100
AcDbEntity
  8
0
  6
Continuous
 62
     7
370
    25
100
AcDbLine
 10
181.3329555044
 20
254.8337638457
 30
0.0
 11
181.2045889629
 21
254.8337638457
 31
0.0
  0
LINE
  5
1FD
330
1F
100
AcDbEntity
  8
0
  6
Continuous
 62
     7
370
    25
100
AcDbLine
 10
181.3968978121
 20
254.8337638457
 30
0.0
 11
181.3968978121
 21
254.8137638457
 31
0.0
  0
LINE
  5
1FE
330
1F
100
AcDbEntity
  8
0
  6
Continuous
 62
     7
370
    25
100
AcDbLine
 10
181.3968978121
 20
254.8337638457
 30
0.0
 11
181.3329555044
 21
254.8337638457
 31
0.0
  0
LINE
  5
1FF
330
1F
100
AcDbEntity
  8
0
  6
Continuous
 62
     7
370
    25
100
AcDbLine
 10
172.068692253
 20
254.8337638457
 30
0.0
 11
172.068692253
 21
254.8137638457
 31
0.0
  0
SPLINE
  5
200
330
1F
100
AcDbEntity
  8
0
  6
Continuous
 62
     7
370
    25
100
AcDbSpline
210
0.0
220
0.0
230
1.0
 70
    24
 71
     3
 72
    10
 73
     6
 74
     0
 42
0.00000001
 43
0.00000001
 40
0.0
 40
0.0
 40
0.0
 40
0.0
 40
0.5595078804086593
 40
0.780184422447696
 40
1.0
 40
1.0
 40
1.0
 40
1.0
 10
172.1969779184377
 20
254.8337638457037
 30
0.0
 10
172.1642716991058
 20
254.8337638457038
 30
0.0
 10
172.1186657590764
 20
254.8337638457038
 30
0.0
 10
172.0744719750535
 20
254.8337638457039
 30
0.0
 10
172.0706163150132
 20
254.8337638457039
 30
0.0
 10
172.0686922530359
 20
254.8337638457039
 30
0.0
  0
LINE
  5
201
330
1F
100
AcDbEntity
  8
0
  6
Continuous
 62
     7
370
    25
100
AcDbLine
 10
177.002025585
 20
254.8337638457
 30
0.0
 11
177.002025585
 21
254.8137638457
 31
0.0
  0
SPLINE
  5
202
330
1F
100
AcDbEntity
  8
0
  6
Continuous
 62
     7
370
    25
100
AcDbSpline
210
0.0
220
0.0
230
1.0
 70
    24
 71
     3
 72
    10
 73
     6
 74
     0
 42
0.00000001
 43
0.00000001
 40
0.0
 40
0.0
 40
0.0
 40
0.0
 40
0.5592357938046932
 40
0.7798238400532871
 40
1.0
 40
1.0
 40
1.0
 40
1.0
 10
177.1233400956253
 20
254.8337638457039
 30
0.0
 10
177.0917432440568
 20
254.8337638457039
 30
0.0
 10
177.0476831563501
 20
254.8337638457039
 30
0.0
 10
177.0068348415571
 20
254.8337638457039
 30
0.0
 10
177.00362767153
 20
254.8337638457039
 30
0.0
 10
177.002025585038
 20
254.8337638457039
 30
0.0
  0
LINE
  5
203
330
1F
100
AcDbEntity
  8
0
  6
Continuous
 62
     7
370
    25
100
AcDbLine
 10
177.519974303
 20
254.8337638457
 30
0.0
 11
177.519974303
 21
254.8137638457
 31
0.0
  0
SPLINE
  5
204
330
1F
100
AcDbEntity
  8
0
  6
Continuous
 62
     7
370
    25
100
AcDbSpline
210
0.0
220
0.0
230
1.0
 70
    24
 71
     3
 72
    10
 73
     6
 74
     0
 42
0.00000001
 43
0.00000001
 40
0.0
 40
0.0
 40
0.0
 40
0.0
 40
0.5592357938047644
 40
0.7798238400533948
 40
1.0
 40
1.0
 40
1.0
 40
1.0
 10
177.6412888135698
 20
254.8337638457038
 30
0.0
 10
177.6096919620012
 20
254.8337638457038
 30
0.0
 10
177.5656318742946
 20
254.8337638457038
 30
0.0
 10
177.5247835595016
 20
254.8337638457038
 30
0.0
 10
177.5215763894744
 20
254.8337638457038
 30
0.0
 10
177.5199743029825
 20
254.8337638457038
 30
0.0
  0
LINE
  5
205
330
1F
100
AcDbEntity
  8
0
  6
Continuous
 62
     7
370
    25
100
AcDbLine
 10
180.4533074074
 20
254.8337638457
 30
0.0
 11
180.1302304843
 21
254.8337638457
 31
0.0
  0
LINE
  5
206
330
1F
100
AcDbEntity
  8
0
  6
Continuous
 62
     7
370
    25
100
AcDbLine
 10
170.9148453135
 20
254.8337638457
 30
0.0
 11
170.9148453135
 21
254.8137638457
 31
0.0
  0
LINE
  5
207
330
1F
100
AcDbEntity
  8
0
  6
Continuous
 62
     7
370
    25
100
AcDbLine
 10
173.4840760827
 20
254.8337638457
 30
0.0
 11
173.4840760827
 21
254.8137638457
 31
0.0
  0
LINE
  5
208
330
1F
100
AcDbEntity
  8
0
  6
Continuous
 62
     7
370
    25
100
AcDbLine
 10
172.0635628674
 20
254.8337638457
 30
0.0
 11
172.0635628674
 21
254.8137638457
 31
0.0
  0
LINE
  5
209
330
1F
100
AcDbEntity
  8
0
  6
Continuous
 62
     7
370
    25
100
AcDbLine
 10
171.2840759988
 20
254.8337638457
 30
0.0
 11
171.2840759988
 21
254.8137638457
 31
0.0
  0
LINE
  5
20A
330
1F
100
AcDbEntity
  8
0
  6
Continuous
 62
     7
370
    25
100
AcDbLine
 10
171.2840759988
 20
254.8337638457
 30
0.0
 11
171.2430513236
 21
254.8337638457
 31
0.0
  0
LINE
  5
20B
330
1F
100
AcDbEntity
  8
0
  6
Continuous
 62
     7
370
    25
100
AcDbLine
 10
173.853306768
 20
254.8337638457
 30
0.0
 11
173.853306768
 21
254.8137638457
 31
0.0
  0
LINE
  5
20C
330
1F
100
AcDbEntity
  8
0
  6
Continuous
 62
     7
370
    25
100
AcDbLine
 10
173.853306768
 20
254.8337638457
 30
0.0
 11
173.8122820928
 21
254.8337638457
 31
0.0
  0
LINE
  5
20D
330
1F
100
AcDbEntity
  8
0
  6
Continuous
 62
     7
370
    25
100
AcDbLine
 10
176.5712551751
 20
254.8337638457
 30
0.0
 11
176.5712551751
 21
254.8137638457
 31
0.0
  0
LINE
  5
20E
330
1F
100
AcDbEntity
  8
0
  6
Continuous
 62
     7
370
    25
100
AcDbLine
 10
176.5712553403
 20
254.8337638457
 30
0.0
 11
176.5712553403
 21
254.8137638457
 31
0.0
  0
LINE
  5
20F
330
1F
100
AcDbEntity
  8
0
  6
Continuous
 62
     7
370
    25
100
AcDbLine
 10
176.5712553403
 20
254.8337638457
 30
0.0
 11
176.5712551751
 21
254.8337638457
 31
0.0
  0
LINE
  5
210
330
1F
100
AcDbEntity
  8
0
  6
Continuous
 62
     7
370
    25
100
AcDbLine
 10
176.8122809814
 20
254.8337638457
 30
0.0
 11
176.5712553403
 21
254.8337638457
 31
0.0
  0
LINE
  5
211
330
1F
100
AcDbEntity
  8
0
  6
Continuous
 62
     7
370
    25
100
AcDbLine
 10
172.540483268
 20
254.8337638457
 30
0.0
 11
172.540483268
 21
254.8137638457
 31
0.0
  0
LINE
  5
212
330
1F
100
AcDbEntity
  8
0
  6
Continuous
 62
     7
370
    25
100
AcDbLine
 10
173.8916051955
 20
254.8337638457
 30
0.0
 11
173.8635540045
 21
254.8337638457
 31
0.0
  0
SPLINE
  5
213
330
1F
100
AcDbEntity
  8
0
  6
Continuous
 62
     7
370
    25
100
AcDbSpline
210
0.0
220
0.0
230
1.0
 70
    24
 71
     3
 72
     9
 73
     5
 74
     0
 42
0.00000001
 43
0.00000001
 40
0.0
 40
0.0
 40
0.0
 40
0.0
 40
0.4469406928852336
 40
0.9999999999999999
 40
0.9999999999999999
 40
0.9999999999999999
 40
0.9999999999999999
 10
179.5428852467514
 20
254.8337638457033
 30
0.0
 10
179.5317330698894
 20
254.8337638457033
 30
0.0
 10
179.506780817746
 20
254.8337638457033
 30
0.0
 10
179.4738364465053
 20
254.8337638457033
 30
0.0
 10
179.4556162553736
 20
254.8337638457033
 30
0.0
  0
LINE
  5
214
330
1F
100
AcDbEntity
  8
0
  6
Continuous
 62
     7
370
    25
100
AcDbLine
 10
169.7199712438
 20
254.8337638457
 30
0.0
 11
169.7199712438
 21
254.8137638457
 31
0.0
  0
LINE
  5
215
330
1F
100
AcDbEntity
  8
0
  6
Continuous
 62
     7
370
    25
100
AcDbLine
 10
169.7922468849
 20
254.8337638457
 30
0.0
 11
169.7199712438
 21
254.8337638457
 31
0.0
  0
LINE
  5
216
330
1F
100
AcDbEntity
  8
0
  6
Continuous
 62
     7
370
    25
100
AcDbLine
 10
170.4892020131
 20
254.8337638457
 30
0.0
 11
170.4892020131
 21
254.8137638457
 31
0.0
  0
LINE
  5
217
330
1F
100
AcDbEntity
  8
0
  6
Continuous
 62
     7
370
    25
100
AcDbLine
 10
170.5148463649
 20
254.8337638457
 30
0.0
 11
170.4892020131
 21
254.8337638457
 31
0.0
  0
LINE
  5
218
330
1F
100
AcDbEntity
  8
0
  6
Continuous
 62
     7
370
    25
100
AcDbLine
 10
170.4892005669
 20
254.8337638457
 30
0.0
 11
170.4892005669
 21
254.8137638457
 31
0.0
  0
LINE
  5
219
330
1F
100
AcDbEntity
  8
0
  6
Continuous
 62
     7
370
    25
100
AcDbLine
 10
170.4892020131
 20
254.8337638457
 30
0.0
 11
170.4892005669
 21
254.8337638457
 31
0.0
  0
LINE
  5
21A
330
1F
100
AcDbEntity
  8
0
  6
Continuous
 62
     7
370
    25
100
AcDbLine
 10
170.8943302182
 20
254.8337638457
 30
0.0
 11
170.8943302182
 21
254.8137638457
 31
0.0
  0
LINE
  5
21B
330
1F
100
AcDbEntity
  8
0
  6
Continuous
 62
     7
370
    25
100
AcDbLine
 10
170.9117236838
 20
254.8337638457
 30
0.0
 11
170.8943302182
 21
254.8337638457
 31
0.0
  0
LINE
  5
21C
330
1F
100
AcDbEntity
  8
0
  6
Continuous
 62
     7
370
    25
100
AcDbLine
 10
170.894328772
 20
254.8337638457
 30
0.0
 11
170.894328772
 21
254.8137638457
 31
0.0
  0
LINE
  5
21D
330
1F
100
AcDbEntity
  8
0
  6
Continuous
 62
     7
370
    25
100
AcDbLine
 10
170.8943302182
 20
254.8337638457
 30
0.0
 11
170.894328772
 21
254.8337638457
 31
0.0
  0
LINE
  5
21E
330
1F
100
AcDbEntity
  8
0
  6
Continuous
 62
     7
370
    25
100
AcDbLine
 10
171.3507404746
 20
254.8337638457
 30
0.0
 11
171.3507404746
 21
254.8137638457
 31
0.0
  0
LINE
  5
21F
330
1F
100
AcDbEntity
  8
0
  6
Continuous
 62
     7
370
    25
100
AcDbLine
 10
171.3507404746
 20
254.8337638457
 30
0.0
 11
171.2840759988
 21
254.8337638457
 31
0.0
  0
LINE
  5
220
330
1F
100
AcDbEntity
  8
0
  6
Continuous
 62
     7
370
    25
100
AcDbLine
 10
171.3609968848
 20
254.8337638457
 30
0.0
 11
171.3609968848
 21
254.8137638457
 31
0.0
  0
LINE
  5
221
330
1F
100
AcDbEntity
  8
0
  6
Continuous
 62
     7
370
    25
100
AcDbLine
 10
171.3609968848
 20
254.8337638457
 30
0.0
 11
171.3507404746
 21
254.8337638457
 31
0.0
  0
LINE
  5
222
330
1F
100
AcDbEntity
  8
0
  6
Continuous
 62
     7
370
    25
100
AcDbLine
 10
171.5712567865
 20
254.8337638457
 30
0.0
 11
171.3609968848
 21
254.8337638457
 31
0.0
  0
LINE
  5
223
330
1F
100
AcDbEntity
  8
0
  6
Continuous
 62
     7
370
    25
100
AcDbLine
 10
173.236157117
 20
254.8337638457
 30
0.0
 11
173.236157117
 21
254.8137638457
 31
0.0
  0
SPLINE
  5
224
330
1F
100
AcDbEntity
  8
0
  6
Continuous
 62
     7
370
    25
100
AcDbSpline
210
0.0
220
0.0
230
1.0
 70
    24
 71
     3
 72
     9
 73
     5
 74
     0
 42
0.00000001
 43
0.00000001
 40
0.0
 40
0.0
 40
0.0
 40
0.0
 40
0.5601278907771146
 40
1.0
 40
1.0
 40
1.0
 40
1.0
 10
173.3803077822648
 20
254.8337638457033
 30
0.0
 10
173.353340068668
 20
254.8337638457033
 30
0.0
 10
173.3051944325715
 20
254.8337638457033
 30
0.0
 10
173.2572475940299
 20
254.8337638457033
 30
0.0
 10
173.23615711703
 20
254.8337638457033
 30
0.0
  0
LINE
  5
225
330
1F
100
AcDbEntity
  8
0
  6
Continuous
 62
     7
370
    25
100
AcDbLine
 10
173.5045866284
 20
254.8337638457
 30
0.0
 11
173.3803077823
 21
254.8337638457
 31
0.0
  0
LINE
  5
226
330
1F
100
AcDbEntity
  8
0
  6
Continuous
 62
     7
370
    25
100
AcDbLine
 10
174.3917682923
 20
254.8337638457
 30
0.0
 11
174.2635644788
 21
254.8337638457
 31
0.0
  0
LINE
  5
227
330
1F
100
AcDbEntity
  8
0
  6
Continuous
 62
     7
370
    25
100
AcDbLine
 10
175.1251029404
 20
254.8337638457
 30
0.0
 11
174.8635597533
 21
254.8337638457
 31
0.0
  0
LINE
  5
228
330
1F
100
AcDbEntity
  8
0
  6
Continuous
 62
     7
370
    25
100
AcDbLine
 10
176.3609967195
 20
254.8337638457
 30
0.0
 11
176.3609967195
 21
254.8137638457
 31
0.0
  0
LINE
  5
229
330
1F
100
AcDbEntity
  8
0
  6
Continuous
 62
     7
370
    25
100
AcDbLine
 10
176.3609968848
 20
254.8337638457
 30
0.0
 11
176.3609967195
 21
254.8337638457
 31
0.0
  0
LINE
  5
22A
330
1F
100
AcDbEntity
  8
0
  6
Continuous
 62
     7
370
    25
100
AcDbLine
 10
176.3609968848
 20
254.8337638457
 30
0.0
 11
176.3609968848
 21
254.8137638457
 31
0.0
  0
LINE
  5
22B
330
1F
100
AcDbEntity
  8
0
  6
Continuous
 62
     7
370
    25
100
AcDbLine
 10
176.5712551751
 20
254.8337638457
 30
0.0
 11
176.4789490942
 21
254.8337638457
 31
0.0
  0
LINE
  5
22C
330
1F
100
AcDbEntity
  8
0
  6
Continuous
 62
     7
370
    25
100
AcDbLine
 10
176.4174090212
 20
254.8337638457
 30
0.0
 11
176.3609968848
 21
254.8337638457
 31
0.0
  0
LINE
  5
22D
330
1F
100
AcDbEntity
  8
0
  6
Continuous
 62
     7
370
    25
100
AcDbLine
 10
177.0276635515
 20
254.8337638457
 30
0.0
 11
176.8738208891
 21
254.8337638457
 31
0.0
  0
LINE
  5
22E
330
1F
100
AcDbEntity
  8
0
  6
Continuous
 62
     7
370
    25
100
AcDbLine
 10
177.6329752134
 20
254.8337638457
 30
0.0
 11
177.6225353463
 21
254.8337638457
 31
0.0
  0
LINE
  5
22F
330
1F
100
AcDbEntity
  8
0
  6
Continuous
 62
     7
370
    25
100
AcDbLine
 10
178.7917645041
 20
254.8337638457
 30
0.0
 11
178.7917645041
 21
254.8137638457
 31
0.0
  0
LINE
  5
230
330
1F
100
AcDbEntity
  8
0
  6
Continuous
 62
     7
370
    25
100
AcDbLine
 10
178.7917645041
 20
254.8337638457
 30
0.0
 11
178.6122808161
 21
254.8337638457
 31
0.0
  0
LINE
  5
231
330
1F
100
AcDbEntity
  8
0
  6
Continuous
 62
     7
370
    25
100
AcDbLine
 10
178.8379197964
 20
254.8337638457
 30
0.0
 11
178.8379197964
 21
254.8137638457
 31
0.0
  0
LINE
  5
232
330
1F
100
AcDbEntity
  8
0
  6
Continuous
 62
     7
370
    25
100
AcDbLine
 10
178.8379199617
 20
254.8337638457
 30
0.0
 11
178.8379197964
 21
254.8337638457
 31
0.0
  0
LINE
  5
233
330
1F
100
AcDbEntity
  8
0
  6
Continuous
 62
     7
370
    25
100
AcDbLine
 10
178.8379199617
 20
254.8337638457
 30
0.0
 11
178.8379199617
 21
254.8137638457
 31
0.0
  0
LINE
  5
234
330
1F
100
AcDbEntity
  8
0
  6
Continuous
 62
     7
370
    25
100
AcDbLine
 10
178.9456141494
 20
254.8337638457
 30
0.0
 11
178.8379199617
 21
254.8337638457
 31
0.0
  0
LINE
  5
235
330
1F
100
AcDbEntity
  8
0
  6
Continuous
 62
     7
370
    25
100
AcDbLine
 10
180.0686926839
 20
254.8337638457
 30
0.0
 11
179.9148465301
 21
254.8337638457
 31
0.0
  0
LINE
  5
236
330
1F
100
AcDbEntity
  8
0
  6
Continuous
 62
     7
370
    25
100
AcDbLine
 10
173.236157117
 20
254.8337638457
 30
0.0
 11
173.18662599
 21
254.8337638457
 31
0.0
  0
LINE
  5
237
330
1F
100
AcDbEntity
  8
0
  6
Continuous
 62
     7
370
    25
100
AcDbLine
 10
170.4892005669
 20
254.8337638457
 30
0.0
 11
170.4729246404
 21
254.8337638457
 31
0.0
  0
LINE
  5
238
330
1F
100
AcDbEntity
  8
0
  6
Continuous
 62
     7
370
    25
100
AcDbLine
 10
170.894328772
 20
254.8337638457
 30
0.0
 11
170.8533080686
 21
254.8337638457
 31
0.0
  0
LINE
  5
239
330
1F
100
AcDbEntity
  8
0
  6
Continuous
 62
     7
370
    25
100
AcDbLine
 10
177.5074067692
 20
254.8337638457
 30
0.0
 11
177.391769607
 21
254.8337638457
 31
0.0
  0
LINE
  5
23A
330
1F
100
AcDbEntity
  8
0
  6
Continuous
 62
     7
370
    25
100
AcDbLine
 10
178.0122808161
 20
254.8337638457
 30
0.0
 11
177.909718325
 21
254.8337638457
 31
0.0
  0
SPLINE
  5
23B
330
1F
100
AcDbEntity
  8
0
  6
Continuous
 62
     7
370
    25
100
AcDbSpline
210
0.0
220
0.0
230
1.0
 70
    24
 71
     3
 72
    11
 73
     7
 74
     0
 42
0.00000001
 43
0.00000001
 40
0.0
 40
0.0
 40
0.0
 40
0.0
 40
0.1251289731222124
 40
0.2504411273257252
 40
0.5002971322129752
 40
1.0
 40
1.0
 40
1.0
 40
1.0
 10
174.7609930586227
 20
254.8337638457035
 30
0.0
 10
174.7600606415941
 20
254.8337638457035
 30
0.0
 10
174.7581944425362
 20
254.8337638457035
 30
0.0
 10
174.7389061382716
 20
254.8337638457035
 30
0.0
 10
174.6894435883124
 20
254.8337638457035
 30
0.0
 10
174.6392483736982
 20
254.8337638457035
 30
0.0
 10
174.6057851013572
 20
254.8337638457035
 30
0.0
  0
LINE
  5
23C
330
1F
100
AcDbEntity
  8
0
  6
Continuous
 62
     7
370
    25
100
AcDbLine
 10
169.7199712438
 20
254.8337638457
 30
0.0
 11
169.6533080686
 21
254.8337638457
 31
0.0
  0
LINE
  5
23D
330
1F
100
AcDbEntity
  8
0
  6
Continuous
 62
     7
370
    25
100
AcDbLine
 10
176.3609968848
 20
254.8337638457
 30
0.0
 11
176.3251013289
 21
254.8337638457
 31
0.0
  0
LINE
  5
23E
330
1F
100
AcDbEntity
  8
0
  6
Continuous
 62
     7
370
    25
100
AcDbLine
 10
179.5507438007
 20
254.8337638457
 30
0.0
 11
179.5302241626
 21
254.8337638457
 31
0.0
  0
LINE
  5
23F
330
1F
100
AcDbEntity
  8
0
  6
Continuous
 62
     7
370
    25
100
AcDbLine
 10
180.6430516583
 20
254.8337638457
 30
0.0
 11
180.5148465301
 21
254.8337638457
 31
0.0
  0
LINE
  5
240
330
1F
100
AcDbEntity
  8
0
  6
Continuous
 62
     7
370
    25
100
AcDbLine
 10
178.8379199617
 20
254.8337638457
 30
0.0
 11
178.7917645041
 21
254.8337638457
 31
0.0
  0
LINE
  5
241
330
1F
100
AcDbEntity
  8
0
  6
Continuous
 62
     7
370
    25
100
AcDbLine
 10
181.4351042612
 20
254.8337638457
 30
0.0
 11
181.4351042612
 21
254.8137638457
 31
0.0
  0
LINE
  5
242
330
1F
100
AcDbEntity
  8
0
  6
Continuous
 62
     7
370
    25
100
AcDbLine
 10
181.4966427228
 20
254.8337638457
 30
0.0
 11
181.4966427228
 21
254.8137638457
 31
0.0
  0
LINE
  5
243
330
1F
100
AcDbEntity
  8
0
  6
Continuous
 62
     7
370
    25
100
AcDbLine
 10
181.4966427228
 20
254.8337638457
 30
0.0
 11
181.4351042612
 21
254.8337638457
 31
0.0
  0
LINE
  5
244
330
1F
100
AcDbEntity
  8
0
  6
Continuous
 62
     7
370
    25
100
AcDbLine
 10
181.4351028151
 20
254.8337638457
 30
0.0
 11
181.4351028151
 21
254.8137638457
 31
0.0
  0
LINE
  5
245
330
1F
100
AcDbEntity
  8
0
  6
Continuous
 62
     7
370
    25
100
AcDbLine
 10
181.4351042612
 20
254.8337638457
 30
0.0
 11
181.4351028151
 21
254.8337638457
 31
0.0
  0
LINE
  5
246
330
1F
100
AcDbEntity
  8
0
  6
Continuous
 62
     7
370
    25
100
AcDbLine
 10
181.6043350305
 20
254.8337638457
 30
0.0
 11
181.6043350305
 21
254.8137638457
 31
0.0
  0
LINE
  5
247
330
1F
100
AcDbEntity
  8
0
  6
Continuous
 62
     7
370
    25
100
AcDbLine
 10
181.9684375946
 20
254.8337638457
 30
0.0
 11
181.6043350305
 21
254.8337638457
 31
0.0
  0
LINE
  5
248
330
1F
100
AcDbEntity
  8
0
  6
Continuous
 62
     7
370
    25
100
AcDbLine
 10
181.9684375946
 20
254.8337638457
 30
0.0
 11
181.9684375946
 21
254.8137638457
 31
0.0
  0
LINE
  5
249
330
1F
100
AcDbEntity
  8
0
  6
Continuous
 62
     7
370
    25
100
AcDbLine
 10
181.6043348652
 20
254.8337638457
 30
0.0
 11
181.6043348652
 21
254.8137638457
 31
0.0
  0
LINE
  5
24A
330
1F
100
AcDbEntity
  8
0
  6
Continuous
 62
     7
370
    25
100
AcDbLine
 10
181.6043350305
 20
254.8337638457
 30
0.0
 11
181.6043348652
 21
254.8337638457
 31
0.0
  0
LINE
  5
24B
330
1F
100
AcDbEntity
  8
0
  6
Continuous
 62
     7
370
    25
100
AcDbLine
 10
181.4351028151
 20
254.8337638457
 30
0.0
 11
181.3968978121
 21
254.8337638457
 31
0.0
  0
LINE
  5
24C
330
1F
100
AcDbEntity
  8
0
  6
Continuous
 62
     7
370
    25
100
AcDbLine
 10
169.5101371339
 20
254.7937638457
 30
0.0
 11
169.5101371339
 21
254.8337638457
 31
0.0
  0
LINE
  5
24D
330
1F
100
AcDbEntity
  8
0
  6
Continuous
 62
     7
370
    25
100
AcDbLine
 10
153.910137134
 20
254.7937638457
 30
0.0
 11
153.910137134
 21
254.8337638457
 31
0.0
  0
LINE
  5
24E
330
1F
100
AcDbEntity
  8
0
  6
Continuous
 62
     7
370
    25
100
AcDbLine
 10
169.5101371339
 20
254.8337638457
 30
0.0
 11
163.7618166902
 21
254.8337638457
 31
0.0
  0
LINE
  5
24F
330
1F
100
AcDbEntity
  8
0
  6
Continuous
 62
     7
370
    25
100
AcDbLine
 10
159.0584845906
 20
254.8337638457
 30
0.0
 11
158.7618166903
 21
254.8337638457
 31
0.0
  0
LINE
  5
250
330
1F
100
AcDbEntity
  8
0
  6
Continuous
 62
     7
370
    25
100
AcDbLine
 10
154.0584845906
 20
254.8337638457
 30
0.0
 11
153.910137134
 21
254.8337638457
 31
0.0
  0
LINE
  5
251
330
1F
100
AcDbEntity
  8
0
  6
Continuous
 62
     7
370
    25
100
AcDbLine
 10
153.9101081282
 20
254.7937638457
 30
0.0
 11
153.9101081282
 21
254.8337638457
 31
0.0
  0
LINE
  5
252
330
1F
100
AcDbEntity
  8
0
  6
Continuous
 62
     7
370
    25
100
AcDbLine
 10
153.910137134
 20
254.7937638457
 30
0.0
 11
153.9101081282
 21
254.7937638457
 31
0.0
  0
LINE
  5
253
330
1F
100
AcDbEntity
  8
0
  6
Continuous
 62
     7
370
    25
100
AcDbLine
 10
153.910137134
 20
254.8337638457
 30
0.0
 11
153.9101081282
 21
254.8337638457
 31
0.0
  0
SPLINE
  5
254
330
1F
100
AcDbEntity
  8
0
  6
Continuous
 62
     7
370
    25
100
AcDbSpline
210
0.0
220
0.0
230
1.0
 70
     8
 71
     3
 72
    11
 73
     7
 74
     0
 42
0.00000001
 43
0.00000001
 40
0.0
 40
0.0
 40
0.0
 40
0.0
 40
0.249999999999989
 40
0.4999999999999686
 40
0.749999999999944
 40
1.0
 40
1.0
 40
1.0
 40
1.0
 10
255.7602699155842
 20
249.2937638457035
 30
0.0
 10
255.7944365822508
 20
249.2876009008607
 30
0.0
 10
255.8627699155842
 20
249.2752750111751
 30
0.0
 10
255.9652699155842
 20
249.1804628337949
 30
0.0
 10
256.0677699155841
 20
249.0449394095852
 30
0.0
 10
256.1361032489175
 20
248.937489033664
 30
0.0
 10
256.1702699155842
 20
248.8837638457035
 30
0.0
  0
SPLINE
  5
255
330
1F
100
AcDbEntity
  8
0
  6
Continuous
 62
     7
370
    25
100
AcDbSpline
210
0.0
220
0.0
230
1.0
 70
     8
 71
     3
 72
    11
 73
     7
 74
     0
 42
0.00000001
 43
0.00000001
 40
0.0
 40
0.0
 40
0.0
 40
0.0
 40
0.2166920199839531
 40
0.4715098753230798
 40
0.7264234855550471
 40
1.0
 40
1.0
 40
1.0
 40
1.0
 10
152.2502699155842
 20
248.8837638457035
 30
0.0
 10
152.2798377051457
 20
248.9302645610956
 30
0.0
 10
152.3441755832585
 20
249.031447551215
 30
0.0
 10
152.4435167058413
 20
249.1669924495449
 30
0.0
 10
152.550539294779
 20
249.2721110705157
 30
0.0
 10
152.6228419522411
 20
249.2863783112915
 30
0.0
 10
152.6602699155842
 20
249.2937638457035
 30
0.0
  0
LINE
  5
256
330
1F
100
AcDbEntity
  8
0
  6
Continuous
 62
     7
370
    25
100
AcDbLine
 10
152.6602699156
 20
249.2937638457
 30
0.0
 11
186.1452699156
 21
249.2937638457
 31
0.0
  0
LINE
  5
257
330
1F
100
AcDbEntity
  8
0
  6
Continuous
 62
     7
370
    25
100
AcDbLine
 10
222.2752699156
 20
249.2937638457
 30
0.0
 11
255.7602699156
 21
249.2937638457
 31
0.0
  0
LINE
  5
258
330
1F
100
AcDbEntity
  8
0
  6
Continuous
 62
     7
370
    25
100
AcDbLine
 10
256.1702699156
 20
248.8837638457
 30
0.0
 11
256.1702699156
 21
241.7837638457
 31
0.0
  0
LINE
  5
259
330
1F
100
AcDbEntity
  8
0
  6
Continuous
 62
     7
370
    25
100
AcDbLine
 10
152.2502699156
 20
248.8837638457
 30
0.0
 11
152.2502699156
 21
241.7837638457
 31
0.0
  0
CIRCLE
  5
25A
330
1F
100
AcDbEntity
  8
0
  6
Continuous
 62
     7
370
    25
100
AcDbCircle
 10
224.1302699156
 20
246.3637638457
 30
0.0
 40
0.6399999999999864
  0
CIRCLE
  5
25B
330
1F
100
AcDbEntity
  8
0
  6
Continuous
 62
     7
370
    25
100
AcDbCircle
 10
184.2902699156
 20
246.3637638457
 30
0.0
 40
0.6399999999999579
  0
SPLINE
  5
25C
330
1F
100
AcDbEntity
  8
0
  6
Continuous
 62
     7
370
    25
100
AcDbSpline
210
0.0
220
0.0
230
1.0
 70
     8
 71
     3
 72
    12
 73
     8
 74
     0
 42
0.00000001
 43
0.00000001
 40
0.0
 40
0.0
 40
0.0
 40
0.0
 40
0.2280035488308396
 40
0.4560763923798116
 40
0.6841495324961715
 40
0.9122224773085461
 40
1.0
 40
1.0
 40
1.0
 40
1.0
 10
256.1702699155842
 20
248.8837638457035
 30
0.0
 10
256.1651528567452
 20
248.9327154224954
 30
0.0
 10
256.1549171838934
 20
249.0306334534168
 30
0.0
 10
256.0754460702339
 20
249.1590015829455
 30
0.0
 10
255.9597639153762
 20
249.2518513677133
 30
0.0
 10
255.8465356532189
 20
249.2901398978741
 30
0.0
 10
255.7790302417426
 20
249.2929757408878
 30
0.0
 10
255.7602699155842
 20
249.2937638457035
 30
0.0
  0
SPLINE
  5
25D
330
1F
100
AcDbEntity
  8
0
  6
Continuous
 62
     7
370
    25
100
AcDbSpline
210
0.0
220
0.0
230
1.0
 70
     8
 71
     3
 72
    11
 73
     7
 74
     0
 42
0.00000001
 43
0.00000001
 40
0.0
 40
0.0
 40
0.0
 40
0.0
 40
0.2499999999998336
 40
0.4999999999998517
 40
0.7499999999998838
 40
1.0
 40
1.0
 40
1.0
 40
1.0
 10
152.6602699155842
 20
249.2937638457035
 30
0.0
 10
152.6065447276237
 20
249.2876009008607
 30
0.0
 10
152.4990943517026
 20
249.275275011175
 30
0.0
 10
152.3635709274929
 20
249.1804628337949
 30
0.0
 10
152.2687587501128
 20
249.0449394095851
 30
0.0
 10
152.2564328604271
 20
248.937489033664
 30
0.0
 10
152.2502699155842
 20
248.8837638457034
 30
0.0
  0
LINE
  5
25E
330
1F
100
AcDbEntity
  8
0
  6
Continuous
 62
     7
370
    25
100
AcDbLine
 10
255.7602699156
 20
249.2937638457
 30
0.0
 11
255.7602699156
 21
249.5437638457
 31
0.0
  0
LINE
  5
25F
330
1F
100
AcDbEntity
  8
0
  6
Continuous
 62
     7
370
    25
100
AcDbLine
 10
152.6602699156
 20
249.5437638457
 30
0.0
 11
152.6602699156
 21
249.2937638457
 31
0.0
  0
LINE
  5
260
330
1F
100
AcDbEntity
  8
0
  6
Continuous
 62
     7
370
    25
100
AcDbLine
 10
152.2502699156
 20
249.1637638457
 30
0.0
 11
152.3637319591
 21
249.1637638457
 31
0.0
  0
LINE
  5
261
330
1F
100
AcDbEntity
  8
0
  6
Continuous
 62
     7
370
    25
100
AcDbLine
 10
152.2502699156
 20
248.8837638457
 30
0.0
 11
152.2502699156
 21
249.1637638457
 31
0.0
  0
LINE
  5
262
330
1F
100
AcDbEntity
  8
0
  6
Continuous
 62
     7
370
    25
100
AcDbLine
 10
256.0560626719
 20
249.1637638457
 30
0.0
 11
256.1702699156
 21
249.1637638457
 31
0.0
  0
LINE
  5
263
330
1F
100
AcDbEntity
  8
0
  6
Continuous
 62
     7
370
    25
100
AcDbLine
 10
256.1702699156
 20
249.1637638457
 30
0.0
 11
256.1702699156
 21
248.8837638457
 31
0.0
  0
SPLINE
  5
264
330
1F
100
AcDbEntity
  8
0
  6
Continuous
 62
     7
370
    25
100
AcDbSpline
210
0.0
220
0.0
230
1.0
 70
     8
 71
     3
 72
    11
 73
     7
 74
     0
 42
0.00000001
 43
0.00000001
 40
0.0
 40
0.0
 40
0.0
 40
0.0
 40
0.2166920199839715
 40
0.4715098753230972
 40
0.7264234855550722
 40
1.0
 40
1.0
 40
1.0
 40
1.0
 10
152.5002699155843
 20
254.3837638457034
 30
0.0
 10
152.5298377051459
 20
254.4302645610956
 30
0.0
 10
152.5941755832587
 20
254.5314475512149
 30
0.0
 10
152.6935167058414
 20
254.6669924495448
 30
0.0
 10
152.8005392947792
 20
254.7721110705157
 30
0.0
 10
152.8728419522413
 20
254.7863783112915
 30
0.0
 10
152.9102699155843
 20
254.7937638457035
 30
0.0
  0
LINE
  5
265
330
1F
100
AcDbEntity
  8
0
  6
Continuous
 62
     7
370
    25
100
AcDbLine
 10
152.9102699156
 20
254.7937638457
 30
0.0
 11
255.5102699156
 21
254.7937638457
 31
0.0
  0
SPLINE
  5
266
330
1F
100
AcDbEntity
  8
0
  6
Continuous
 62
     7
370
    25
100
AcDbSpline
210
0.0
220
0.0
230
1.0
 70
     8
 71
     3
 72
    11
 73
     7
 74
     0
 42
0.00000001
 43
0.00000001
 40
0.0
 40
0.0
 40
0.0
 40
0.0
 40
0.2145047768079769
 40
0.4693212175258333
 40
0.7242383658730958
 40
1.0
 40
1.0
 40
1.0
 40
1.0
 10
255.5102699155844
 20
254.7937638457034
 30
0.0
 10
255.5395363153631
 20
254.7892119134473
 30
0.0
 10
255.6035691195792
 20
254.7792526089492
 30
0.0
 10
255.7026135302119
 20
254.6948991082917
 30
0.0
 10
255.809929687005
 20
254.557227353848
 30
0.0
 10
255.8825391655914
 20
254.4430795489874
 30
0.0
 10
255.9202699155844
 20
254.3837638457035
 30
0.0
  0
LINE
  5
267
330
1F
100
AcDbEntity
  8
0
  6
Continuous
 62
     7
370
    25
100
AcDbLine
 10
152.5002699156
 20
249.5437638457
 30
0.0
 11
152.6602699156
 21
249.5437638457
 31
0.0
  0
LINE
  5
268
330
1F
100
AcDbEntity
  8
0
  6
Continuous
 62
     7
370
    25
100
AcDbLine
 10
152.5002699156
 20
254.3837638457
 30
0.0
 11
152.5002699156
 21
249.5437638457
 31
0.0
  0
LINE
  5
269
330
1F
100
AcDbEntity
  8
0
  6
Continuous
 62
     7
370
    25
100
AcDbLine
 10
255.9202699156
 20
254.3837638457
 30
0.0
 11
255.9202699156
 21
249.5437638457
 31
0.0
  0
LINE
  5
26A
330
1F
100
AcDbEntity
  8
0
  6
Continuous
 62
     7
370
    25
100
AcDbLine
 10
255.9202699156
 20
249.5437638457
 30
0.0
 11
255.7602699156
 21
249.5437638457
 31
0.0
  0
LINE
  5
26B
330
1F
100
AcDbEntity
  8
0
  6
Continuous
 62
     7
370
    25
100
AcDbLine
 10
255.9202699156
 20
249.5437638457
 30
0.0
 11
255.9202699156
 21
249.2558807105
 31
0.0
  0
SPLINE
  5
26C
330
1F
100
AcDbEntity
  8
0
  6
Continuous
 62
     7
370
    25
100
AcDbSpline
210
0.0
220
0.0
230
1.0
 70
     8
 71
     3
 72
    11
 73
     7
 74
     0
 42
0.00000001
 43
0.00000001
 40
0.0
 40
0.0
 40
0.0
 40
0.0
 40
0.2500000000000586
 40
0.5000000000001176
 40
0.7500000000001765
 40
1.0
 40
1.0
 40
1.0
 40
1.0
 10
255.9202699155844
 20
254.3837638457035
 30
0.0
 10
255.9141069707415
 20
254.437489033664
 30
0.0
 10
255.9017810810557
 20
254.5449394095851
 30
0.0
 10
255.8069689036756
 20
254.6804628337949
 30
0.0
 10
255.6714454794659
 20
254.775275011175
 30
0.0
 10
255.5639951035448
 20
254.7876009008606
 30
0.0
 10
255.5102699155843
 20
254.7937638457034
 30
0.0
  0
SPLINE
  5
26D
330
1F
100
AcDbEntity
  8
0
  6
Continuous
 62
     7
370
    25
100
AcDbSpline
210
0.0
220
0.0
230
1.0
 70
     8
 71
     3
 72
    11
 73
     7
 74
     0
 42
0.00000001
 43
0.00000001
 40
0.0
 40
0.0
 40
0.0
 40
0.0
 40
0.2500000000000224
 40
0.5000000000000447
 40
0.7500000000000475
 40
0.9999999999999999
 40
0.9999999999999999
 40
0.9999999999999999
 40
0.9999999999999999
 10
152.9102699155843
 20
254.7937638457035
 30
0.0
 10
152.8565447276237
 20
254.7876009008606
 30
0.0
 10
152.7490943517026
 20
254.775275011175
 30
0.0
 10
152.6135709274929
 20
254.6804628337949
 30
0.0
 10
152.5187587501127
 20
254.5449394095851
 30
0.0
 10
152.5064328604271
 20
254.437489033664
 30
0.0
 10
152.5002699155843
 20
254.3837638457034
 30
0.0
  0
LINE
  5
26E
330
1F
100
AcDbEntity
  8
0
  6
Continuous
 62
     7
370
    25
100
AcDbLine
 10
152.5002699156
 20
249.5437638457
 30
0.0
 11
152.5002699156
 21
249.2604832387
 31
0.0
  0
LINE
  5
26F
330
1F
100
AcDbEntity
  8
0
  6
Continuous
 62
     7
370
    25
100
AcDbLine
 10
183.961088301
 20
246.4837638457
 30
0.0
 11
183.961113839
 21
246.6246398264
 31
0.0
  0
LINE
  5
270
330
1F
100
AcDbEntity
  8
0
  6
Continuous
 62
     7
370
    25
100
AcDbLine
 10
183.8877776796
 20
246.4837638457
 30
0.0
 11
183.961088301
 21
246.4837638457
 31
0.0
  0
LINE
  5
271
330
1F
100
AcDbEntity
  8
0
  6
Continuous
 62
     7
370
    25
100
AcDbLine
 10
183.8858981143
 20
246.4429991795
 30
0.0
 11
183.8778117215
 21
246.4429991795
 31
0.0
  0
LINE
  5
272
330
1F
100
AcDbEntity
  8
0
  6
Continuous
 62
     7
370
    25
100
AcDbLine
 10
183.8758619179
 20
246.4320720551
 30
0.0
 11
183.8858981143
 21
246.4429991795
 31
0.0
  0
LINE
  5
273
330
1F
100
AcDbEntity
  8
0
  6
Continuous
 62
     7
370
    25
100
AcDbLine
 10
183.8858981143
 20
246.4429991795
 30
0.0
 11
183.8858981143
 21
246.4772691156
 31
0.0
  0
LINE
  5
274
330
1F
100
AcDbEntity
  8
0
  6
Continuous
 62
     7
370
    25
100
AcDbLine
 10
183.9455961568
 20
246.1237638457
 30
0.0
 11
184.6349436744
 21
246.1237638457
 31
0.0
  0
LINE
  5
275
330
1F
100
AcDbEntity
  8
0
  6
Continuous
 62
     7
370
    25
100
AcDbLine
 10
184.4202876985
 20
246.5168508147
 30
0.0
 11
184.1202877035
 21
246.4639077231
 31
0.0
  0
LINE
  5
276
330
1F
100
AcDbEntity
  8
0
  6
Continuous
 62
     7
370
    25
100
AcDbLine
 10
184.4203416483
 20
246.4645946906
 30
0.0
 11
184.4202876985
 21
246.5168508147
 31
0.0
  0
LINE
  5
277
330
1F
100
AcDbEntity
  8
0
  6
Continuous
 62
     7
370
    25
100
AcDbLine
 10
184.6203416451
 20
246.4645946906
 30
0.0
 11
184.4203416483
 21
246.4645946906
 31
0.0
  0
LINE
  5
278
330
1F
100
AcDbEntity
  8
0
  6
Continuous
 62
     7
370
    25
100
AcDbLine
 10
184.6202876952
 20
246.5168508147
 30
0.0
 11
184.6203416451
 21
246.4645946906
 31
0.0
  0
LINE
  5
279
330
1F
100
AcDbEntity
  8
0
  6
Continuous
 62
     7
370
    25
100
AcDbLine
 10
184.6794908433
 20
246.5064028222
 30
0.0
 11
184.6202876952
 21
246.5168508147
 31
0.0
  0
LINE
  5
27A
330
1F
100
AcDbEntity
  8
0
  6
Continuous
 62
     7
370
    25
100
AcDbLine
 10
184.620196621
 20
246.463216287
 30
0.0
 11
184.6202514392
 21
246.5168508147
 31
0.0
  0
LINE
  5
27B
330
1F
100
AcDbEntity
  8
0
  6
Continuous
 62
     7
370
    25
100
AcDbLine
 10
184.1202877035
 20
246.4639077231
 30
0.0
 11
184.1202695623
 21
246.4639077231
 31
0.0
  0
LINE
  5
27C
330
1F
100
AcDbEntity
  8
0
  6
Continuous
 62
     7
370
    25
100
AcDbLine
 10
184.6202876952
 20
246.4645946906
 30
0.0
 11
184.6202876952
 21
246.5168508147
 31
0.0
  0
LINE
  5
27D
330
1F
100
AcDbEntity
  8
0
  6
Continuous
 62
     7
370
    25
100
AcDbLine
 10
184.6202514392
 20
246.4645946906
 30
0.0
 11
184.6202514392
 21
246.5168508147
 31
0.0
  0
LWPOLYLINE
  5
27E
330
1F
100
AcDbEntity
  8
0
  6
Continuous
 62
     7
370
    25
100
AcDbPolyline
 90
        9
 70
   128
 43
0.0
 10
239.9102699156
 20
86.3156640968
 10
239.9331060558
 20
86.2801873916
 10
239.9981378812
 20
86.2501116932
 10
240.0954648859
 20
86.230015754
 10
240.2102699156
 20
86.2229589985
 10
240.3250749453
 20
86.230015754
 10
240.4224019499
 20
86.2501116932
 10
240.4874337753
 20
86.2801873916
 10
240.5102699156
 20
86.3156640968
  0
LINE
  5
27F
330
1F
100
AcDbEntity
  8
0
  6
Continuous
 62
     7
370
    25
100
AcDbLine
 10
239.9102699156
 20
87.5437638457
 30
0.0
 11
239.9102699156
 21
86.3156640968
 31
0.0
  0
LINE
  5
280
330
1F
100
AcDbEntity
  8
0
  6
Continuous
 62
     7
370
    25
100
AcDbLine
 10
240.5102699156
 20
86.3156640968
 30
0.0
 11
240.5102699156
 21
87.5437638457
 31
0.0
  0
LWPOLYLINE
  5
281
330
1F
100
AcDbEntity
  8
0
  6
Continuous
 62
     7
370
    25
100
AcDbPolyline
 90
        3
 70
   128
 43
0.0
 10
237.8860036652
 20
86.5616800616
 10
237.8856057541
 20
86.5643236301
 10
237.8855243305
 20
86.5649416681
  0
LWPOLYLINE
  5
282
330
1F
100
AcDbEntity
  8
0
  6
Continuous
 62
     7
370
    25
100
AcDbPolyline
 90
        9
 70
   128
 43
0.0
 10
159.9102699156
 20
86.3156640969
 10
159.9331060558
 20
86.2801873916
 10
159.9981378812
 20
86.2501116932
 10
160.0954648859
 20
86.230015754
 10
160.2102699156
 20
86.2229589985
 10
160.3250749453
 20
86.230015754
 10
160.42240195
 20
86.2501116932
 10
160.4874337753
 20
86.2801873916
 10
160.5102699156
 20
86.3156640969
  0
LINE
  5
283
330
1F
100
AcDbEntity
  8
0
  6
Continuous
 62
     7
370
    25
100
AcDbLine
 10
159.9102699156
 20
87.5437638457
 30
0.0
 11
159.9102699156
 21
86.3156640969
 31
0.0
  0
LINE
  5
284
330
1F
100
AcDbEntity
  8
0
  6
Continuous
 62
     7
370
    25
100
AcDbLine
 10
160.5102699156
 20
86.3156640969
 30
0.0
 11
160.5102699156
 21
87.5437638457
 31
0.0
  0
LWPOLYLINE
  5
285
330
1F
100
AcDbEntity
  8
0
  6
Continuous
 62
     7
370
    25
100
AcDbPolyline
 90
        3
 70
   128
 43
0.0
 10
157.8860036652
 20
86.5616800616
 10
157.8856057541
 20
86.5643236301
 10
157.8855243305
 20
86.5649416681
  0
LWPOLYLINE
  5
286
330
1F
100
AcDbEntity
  8
0
  6
Continuous
 62
     7
370
    25
100
AcDbPolyline
 90
        9
 70
   128
 43
0.0
 10
199.9102699156
 20
86.3156640969
 10
199.9331060558
 20
86.2801873916
 10
199.9981378812
 20
86.2501116932
 10
200.0954648859
 20
86.230015754
 10
200.2102699156
 20
86.2229589985
 10
200.3250749453
 20
86.230015754
 10
200.42240195
 20
86.2501116932
 10
200.4874337753
 20
86.2801873916
 10
200.5102699156
 20
86.3156640969
  0
LINE
  5
287
330
1F
100
AcDbEntity
  8
0
  6
Continuous
 62
     7
370
    25
100
AcDbLine
 10
199.9102699156
 20
87.5437638457
 30
0.0
 11
199.9102699156
 21
86.3156640969
 31
0.0
  0
LINE
  5
288
330
1F
100
AcDbEntity
  8
0
  6
Continuous
 62
     7
370
    25
100
AcDbLine
 10
200.5102699156
 20
86.3156640969
 30
0.0
 11
200.5102699156
 21
87.5437638457
 31
0.0
  0
LWPOLYLINE
  5
289
330
1F
100
AcDbEntity
  8
0
  6
Continuous
 62
     7
370
    25
100
AcDbPolyline
 90
        3
 70
   128
 43
0.0
 10
197.8860036652
 20
86.5616800616
 10
197.8856057541
 20
86.5643236301
 10
197.8855243305
 20
86.5649416681
  0
LWPOLYLINE
  5
28A
330
1F
100
AcDbEntity
  8
0
  6
Continuous
 62
     7
370
    25
100
AcDbPolyline
 90
        9
 70
   128
 43
0.0
 10
219.9102699156
 20
86.3156640969
 10
219.9331060558
 20
86.2801873916
 10
219.9981378812
 20
86.2501116932
 10
220.0954648859
 20
86.230015754
 10
220.2102699156
 20
86.2229589985
 10
220.3250749453
 20
86.230015754
 10
220.4224019499
 20
86.2501116932
 10
220.4874337753
 20
86.2801873916
 10
220.5102699156
 20
86.3156640969
  0
LINE
  5
28B
330
1F
100
AcDbEntity
  8
0
  6
Continuous
 62
     7
370
    25
100
AcDbLine
 10
219.9102699156
 20
87.5437638457
 30
0.0
 11
219.9102699156
 21
86.3156640969
 31
0.0
  0
LINE
  5
28C
330
1F
100
AcDbEntity
  8
0
  6
Continuous
 62
     7
370
    25
100
AcDbLine
 10
220.5102699156
 20
86.3156640969
 30
0.0
 11
220.5102699156
 21
87.5437638457
 31
0.0
  0
LWPOLYLINE
  5
28D
330
1F
100
AcDbEntity
  8
0
  6
Continuous
 62
     7
370
    25
100
AcDbPolyline
 90
        3
 70
   128
 43
0.0
 10
217.8860036652
 20
86.5616800616
 10
217.8856057541
 20
86.5643236301
 10
217.8855243305
 20
86.5649416681
  0
LWPOLYLINE
  5
28E
330
1F
100
AcDbEntity
  8
0
  6
Continuous
 62
     7
370
    25
100
AcDbPolyline
 90
        9
 70
   128
 43
0.0
 10
179.9102699156
 20
86.3156640969
 10
179.9331060558
 20
86.2801873916
 10
179.9981378812
 20
86.2501116932
 10
180.0954648859
 20
86.230015754
 10
180.2102699156
 20
86.2229589985
 10
180.3250749453
 20
86.230015754
 10
180.42240195
 20
86.2501116932
 10
180.4874337753
 20
86.2801873916
 10
180.5102699156
 20
86.3156640969
  0
LINE
  5
28F
330
1F
100
AcDbEntity
  8
0
  6
Continuous
 62
     7
370
    25
100
AcDbLine
 10
179.9102699156
 20
87.5437638457
 30
0.0
 11
179.9102699156
 21
86.3156640969
 31
0.0
  0
LINE
  5
290
330
1F
100
AcDbEntity
  8
0
  6
Continuous
 62
     7
370
    25
100
AcDbLine
 10
180.5102699156
 20
86.3156640969
 30
0.0
 11
180.5102699156
 21
87.5437638457
 31
0.0
  0
LWPOLYLINE
  5
291
330
1F
100
AcDbEntity
  8
0
  6
Continuous
 62
     7
370
    25
100
AcDbPolyline
 90
        3
 70
   128
 43
0.0
 10
177.8860036652
 20
86.5616800616
 10
177.8856057541
 20
86.5643236301
 10
177.8855243305
 20
86.5649416681
  0
LINE
  5
292
330
1F
100
AcDbEntity
  8
0
  6
Continuous
 62
     7
370
    25
100
AcDbLine
 10
264.2102699156
 20
87.7979059813
 30
0.0
 11
264.2102699156
 21
85.2090406228
 31
0.0
  0
ARC
  5
293
330
1F
100
AcDbEntity
  8
0
  6
Continuous
 62
     7
370
    25
100
AcDbCircle
 10
264.1102699156
 20
85.1037638457
 30
0.0
 40
0.1000000000000227
100
AcDbArc
 50
270.0
 51
0.0
  0
LINE
  5
294
330
1F
100
AcDbEntity
  8
0
  6
Continuous
 62
     7
370
    25
100
AcDbLine
 10
264.2102699156
 20
85.2090406228
 30
0.0
 11
264.2102699156
 21
85.1037638457
 31
0.0
  0
LINE
  5
295
330
1F
100
AcDbEntity
  8
0
  6
Continuous
 62
     7
370
    25
100
AcDbLine
 10
263.8102699156
 20
85.0037638457
 30
0.0
 11
264.1102699156
 21
85.0037638457
 31
0.0
  0
LINE
  5
296
330
1F
100
AcDbEntity
  8
0
  6
Continuous
 62
     7
370
    25
100
AcDbLine
 10
144.2102699156
 20
85.2090406228
 30
0.0
 11
144.2102699156
 21
87.7979059813
 31
0.0
  0
LINE
  5
297
330
1F
100
AcDbEntity
  8
0
  6
Continuous
 62
     7
370
    25
100
AcDbLine
 10
144.3102699156
 20
85.0037638457
 30
0.0
 11
144.6102699156
 21
85.0037638457
 31
0.0
  0
ARC
  5
298
330
1F
100
AcDbEntity
  8
0
  6
Continuous
 62
     7
370
    25
100
AcDbCircle
 10
144.3102699156
 20
85.1037638457
 30
0.0
 40
0.1000000000000227
100
AcDbArc
 50
180.0
 51
270.0
  0
LINE
  5
299
330
1F
100
AcDbEntity
  8
0
  6
Continuous
 62
     7
370
    25
100
AcDbLine
 10
144.2102699156
 20
85.1037638457
 30
0.0
 11
144.2102699156
 21
85.2090406228
 31
0.0
  0
LINE
  5
29A
330
1F
100
AcDbEntity
  8
0
  6
Continuous
 62
     7
370
    25
100
AcDbLine
 10
252.4946223534
 20
87.50339013
 30
0.0
 11
252.4946223534
 21
87.4371378535
 31
0.0
  0
LINE
  5
29B
330
1F
100
AcDbEntity
  8
0
  6
Continuous
 62
     7
370
    25
100
AcDbLine
 10
252.4946223534
 20
87.4371378535
 30
0.0
 11
253.3406727534
 21
87.3874487871
 31
0.0
  0
LINE
  5
29C
330
1F
100
AcDbEntity
  8
0
  6
Continuous
 62
     7
370
    25
100
AcDbLine
 10
253.3406727534
 20
87.3874487871
 30
0.0
 11
253.3406727534
 21
87.5437638457
 31
0.0
  0
LINE
  5
29D
330
1F
100
AcDbEntity
  8
0
  6
Continuous
 62
     7
370
    25
100
AcDbLine
 10
253.1820586773
 20
87.5437638457
 30
0.0
 11
252.4946223534
 21
87.50339013
 31
0.0
  0
LWPOLYLINE
  5
29E
330
1F
100
AcDbEntity
  8
0
  6
Continuous
 62
     7
370
    25
100
AcDbPolyline
 90
       15
 70
   128
 43
0.0
 10
246.7951011863
 20
87.5437638457
 10
246.8396110541
 20
87.4702923495
 10
246.9055856133
 20
87.2583293441
 10
246.8931853359
 20
87.0377935962
 10
246.8038079813
 20
86.8335438983
 10
246.6475281661
 20
86.6686032791
 10
246.4419617532
 20
86.5615638476
 10
246.2102801916
 20
86.5244910898
 10
245.9785986299
 20
86.5615638476
 10
245.773032217
 20
86.6686032791
 10
245.6167524018
 20
86.8335438983
 10
245.5273750472
 20
87.0377935962
 10
245.5149747698
 20
87.2583293441
 10
245.580949329
 20
87.4702923495
 10
245.6254591968
 20
87.5437638457
  0
ARC
  5
29F
330
1F
100
AcDbEntity
  8
0
  6
Continuous
 62
     7
370
    25
100
AcDbCircle
 10
250.5735367936
 20
87.941133846
 30
0.0
 40
1.750382766876885
100
AcDbArc
 50
332.549700345
 51
346.8783737908
  0
ARC
  5
2A0
330
1F
100
AcDbEntity
  8
0
  6
Continuous
 62
     7
370
    25
100
AcDbCircle
 10
252.4155565072
 20
87.9746102604
 30
0.0
 40
0.888577027062374
100
AcDbArc
 50
209.0041082427
 51
251.0396616249
  0
ARC
  5
2A1
330
1F
100
AcDbEntity
  8
0
  6
Continuous
 62
     7
370
    25
100
AcDbCircle
 10
149.2389465348
 20
88.0126922541
 30
0.0
 40
1.488477428049073
100
AcDbArc
 50
268.8960861072
 51
341.6368330966
  0
ARC
  5
2A2
330
1F
100
AcDbEntity
  8
0
  6
Continuous
 62
     7
370
    25
100
AcDbCircle
 10
149.1815932963
 20
88.0126922541
 30
0.0
 40
1.488477428049103
100
AcDbArc
 50
198.3631669034
 51
271.1039138928
  0
LINE
  5
2A3
330
1F
100
AcDbEntity
  8
0
  6
Continuous
 62
     7
370
    25
100
AcDbLine
 10
263.8102699156
 20
87.5437638457
 30
0.0
 11
263.8102699156
 21
85.1135355869
 31
0.0
  0
LINE
  5
2A4
330
1F
100
AcDbEntity
  8
0
  6
Continuous
 62
     7
370
    25
100
AcDbLine
 10
144.6102699156
 20
85.1135355869
 30
0.0
 11
144.6102699156
 21
87.5437638457
 31
0.0
  0
ARC
  5
2A5
330
1F
100
AcDbEntity
  8
0
  6
Continuous
 62
     7
370
    25
100
AcDbCircle
 10
149.2389328924
 20
88.0134195831
 30
0.0
 40
1.488520445964425
100
AcDbArc
 50
268.8966432311
 51
341.6078820425
  0
ARC
  5
2A6
330
1F
100
AcDbEntity
  8
0
  6
Continuous
 62
     7
370
    25
100
AcDbCircle
 10
149.1816069387
 20
88.0134195831
 30
0.0
 40
1.488520445964318
100
AcDbArc
 50
198.3921179575
 51
271.1033567689
  0
LINE
  5
2A7
330
1F
100
AcDbEntity
  8
0
  6
Continuous
 62
     7
370
    25
100
AcDbLine
 10
150.1664932487
 20
87.5437638457
 30
0.0
 11
149.5542522989
 21
87.2290268031
 31
0.0
  0
ARC
  5
2A8
330
1F
100
AcDbEntity
  8
0
  6
Continuous
 62
     7
370
    25
100
AcDbCircle
 10
149.4096262232
 20
87.4915707629
 30
0.0
 40
0.2997432777755
100
AcDbArc
 50
182.9117118165
 51
298.8487964599
  0
ARC
  5
2A9
330
1F
100
AcDbEntity
  8
0
  6
Continuous
 62
     7
370
    25
100
AcDbCircle
 10
246.2102801916
 20
87.2128825797
 30
0.0
 40
0.7006392530328167
100
AcDbArc
 50
182.4477092114
 51
357.5522907886
  0
ARC
  5
2AA
330
1F
100
AcDbEntity
  8
0
  6
Continuous
 62
     7
370
    25
100
AcDbCircle
 10
246.2518558615
 20
87.1797713399
 30
0.0
 40
0.4584354193526748
100
AcDbArc
 50
0.3985211624
 51
52.5598323414
  0
ARC
  5
2AB
330
1F
100
AcDbEntity
  8
0
  6
Continuous
 62
     7
370
    25
100
AcDbCircle
 10
246.1687045216
 20
87.1797713399
 30
0.0
 40
0.458435419352425
100
AcDbArc
 50
127.4401676586
 51
179.6014788376
  0
LWPOLYLINE
  5
2AC
330
1F
100
AcDbEntity
  8
0
  6
Continuous
 62
     7
370
    25
100
AcDbPolyline
 90
       14
 70
   128
 43
0.0
 10
246.5296789954
 20
87.5437638457
 10
246.6270324439
 20
87.4418719597
 10
246.7009637431
 20
87.2725532086
 10
246.7004435057
 20
87.0895366628
 10
246.6255506674
 20
86.9205914682
 10
246.4876487372
 20
86.7913517207
 10
246.3076616089
 20
86.7214269994
 10
246.1128987742
 20
86.7214269994
 10
245.9329116459
 20
86.7913517207
 10
245.7950097157
 20
86.9205914682
 10
245.7201168774
 20
87.0895366628
 10
245.71959664
 20
87.2725532086
 10
245.7935279392
 20
87.4418719597
 10
245.8908813877
 20
87.5437638457
  0
ARC
  5
2AD
330
1F
100
AcDbEntity
  8
0
  6
Continuous
 62
     7
370
    25
100
AcDbCircle
 10
149.4100553514
 20
87.480735999
 30
0.0
 40
0.099914425925195
100
AcDbArc
 50
182.9117118165
 51
298.8487964599
  0
LINE
  5
2AE
330
1F
100
AcDbEntity
  8
0
  6
Continuous
 62
     7
370
    25
100
AcDbLine
 10
149.3102699156
 20
87.4756606372
 30
0.0
 11
149.3102699156
 21
87.5437638457
 31
0.0
  0
LINE
  5
2AF
330
1F
100
AcDbEntity
  8
0
  6
Continuous
 62
     7
370
    25
100
AcDbLine
 10
149.751106228
 20
87.5437638457
 30
0.0
 11
149.4582640433
 21
87.3932213458
 31
0.0
  0
LINE
  5
2B0
330
1F
100
AcDbEntity
  8
0
  6
Continuous
 62
     7
370
    25
100
AcDbLine
 10
252.1268457784
 20
87.1349281613
 30
0.0
 11
252.1268457784
 21
87.134244121
 31
0.0
  0
ARC
  5
2B1
330
1F
100
AcDbEntity
  8
0
  6
Continuous
 62
     7
370
    25
100
AcDbCircle
 10
250.5735144086
 20
87.9418271119
 30
0.0
 40
1.750406884431113
100
AcDbArc
 50
332.5497701329
 51
346.8552557847
  0
ARC
  5
2B2
330
1F
100
AcDbEntity
  8
0
  6
Continuous
 62
     7
370
    25
100
AcDbCircle
 10
252.4155826897
 20
87.9753362111
 30
0.0
 40
0.8886251707613155
100
AcDbArc
 50
209.0559194335
 51
251.0389430527
  0
LWPOLYLINE
  5
2B3
330
1F
100
AcDbEntity
  8
0
  6
Continuous
 62
     7
370
    25
100
AcDbPolyline
 90
        3
 70
   128
 43
0.0
 10
251.8122698609
 20
87.5437638457
 10
251.9008084114
 20
87.4393261714
 10
252.0515938882
 20
87.3255322094
  0
LWPOLYLINE
  5
2B4
330
1F
100
AcDbEntity
  8
0
  6
Continuous
 62
     7
370
    25
100
AcDbPolyline
 90
        3
 70
   128
 43
0.0
 10
252.0515938882
 20
87.3255322094
 10
252.104195437
 20
87.4730581034
 10
252.1238438435
 20
87.5437638457
  0
ARC
  5
2B5
330
1F
100
AcDbEntity
  8
0
  6
Continuous
 62
     7
370
    25
100
AcDbCircle
 10
149.4096262232
 20
87.4908867226
 30
0.0
 40
0.2997432777754671
100
AcDbArc
 50
182.9117118165
 51
298.8487964599
  0
LINE
  5
2B6
330
1F
100
AcDbEntity
  8
0
  6
Continuous
 62
     7
370
    25
100
AcDbLine
 10
150.1678238753
 20
87.5437638457
 30
0.0
 11
149.5542522989
 21
87.2283427628
 31
0.0
  0
ARC
  5
2B7
330
1F
100
AcDbEntity
  8
0
  6
Continuous
 62
     7
370
    25
100
AcDbCircle
 10
149.2102699156
 20
88.0259414576
 30
0.0
 40
1.322879700775029
100
AcDbArc
 50
201.3762551429
 51
338.6237448571
  0
LINE
  5
2B8
330
1F
100
AcDbEntity
  8
0
  6
Continuous
 62
     7
370
    25
100
AcDbLine
 10
149.1102699156
 20
87.4756606372
 30
0.0
 11
149.1102699156
 21
87.5437638457
 31
0.0
  0
LINE
  5
2B9
330
1F
100
AcDbEntity
  8
0
  6
Continuous
 62
     7
370
    25
100
AcDbLine
 10
252.4946223534
 20
87.4378218938
 30
0.0
 11
253.3406727534
 21
87.3881328274
 31
0.0
  0
LINE
  5
2BA
330
1F
100
AcDbEntity
  8
0
  6
Continuous
 62
     7
370
    25
100
AcDbLine
 10
263.8102699156
 20
85.1135355869
 30
0.0
 11
263.8102699156
 21
84.8437638457
 31
0.0
  0
LINE
  5
2BB
330
1F
100
AcDbEntity
  8
0
  6
Continuous
 62
     7
370
    25
100
AcDbLine
 10
263.8102699156
 20
84.8437638457
 30
0.0
 11
144.6102699156
 21
84.8437638457
 31
0.0
  0
LINE
  5
2BC
330
1F
100
AcDbEntity
  8
0
  6
Continuous
 62
     7
370
    25
100
AcDbLine
 10
144.6102699156
 20
84.8437638457
 30
0.0
 11
144.6102699156
 21
85.1135355869
 31
0.0
  0
LINE
  5
2BD
330
1F
100
AcDbEntity
  8
0
  6
Continuous
 62
     7
370
    25
100
AcDbLine
 10
153.9101681542
 20
254.8137638457
 30
0.0
 11
153.9101681542
 21
254.7937638457
 31
0.0
  0
LINE
  5
2BE
330
1F
100
AcDbEntity
  8
0
  6
Continuous
 62
     7
370
    25
100
AcDbLine
 10
153.9101681542
 20
254.8137638457
 30
0.0
 11
163.9101681541
 21
254.8137638457
 31
0.0
  0
LINE
  5
2BF
330
1F
100
AcDbEntity
  8
0
  6
Continuous
 62
     7
370
    25
100
AcDbLine
 10
163.9101681541
 20
254.8137638457
 30
0.0
 11
163.9101681541
 21
254.7937638457
 31
0.0
  0
LINE
  5
2C0
330
1F
100
AcDbEntity
  8
0
  6
Continuous
 62
     7
370
    25
100
AcDbLine
 10
153.910148817
 20
254.8137638457
 30
0.0
 11
153.910148817
 21
254.7937638457
 31
0.0
  0
LINE
  5
2C1
330
1F
100
AcDbEntity
  8
0
  6
Continuous
 62
     7
370
    25
100
AcDbLine
 10
153.910148817
 20
254.8137638457
 30
0.0
 11
153.9101681542
 21
254.8137638457
 31
0.0
  0
LINE
  5
2C2
330
1F
100
AcDbEntity
  8
0
  6
Continuous
 62
     7
370
    25
100
AcDbLine
 10
153.910148817
 20
254.7937638457
 30
0.0
 11
153.9101681542
 21
254.7937638457
 31
0.0
  0
LINE
  5
2C3
330
1F
100
AcDbEntity
  8
0
  6
Continuous
 62
     7
370
    25
100
AcDbLine
 10
156.323564013
 20
254.8337638457
 30
0.0
 11
156.4967690938
 21
254.8337638457
 31
0.0
  0
LINE
  5
2C4
330
1F
100
AcDbEntity
  8
0
  6
Continuous
 62
     7
370
    25
100
AcDbLine
 10
161.323564013
 20
254.8337638457
 30
0.0
 11
161.4967690937
 21
254.8337638457
 31
0.0
  0
LINE
  5
2C5
330
1F
100
AcDbEntity
  8
0
  6
Continuous
 62
     7
370
    25
100
AcDbLine
 10
154.0718822517
 20
254.8337638457
 30
0.0
 11
156.323564013
 21
254.8337638457
 31
0.0
  0
LINE
  5
2C6
330
1F
100
AcDbEntity
  8
0
  6
Continuous
 62
     7
370
    25
100
AcDbLine
 10
156.4967690938
 20
254.8337638457
 30
0.0
 11
158.7484194321
 21
254.8337638457
 31
0.0
  0
LINE
  5
2C7
330
1F
100
AcDbEntity
  8
0
  6
Continuous
 62
     7
370
    25
100
AcDbLine
 10
159.0718822517
 20
254.8337638457
 30
0.0
 11
161.323564013
 21
254.8337638457
 31
0.0
  0
LINE
  5
2C8
330
1F
100
AcDbEntity
  8
0
  6
Continuous
 62
     7
370
    25
100
AcDbLine
 10
161.4967690937
 20
254.8337638457
 30
0.0
 11
163.7484194321
 21
254.8337638457
 31
0.0
  0
LINE
  5
2C9
330
1F
100
AcDbEntity
  8
0
  6
Continuous
 62
     7
370
    25
100
AcDbLine
 10
154.0584845906
 20
254.8337638457
 30
0.0
 11
154.0718822517
 21
254.8337638457
 31
0.0
  0
LINE
  5
2CA
330
1F
100
AcDbEntity
  8
0
  6
Continuous
 62
     7
370
    25
100
AcDbLine
 10
158.7484194321
 20
254.8337638457
 30
0.0
 11
158.7618166903
 21
254.8337638457
 31
0.0
  0
LINE
  5
2CB
330
1F
100
AcDbEntity
  8
0
  6
Continuous
 62
     7
370
    25
100
AcDbLine
 10
159.0584845906
 20
254.8337638457
 30
0.0
 11
159.0718822517
 21
254.8337638457
 31
0.0
  0
LINE
  5
2CC
330
1F
100
AcDbEntity
  8
0
  6
Continuous
 62
     7
370
    25
100
AcDbLine
 10
163.7484194321
 20
254.8337638457
 30
0.0
 11
163.7618166902
 21
254.8337638457
 31
0.0
  0
ARC
  5
2CD
330
1F
100
AcDbEntity
  8
0
  6
Continuous
 62
     7
370
    25
100
AcDbCircle
 10
152.5102699156
 20
221.8637638457
 30
0.0
 40
1.19999999999998
100
AcDbArc
 50
82.5980003121
 51
97.4019996879
  0
LWPOLYLINE
  5
2CE
330
1F
100
AcDbEntity
  8
0
  6
Continuous
 62
     7
370
    25
100
AcDbPolyline
 90
        3
 70
   128
 43
0.0
 10
153.3893702699
 20
222.6805762888
 10
153.4348858069
 20
222.6286726334
 10
153.543662387
 20
222.4737638457
  0
LWPOLYLINE
  5
2CF
330
1F
100
AcDbEntity
  8
0
  6
Continuous
 62
     7
370
    25
100
AcDbPolyline
 90
        3
 70
   128
 43
0.0
 10
254.8768774442
 20
222.4737638457
 10
254.9856540243
 20
222.6286726334
 10
255.0311695613
 20
222.6805762887
  0
ARC
  5
2D0
330
1F
100
AcDbEntity
  8
0
  6
Continuous
 62
     7
370
    25
100
AcDbCircle
 10
255.9102699156
 20
221.8637638457
 30
0.0
 40
1.19999999999998
100
AcDbArc
 50
82.5980003121
 51
97.4019996879
  0
LINE
  5
2D1
330
1F
100
AcDbEntity
  8
0
  6
Continuous
 62
     7
370
    25
100
AcDbLine
 10
223.4202699156
 20
251.2235726834
 30
0.0
 11
223.4202699156
 21
252.3820286141
 31
0.0
  0
LINE
  5
2D2
330
1F
100
AcDbEntity
  8
0
  6
Continuous
 62
     7
370
    25
100
AcDbLine
 10
223.2602699156
 20
251.2235726834
 30
0.0
 11
223.2602699156
 21
252.3820286141
 31
0.0
  0
LINE
  5
2D3
330
1F
100
AcDbEntity
  8
0
  6
Continuous
 62
     7
370
    25
100
AcDbLine
 10
185.0002699156
 20
252.3820286141
 30
0.0
 11
185.0002699156
 21
251.2235726834
 31
0.0
  0
LINE
  5
2D4
330
1F
100
AcDbEntity
  8
0
  6
Continuous
 62
     7
370
    25
100
AcDbLine
 10
185.1602699156
 20
252.3820286141
 30
0.0
 11
185.1602699156
 21
251.2235726834
 31
0.0
  0
LINE
  5
2D5
330
1F
100
AcDbEntity
  8
0
  6
Continuous
 62
     7
370
    25
100
AcDbLine
 10
223.4202699156
 20
252.3820286141
 30
0.0
 11
223.4202699156
 21
252.7070151726
 31
0.0
  0
LINE
  5
2D6
330
1F
100
AcDbEntity
  8
0
  6
Continuous
 62
     7
370
    25
100
AcDbLine
 10
223.2602699156
 20
252.3820286141
 30
0.0
 11
223.2602699156
 21
252.7070151726
 31
0.0
  0
LINE
  5
2D7
330
1F
100
AcDbEntity
  8
0
  6
Continuous
 62
     7
370
    25
100
AcDbLine
 10
185.0002699156
 20
252.7070151726
 30
0.0
 11
185.0002699156
 21
252.3820286141
 31
0.0
  0
LINE
  5
2D8
330
1F
100
AcDbEntity
  8
0
  6
Continuous
 62
     7
370
    25
100
AcDbLine
 10
185.1602699156
 20
252.7070151726
 30
0.0
 11
185.1602699156
 21
252.3820286141
 31
0.0
  0
ARC
  5
2D9
330
1F
100
AcDbEntity
  8
0
  6
Continuous
 62
     7
370
    25
100
AcDbCircle
 10
223.0121545212
 20
252.7051014939
 30
0.0
 40
0.2481227742553845
100
AcDbArc
 50
0.4419054199
 51
90.4351917535
  0
ARC
  5
2DA
330
1F
100
AcDbEntity
  8
0
  6
Continuous
 62
     7
370
    25
100
AcDbCircle
 10
223.0121545212
 20
251.04187705
 30
0.0
 40
0.2481227742553558
100
AcDbArc
 50
0.4419054199
 51
90.4351917535
  0
ARC
  5
2DB
330
1F
100
AcDbEntity
  8
0
  6
Continuous
 62
     7
370
    25
100
AcDbCircle
 10
223.0133606688
 20
252.7038767395
 30
0.0
 40
0.406921349778726
100
AcDbArc
 50
0.4419054199
 51
90.4351917535
  0
ARC
  5
2DC
330
1F
100
AcDbEntity
  8
0
  6
Continuous
 62
     7
370
    25
100
AcDbCircle
 10
185.40838531
 20
251.04187705
 30
0.0
 40
0.2481227742552429
100
AcDbArc
 50
89.5648082464
 51
179.5580945801
  0
ARC
  5
2DD
330
1F
100
AcDbEntity
  8
0
  6
Continuous
 62
     7
370
    25
100
AcDbCircle
 10
185.40838531
 20
252.7051014939
 30
0.0
 40
0.2481227742552718
100
AcDbArc
 50
89.5648082464
 51
179.5580945801
  0
ARC
  5
2DE
330
1F
100
AcDbEntity
  8
0
  6
Continuous
 62
     7
370
    25
100
AcDbCircle
 10
185.4071791624
 20
252.7038767395
 30
0.0
 40
0.4069213497786879
100
AcDbArc
 50
89.5648082464
 51
179.5580945801
  0
LWPOLYLINE
  5
2DF
330
1F
100
AcDbEntity
  8
0
  6
Continuous
 62
     7
370
    25
100
AcDbPolyline
 90
        9
 70
   128
 43
0.0
 10
220.0102699156
 20
252.9532171108
 10
219.6200892715
 20
252.9465439087
 10
219.2449030508
 20
252.9267807499
 10
218.8991294495
 20
252.8946871214
 10
218.5960563532
 20
252.8514963634
 10
218.347330691
 20
252.7988682726
 10
218.1625108506
 20
252.7388253168
 10
218.0486993548
 20
252.6736749133
 10
218.0102699156
 20
252.6059207555
  0
LINE
  5
2E0
330
1F
100
AcDbEntity
  8
0
  6
Continuous
 62
     7
370
    25
100
AcDbLine
 10
218.0102699156
 20
252.6059207555
 30
0.0
 11
218.0102699156
 21
252.763489996
 31
0.0
  0
LWPOLYLINE
  5
2E1
330
1F
100
AcDbEntity
  8
0
  6
Continuous
 62
     7
370
    25
100
AcDbPolyline
 90
        9
 70
   128
 43
0.0
 10
220.0102699156
 20
253.1107863513
 10
219.6200892715
 20
253.1041131492
 10
219.2449030508
 20
253.0843499904
 10
218.8991294495
 20
253.0522563619
 10
218.5960563532
 20
253.0090656039
 10
218.347330691
 20
252.956437513
 10
218.1625108506
 20
252.8963945573
 10
218.0486993548
 20
252.8312441538
 10
218.0102699156
 20
252.763489996
  0
LINE
  5
2E2
330
1F
100
AcDbEntity
  8
0
  6
Continuous
 62
     7
370
    25
100
AcDbLine
 10
223.0102699156
 20
252.9532171108
 30
0.0
 11
220.0102699156
 21
252.9532171108
 31
0.0
  0
LINE
  5
2E3
330
1F
100
AcDbEntity
  8
0
  6
Continuous
 62
     7
370
    25
100
AcDbLine
 10
223.0102699156
 20
253.1107863513
 30
0.0
 11
220.0102699156
 21
253.1107863513
 31
0.0
  0
LINE
  5
2E4
330
1F
100
AcDbEntity
  8
0
  6
Continuous
 62
     7
370
    25
100
AcDbLine
 10
188.4102699156
 20
252.9532171108
 30
0.0
 11
185.4102699156
 21
252.9532171108
 31
0.0
  0
LWPOLYLINE
  5
2E5
330
1F
100
AcDbEntity
  8
0
  6
Continuous
 62
     7
370
    25
100
AcDbPolyline
 90
        9
 70
   128
 43
0.0
 10
190.4102699156
 20
252.6059207555
 10
190.3718404764
 20
252.6736749133
 10
190.2580289806
 20
252.7388253168
 10
190.0732091402
 20
252.7988682726
 10
189.8244834779
 20
252.8514963634
 10
189.5214103816
 20
252.8946871214
 10
189.1756367803
 20
252.9267807499
 10
188.8004505596
 20
252.9465439087
 10
188.4102699156
 20
252.9532171108
  0
LINE
  5
2E6
330
1F
100
AcDbEntity
  8
0
  6
Continuous
 62
     7
370
    25
100
AcDbLine
 10
190.4102699156
 20
251.9807873159
 30
0.0
 11
190.4102699156
 21
252.6059207555
 31
0.0
  0
LWPOLYLINE
  5
2E7
330
1F
100
AcDbEntity
  8
0
  6
Continuous
 62
     7
370
    25
100
AcDbPolyline
 90
        9
 70
   128
 43
0.0
 10
192.4102699156
 20
251.6334909606
 10
192.0200892715
 20
251.6401641626
 10
191.6449030508
 20
251.6599273215
 10
191.2991294495
 20
251.69202095
 10
190.9960563532
 20
251.735211708
 10
190.747330691
 20
251.7878397988
 10
190.5625108506
 20
251.8478827546
 10
190.4486993548
 20
251.9130331581
 10
190.4102699156
 20
251.9807873159
  0
LINE
  5
2E8
330
1F
100
AcDbEntity
  8
0
  6
Continuous
 62
     7
370
    25
100
AcDbLine
 10
216.0102699156
 20
251.6334909606
 30
0.0
 11
192.4102699156
 21
251.6334909606
 31
0.0
  0
LWPOLYLINE
  5
2E9
330
1F
100
AcDbEntity
  8
0
  6
Continuous
 62
     7
370
    25
100
AcDbPolyline
 90
        9
 70
   128
 43
0.0
 10
218.0102699156
 20
251.9807873159
 10
217.9718404764
 20
251.9130331581
 10
217.8580289806
 20
251.8478827546
 10
217.6732091402
 20
251.7878397988
 10
217.4244834779
 20
251.735211708
 10
217.1214103816
 20
251.69202095
 10
216.7756367803
 20
251.6599273215
 10
216.4004505596
 20
251.6401641626
 10
216.0102699156
 20
251.6334909606
  0
LINE
  5
2EA
330
1F
100
AcDbEntity
  8
0
  6
Continuous
 62
     7
370
    25
100
AcDbLine
 10
218.0102699156
 20
252.6059207555
 30
0.0
 11
218.0102699156
 21
251.9807873159
 31
0.0
  0
LINE
  5
2EB
330
1F
100
AcDbEntity
  8
0
  6
Continuous
 62
     7
370
    25
100
AcDbLine
 10
188.4102699156
 20
253.1107863513
 30
0.0
 11
185.4102699156
 21
253.1107863513
 31
0.0
  0
LINE
  5
2EC
330
1F
100
AcDbEntity
  8
0
  6
Continuous
 62
     7
370
    25
100
AcDbLine
 10
190.4102699156
 20
252.6059207555
 30
0.0
 11
190.4102699156
 21
252.763489996
 31
0.0
  0
LWPOLYLINE
  5
2ED
330
1F
100
AcDbEntity
  8
0
  6
Continuous
 62
     7
370
    25
100
AcDbPolyline
 90
        9
 70
   128
 43
0.0
 10
190.4102699156
 20
252.763489996
 10
190.3718404764
 20
252.8312441538
 10
190.2580289806
 20
252.8963945573
 10
190.0732091402
 20
252.956437513
 10
189.8244834779
 20
253.0090656039
 10
189.5214103816
 20
253.0522563619
 10
189.1756367803
 20
253.0843499904
 10
188.8004505596
 20
253.1041131492
 10
188.4102699156
 20
253.1107863513
  0
LINE
  5
2EE
330
1F
100
AcDbEntity
  8
0
  6
Continuous
 62
     7
370
    25
100
AcDbLine
 10
223.4202699156
 20
249.7339964172
 30
0.0
 11
223.2602699156
 21
249.7339964172
 31
0.0
  0
LINE
  5
2EF
330
1F
100
AcDbEntity
  8
0
  6
Continuous
 62
     7
370
    25
100
AcDbLine
 10
223.4202699156
 20
249.7339964172
 30
0.0
 11
223.4202699156
 21
251.2235726834
 31
0.0
  0
LINE
  5
2F0
330
1F
100
AcDbEntity
  8
0
  6
Continuous
 62
     7
370
    25
100
AcDbLine
 10
223.2602699156
 20
249.7339964172
 30
0.0
 11
223.2602699156
 21
251.2235726834
 31
0.0
  0
LINE
  5
2F1
330
1F
100
AcDbEntity
  8
0
  6
Continuous
 62
     7
370
    25
100
AcDbLine
 10
185.0002699156
 20
249.7339964172
 30
0.0
 11
185.1602699156
 21
249.7339964172
 31
0.0
  0
LINE
  5
2F2
330
1F
100
AcDbEntity
  8
0
  6
Continuous
 62
     7
370
    25
100
AcDbLine
 10
185.0002699156
 20
251.2235726834
 30
0.0
 11
185.0002699156
 21
249.7339964172
 31
0.0
  0
LINE
  5
2F3
330
1F
100
AcDbEntity
  8
0
  6
Continuous
 62
     7
370
    25
100
AcDbLine
 10
185.1602699156
 20
251.2235726834
 30
0.0
 11
185.1602699156
 21
249.7339964172
 31
0.0
  0
LWPOLYLINE
  5
2F4
330
1F
100
AcDbEntity
  8
0
  6
Continuous
 62
     7
370
    25
100
AcDbPolyline
 90
        9
 70
   128
 43
0.0
 10
218.0102699156
 20
252.1383565564
 10
217.9718404764
 20
252.0706023986
 10
217.8580289806
 20
252.0054519951
 10
217.6732091402
 20
251.9454090393
 10
217.4244834779
 20
251.8927809484
 10
217.1214103816
 20
251.8495901904
 10
216.7756367803
 20
251.817496562
 10
216.4004505596
 20
251.7977334031
 10
216.0102699156
 20
251.791060201
  0
LWPOLYLINE
  5
2F5
330
1F
100
AcDbEntity
  8
0
  6
Continuous
 62
     7
370
    25
100
AcDbPolyline
 90
        9
 70
   128
 43
0.0
 10
192.4102699156
 20
251.791060201
 10
192.0200892715
 20
251.7977334031
 10
191.6449030508
 20
251.817496562
 10
191.2991294495
 20
251.8495901904
 10
190.9960563532
 20
251.8927809484
 10
190.747330691
 20
251.9454090393
 10
190.5625108506
 20
252.0054519951
 10
190.4486993548
 20
252.0706023986
 10
190.4102699156
 20
252.1383565564
  0
LINE
  5
2F6
330
1F
100
AcDbEntity
  8
0
  6
Continuous
 62
     7
370
    25
100
AcDbLine
 10
216.0102699156
 20
251.791060201
 30
0.0
 11
192.4102699156
 21
251.791060201
 31
0.0
  0
LINE
  5
2F7
330
1F
100
AcDbEntity
  8
0
  6
Continuous
 62
     7
370
    25
100
AcDbLine
 10
185.4102699156
 20
251.2837638457
 30
0.0
 11
185.4102699156
 21
251.289992667
 31
0.0
  0
LINE
  5
2F8
330
1F
100
AcDbEntity
  8
0
  6
Continuous
 62
     7
370
    25
100
AcDbLine
 10
223.0102699156
 20
251.289992667
 30
0.0
 11
223.0102699156
 21
251.2837638457
 31
0.0
  0
LINE
  5
2F9
330
1F
100
AcDbEntity
  8
0
  6
Continuous
 62
     7
370
    25
100
AcDbLine
 10
185.4102699156
 20
251.2837638457
 30
0.0
 11
223.0102699156
 21
251.2837638457
 31
0.0
  0
LINE
  5
2FA
330
1F
100
AcDbEntity
  8
0
  6
Continuous
 62
     7
370
    25
100
AcDbLine
 10
223.4202699156
 20
249.7037638457
 30
0.0
 11
223.2602699156
 21
249.7037638457
 31
0.0
  0
LINE
  5
2FB
330
1F
100
AcDbEntity
  8
0
  6
Continuous
 62
     7
370
    25
100
AcDbLine
 10
223.2602699156
 20
249.7037638457
 30
0.0
 11
223.2602699156
 21
249.7339964172
 31
0.0
  0
LINE
  5
2FC
330
1F
100
AcDbEntity
  8
0
  6
Continuous
 62
     7
370
    25
100
AcDbLine
 10
223.4202699156
 20
249.7037638457
 30
0.0
 11
223.4202699156
 21
249.7339964172
 31
0.0
  0
ARC
  5
2FD
330
1F
100
AcDbEntity
  8
0
  6
Continuous
 62
     7
370
    25
100
AcDbCircle
 10
223.0102699156
 20
251.0337638457
 30
0.0
 40
0.2500000000000284
100
AcDbArc
 50
0.0
 51
90.0
  0
LINE
  5
2FE
330
1F
100
AcDbEntity
  8
0
  6
Continuous
 62
     7
370
    25
100
AcDbLine
 10
185.0002699156
 20
249.7037638457
 30
0.0
 11
185.1602699156
 21
249.7037638457
 31
0.0
  0
LINE
  5
2FF
330
1F
100
AcDbEntity
  8
0
  6
Continuous
 62
     7
370
    25
100
AcDbLine
 10
185.0002699156
 20
249.7339964172
 30
0.0
 11
185.0002699156
 21
249.7037638457
 31
0.0
  0
LINE
  5
300
330
1F
100
AcDbEntity
  8
0
  6
Continuous
 62
     7
370
    25
100
AcDbLine
 10
185.1602699156
 20
249.7339964172
 30
0.0
 11
185.1602699156
 21
249.7037638457
 31
0.0
  0
ARC
  5
301
330
1F
100
AcDbEntity
  8
0
  6
Continuous
 62
     7
370
    25
100
AcDbCircle
 10
185.4102699156
 20
251.0337638457
 30
0.0
 40
0.2500000000000284
100
AcDbArc
 50
90.0
 51
180.0
  0
LINE
  5
302
330
1F
100
AcDbEntity
  8
0
  6
Continuous
 62
     7
370
    25
100
AcDbLine
 10
184.7502699156
 20
249.4537638457
 30
0.0
 11
182.1602699156
 21
249.4537638457
 31
0.0
  0
LINE
  5
303
330
1F
100
AcDbEntity
  8
0
  6
Continuous
 62
     7
370
    25
100
AcDbLine
 10
181.1602699156
 20
249.2937638457
 30
0.0
 11
181.1602699156
 21
249.4537638457
 31
0.0
  0
LINE
  5
304
330
1F
100
AcDbEntity
  8
0
  6
Continuous
 62
     7
370
    25
100
AcDbLine
 10
182.1602699156
 20
249.4537638457
 30
0.0
 11
181.1602699156
 21
249.4537638457
 31
0.0
  0
LINE
  5
305
330
1F
100
AcDbEntity
  8
0
  6
Continuous
 62
     7
370
    25
100
AcDbLine
 10
226.2602699156
 20
249.4537638457
 30
0.0
 11
223.6702699156
 21
249.4537638457
 31
0.0
  0
ARC
  5
306
330
1F
100
AcDbEntity
  8
0
  6
Continuous
 62
     7
370
    25
100
AcDbCircle
 10
223.6702699156
 20
249.7037638457
 30
0.0
 40
0.2500000000000284
100
AcDbArc
 50
180.0
 51
270.0
  0
ARC
  5
307
330
1F
100
AcDbEntity
  8
0
  6
Continuous
 62
     7
370
    25
100
AcDbCircle
 10
223.6702699156
 20
249.7037638457
 30
0.0
 40
0.410000000000025
100
AcDbArc
 50
180.0
 51
270.0
  0
LINE
  5
308
330
1F
100
AcDbEntity
  8
0
  6
Continuous
 62
     7
370
    25
100
AcDbLine
 10
227.2602699156
 20
249.2937638457
 30
0.0
 11
227.2602699156
 21
249.4537638457
 31
0.0
  0
LINE
  5
309
330
1F
100
AcDbEntity
  8
0
  6
Continuous
 62
     7
370
    25
100
AcDbLine
 10
227.2602699156
 20
249.4537638457
 30
0.0
 11
226.2602699156
 21
249.4537638457
 31
0.0
  0
ARC
  5
30A
330
1F
100
AcDbEntity
  8
0
  6
Continuous
 62
     7
370
    25
100
AcDbCircle
 10
184.7502699156
 20
249.7037638457
 30
0.0
 40
0.2500000000000284
100
AcDbArc
 50
270.0
 51
0.0
  0
ARC
  5
30B
330
1F
100
AcDbEntity
  8
0
  6
Continuous
 62
     7
370
    25
100
AcDbCircle
 10
184.7502699156
 20
249.7037638457
 30
0.0
 40
0.410000000000025
100
AcDbArc
 50
270.0
 51
0.0
  0
LINE
  5
30C
330
1F
100
AcDbEntity
  8
0
  6
Continuous
 62
     7
370
    25
100
AcDbLine
 10
185.4102699156
 20
251.2837638457
 30
0.0
 11
185.4102699156
 21
251.0337638457
 31
0.0
  0
LINE
  5
30D
330
1F
100
AcDbEntity
  8
0
  6
Continuous
 62
     7
370
    25
100
AcDbLine
 10
223.0102699156
 20
251.0337638457
 30
0.0
 11
223.0102699156
 21
251.2837638457
 31
0.0
  0
LINE
  5
30E
330
1F
100
AcDbEntity
  8
0
  6
Continuous
 62
     7
370
    25
100
AcDbLine
 10
223.0102699156
 20
249.6437638457
 30
0.0
 11
222.6958766573
 21
249.6437638457
 31
0.0
  0
LINE
  5
30F
330
1F
100
AcDbEntity
  8
0
  6
Continuous
 62
     7
370
    25
100
AcDbLine
 10
186.1621734028
 20
249.6437638457
 30
0.0
 11
185.8595081733
 21
249.6437638457
 31
0.0
  0
LINE
  5
310
330
1F
100
AcDbEntity
  8
0
  6
Continuous
 62
     7
370
    25
100
AcDbLine
 10
185.7274773315
 20
249.6437638457
 30
0.0
 11
185.4102699156
 21
249.6437638457
 31
0.0
  0
LINE
  5
311
330
1F
100
AcDbEntity
  8
0
  6
Continuous
 62
     7
370
    25
100
AcDbLine
 10
185.4102699156
 20
249.6437638457
 30
0.0
 11
185.4102699156
 21
251.0337638457
 31
0.0
  0
LINE
  5
312
330
1F
100
AcDbEntity
  8
0
  6
Continuous
 62
     7
370
    25
100
AcDbLine
 10
223.0102699156
 20
251.0337638457
 30
0.0
 11
223.0102699156
 21
249.6437638457
 31
0.0
  0
ARC
  5
313
330
1F
100
AcDbEntity
  8
0
  6
Continuous
 62
     7
370
    25
100
AcDbCircle
 10
219.2052699156
 20
250.1737638457
 30
0.0
 40
0.5000000000000284
100
AcDbArc
 50
270.0
 51
90.0
  0
ARC
  5
314
330
1F
100
AcDbEntity
  8
0
  6
Continuous
 62
     7
370
    25
100
AcDbCircle
 10
189.2052699156
 20
250.1737638457
 30
0.0
 40
0.5000000000000568
100
AcDbArc
 50
90.0
 51
270.0
  0
SPLINE
  5
315
330
1F
100
AcDbEntity
  8
0
  6
Continuous
 62
     7
370
    25
100
AcDbSpline
210
0.0
220
0.0
230
1.0
 70
     8
 71
     3
 72
    12
 73
     8
 74
     0
 42
0.00000001
 43
0.00000001
 40
0.0
 40
0.0
 40
0.0
 40
0.0
 40
0.1928947997657224
 40
0.4122214398806838
 40
0.6315552886407523
 40
0.8508890083769738
 40
1.0
 40
1.0
 40
1.0
 40
1.0
 10
186.1452699155746
 20
250.6237638457036
 30
0.0
 10
186.1543558856975
 20
250.6671514977887
 30
0.0
 10
186.1737728512733
 20
250.7598720917981
 30
0.0
 10
186.2035762684059
 20
250.8884980535013
 30
0.0
 10
186.2346008940596
 20
250.9904972165093
 30
0.0
 10
186.2623556606589
 20
251.0457029843366
 30
0.0
 10
186.2796800320751
 20
251.0514414618039
 30
0.0
 10
186.2866912718119
 20
251.0537638457035
 30
0.0
  0
LINE
  5
316
330
1F
100
AcDbEntity
  8
0
  6
Continuous
 62
     7
370
    25
100
AcDbLine
 10
222.1338485593
 20
251.0537638457
 30
0.0
 11
186.2866912718
 21
251.0537638457
 31
0.0
  0
SPLINE
  5
317
330
1F
100
AcDbEntity
  8
0
  6
Continuous
 62
     7
370
    25
100
AcDbSpline
210
0.0
220
0.0
230
1.0
 70
     8
 71
     3
 72
    12
 73
     8
 74
     0
 42
0.00000001
 43
0.00000001
 40
0.0
 40
0.0
 40
0.0
 40
0.0
 40
0.1928947997656753
 40
0.4122214398806349
 40
0.6315552886406987
 40
0.8508890083768842
 40
0.9999999999999999
 40
0.9999999999999999
 40
0.9999999999999999
 40
0.9999999999999999
 10
222.1338485593374
 20
251.0537638457034
 30
0.0
 10
222.1429345294604
 20
251.0499131052979
 30
0.0
 10
222.1623514950362
 20
251.0416839681905
 30
0.0
 10
222.1921549121687
 20
250.9729840146029
 30
0.0
 10
222.2231795378225
 20
250.863764580581
 30
0.0
 10
222.2509343044217
 20
250.7399775730116
 30
0.0
 10
222.2682586758379
 20
250.6572457376414
 30
0.0
 10
222.2752699155747
 20
250.6237638457034
 30
0.0
  0
LINE
  5
318
330
1F
100
AcDbEntity
  8
0
  6
Continuous
 62
     7
370
    25
100
AcDbLine
 10
186.2866912718
 20
249.2937638457
 30
0.0
 11
222.1338485593
 21
249.2937638457
 31
0.0
  0
SPLINE
  5
319
330
1F
100
AcDbEntity
  8
0
  6
Continuous
 62
     7
370
    25
100
AcDbSpline
210
0.0
220
0.0
230
1.0
 70
     8
 71
     3
 72
    12
 73
     8
 74
     0
 42
0.00000001
 43
0.00000001
 40
0.0
 40
0.0
 40
0.0
 40
0.0
 40
0.1928947997658034
 40
0.4122214398807628
 40
0.6315552886408543
 40
0.8508890083771002
 40
1.0
 40
1.0
 40
1.0
 40
1.0
 10
186.2866912718119
 20
249.2937638457036
 30
0.0
 10
186.2776053016889
 20
249.2976145861091
 30
0.0
 10
186.258188336113
 20
249.3058437232165
 30
0.0
 10
186.2283849189806
 20
249.3745436768042
 30
0.0
 10
186.1973602933268
 20
249.4837631108261
 30
0.0
 10
186.1696055267277
 20
249.6075501183955
 30
0.0
 10
186.1522811553114
 20
249.6902819537656
 30
0.0
 10
186.1452699155746
 20
249.7237638457036
 30
0.0
  0
SPLINE
  5
31A
330
1F
100
AcDbEntity
  8
0
  6
Continuous
 62
     7
370
    25
100
AcDbSpline
210
0.0
220
0.0
230
1.0
 70
     8
 71
     3
 72
    12
 73
     8
 74
     0
 42
0.00000001
 43
0.00000001
 40
0.0
 40
0.0
 40
0.0
 40
0.0
 40
0.1928947997657352
 40
0.4122214398807076
 40
0.6315552886407567
 40
0.8508890083769483
 40
1.0
 40
1.0
 40
1.0
 40
1.0
 10
222.2752699155747
 20
249.7237638457034
 30
0.0
 10
222.2661839454518
 20
249.6803761936182
 30
0.0
 10
222.246766979876
 20
249.5876555996089
 30
0.0
 10
222.2169635627434
 20
249.4590296379057
 30
0.0
 10
222.1859389370896
 20
249.3570304748977
 30
0.0
 10
222.1581841704906
 20
249.3018247070704
 30
0.0
 10
222.1408597990743
 20
249.296086229603
 30
0.0
 10
222.1338485593374
 20
249.2937638457034
 30
0.0
  0
LINE
  5
31B
330
1F
100
AcDbEntity
  8
0
  6
Continuous
 62
     7
370
    25
100
AcDbLine
 10
186.1452699156
 20
249.7237638457
 30
0.0
 11
185.7152699156
 21
249.7237638457
 31
0.0
  0
LINE
  5
31C
330
1F
100
AcDbEntity
  8
0
  6
Continuous
 62
     7
370
    25
100
AcDbLine
 10
185.7152699156
 20
250.6237638457
 30
0.0
 11
185.7152699156
 21
249.7237638457
 31
0.0
  0
LINE
  5
31D
330
1F
100
AcDbEntity
  8
0
  6
Continuous
 62
     7
370
    25
100
AcDbLine
 10
186.1452699156
 20
250.6237638457
 30
0.0
 11
185.7152699156
 21
250.6237638457
 31
0.0
  0
LINE
  5
31E
330
1F
100
AcDbEntity
  8
0
  6
Continuous
 62
     7
370
    25
100
AcDbLine
 10
222.7052699156
 20
250.6237638457
 30
0.0
 11
222.7052699156
 21
249.7237638457
 31
0.0
  0
LINE
  5
31F
330
1F
100
AcDbEntity
  8
0
  6
Continuous
 62
     7
370
    25
100
AcDbLine
 10
222.7052699156
 20
250.6237638457
 30
0.0
 11
222.2752699156
 21
250.6237638457
 31
0.0
  0
LINE
  5
320
330
1F
100
AcDbEntity
  8
0
  6
Continuous
 62
     7
370
    25
100
AcDbLine
 10
222.7052699156
 20
249.7237638457
 30
0.0
 11
222.2752699156
 21
249.7237638457
 31
0.0
  0
SPLINE
  5
321
330
1F
100
AcDbEntity
  8
0
  6
Continuous
 62
     7
370
    25
100
AcDbSpline
210
0.0
220
0.0
230
1.0
 70
     8
 71
     3
 72
    12
 73
     8
 74
     0
 42
0.00000001
 43
0.00000001
 40
0.0
 40
0.0
 40
0.0
 40
0.0
 40
0.192894799765721
 40
0.4122214398806622
 40
0.6315552886407384
 40
0.8508890083769435
 40
1.0
 40
1.0
 40
1.0
 40
1.0
 10
185.7152699155746
 20
249.7237638457036
 30
0.0
 10
185.7191206559801
 20
249.6803761936183
 30
0.0
 10
185.7273497930873
 20
249.587655599609
 30
0.0
 10
185.796049746675
 20
249.4590296379058
 30
0.0
 10
185.9052691806969
 20
249.3570304748978
 30
0.0
 10
186.0290561882664
 20
249.3018247070705
 30
0.0
 10
186.1117880236365
 20
249.2960862296031
 30
0.0
 10
186.1452699155745
 20
249.2937638457035
 30
0.0
  0
SPLINE
  5
322
330
1F
100
AcDbEntity
  8
0
  6
Continuous
 62
     7
370
    25
100
AcDbSpline
210
0.0
220
0.0
230
1.0
 70
     8
 71
     3
 72
    12
 73
     8
 74
     0
 42
0.00000001
 43
0.00000001
 40
0.0
 40
0.0
 40
0.0
 40
0.0
 40
0.2241743151500239
 40
0.448391002587176
 40
0.6726078467288297
 40
0.8968244803947655
 40
1.0
 40
1.0
 40
1.0
 40
1.0
 10
185.8452699155746
 20
249.7237638457036
 30
0.0
 10
185.8488884443675
 20
249.6885464488265
 30
0.0
 10
185.8561261859093
 20
249.6181049984596
 30
0.0
 10
185.9123928597653
 20
249.5253063615377
 30
0.0
 10
185.9945616635636
 20
249.4573301984574
 30
0.0
 10
186.0779157835383
 20
249.4270600631199
 30
0.0
 10
186.1291300657712
 20
249.4245537074746
 30
0.0
 10
186.1452699155745
 20
249.4237638457035
 30
0.0
  0
LINE
  5
323
330
1F
100
AcDbEntity
  8
0
  6
Continuous
 62
     7
370
    25
100
AcDbLine
 10
186.1452699156
 20
249.2937638457
 30
0.0
 11
186.1452699156
 21
249.4237638457
 31
0.0
  0
LINE
  5
324
330
1F
100
AcDbEntity
  8
0
  6
Continuous
 62
     7
370
    25
100
AcDbLine
 10
186.1452699156
 20
251.0537638457
 30
0.0
 11
186.1452699156
 21
250.9237638457
 31
0.0
  0
SPLINE
  5
325
330
1F
100
AcDbEntity
  8
0
  6
Continuous
 62
     7
370
    25
100
AcDbSpline
210
0.0
220
0.0
230
1.0
 70
     8
 71
     3
 72
    12
 73
     8
 74
     0
 42
0.00000001
 43
0.00000001
 40
0.0
 40
0.0
 40
0.0
 40
0.0
 40
0.2241743151500528
 40
0.4483910025872223
 40
0.672607846728878
 40
0.8968244803948019
 40
1.0
 40
1.0
 40
1.0
 40
1.0
 10
186.1452699155746
 20
250.9237638457035
 30
0.0
 10
186.1100525186976
 20
250.9201453169105
 30
0.0
 10
186.0396110683306
 20
250.9129075753687
 30
0.0
 10
185.9468124314087
 20
250.8566409015128
 30
0.0
 10
185.8788362683285
 20
250.7744720977143
 30
0.0
 10
185.8485661329909
 20
250.6911179777397
 30
0.0
 10
185.8460597773456
 20
250.6399036955069
 30
0.0
 10
185.8452699155746
 20
250.6237638457036
 30
0.0
  0
SPLINE
  5
326
330
1F
100
AcDbEntity
  8
0
  6
Continuous
 62
     7
370
    25
100
AcDbSpline
210
0.0
220
0.0
230
1.0
 70
     8
 71
     3
 72
    12
 73
     8
 74
     0
 42
0.00000001
 43
0.00000001
 40
0.0
 40
0.0
 40
0.0
 40
0.0
 40
0.1928947997657365
 40
0.4122214398807256
 40
0.631555288640782
 40
0.8508890083770084
 40
1.0
 40
1.0
 40
1.0
 40
1.0
 10
186.1452699155746
 20
251.0537638457035
 30
0.0
 10
186.1018822634894
 20
251.049913105298
 30
0.0
 10
186.00916166948
 20
251.0416839681907
 30
0.0
 10
185.8805357077769
 20
250.972984014603
 30
0.0
 10
185.7785365447688
 20
250.8637645805811
 30
0.0
 10
185.7233307769415
 20
250.7399775730116
 30
0.0
 10
185.7175922994742
 20
250.6572457376415
 30
0.0
 10
185.7152699155746
 20
250.6237638457035
 30
0.0
  0
SPLINE
  5
327
330
1F
100
AcDbEntity
  8
0
  6
Continuous
 62
     7
370
    25
100
AcDbSpline
210
0.0
220
0.0
230
1.0
 70
     8
 71
     3
 72
    12
 73
     8
 74
     0
 42
0.00000001
 43
0.00000001
 40
0.0
 40
0.0
 40
0.0
 40
0.0
 40
0.1928947997657343
 40
0.4122214398806992
 40
0.631555288640762
 40
0.850889008376968
 40
1.0
 40
1.0
 40
1.0
 40
1.0
 10
222.7052699155747
 20
250.6237638457034
 30
0.0
 10
222.7014191751692
 20
250.6671514977886
 30
0.0
 10
222.6931900380618
 20
250.7598720917979
 30
0.0
 10
222.6244900844742
 20
250.8884980535011
 30
0.0
 10
222.5152706504522
 20
250.9904972165092
 30
0.0
 10
222.3914836428828
 20
251.0457029843365
 30
0.0
 10
222.3087518075126
 20
251.0514414618038
 30
0.0
 10
222.2752699155747
 20
251.0537638457034
 30
0.0
  0
SPLINE
  5
328
330
1F
100
AcDbEntity
  8
0
  6
Continuous
 62
     7
370
    25
100
AcDbSpline
210
0.0
220
0.0
230
1.0
 70
     8
 71
     3
 72
    12
 73
     8
 74
     0
 42
0.00000001
 43
0.00000001
 40
0.0
 40
0.0
 40
0.0
 40
0.0
 40
0.2241743151500381
 40
0.4483910025872064
 40
0.6726078467288465
 40
0.8968244803947684
 40
1.0
 40
1.0
 40
1.0
 40
1.0
 10
222.5752699155748
 20
250.6237638457034
 30
0.0
 10
222.5716513867818
 20
250.6589812425805
 30
0.0
 10
222.5644136452399
 20
250.7294226929474
 30
0.0
 10
222.5081469713839
 20
250.8222213298693
 30
0.0
 10
222.4259781675855
 20
250.8901974929495
 30
0.0
 10
222.3426240476109
 20
250.9204676282871
 30
0.0
 10
222.291409765378
 20
250.9229739839324
 30
0.0
 10
222.2752699155747
 20
250.9237638457034
 30
0.0
  0
LINE
  5
329
330
1F
100
AcDbEntity
  8
0
  6
Continuous
 62
     7
370
    25
100
AcDbLine
 10
222.2752699156
 20
251.0537638457
 30
0.0
 11
222.2752699156
 21
250.9237638457
 31
0.0
  0
SPLINE
  5
32A
330
1F
100
AcDbEntity
  8
0
  6
Continuous
 62
     7
370
    25
100
AcDbSpline
210
0.0
220
0.0
230
1.0
 70
     8
 71
     3
 72
    12
 73
     8
 74
     0
 42
0.00000001
 43
0.00000001
 40
0.0
 40
0.0
 40
0.0
 40
0.0
 40
0.1928947997657346
 40
0.4122214398806934
 40
0.631555288640754
 40
0.8508890083769655
 40
1.0
 40
1.0
 40
1.0
 40
1.0
 10
222.2752699155747
 20
249.2937638457034
 30
0.0
 10
222.3186575676599
 20
249.2976145861089
 30
0.0
 10
222.4113781616692
 20
249.3058437232163
 30
0.0
 10
222.5400041233724
 20
249.3745436768039
 30
0.0
 10
222.6420032863805
 20
249.4837631108259
 30
0.0
 10
222.6972090542077
 20
249.6075501183953
 30
0.0
 10
222.7029475316751
 20
249.6902819537655
 30
0.0
 10
222.7052699155747
 20
249.7237638457034
 30
0.0
  0
LINE
  5
32B
330
1F
100
AcDbEntity
  8
0
  6
Continuous
 62
     7
370
    25
100
AcDbLine
 10
222.2752699156
 20
249.2937638457
 30
0.0
 11
222.2752699156
 21
249.4237638457
 31
0.0
  0
SPLINE
  5
32C
330
1F
100
AcDbEntity
  8
0
  6
Continuous
 62
     7
370
    25
100
AcDbSpline
210
0.0
220
0.0
230
1.0
 70
     8
 71
     3
 72
    12
 73
     8
 74
     0
 42
0.00000001
 43
0.00000001
 40
0.0
 40
0.0
 40
0.0
 40
0.0
 40
0.2241743151500532
 40
0.4483910025871745
 40
0.6726078467288573
 40
0.8968244803947875
 40
1.0
 40
1.0
 40
1.0
 40
1.0
 10
222.2752699155747
 20
249.4237638457034
 30
0.0
 10
222.3104873124517
 20
249.4273823744964
 30
0.0
 10
222.3809287628187
 20
249.4346201160382
 30
0.0
 10
222.4737273997406
 20
249.4908867898942
 30
0.0
 10
222.5417035628208
 20
249.5730555936926
 30
0.0
 10
222.5719736981583
 20
249.6564097136673
 30
0.0
 10
222.5744800538037
 20
249.7076239959001
 30
0.0
 10
222.5752699155748
 20
249.7237638457034
 30
0.0
  0
LINE
  5
32D
330
1F
100
AcDbEntity
  8
0
  6
Continuous
 62
     7
370
    25
100
AcDbLine
 10
186.2866912718
 20
251.0537638457
 30
0.0
 11
186.1452699156
 21
251.0537638457
 31
0.0
  0
LINE
  5
32E
330
1F
100
AcDbEntity
  8
0
  6
Continuous
 62
     7
370
    25
100
AcDbLine
 10
186.2160936328
 20
250.9237638457
 30
0.0
 11
186.1452699156
 21
250.9237638457
 31
0.0
  0
LINE
  5
32F
330
1F
100
AcDbEntity
  8
0
  6
Continuous
 62
     7
370
    25
100
AcDbLine
 10
222.2752699156
 20
250.9237638457
 30
0.0
 11
222.2045107462
 21
250.9237638457
 31
0.0
  0
LINE
  5
330
330
1F
100
AcDbEntity
  8
0
  6
Continuous
 62
     7
370
    25
100
AcDbLine
 10
222.2752699156
 20
251.0537638457
 30
0.0
 11
222.1338485593
 21
251.0537638457
 31
0.0
  0
LINE
  5
331
330
1F
100
AcDbEntity
  8
0
  6
Continuous
 62
     7
370
    25
100
AcDbLine
 10
222.1338485593
 20
249.2937638457
 30
0.0
 11
222.2752699156
 21
249.2937638457
 31
0.0
  0
LINE
  5
332
330
1F
100
AcDbEntity
  8
0
  6
Continuous
 62
     7
370
    25
100
AcDbLine
 10
222.2044461983
 20
249.4237638457
 30
0.0
 11
222.2752699156
 21
249.4237638457
 31
0.0
  0
LINE
  5
333
330
1F
100
AcDbEntity
  8
0
  6
Continuous
 62
     7
370
    25
100
AcDbLine
 10
186.1452699156
 20
249.4237638457
 30
0.0
 11
186.2160290849
 21
249.4237638457
 31
0.0
  0
LINE
  5
334
330
1F
100
AcDbEntity
  8
0
  6
Continuous
 62
     7
370
    25
100
AcDbLine
 10
186.1452699156
 20
249.2937638457
 30
0.0
 11
186.2866912718
 21
249.2937638457
 31
0.0
  0
SPLINE
  5
335
330
1F
100
AcDbEntity
  8
0
  6
Continuous
 62
     7
370
    25
100
AcDbSpline
210
0.0
220
0.0
230
1.0
 70
     8
 71
     3
 72
    10
 73
     6
 74
     0
 42
0.00000001
 43
0.00000001
 40
0.0
 40
0.0
 40
0.0
 40
0.0
 40
0.0912042067527866
 40
0.6700076082944206
 40
1.0
 40
1.0
 40
1.0
 40
1.0
 10
222.5425742953525
 20
250.7517204647899
 30
0.0
 10
222.5324304428098
 20
250.7597788158821
 30
0.0
 10
222.4579113101628
 20
250.8189773631236
 30
0.0
 10
222.3466680044073
 20
250.8879148555851
 30
0.0
 10
222.2456359449851
 20
250.9028980986269
 30
0.0
 10
222.2089502437798
 20
250.9083386566087
 30
0.0
  0
SPLINE
  5
336
330
1F
100
AcDbEntity
  8
0
  6
Continuous
 62
     7
370
    25
100
AcDbSpline
210
0.0
220
0.0
230
1.0
 70
     8
 71
     3
 72
    10
 73
     6
 74
     0
 42
0.00000001
 43
0.00000001
 40
0.0
 40
0.0
 40
0.0
 40
0.0
 40
0.3519103741633338
 40
0.9300984714418993
 40
1.0
 40
1.0
 40
1.0
 40
1.0
 10
222.2094301862576
 20
249.4399241681079
 30
0.0
 10
222.2486107384453
 20
249.4459214997016
 30
0.0
 10
222.3521648657899
 20
249.4617724360696
 30
0.0
 10
222.4635328992139
 20
249.5324452149233
 30
0.0
 10
222.5356625415116
 20
249.5898101674946
 30
0.0
 10
222.5434422868585
 20
249.5959974257233
 30
0.0
  0
LINE
  5
337
330
1F
100
AcDbEntity
  8
0
  6
Continuous
 62
     7
370
    25
100
AcDbLine
 10
184.6383880736
 20
245.8267221825
 30
0.0
 11
184.9294207178
 21
246.3308055089
 31
0.0
  0
LINE
  5
338
330
1F
100
AcDbEntity
  8
0
  6
Continuous
 62
     7
370
    25
100
AcDbLine
 10
184.9294207178
 20
246.3967221825
 30
0.0
 11
184.6383880736
 21
246.9008055089
 31
0.0
  0
LINE
  5
339
330
1F
100
AcDbEntity
  8
0
  6
Continuous
 62
     7
370
    25
100
AcDbLine
 10
184.5813025598
 20
246.9337638457
 30
0.0
 11
183.9992372714
 21
246.9337638457
 31
0.0
  0
LINE
  5
33A
330
1F
100
AcDbEntity
  8
0
  6
Continuous
 62
     7
370
    25
100
AcDbLine
 10
183.9421517575
 20
246.9008055089
 30
0.0
 11
183.6511191133
 21
246.3967221825
 31
0.0
  0
LINE
  5
33B
330
1F
100
AcDbEntity
  8
0
  6
Continuous
 62
     7
370
    25
100
AcDbLine
 10
183.9992372714
 20
245.7937638457
 30
0.0
 11
184.5813025598
 21
245.7937638457
 31
0.0
  0
LINE
  5
33C
330
1F
100
AcDbEntity
  8
0
  6
Continuous
 62
     7
370
    25
100
AcDbLine
 10
183.6511191133
 20
246.3308055089
 30
0.0
 11
183.9421517575
 21
245.8267221825
 31
0.0
  0
CIRCLE
  5
33D
330
1F
100
AcDbEntity
  8
0
  6
Continuous
 62
     7
370
    25
100
AcDbCircle
 10
184.2902699156
 20
246.3637638457
 30
0.0
 40
0.5049999999999955
  0
CIRCLE
  5
33E
330
1F
100
AcDbEntity
  8
0
  6
Continuous
 62
     7
370
    25
100
AcDbCircle
 10
184.2902699156
 20
246.3637638457
 30
0.0
 40
0.4199999999999591
  0
LINE
  5
33F
330
1F
100
AcDbEntity
  8
0
  6
Continuous
 62
     7
370
    25
100
AcDbLine
 10
224.4783880736
 20
245.8267221825
 30
0.0
 11
224.7694207179
 21
246.3308055089
 31
0.0
  0
LINE
  5
340
330
1F
100
AcDbEntity
  8
0
  6
Continuous
 62
     7
370
    25
100
AcDbLine
 10
224.7694207179
 20
246.3967221825
 30
0.0
 11
224.4783880736
 21
246.9008055089
 31
0.0
  0
LINE
  5
341
330
1F
100
AcDbEntity
  8
0
  6
Continuous
 62
     7
370
    25
100
AcDbLine
 10
224.4213025598
 20
246.9337638457
 30
0.0
 11
223.8392372714
 21
246.9337638457
 31
0.0
  0
LINE
  5
342
330
1F
100
AcDbEntity
  8
0
  6
Continuous
 62
     7
370
    25
100
AcDbLine
 10
223.7821517575
 20
246.9008055089
 30
0.0
 11
223.4911191133
 21
246.3967221825
 31
0.0
  0
LINE
  5
343
330
1F
100
AcDbEntity
  8
0
  6
Continuous
 62
     7
370
    25
100
AcDbLine
 10
223.8392372714
 20
245.7937638457
 30
0.0
 11
224.4213025598
 21
245.7937638457
 31
0.0
  0
LINE
  5
344
330
1F
100
AcDbEntity
  8
0
  6
Continuous
 62
     7
370
    25
100
AcDbLine
 10
223.4911191133
 20
246.3308055089
 30
0.0
 11
223.7821517575
 21
245.8267221825
 31
0.0
  0
CIRCLE
  5
345
330
1F
100
AcDbEntity
  8
0
  6
Continuous
 62
     7
370
    25
100
AcDbCircle
 10
224.1302699156
 20
246.3637638457
 30
0.0
 40
0.5049999999999955
  0
CIRCLE
  5
346
330
1F
100
AcDbEntity
  8
0
  6
Continuous
 62
     7
370
    25
100
AcDbCircle
 10
224.1302699156
 20
246.3637638457
 30
0.0
 40
0.4199999999999591
  0
LINE
  5
347
330
1F
100
AcDbEntity
  8
0
  6
Continuous
 62
     7
370
    25
100
AcDbLine
 10
239.3902699156
 20
242.0237638457
 30
0.0
 11
239.3902699156
 21
242.9037638457
 31
0.0
  0
LINE
  5
348
330
1F
100
AcDbEntity
  8
0
  6
Continuous
 62
     7
370
    25
100
AcDbLine
 10
236.8502699156
 20
242.9037638457
 30
0.0
 11
236.8502699156
 21
242.0237638457
 31
0.0
  0
LINE
  5
349
330
1F
100
AcDbEntity
  8
0
  6
Continuous
 62
     7
370
    25
100
AcDbLine
 10
248.9302699156
 20
242.0237638457
 30
0.0
 11
248.9302699156
 21
242.9037638457
 31
0.0
  0
LINE
  5
34A
330
1F
100
AcDbEntity
  8
0
  6
Continuous
 62
     7
370
    25
100
AcDbLine
 10
247.0102699156
 20
242.9037638457
 30
0.0
 11
247.0102699156
 21
242.0237638457
 31
0.0
  0
LINE
  5
34B
330
1F
100
AcDbEntity
  8
0
  6
Continuous
 62
     7
370
    25
100
AcDbLine
 10
244.4702699156
 20
242.0237638457
 30
0.0
 11
244.4702699156
 21
242.9037638457
 31
0.0
  0
LINE
  5
34C
330
1F
100
AcDbEntity
  8
0
  6
Continuous
 62
     7
370
    25
100
AcDbLine
 10
241.9302699156
 20
242.9037638457
 30
0.0
 11
241.9302699156
 21
242.0237638457
 31
0.0
  0
LINE
  5
34D
330
1F
100
AcDbEntity
  8
0
  6
Continuous
 62
     7
370
    25
100
AcDbLine
 10
173.4902699156
 20
242.0237638457
 30
0.0
 11
173.4902699156
 21
242.9037638457
 31
0.0
  0
LINE
  5
34E
330
1F
100
AcDbEntity
  8
0
  6
Continuous
 62
     7
370
    25
100
AcDbLine
 10
171.5702699156
 20
242.9037638457
 30
0.0
 11
171.5702699156
 21
242.0237638457
 31
0.0
  0
LINE
  5
34F
330
1F
100
AcDbEntity
  8
0
  6
Continuous
 62
     7
370
    25
100
AcDbLine
 10
163.9502699156
 20
242.0237638457
 30
0.0
 11
163.9502699156
 21
242.9037638457
 31
0.0
  0
LINE
  5
350
330
1F
100
AcDbEntity
  8
0
  6
Continuous
 62
     7
370
    25
100
AcDbLine
 10
161.4102699156
 20
242.9037638457
 30
0.0
 11
161.4102699156
 21
242.0237638457
 31
0.0
  0
LINE
  5
351
330
1F
100
AcDbEntity
  8
0
  6
Continuous
 62
     7
370
    25
100
AcDbLine
 10
169.0302699156
 20
242.0237638457
 30
0.0
 11
169.0302699156
 21
242.9037638457
 31
0.0
  0
LINE
  5
352
330
1F
100
AcDbEntity
  8
0
  6
Continuous
 62
     7
370
    25
100
AcDbLine
 10
166.4902699156
 20
242.9037638457
 30
0.0
 11
166.4902699156
 21
242.0237638457
 31
0.0
  0
LINE
  5
353
330
1F
100
AcDbEntity
  8
0
  6
Continuous
 62
     7
370
    25
100
AcDbLine
 10
234.9302699156
 20
241.7837638457
 30
0.0
 11
234.9302699156
 21
242.0237638457
 31
0.0
  0
LINE
  5
354
330
1F
100
AcDbEntity
  8
0
  6
Continuous
 62
     7
370
    25
100
AcDbLine
 10
234.9302699156
 20
242.0237638457
 30
0.0
 11
248.9302699156
 21
242.0237638457
 31
0.0
  0
LINE
  5
355
330
1F
100
AcDbEntity
  8
0
  6
Continuous
 62
     7
370
    25
100
AcDbLine
 10
248.9302699156
 20
241.7837638457
 30
0.0
 11
248.9302699156
 21
242.0237638457
 31
0.0
  0
LINE
  5
356
330
1F
100
AcDbEntity
  8
0
  6
Continuous
 62
     7
370
    25
100
AcDbLine
 10
236.8502699156
 20
242.0637638457
 30
0.0
 11
236.8502699156
 21
242.9037638457
 31
0.0
  0
LINE
  5
357
330
1F
100
AcDbEntity
  8
0
  6
Continuous
 62
     7
370
    25
100
AcDbLine
 10
234.9302699156
 20
242.0637638457
 30
0.0
 11
236.8502699156
 21
242.0637638457
 31
0.0
  0
LINE
  5
358
330
1F
100
AcDbEntity
  8
0
  6
Continuous
 62
     7
370
    25
100
AcDbLine
 10
234.9302699156
 20
242.0637638457
 30
0.0
 11
234.9302699156
 21
242.9037638457
 31
0.0
  0
LINE
  5
359
330
1F
100
AcDbEntity
  8
0
  6
Continuous
 62
     7
370
    25
100
AcDbLine
 10
239.3902699156
 20
242.0637638457
 30
0.0
 11
241.9302699156
 21
242.0637638457
 31
0.0
  0
LINE
  5
35A
330
1F
100
AcDbEntity
  8
0
  6
Continuous
 62
     7
370
    25
100
AcDbLine
 10
239.3902699156
 20
242.9037638457
 30
0.0
 11
239.3902699156
 21
242.0637638457
 31
0.0
  0
LINE
  5
35B
330
1F
100
AcDbEntity
  8
0
  6
Continuous
 62
     7
370
    25
100
AcDbLine
 10
241.9302699156
 20
242.0637638457
 30
0.0
 11
241.9302699156
 21
242.9037638457
 31
0.0
  0
LINE
  5
35C
330
1F
100
AcDbEntity
  8
0
  6
Continuous
 62
     7
370
    25
100
AcDbLine
 10
247.0102699156
 20
242.0637638457
 30
0.0
 11
247.0102699156
 21
242.9037638457
 31
0.0
  0
LINE
  5
35D
330
1F
100
AcDbEntity
  8
0
  6
Continuous
 62
     7
370
    25
100
AcDbLine
 10
244.4702699156
 20
242.0637638457
 30
0.0
 11
247.0102699156
 21
242.0637638457
 31
0.0
  0
LINE
  5
35E
330
1F
100
AcDbEntity
  8
0
  6
Continuous
 62
     7
370
    25
100
AcDbLine
 10
244.4702699156
 20
242.9037638457
 30
0.0
 11
244.4702699156
 21
242.0637638457
 31
0.0
  0
LINE
  5
35F
330
1F
100
AcDbEntity
  8
0
  6
Continuous
 62
     7
370
    25
100
AcDbLine
 10
234.9302699156
 20
242.0237638457
 30
0.0
 11
234.9302699156
 21
242.0637638457
 31
0.0
  0
LINE
  5
360
330
1F
100
AcDbEntity
  8
0
  6
Continuous
 62
     7
370
    25
100
AcDbLine
 10
159.4902699156
 20
241.7837638457
 30
0.0
 11
159.4902699156
 21
242.0237638457
 31
0.0
  0
LINE
  5
361
330
1F
100
AcDbEntity
  8
0
  6
Continuous
 62
     7
370
    25
100
AcDbLine
 10
173.4902699156
 20
241.7837638457
 30
0.0
 11
173.4902699156
 21
242.0237638457
 31
0.0
  0
LINE
  5
362
330
1F
100
AcDbEntity
  8
0
  6
Continuous
 62
     7
370
    25
100
AcDbLine
 10
159.4902699156
 20
242.0237638457
 30
0.0
 11
173.4902699156
 21
242.0237638457
 31
0.0
  0
LINE
  5
363
330
1F
100
AcDbEntity
  8
0
  6
Continuous
 62
     7
370
    25
100
AcDbLine
 10
161.4102699156
 20
242.0637638457
 30
0.0
 11
161.4102699156
 21
242.9037638457
 31
0.0
  0
LINE
  5
364
330
1F
100
AcDbEntity
  8
0
  6
Continuous
 62
     7
370
    25
100
AcDbLine
 10
159.4902699156
 20
242.0637638457
 30
0.0
 11
161.4102699156
 21
242.0637638457
 31
0.0
  0
LINE
  5
365
330
1F
100
AcDbEntity
  8
0
  6
Continuous
 62
     7
370
    25
100
AcDbLine
 10
159.4902699156
 20
242.0637638457
 30
0.0
 11
159.4902699156
 21
242.9037638457
 31
0.0
  0
LINE
  5
366
330
1F
100
AcDbEntity
  8
0
  6
Continuous
 62
     7
370
    25
100
AcDbLine
 10
171.5702699156
 20
242.0637638457
 30
0.0
 11
171.5702699156
 21
242.9037638457
 31
0.0
  0
LINE
  5
367
330
1F
100
AcDbEntity
  8
0
  6
Continuous
 62
     7
370
    25
100
AcDbLine
 10
169.0302699156
 20
242.0637638457
 30
0.0
 11
171.5702699156
 21
242.0637638457
 31
0.0
  0
LINE
  5
368
330
1F
100
AcDbEntity
  8
0
  6
Continuous
 62
     7
370
    25
100
AcDbLine
 10
169.0302699156
 20
242.9037638457
 30
0.0
 11
169.0302699156
 21
242.0637638457
 31
0.0
  0
LINE
  5
369
330
1F
100
AcDbEntity
  8
0
  6
Continuous
 62
     7
370
    25
100
AcDbLine
 10
163.9502699156
 20
242.0637638457
 30
0.0
 11
166.4902699156
 21
242.0637638457
 31
0.0
  0
LINE
  5
36A
330
1F
100
AcDbEntity
  8
0
  6
Continuous
 62
     7
370
    25
100
AcDbLine
 10
163.9502699156
 20
242.9037638457
 30
0.0
 11
163.9502699156
 21
242.0637638457
 31
0.0
  0
LINE
  5
36B
330
1F
100
AcDbEntity
  8
0
  6
Continuous
 62
     7
370
    25
100
AcDbLine
 10
166.4902699156
 20
242.0637638457
 30
0.0
 11
166.4902699156
 21
242.9037638457
 31
0.0
  0
LINE
  5
36C
330
1F
100
AcDbEntity
  8
0
  6
Continuous
 62
     7
370
    25
100
AcDbLine
 10
159.4902699156
 20
242.0237638457
 30
0.0
 11
159.4902699156
 21
242.0637638457
 31
0.0
  0
LINE
  5
36D
330
1F
100
AcDbEntity
  8
0
  6
Continuous
 62
     7
370
    25
100
AcDbLine
 10
263.6502699156
 20
241.7837638457
 30
0.0
 11
144.7702699156
 21
241.7837638457
 31
0.0
  0
LINE
  5
36E
330
1F
100
AcDbEntity
  8
0
  6
Continuous
 62
     7
370
    25
100
AcDbLine
 10
263.6502699156
 20
241.7837638457
 30
0.0
 11
263.6502699156
 21
241.1669425136
 31
0.0
  0
LINE
  5
36F
330
1F
100
AcDbEntity
  8
0
  6
Continuous
 62
     7
370
    25
100
AcDbLine
 10
144.7702699156
 20
241.1669425136
 30
0.0
 11
144.7702699156
 21
241.7837638457
 31
0.0
  0
LINE
  5
370
330
1F
100
AcDbEntity
  8
0
  6
Continuous
 62
     7
370
    25
100
AcDbLine
 10
263.9502699156
 20
241.1669425136
 30
0.0
 11
263.6502699156
 21
241.1669425136
 31
0.0
  0
LINE
  5
371
330
1F
100
AcDbEntity
  8
0
  6
Continuous
 62
     7
370
    25
100
AcDbLine
 10
263.9502699156
 20
241.2290590844
 30
0.0
 11
263.6502699156
 21
241.2290590844
 31
0.0
  0
LINE
  5
372
330
1F
100
AcDbEntity
  8
0
  6
Continuous
 62
     7
370
    25
100
AcDbLine
 10
263.9502699156
 20
241.2290590844
 30
0.0
 11
263.9502699156
 21
241.1669425136
 31
0.0
  0
LINE
  5
373
330
1F
100
AcDbEntity
  8
0
  6
Continuous
 62
     7
370
    25
100
AcDbLine
 10
144.7702699156
 20
241.1669425136
 30
0.0
 11
144.4702699156
 21
241.1669425136
 31
0.0
  0
LINE
  5
374
330
1F
100
AcDbEntity
  8
0
  6
Continuous
 62
     7
370
    25
100
AcDbLine
 10
263.9502699156
 20
241.1669425136
 30
0.0
 11
263.9502699156
 21
230.6669425136
 31
0.0
  0
LINE
  5
375
330
1F
100
AcDbEntity
  8
0
  6
Continuous
 62
     7
370
    25
100
AcDbLine
 10
144.4702699156
 20
241.1669425136
 30
0.0
 11
144.4702699156
 21
230.6669425136
 31
0.0
  0
LINE
  5
376
330
1F
100
AcDbEntity
  8
0
  6
Continuous
 62
     7
370
    25
100
AcDbLine
 10
144.7702699156
 20
241.2290590844
 30
0.0
 11
144.4702699156
 21
241.2290590844
 31
0.0
  0
LINE
  5
377
330
1F
100
AcDbEntity
  8
0
  6
Continuous
 62
     7
370
    25
100
AcDbLine
 10
144.4702699156
 20
241.1669425136
 30
0.0
 11
144.4702699156
 21
241.2290590844
 31
0.0
  0
LINE
  5
378
330
1F
100
AcDbEntity
  8
0
  6
Continuous
 62
     7
370
    25
100
AcDbLine
 10
144.2102699156
 20
230.7290590844
 30
0.0
 11
144.4502699156
 21
230.7290590844
 31
0.0
  0
LINE
  5
379
330
1F
100
AcDbEntity
  8
0
  6
Continuous
 62
     7
370
    25
100
AcDbLine
 10
144.2102699156
 20
241.2290590844
 30
0.0
 11
144.2102699156
 21
230.7290590844
 31
0.0
  0
LINE
  5
37A
330
1F
100
AcDbEntity
  8
0
  6
Continuous
 62
     7
370
    25
100
AcDbLine
 10
144.2102699156
 20
241.2290590844
 30
0.0
 11
144.4502699156
 21
241.2290590844
 31
0.0
  0
LINE
  5
37B
330
1F
100
AcDbEntity
  8
0
  6
Continuous
 62
     7
370
    25
100
AcDbLine
 10
144.4502699156
 20
241.2290590844
 30
0.0
 11
144.4502699156
 21
230.7290590844
 31
0.0
  0
LINE
  5
37C
330
1F
100
AcDbEntity
  8
0
  6
Continuous
 62
     7
370
    25
100
AcDbLine
 10
144.2102699156
 20
241.2937638457
 30
0.0
 11
144.2102699156
 21
241.2290590844
 31
0.0
  0
LINE
  5
37D
330
1F
100
AcDbEntity
  8
0
  6
Continuous
 62
     7
370
    25
100
AcDbLine
 10
144.4502699156
 20
241.2937638457
 30
0.0
 11
144.2102699156
 21
241.2937638457
 31
0.0
  0
LINE
  5
37E
330
1F
100
AcDbEntity
  8
0
  6
Continuous
 62
     7
370
    25
100
AcDbLine
 10
144.4502699156
 20
241.2937638457
 30
0.0
 11
144.4502699156
 21
241.2290590844
 31
0.0
  0
LINE
  5
37F
330
1F
100
AcDbEntity
  8
0
  6
Continuous
 62
     7
370
    25
100
AcDbLine
 10
264.2102699156
 20
241.2290590844
 30
0.0
 11
263.9702699156
 21
241.2290590844
 31
0.0
  0
LINE
  5
380
330
1F
100
AcDbEntity
  8
0
  6
Continuous
 62
     7
370
    25
100
AcDbLine
 10
263.9702699156
 20
241.2937638457
 30
0.0
 11
264.2102699156
 21
241.2937638457
 31
0.0
  0
LINE
  5
381
330
1F
100
AcDbEntity
  8
0
  6
Continuous
 62
     7
370
    25
100
AcDbLine
 10
264.2102699156
 20
241.2937638457
 30
0.0
 11
264.2102699156
 21
241.2290590844
 31
0.0
  0
LINE
  5
382
330
1F
100
AcDbEntity
  8
0
  6
Continuous
 62
     7
370
    25
100
AcDbLine
 10
263.9702699156
 20
241.2937638457
 30
0.0
 11
263.9702699156
 21
241.2290590844
 31
0.0
  0
LINE
  5
383
330
1F
100
AcDbEntity
  8
0
  6
Continuous
 62
     7
370
    25
100
AcDbLine
 10
264.2102699156
 20
230.7290590844
 30
0.0
 11
263.9702699156
 21
230.7290590844
 31
0.0
  0
LINE
  5
384
330
1F
100
AcDbEntity
  8
0
  6
Continuous
 62
     7
370
    25
100
AcDbLine
 10
264.2102699156
 20
241.2290590844
 30
0.0
 11
264.2102699156
 21
230.7290590844
 31
0.0
  0
LINE
  5
385
330
1F
100
AcDbEntity
  8
0
  6
Continuous
 62
     7
370
    25
100
AcDbLine
 10
263.9702699156
 20
241.2290590844
 30
0.0
 11
263.9702699156
 21
230.7290590844
 31
0.0
  0
LINE
  5
386
330
1F
100
AcDbEntity
  8
0
  6
Continuous
 62
     7
370
    25
100
AcDbLine
 10
263.7202699156
 20
241.5437638457
 30
0.0
 11
263.7202699156
 21
241.7837638457
 31
0.0
  0
SPLINE
  5
387
330
1F
100
AcDbEntity
  8
0
  6
Continuous
 62
     7
370
    25
100
AcDbSpline
210
0.0
220
0.0
230
1.0
 70
     8
 71
     3
 72
    11
 73
     7
 74
     0
 42
0.00000001
 43
0.00000001
 40
0.0
 40
0.0
 40
0.0
 40
0.0
 40
0.2816326849081717
 40
0.5252293113357833
 40
0.7687494703599417
 40
1.0
 40
1.0
 40
1.0
 40
1.0
 10
263.9702699155824
 20
241.2937638457044
 30
0.0
 10
263.9655066248324
 20
241.3307231745014
 30
0.0
 10
263.9566233522067
 20
241.3996502694436
 30
0.0
 10
263.893542943109
 20
241.4815673842579
 30
0.0
 10
263.8127072418914
 20
241.5339566051522
 30
0.0
 10
263.7505468819303
 20
241.5405515774139
 30
0.0
 10
263.7202699155824
 20
241.5437638457044
 30
0.0
  0
SPLINE
  5
388
330
1F
100
AcDbEntity
  8
0
  6
Continuous
 62
     7
370
    25
100
AcDbSpline
210
0.0
220
0.0
230
1.0
 70
     8
 71
     3
 72
    12
 73
     8
 74
     0
 42
0.00000001
 43
0.00000001
 40
0.0
 40
0.0
 40
0.0
 40
0.0
 40
0.2224644648300117
 40
0.4449575000634894
 40
0.6674506419968456
 40
0.889943590112915
 40
1.0
 40
1.0
 40
1.0
 40
1.0
 10
264.2102699155824
 20
241.2937638457044
 30
0.0
 10
264.2044502010484
 20
241.3508471155981
 30
0.0
 10
264.1928100245729
 20
241.4650209864081
 30
0.0
 10
264.1022680245615
 20
241.615754603646
 30
0.0
 10
263.969858002928
 20
241.7267815443439
 30
0.0
 10
263.8333752142624
 20
241.7778812065654
 30
0.0
 10
263.7483941833055
 20
241.7823010944452
 30
0.0
 10
263.7202699155824
 20
241.7837638457044
 30
0.0
  0
LINE
  5
389
330
1F
100
AcDbEntity
  8
0
  6
Continuous
 62
     7
370
    25
100
AcDbLine
 10
144.7002699156
 20
241.5437638457
 30
0.0
 11
144.7002699156
 21
241.7837638457
 31
0.0
  0
SPLINE
  5
38A
330
1F
100
AcDbEntity
  8
0
  6
Continuous
 62
     7
370
    25
100
AcDbSpline
210
0.0
220
0.0
230
1.0
 70
     8
 71
     3
 72
    11
 73
     7
 74
     0
 42
0.00000001
 43
0.00000001
 40
0.0
 40
0.0
 40
0.0
 40
0.0
 40
0.2823449096400615
 40
0.5253828799885741
 40
0.7683432447412574
 40
1.0
 40
1.0
 40
1.0
 40
1.0
 10
144.7002699155824
 20
241.5437638457044
 30
0.0
 10
144.6632153518044
 20
241.5389768158799
 30
0.0
 10
144.5942648137577
 20
241.5300691875504
 30
0.0
 10
144.5124438361837
 20
241.4669713836369
 30
0.0
 10
144.4600962074703
 20
241.3862357578622
 30
0.0
 10
144.4534929243538
 20
241.3240944920346
 30
0.0
 10
144.4502699155824
 20
241.2937638457044
 30
0.0
  0
SPLINE
  5
38B
330
1F
100
AcDbEntity
  8
0
  6
Continuous
 62
     7
370
    25
100
AcDbSpline
210
0.0
220
0.0
230
1.0
 70
     8
 71
     3
 72
    12
 73
     8
 74
     0
 42
0.00000001
 43
0.00000001
 40
0.0
 40
0.0
 40
0.0
 40
0.0
 40
0.2223044738147765
 40
0.4446368273769828
 40
0.6669692837440185
 40
0.889301548500432
 40
1.0
 40
1.0
 40
1.0
 40
1.0
 10
144.7002699155824
 20
241.7837638457044
 30
0.0
 10
144.6432276854895
 20
241.7779525687219
 30
0.0
 10
144.5291360714982
 20
241.7663292859503
 30
0.0
 10
144.3784809879851
 20
241.6759138830827
 30
0.0
 10
144.2674548703967
 20
241.5436713865919
 30
0.0
 10
144.2161999987095
 20
241.4071579769202
 30
0.0
 10
144.211749311275
 20
241.3220526210361
 30
0.0
 10
144.2102699155824
 20
241.2937638457044
 30
0.0
  0
LINE
  5
38C
330
1F
100
AcDbEntity
  8
0
  6
Continuous
 62
     7
370
    25
100
AcDbLine
 10
144.7702699156
 20
241.7837638457
 30
0.0
 11
144.7002699156
 21
241.7837638457
 31
0.0
  0
LINE
  5
38D
330
1F
100
AcDbEntity
  8
0
  6
Continuous
 62
     7
370
    25
100
AcDbLine
 10
144.7702699156
 20
241.5437638457
 30
0.0
 11
144.7002699156
 21
241.5437638457
 31
0.0
  0
LINE
  5
38E
330
1F
100
AcDbEntity
  8
0
  6
Continuous
 62
     7
370
    25
100
AcDbLine
 10
263.7202699156
 20
241.5437638457
 30
0.0
 11
263.6502699156
 21
241.5437638457
 31
0.0
  0
LINE
  5
38F
330
1F
100
AcDbEntity
  8
0
  6
Continuous
 62
     7
370
    25
100
AcDbLine
 10
263.7202699156
 20
241.7837638457
 30
0.0
 11
263.6502699156
 21
241.7837638457
 31
0.0
  0
LINE
  5
390
330
1F
100
AcDbEntity
  8
0
  6
Continuous
 62
     7
370
    25
100
AcDbLine
 10
263.9502699156
 20
230.3037638457
 30
0.0
 11
144.4702699156
 21
230.3037638457
 31
0.0
  0
LINE
  5
391
330
1F
100
AcDbEntity
  8
0
  6
Continuous
 62
     7
370
    25
100
AcDbLine
 10
144.4702699156
 20
230.6669425136
 30
0.0
 11
144.4702699156
 21
230.3037638457
 31
0.0
  0
LINE
  5
392
330
1F
100
AcDbEntity
  8
0
  6
Continuous
 62
     7
370
    25
100
AcDbLine
 10
263.9502699156
 20
230.6669425136
 30
0.0
 11
263.9502699156
 21
230.3037638457
 31
0.0
  0
LINE
  5
393
330
1F
100
AcDbEntity
  8
0
  6
Continuous
 62
     7
370
    25
100
AcDbLine
 10
264.2102699156
 20
230.5437638457
 30
0.0
 11
263.9702699156
 21
230.5437638457
 31
0.0
  0
LINE
  5
394
330
1F
100
AcDbEntity
  8
0
  6
Continuous
 62
     7
370
    25
100
AcDbLine
 10
264.2102699156
 20
230.7290590844
 30
0.0
 11
264.2102699156
 21
230.5437638457
 31
0.0
  0
LINE
  5
395
330
1F
100
AcDbEntity
  8
0
  6
Continuous
 62
     7
370
    25
100
AcDbLine
 10
263.9702699156
 20
230.7290590844
 30
0.0
 11
263.9702699156
 21
230.5437638457
 31
0.0
  0
LINE
  5
396
330
1F
100
AcDbEntity
  8
0
  6
Continuous
 62
     7
370
    25
100
AcDbLine
 10
144.2102699156
 20
230.5437638457
 30
0.0
 11
144.4502699156
 21
230.5437638457
 31
0.0
  0
LINE
  5
397
330
1F
100
AcDbEntity
  8
0
  6
Continuous
 62
     7
370
    25
100
AcDbLine
 10
144.2102699156
 20
230.7290590844
 30
0.0
 11
144.2102699156
 21
230.5437638457
 31
0.0
  0
LINE
  5
398
330
1F
100
AcDbEntity
  8
0
  6
Continuous
 62
     7
370
    25
100
AcDbLine
 10
144.4502699156
 20
230.7290590844
 30
0.0
 11
144.4502699156
 21
230.5437638457
 31
0.0
  0
LINE
  5
399
330
1F
100
AcDbEntity
  8
0
  6
Continuous
 62
     7
370
    25
100
AcDbLine
 10
259.0302699156
 20
123.5337638457
 30
0.0
 11
258.9102699156
 21
123.5337638457
 31
0.0
  0
LINE
  5
39A
330
1F
100
AcDbEntity
  8
0
  6
Continuous
 62
     7
370
    25
100
AcDbLine
 10
149.5102699156
 20
123.5337638457
 30
0.0
 11
149.3902699156
 21
123.5337638457
 31
0.0
  0
SPLINE
  5
39B
330
1F
100
AcDbEntity
  8
0
  6
Continuous
 62
     7
370
    25
100
AcDbSpline
210
0.0
220
0.0
230
1.0
 70
     8
 71
     3
 72
    12
 73
     8
 74
     0
 42
0.00000001
 43
0.00000001
 40
0.0
 40
0.0
 40
0.0
 40
0.0
 40
0.2245762549043665
 40
0.4491905861813561
 40
0.6738050823772311
 40
0.8984193662511704
 40
1.0
 40
1.0
 40
1.0
 40
1.0
 10
149.3902699155844
 20
104.3437638457027
 30
0.0
 10
149.3326451012654
 20
104.326101560814
 30
0.0
 10
149.2173857024765
 20
104.2907739964381
 30
0.0
 10
149.0656219455023
 20
104.2377730243344
 30
0.0
 10
148.9545980343184
 20
104.1848013614534
 30
0.0
 10
148.9055406018021
 20
104.141401815015
 30
0.0
 10
148.9015215056871
 20
104.1158599843149
 30
0.0
 10
148.9002699155844
 20
104.1079059813264
 30
0.0
  0
LINE
  5
39C
330
1F
100
AcDbEntity
  8
0
  6
Continuous
 62
     7
370
    25
100
AcDbLine
 10
148.9002699156
 20
104.1079059813
 30
0.0
 11
148.9002699156
 21
104.2237638457
 31
0.0
  0
LINE
  5
39D
330
1F
100
AcDbEntity
  8
0
  6
Continuous
 62
     7
370
    25
100
AcDbLine
 10
148.9002699156
 20
123.5337638457
 30
0.0
 11
149.3902699156
 21
123.5337638457
 31
0.0
  0
LINE
  5
39E
330
1F
100
AcDbEntity
  8
0
  6
Continuous
 62
     7
370
    25
100
AcDbLine
 10
259.5202699156
 20
104.1079059813
 30
0.0
 11
259.5202699156
 21
104.2237638457
 31
0.0
  0
SPLINE
  5
39F
330
1F
100
AcDbEntity
  8
0
  6
Continuous
 62
     7
370
    25
100
AcDbSpline
210
0.0
220
0.0
230
1.0
 70
     8
 71
     3
 72
    12
 73
     8
 74
     0
 42
0.00000001
 43
0.00000001
 40
0.0
 40
0.0
 40
0.0
 40
0.0
 40
0.2245762549044008
 40
0.4491905861813692
 40
0.6738050823772516
 40
0.8984193662511818
 40
1.0
 40
1.0
 40
1.0
 40
1.0
 10
259.5202699155844
 20
104.1079059813264
 30
0.0
 10
259.5143382748067
 20
104.125568266215
 30
0.0
 10
259.5024739875556
 20
104.1608958305909
 30
0.0
 10
259.4102538738143
 20
104.2138968026947
 30
0.0
 10
259.2756277289246
 20
104.2668684655757
 30
0.0
 10
259.1395645241331
 20
104.3102680120141
 30
0.0
 10
259.0562232819377
 20
104.3358098427141
 30
0.0
 10
259.0302699155844
 20
104.3437638457027
 30
0.0
  0
LINE
  5
3A0
330
1F
100
AcDbEntity
  8
0
  6
Continuous
 62
     7
370
    25
100
AcDbLine
 10
259.0302699156
 20
123.5337638457
 30
0.0
 11
259.5202699156
 21
123.5337638457
 31
0.0
  0
LINE
  5
3A1
330
1F
100
AcDbEntity
  8
0
  6
Continuous
 62
     7
370
    25
100
AcDbLine
 10
259.5202699156
 20
104.1079059813
 30
0.0
 11
259.2802699156
 21
104.1079059813
 31
0.0
  0
SPLINE
  5
3A2
330
1F
100
AcDbEntity
  8
0
  6
Continuous
 62
     7
370
    25
100
AcDbSpline
210
0.0
220
0.0
230
1.0
 70
     8
 71
     3
 72
    11
 73
     7
 74
     0
 42
0.00000001
 43
0.00000001
 40
0.0
 40
0.0
 40
0.0
 40
0.0
 40
0.2726962473693613
 40
0.5235847753928909
 40
0.7744195977108822
 40
1.0
 40
1.0
 40
1.0
 40
1.0
 10
259.2802699155844
 20
104.1079059813264
 30
0.0
 10
259.2757987950696
 20
104.1293688322533
 30
0.0
 10
259.2672141128338
 20
104.1705781341423
 30
0.0
 10
259.2042926836166
 20
104.2314381848239
 30
0.0
 10
259.1221593527194
 20
104.2886394967863
 30
0.0
 10
259.0597978149058
 20
104.3260500988814
 30
0.0
 10
259.0302699155844
 20
104.3437638457027
 30
0.0
  0
SPLINE
  5
3A3
330
1F
100
AcDbEntity
  8
0
  6
Continuous
 62
     7
370
    25
100
AcDbSpline
210
0.0
220
0.0
230
1.0
 70
     8
 71
     3
 72
    12
 73
     8
 74
     0
 42
0.00000001
 43
0.00000001
 40
0.0
 40
0.0
 40
0.0
 40
0.0
 40
0.2245762549043914
 40
0.4491905861813503
 40
0.6738050823772233
 40
0.8984193662511734
 40
1.0
 40
1.0
 40
1.0
 40
1.0
 10
259.0302699155844
 20
104.3437638457027
 30
0.0
 10
259.047932200473
 20
104.2861390313837
 30
0.0
 10
259.0832597648489
 20
104.1708796325949
 30
0.0
 10
259.1362607369526
 20
104.0191158756205
 30
0.0
 10
259.1892323998337
 20
103.9080919644366
 30
0.0
 10
259.2326319462721
 20
103.8590345319204
 30
0.0
 10
259.2581737769721
 20
103.8550154358054
 30
0.0
 10
259.2661277799606
 20
103.8537638457027
 30
0.0
  0
SPLINE
  5
3A4
330
1F
100
AcDbEntity
  8
0
  6
Continuous
 62
     7
370
    25
100
AcDbSpline
210
0.0
220
0.0
230
1.0
 70
     8
 71
     3
 72
    11
 73
     7
 74
     0
 42
0.00000001
 43
0.00000001
 40
0.0
 40
0.0
 40
0.0
 40
0.0
 40
0.2726962473694104
 40
0.5235847753929105
 40
0.7744195977108572
 40
1.0
 40
1.0
 40
1.0
 40
1.0
 10
259.0302699155844
 20
104.3437638457027
 30
0.0
 10
259.0517327665113
 20
104.3079978578903
 30
0.0
 10
259.0929420684004
 20
104.2393261146004
 30
0.0
 10
259.1538021190819
 20
104.1561493940718
 30
0.0
 10
259.2110034310444
 20
104.1032977741086
 30
0.0
 10
259.2484140331394
 20
104.09682749357
 30
0.0
 10
259.2661277799606
 20
104.0937638457027
 30
0.0
  0
LINE
  5
3A5
330
1F
100
AcDbEntity
  8
0
  6
Continuous
 62
     7
370
    25
100
AcDbLine
 10
259.26612778
 20
103.8537638457
 30
0.0
 11
259.26612778
 21
104.0937638457
 31
0.0
  0
SPLINE
  5
3A6
330
1F
100
AcDbEntity
  8
0
  6
Continuous
 62
     7
370
    25
100
AcDbSpline
210
0.0
220
0.0
230
1.0
 70
     8
 71
     3
 72
    11
 73
     7
 74
     0
 42
0.00000001
 43
0.00000001
 40
0.0
 40
0.0
 40
0.0
 40
0.0
 40
0.272696247369406
 40
0.5235847753929047
 40
0.7744195977108419
 40
1.0
 40
1.0
 40
1.0
 40
1.0
 10
149.3902699155844
 20
104.3437638457027
 30
0.0
 10
149.354503927772
 20
104.3223009947758
 30
0.0
 10
149.2858321844822
 20
104.2810916928867
 30
0.0
 10
149.2026554639536
 20
104.2202316422052
 30
0.0
 10
149.1498038439904
 20
104.1630303302427
 30
0.0
 10
149.1433335634517
 20
104.1256197281476
 30
0.0
 10
149.1402699155844
 20
104.1079059813264
 30
0.0
  0
LINE
  5
3A7
330
1F
100
AcDbEntity
  8
0
  6
Continuous
 62
     7
370
    25
100
AcDbLine
 10
148.9002699156
 20
104.1079059813
 30
0.0
 11
149.1402699156
 21
104.1079059813
 31
0.0
  0
LINE
  5
3A8
330
1F
100
AcDbEntity
  8
0
  6
Continuous
 62
     7
370
    25
100
AcDbLine
 10
259.26612778
 20
103.8537638457
 30
0.0
 11
259.1787739819
 21
103.8537638457
 31
0.0
  0
LINE
  5
3A9
330
1F
100
AcDbEntity
  8
0
  6
Continuous
 62
     7
370
    25
100
AcDbLine
 10
149.2490389977
 20
103.8537638457
 30
0.0
 11
149.1544120512
 21
103.8537638457
 31
0.0
  0
SPLINE
  5
3AA
330
1F
100
AcDbEntity
  8
0
  6
Continuous
 62
     7
370
    25
100
AcDbSpline
210
0.0
220
0.0
230
1.0
 70
     8
 71
     3
 72
    12
 73
     8
 74
     0
 42
0.00000001
 43
0.00000001
 40
0.0
 40
0.0
 40
0.0
 40
0.0
 40
0.2245762549043976
 40
0.4491905861813721
 40
0.6738050823772389
 40
0.8984193662511744
 40
1.0
 40
1.0
 40
1.0
 40
1.0
 10
149.1544120512081
 20
103.8537638457027
 30
0.0
 10
149.1720743360968
 20
103.8596954864804
 30
0.0
 10
149.2074019004727
 20
103.8715597737315
 30
0.0
 10
149.2604028725764
 20
103.9637798874728
 30
0.0
 10
149.3133745354575
 20
104.0984060323624
 30
0.0
 10
149.3567740818958
 20
104.2344692371539
 30
0.0
 10
149.3823159125959
 20
104.3178104793494
 30
0.0
 10
149.3902699155844
 20
104.3437638457027
 30
0.0
  0
LINE
  5
3AB
330
1F
100
AcDbEntity
  8
0
  6
Continuous
 62
     7
370
    25
100
AcDbLine
 10
149.1544120512
 20
103.8537638457
 30
0.0
 11
149.1544120512
 21
104.0937638457
 31
0.0
  0
SPLINE
  5
3AC
330
1F
100
AcDbEntity
  8
0
  6
Continuous
 62
     7
370
    25
100
AcDbSpline
210
0.0
220
0.0
230
1.0
 70
     8
 71
     3
 72
    11
 73
     7
 74
     0
 42
0.00000001
 43
0.00000001
 40
0.0
 40
0.0
 40
0.0
 40
0.0
 40
0.2726962473693741
 40
0.5235847753929153
 40
0.7744195977108536
 40
1.0
 40
1.0
 40
1.0
 40
1.0
 10
149.1544120512081
 20
104.0937638457027
 30
0.0
 10
149.175874902135
 20
104.0982349662175
 30
0.0
 10
149.2170842040241
 20
104.1068196484533
 30
0.0
 10
149.2779442547056
 20
104.1697410776705
 30
0.0
 10
149.335145566668
 20
104.2518744085676
 30
0.0
 10
149.3725561687631
 20
104.3142359463813
 30
0.0
 10
149.3902699155844
 20
104.3437638457027
 30
0.0
  0
LINE
  5
3AD
330
1F
100
AcDbEntity
  8
0
  6
Continuous
 62
     7
370
    25
100
AcDbLine
 10
259.26612778
 20
103.7590605172
 30
0.0
 11
259.26612778
 21
103.8537638457
 31
0.0
  0
LINE
  5
3AE
330
1F
100
AcDbEntity
  8
0
  6
Continuous
 62
     7
370
    25
100
AcDbLine
 10
149.1544120512
 20
103.8537638457
 30
0.0
 11
149.1544120512
 21
103.7557050951
 31
0.0
  0
LINE
  5
3AF
330
1F
100
AcDbEntity
  8
0
  6
Continuous
 62
     7
370
    25
100
AcDbLine
 10
216.9333700702
 20
181.8767631067
 30
0.0
 11
215.3004719409
 21
180.2438649774
 31
0.0
  0
ARC
  5
3B0
330
1F
100
AcDbEntity
  8
0
  6
Continuous
 62
     7
370
    25
100
AcDbCircle
 10
216.5091060015
 20
182.3010271755
 30
0.0
 40
0.6000000000000089
100
AcDbArc
 50
315.0
 51
39.1432980901
  0
ARC
  5
3B1
330
1F
100
AcDbEntity
  8
0
  6
Continuous
 62
     7
370
    25
100
AcDbCircle
 10
231.7102699156
 20
194.6737639648
 30
0.0
 40
19.00000000000001
100
AcDbArc
 50
140.8567019099
 51
219.1432980901
  0
ARC
  5
3B2
330
1F
100
AcDbEntity
  8
0
  6
Continuous
 62
     7
370
    25
100
AcDbCircle
 10
216.5091060015
 20
207.0465007541
 30
0.0
 40
0.6000000000000089
100
AcDbArc
 50
320.8567019099
 51
45.0
  0
LINE
  5
3B3
330
1F
100
AcDbEntity
  8
0
  6
Continuous
 62
     7
370
    25
100
AcDbLine
 10
215.3004719409
 20
209.1036629521
 30
0.0
 11
216.9333700702
 21
207.4707648228
 31
0.0
  0
LINE
  5
3B4
330
1F
100
AcDbEntity
  8
0
  6
Continuous
 62
     7
370
    25
100
AcDbLine
 10
216.2904214346
 20
210.0936124458
 30
0.0
 11
215.3004719409
 21
209.1036629521
 31
0.0
  0
LINE
  5
3B5
330
1F
100
AcDbEntity
  8
0
  6
Continuous
 62
     7
370
    25
100
AcDbLine
 10
218.8429984367
 20
207.5410354436
 30
0.0
 11
216.2904214346
 21
210.0936124458
 31
0.0
  0
ARC
  5
3B6
330
1F
100
AcDbEntity
  8
0
  6
Continuous
 62
     7
370
    25
100
AcDbCircle
 10
218.418734368
 20
207.1167713749
 30
0.0
 40
0.6000000000000167
100
AcDbArc
 50
316.8884918301
 51
45.0
  0
ARC
  5
3B7
330
1F
100
AcDbEntity
  8
0
  6
Continuous
 62
     7
370
    25
100
AcDbCircle
 10
231.7102699156
 20
194.6737639648
 30
0.0
 40
17.60695885154507
100
AcDbArc
 50
136.8884918301
 51
223.1115081699
  0
ARC
  5
3B8
330
1F
100
AcDbEntity
  8
0
  6
Continuous
 62
     7
370
    25
100
AcDbCircle
 10
218.418734368
 20
182.2307565546
 30
0.0
 40
0.6000000000000167
100
AcDbArc
 50
315.0
 51
43.1115081699
  0
LINE
  5
3B9
330
1F
100
AcDbEntity
  8
0
  6
Continuous
 62
     7
370
    25
100
AcDbLine
 10
216.2904214346
 20
179.2539154838
 30
0.0
 11
218.8429984367
 21
181.8064924859
 31
0.0
  0
LINE
  5
3BA
330
1F
100
AcDbEntity
  8
0
  6
Continuous
 62
     7
370
    25
100
AcDbLine
 10
215.3004719409
 20
180.2438649774
 30
0.0
 11
216.2904214346
 21
179.2539154838
 31
0.0
  0
LINE
  5
3BB
330
1F
100
AcDbEntity
  8
0
  6
Continuous
 62
     7
370
    25
100
AcDbLine
 10
189.5775203435
 20
181.806471435
 30
0.0
 11
192.1300931696
 21
179.2538902569
 31
0.0
  0
ARC
  5
3BC
330
1F
100
AcDbEntity
  8
0
  6
Continuous
 62
     7
370
    25
100
AcDbCircle
 10
190.0017851063
 20
182.2307348096
 30
0.0
 40
0.600000000000008
100
AcDbArc
 50
136.888398094
 51
224.9999062639
  0
ARC
  5
3BD
330
1F
100
AcDbEntity
  8
0
  6
Continuous
 62
     7
370
    25
100
AcDbCircle
 10
176.7102699156
 20
194.6737639648
 30
0.0
 40
17.60695885154508
100
AcDbArc
 50
316.888398094
 51
43.1114144338
  0
ARC
  5
3BE
330
1F
100
AcDbEntity
  8
0
  6
Continuous
 62
     7
370
    25
100
AcDbCircle
 10
190.00182582
 20
207.1167496299
 30
0.0
 40
0.600000000000008
100
AcDbArc
 50
134.9999062639
 51
223.1114144338
  0
LINE
  5
3BF
330
1F
100
AcDbEntity
  8
0
  6
Continuous
 62
     7
370
    25
100
AcDbLine
 10
192.1301436235
 20
210.0935872188
 30
0.0
 11
189.5775624453
 21
207.5410143927
 31
0.0
  0
LINE
  5
3C0
330
1F
100
AcDbEntity
  8
0
  6
Continuous
 62
     7
370
    25
100
AcDbLine
 10
193.1200914976
 20
209.1036361056
 30
0.0
 11
192.1301436235
 21
210.0935872188
 31
0.0
  0
LINE
  5
3C1
330
1F
100
AcDbEntity
  8
0
  6
Continuous
 62
     7
370
    25
100
AcDbLine
 10
191.4871906969
 20
207.4707406477
 30
0.0
 11
193.1200914976
 21
209.1036361056
 31
0.0
  0
ARC
  5
3C2
330
1F
100
AcDbEntity
  8
0
  6
Continuous
 62
     7
370
    25
100
AcDbCircle
 10
176.7102699156
 20
194.6737639648
 30
0.0
 40
19.0
100
AcDbArc
 50
320.8566081738
 51
39.143204354
  0
ARC
  5
3C3
330
1F
100
AcDbEntity
  8
0
  6
Continuous
 62
     7
370
    25
100
AcDbCircle
 10
191.9114135878
 20
182.3010023063
 30
0.0
 40
0.600000000000008
100
AcDbArc
 50
140.8566081738
 51
224.9999062639
  0
LINE
  5
3C4
330
1F
100
AcDbEntity
  8
0
  6
Continuous
 62
     7
370
    25
100
AcDbLine
 10
193.1200442828
 20
180.243838131
 30
0.0
 11
191.487148825
 21
181.8767389317
 31
0.0
  0
LINE
  5
3C5
330
1F
100
AcDbEntity
  8
0
  6
Continuous
 62
     7
370
    25
100
AcDbLine
 10
192.1300931696
 20
179.2538902569
 30
0.0
 11
193.1200442828
 21
180.243838131
 31
0.0
  0
ARC
  5
3C6
330
1F
100
AcDbEntity
  8
0
  6
Continuous
 62
     7
370
    25
100
AcDbCircle
 10
191.9114540715
 20
207.0464758849
 30
0.0
 40
0.5999999999999879
100
AcDbArc
 50
134.9999062639
 51
219.143204354
  0
LINE
  5
3C7
330
1F
100
AcDbEntity
  8
0
  6
Continuous
 62
     7
370
    25
100
AcDbLine
 10
161.9333491343
 20
181.8767872818
 30
0.0
 11
160.3004483336
 21
180.243891824
 31
0.0
  0
ARC
  5
3C8
330
1F
100
AcDbEntity
  8
0
  6
Continuous
 62
     7
370
    25
100
AcDbCircle
 10
161.5090857597
 20
182.3010520446
 30
0.0
 40
0.5999999999999879
100
AcDbArc
 50
314.9999062639
 51
39.143204354
  0
LINE
  5
3C9
330
1F
100
AcDbEntity
  8
0
  6
Continuous
 62
     7
370
    25
100
AcDbLine
 10
161.2904466616
 20
210.0936376727
 30
0.0
 11
160.3004955483
 21
209.1036897986
 31
0.0
  0
LINE
  5
3CA
330
1F
100
AcDbEntity
  8
0
  6
Continuous
 62
     7
370
    25
100
AcDbLine
 10
163.8430194876
 20
207.5410564945
 30
0.0
 11
161.2904466616
 21
210.0936376727
 31
0.0
  0
ARC
  5
3CB
330
1F
100
AcDbEntity
  8
0
  6
Continuous
 62
     7
370
    25
100
AcDbCircle
 10
163.4187547248
 20
207.1167931199
 30
0.0
 40
0.600000000000015
100
AcDbArc
 50
316.888398094
 51
44.9999062639
  0
ARC
  5
3CC
330
1F
100
AcDbEntity
  8
0
  6
Continuous
 62
     7
370
    25
100
AcDbCircle
 10
163.4187140112
 20
182.2307782996
 30
0.0
 40
0.5999999999999879
100
AcDbArc
 50
314.9999062639
 51
43.1114144338
  0
LINE
  5
3CD
330
1F
100
AcDbEntity
  8
0
  6
Continuous
 62
     7
370
    25
100
AcDbLine
 10
161.2903962077
 20
179.2539407107
 30
0.0
 11
163.8429773858
 21
181.8065135368
 31
0.0
  0
LINE
  5
3CE
330
1F
100
AcDbEntity
  8
0
  6
Continuous
 62
     7
370
    25
100
AcDbLine
 10
160.3004483336
 20
180.243891824
 30
0.0
 11
161.2903962077
 21
179.2539407107
 31
0.0
  0
ARC
  5
3CF
330
1F
100
AcDbEntity
  8
0
  6
Continuous
 62
     7
370
    25
100
AcDbCircle
 10
161.5091262434
 20
207.0465256232
 30
0.0
 40
0.6000000000000281
100
AcDbArc
 50
320.8566081738
 51
44.9999062639
  0
ARC
  5
3D0
330
1F
100
AcDbEntity
  8
0
  6
Continuous
 62
     7
370
    25
100
AcDbCircle
 10
176.7102699156
 20
194.6737639648
 30
0.0
 40
17.60695885154509
100
AcDbArc
 50
136.888398094
 51
223.1114144338
  0
LINE
  5
3D1
330
1F
100
AcDbEntity
  8
0
  6
Continuous
 62
     7
370
    25
100
AcDbLine
 10
160.3004955483
 20
209.1036897986
 30
0.0
 11
161.9333910062
 21
207.4707889978
 31
0.0
  0
ARC
  5
3D2
330
1F
100
AcDbEntity
  8
0
  6
Continuous
 62
     7
370
    25
100
AcDbCircle
 10
176.7102699156
 20
194.6737639648
 30
0.0
 40
19.00000000000002
100
AcDbArc
 50
140.8566081738
 51
219.143204354
  0
LINE
  5
3D3
330
1F
100
AcDbEntity
  8
0
  6
Continuous
 62
     7
370
    25
100
AcDbLine
 10
244.5775413945
 20
181.8064924859
 30
0.0
 11
247.1301183966
 21
179.2539154838
 31
0.0
  0
ARC
  5
3D4
330
1F
100
AcDbEntity
  8
0
  6
Continuous
 62
     7
370
    25
100
AcDbCircle
 10
245.0018054632
 20
182.2307565546
 30
0.0
 40
0.5999999999999888
100
AcDbArc
 50
136.8884918301
 51
225.0
  0
ARC
  5
3D5
330
1F
100
AcDbEntity
  8
0
  6
Continuous
 62
     7
370
    25
100
AcDbCircle
 10
246.9114338296
 20
182.3010271755
 30
0.0
 40
0.6000000000000089
100
AcDbArc
 50
140.8567019099
 51
225.0
  0
LINE
  5
3D6
330
1F
100
AcDbEntity
  8
0
  6
Continuous
 62
     7
370
    25
100
AcDbLine
 10
248.1200678902
 20
180.2438649774
 30
0.0
 11
246.4871697609
 21
181.8767631067
 31
0.0
  0
LINE
  5
3D7
330
1F
100
AcDbEntity
  8
0
  6
Continuous
 62
     7
370
    25
100
AcDbLine
 10
247.1301183966
 20
179.2539154838
 30
0.0
 11
248.1200678902
 21
180.2438649774
 31
0.0
  0
ARC
  5
3D8
330
1F
100
AcDbEntity
  8
0
  6
Continuous
 62
     7
370
    25
100
AcDbCircle
 10
231.7102699156
 20
194.6737639648
 30
0.0
 40
19.00000000000002
100
AcDbArc
 50
320.8567019099
 51
39.1432980901
  0
LINE
  5
3D9
330
1F
100
AcDbEntity
  8
0
  6
Continuous
 62
     7
370
    25
100
AcDbLine
 10
247.1301183966
 20
210.0936124458
 30
0.0
 11
244.5775413945
 21
207.5410354436
 31
0.0
  0
ARC
  5
3DA
330
1F
100
AcDbEntity
  8
0
  6
Continuous
 62
     7
370
    25
100
AcDbCircle
 10
246.9114338296
 20
207.0465007541
 30
0.0
 40
0.6000000000000089
100
AcDbArc
 50
135.0
 51
219.1432980901
  0
ARC
  5
3DB
330
1F
100
AcDbEntity
  8
0
  6
Continuous
 62
     7
370
    25
100
AcDbCircle
 10
231.7102699156
 20
194.6737639648
 30
0.0
 40
17.60695885154509
100
AcDbArc
 50
316.8884918301
 51
43.1115081699
  0
LINE
  5
3DC
330
1F
100
AcDbEntity
  8
0
  6
Continuous
 62
     7
370
    25
100
AcDbLine
 10
246.4871697609
 20
207.4707648228
 30
0.0
 11
248.1200678902
 21
209.1036629521
 31
0.0
  0
ARC
  5
3DD
330
1F
100
AcDbEntity
  8
0
  6
Continuous
 62
     7
370
    25
100
AcDbCircle
 10
245.0018054632
 20
207.1167713749
 30
0.0
 40
0.5999999999999946
100
AcDbArc
 50
135.0
 51
223.1115081699
  0
LINE
  5
3DE
330
1F
100
AcDbEntity
  8
0
  6
Continuous
 62
     7
370
    25
100
AcDbLine
 10
248.1200678902
 20
209.1036629521
 30
0.0
 11
247.1301183966
 21
210.0936124458
 31
0.0
  0
ARC
  5
3DF
330
1F
100
AcDbEntity
  8
0
  6
Continuous
 62
     7
370
    25
100
AcDbCircle
 10
170.0188283286
 20
200.2338547454
 30
0.0
 40
0.5999999999999879
100
AcDbArc
 50
224.9999062639
 51
320.2759368646
  0
LINE
  5
3E0
330
1F
100
AcDbEntity
  8
0
  6
Continuous
 62
     7
370
    25
100
AcDbLine
 10
168.0977234109
 20
203.2863386498
 30
0.0
 11
167.1077722977
 21
202.2963907757
 31
0.0
  0
LINE
  5
3E1
330
1F
100
AcDbEntity
  8
0
  6
Continuous
 62
     7
370
    25
100
AcDbLine
 10
169.5811161299
 20
201.8029410772
 30
0.0
 11
168.0977234109
 21
203.2863386498
 31
0.0
  0
ARC
  5
3E2
330
1F
100
AcDbEntity
  8
0
  6
Continuous
 62
     7
370
    25
100
AcDbCircle
 10
170.0053808927
 20
202.2272044518
 30
0.0
 40
0.600000000000024
100
AcDbArc
 50
224.9999062639
 51
311.594191418
  0
ARC
  5
3E3
330
1F
100
AcDbEntity
  8
0
  6
Continuous
 62
     7
370
    25
100
AcDbCircle
 10
183.4151836534
 20
202.2271825133
 30
0.0
 40
0.5999999999999986
100
AcDbArc
 50
228.4056211098
 51
314.9999062639
  0
LINE
  5
3E4
330
1F
100
AcDbEntity
  8
0
  6
Continuous
 62
     7
370
    25
100
AcDbLine
 10
186.3127924747
 20
202.2963593562
 30
0.0
 11
185.3228446006
 21
203.2863104694
 31
0.0
  0
ARC
  5
3E5
330
1F
100
AcDbEntity
  8
0
  6
Continuous
 62
     7
370
    25
100
AcDbCircle
 10
183.4017296952
 20
200.2338328509
 30
0.0
 40
0.5999999999999879
100
AcDbArc
 50
219.7238756632
 51
314.9999062639
  0
LINE
  5
3E6
330
1F
100
AcDbEntity
  8
0
  6
Continuous
 62
     7
370
    25
100
AcDbLine
 10
183.8259930698
 20
199.8095680881
 30
0.0
 11
186.3127924747
 21
202.2963593562
 31
0.0
  0
LINE
  5
3E7
330
1F
100
AcDbEntity
  8
0
  6
Continuous
 62
     7
370
    25
100
AcDbLine
 10
167.1077722977
 20
202.2963907757
 30
0.0
 11
169.5945635658
 21
199.8095913708
 31
0.0
  0
ARC
  5
3E8
330
1F
100
AcDbEntity
  8
0
  6
Continuous
 62
     7
370
    25
100
AcDbCircle
 10
176.7102699156
 20
194.6737639648
 30
0.0
 40
8.100000000000032
100
AcDbArc
 50
39.7238756632
 51
140.2759368646
  0
LINE
  5
3E9
330
1F
100
AcDbEntity
  8
0
  6
Continuous
 62
     7
370
    25
100
AcDbLine
 10
185.3228446006
 20
203.2863104694
 30
0.0
 11
183.839447028
 21
201.8029177505
 31
0.0
  0
ARC
  5
3EA
330
1F
100
AcDbEntity
  8
0
  6
Continuous
 62
     7
370
    25
100
AcDbCircle
 10
176.7102699156
 20
194.6737639648
 30
0.0
 40
9.499999999999995
100
AcDbArc
 50
48.4056211098
 51
131.5941914179
  0
ARC
  5
3EB
330
1F
100
AcDbEntity
  8
0
  6
Continuous
 62
     7
370
    25
100
AcDbCircle
 10
225.0188192323
 20
200.2338437981
 30
0.0
 40
0.6000000000000186
100
AcDbArc
 50
225.0
 51
320.2760306007
  0
ARC
  5
3EC
330
1F
100
AcDbEntity
  8
0
  6
Continuous
 62
     7
370
    25
100
AcDbCircle
 10
238.4017205989
 20
200.2338437981
 30
0.0
 40
0.6000000000000186
100
AcDbArc
 50
219.7239693993
 51
315.0
  0
LINE
  5
3ED
330
1F
100
AcDbEntity
  8
0
  6
Continuous
 62
     7
370
    25
100
AcDbLine
 10
223.0977093207
 20
203.2863245596
 30
0.0
 11
222.1077598271
 21
202.296375066
 31
0.0
  0
LINE
  5
3EE
330
1F
100
AcDbEntity
  8
0
  6
Continuous
 62
     7
370
    25
100
AcDbLine
 10
238.8259846676
 20
199.8095797294
 30
0.0
 11
241.3127800041
 21
202.296375066
 31
0.0
  0
ARC
  5
3EF
330
1F
100
AcDbEntity
  8
0
  6
Continuous
 62
     7
370
    25
100
AcDbCircle
 10
231.7102699156
 20
194.6737639648
 30
0.0
 40
8.099999999999971
100
AcDbArc
 50
39.7239693993
 51
140.2760306007
  0
LINE
  5
3F0
330
1F
100
AcDbEntity
  8
0
  6
Continuous
 62
     7
370
    25
100
AcDbLine
 10
241.3127800041
 20
202.296375066
 30
0.0
 11
240.3228305104
 21
203.2863245596
 31
0.0
  0
ARC
  5
3F1
330
1F
100
AcDbEntity
  8
0
  6
Continuous
 62
     7
370
    25
100
AcDbCircle
 10
231.7102699156
 20
194.6737639648
 30
0.0
 40
9.500000000000005
100
AcDbArc
 50
48.4057148459
 51
131.5942851541
  0
LINE
  5
3F2
330
1F
100
AcDbEntity
  8
0
  6
Continuous
 62
     7
370
    25
100
AcDbLine
 10
222.1077598271
 20
202.296375066
 30
0.0
 11
224.5945551636
 21
199.8095797294
 31
0.0
  0
LINE
  5
3F3
330
1F
100
AcDbEntity
  8
0
  6
Continuous
 62
     7
370
    25
100
AcDbLine
 10
240.3228305104
 20
203.2863245596
 30
0.0
 11
238.8394353646
 21
201.8029294138
 31
0.0
  0
LINE
  5
3F4
330
1F
100
AcDbEntity
  8
0
  6
Continuous
 62
     7
370
    25
100
AcDbLine
 10
224.5811044665
 20
201.8029294138
 30
0.0
 11
223.0977093207
 21
203.2863245596
 31
0.0
  0
ARC
  5
3F5
330
1F
100
AcDbEntity
  8
0
  6
Continuous
 62
     7
370
    25
100
AcDbCircle
 10
225.0053685352
 20
202.2271934825
 30
0.0
 40
0.6000000000000038
100
AcDbArc
 50
225.0
 51
311.5942851541
  0
ARC
  5
3F6
330
1F
100
AcDbEntity
  8
0
  6
Continuous
 62
     7
370
    25
100
AcDbCircle
 10
238.4151712959
 20
202.2271934825
 30
0.0
 40
0.5999999999999888
100
AcDbArc
 50
228.4057148459
 51
315.0
  0
CIRCLE
  5
3F7
330
1F
100
AcDbEntity
  8
0
  6
Continuous
 62
     7
370
    25
100
AcDbCircle
 10
231.7102699156
 20
194.6737639648
 30
0.0
 40
1.0
  0
CIRCLE
  5
3F8
330
1F
100
AcDbEntity
  8
0
  6
Continuous
 62
     7
370
    25
100
AcDbCircle
 10
176.7102699156
 20
194.6737639648
 30
0.0
 40
1.000000000000028
  0
LINE
  5
3F9
330
1F
100
AcDbEntity
  8
0
  6
Continuous
 62
     7
370
    25
100
AcDbLine
 10
241.3127800041
 20
187.0511528636
 30
0.0
 11
238.8259846676
 21
189.5379482001
 31
0.0
  0
LINE
  5
3FA
330
1F
100
AcDbEntity
  8
0
  6
Continuous
 62
     7
370
    25
100
AcDbLine
 10
240.3228305104
 20
186.0612033699
 30
0.0
 11
241.3127800041
 21
187.0511528636
 31
0.0
  0
LINE
  5
3FB
330
1F
100
AcDbEntity
  8
0
  6
Continuous
 62
     7
370
    25
100
AcDbLine
 10
238.8394353646
 20
187.5445985157
 30
0.0
 11
240.3228305104
 21
186.0612033699
 31
0.0
  0
ARC
  5
3FC
330
1F
100
AcDbEntity
  8
0
  6
Continuous
 62
     7
370
    25
100
AcDbCircle
 10
238.4151712959
 20
187.120334447
 30
0.0
 40
0.6000000000000062
100
AcDbArc
 50
45.0
 51
131.5942851541
  0
ARC
  5
3FD
330
1F
100
AcDbEntity
  8
0
  6
Continuous
 62
     7
370
    25
100
AcDbCircle
 10
231.7102699156
 20
194.6737639648
 30
0.0
 40
9.500000000000005
100
AcDbArc
 50
228.4057148459
 51
311.5942851541
  0
ARC
  5
3FE
330
1F
100
AcDbEntity
  8
0
  6
Continuous
 62
     7
370
    25
100
AcDbCircle
 10
225.0053685352
 20
187.120334447
 30
0.0
 40
0.6000000000000251
100
AcDbArc
 50
48.4057148459
 51
135.0
  0
LINE
  5
3FF
330
1F
100
AcDbEntity
  8
0
  6
Continuous
 62
     7
370
    25
100
AcDbLine
 10
223.0977093207
 20
186.0612033699
 30
0.0
 11
224.5811044665
 21
187.5445985157
 31
0.0
  0
LINE
  5
400
330
1F
100
AcDbEntity
  8
0
  6
Continuous
 62
     7
370
    25
100
AcDbLine
 10
222.1077598271
 20
187.0511528636
 30
0.0
 11
223.0977093207
 21
186.0612033699
 31
0.0
  0
LINE
  5
401
330
1F
100
AcDbEntity
  8
0
  6
Continuous
 62
     7
370
    25
100
AcDbLine
 10
224.5945551636
 20
189.5379482001
 30
0.0
 11
222.1077598271
 21
187.0511528636
 31
0.0
  0
ARC
  5
402
330
1F
100
AcDbEntity
  8
0
  6
Continuous
 62
     7
370
    25
100
AcDbCircle
 10
225.0188192323
 20
189.1136841314
 30
0.0
 40
0.6000000000000089
100
AcDbArc
 50
39.7239693993
 51
135.0
  0
ARC
  5
403
330
1F
100
AcDbEntity
  8
0
  6
Continuous
 62
     7
370
    25
100
AcDbCircle
 10
231.7102699156
 20
194.6737639648
 30
0.0
 40
8.100000000000009
100
AcDbArc
 50
219.7239693993
 51
320.2760306007
  0
ARC
  5
404
330
1F
100
AcDbEntity
  8
0
  6
Continuous
 62
     7
370
    25
100
AcDbCircle
 10
238.4017205989
 20
189.1136841314
 30
0.0
 40
0.6000000000000186
100
AcDbArc
 50
45.0
 51
140.2760306007
  0
LINE
  5
405
330
1F
100
AcDbEntity
  8
0
  6
Continuous
 62
     7
370
    25
100
AcDbLine
 10
185.3228164202
 20
186.0611892797
 30
0.0
 11
186.3127675335
 21
187.0511371538
 31
0.0
  0
LINE
  5
406
330
1F
100
AcDbEntity
  8
0
  6
Continuous
 62
     7
370
    25
100
AcDbLine
 10
167.1077473565
 20
187.0511685733
 30
0.0
 11
168.0976952306
 21
186.0612174601
 31
0.0
  0
LINE
  5
407
330
1F
100
AcDbEntity
  8
0
  6
Continuous
 62
     7
370
    25
100
AcDbLine
 10
186.3127675335
 20
187.0511371538
 30
0.0
 11
183.8259762653
 21
189.5379365588
 31
0.0
  0
LINE
  5
408
330
1F
100
AcDbEntity
  8
0
  6
Continuous
 62
     7
370
    25
100
AcDbLine
 10
169.5945467614
 20
189.5379598415
 30
0.0
 11
167.1077473565
 21
187.0511685733
 31
0.0
  0
LINE
  5
409
330
1F
100
AcDbEntity
  8
0
  6
Continuous
 62
     7
370
    25
100
AcDbLine
 10
168.0976952306
 20
186.0612174601
 30
0.0
 11
169.5810928032
 21
187.5446101791
 31
0.0
  0
ARC
  5
40A
330
1F
100
AcDbEntity
  8
0
  6
Continuous
 62
     7
370
    25
100
AcDbCircle
 10
176.7102699156
 20
194.6737639648
 30
0.0
 40
9.500000000000034
100
AcDbArc
 50
228.4056211098
 51
311.5941914179
  0
ARC
  5
40B
330
1F
100
AcDbEntity
  8
0
  6
Continuous
 62
     7
370
    25
100
AcDbCircle
 10
170.018810136
 20
189.1136950786
 30
0.0
 40
0.5999999999999879
100
AcDbArc
 50
39.7238756632
 51
134.9999062639
  0
LINE
  5
40C
330
1F
100
AcDbEntity
  8
0
  6
Continuous
 62
     7
370
    25
100
AcDbLine
 10
183.8394237013
 20
187.5445868524
 30
0.0
 11
185.3228164202
 21
186.0611892797
 31
0.0
  0
ARC
  5
40D
330
1F
100
AcDbEntity
  8
0
  6
Continuous
 62
     7
370
    25
100
AcDbCircle
 10
176.7102699156
 20
194.6737639648
 30
0.0
 40
8.100000000000033
100
AcDbArc
 50
219.7238756632
 51
320.2759368646
  0
ARC
  5
40E
330
1F
100
AcDbEntity
  8
0
  6
Continuous
 62
     7
370
    25
100
AcDbCircle
 10
183.4017115025
 20
189.1136731842
 30
0.0
 40
0.6000000000000281
100
AcDbArc
 50
44.9999062639
 51
140.2759368646
  0
ARC
  5
40F
330
1F
100
AcDbEntity
  8
0
  6
Continuous
 62
     7
370
    25
100
AcDbCircle
 10
170.0053561778
 20
187.1203454163
 30
0.0
 40
0.600000000000008
100
AcDbArc
 50
48.4056211098
 51
134.9999062639
  0
ARC
  5
410
330
1F
100
AcDbEntity
  8
0
  6
Continuous
 62
     7
370
    25
100
AcDbCircle
 10
183.4151589385
 20
187.1203234778
 30
0.0
 40
0.6000000000000281
100
AcDbArc
 50
44.9999062639
 51
131.5941914179
  0
LINE
  5
411
330
1F
100
AcDbEntity
  8
0
  6
Continuous
 62
     7
370
    25
100
AcDbLine
 10
216.9333700702
 20
131.8767629877
 30
0.0
 11
215.3004719409
 21
130.2438648584
 31
0.0
  0
ARC
  5
412
330
1F
100
AcDbEntity
  8
0
  6
Continuous
 62
     7
370
    25
100
AcDbCircle
 10
216.5091060015
 20
132.3010270564
 30
0.0
 40
0.6000000000000444
100
AcDbArc
 50
315.0
 51
39.1432980901
  0
ARC
  5
413
330
1F
100
AcDbEntity
  8
0
  6
Continuous
 62
     7
370
    25
100
AcDbCircle
 10
231.7102699156
 20
144.6737638457
 30
0.0
 40
18.99999999999998
100
AcDbArc
 50
140.8567019099
 51
219.1432980901
  0
ARC
  5
414
330
1F
100
AcDbEntity
  8
0
  6
Continuous
 62
     7
370
    25
100
AcDbCircle
 10
216.5091060015
 20
157.046500635
 30
0.0
 40
0.6000000000000264
100
AcDbArc
 50
320.8567019099
 51
45.0
  0
LINE
  5
415
330
1F
100
AcDbEntity
  8
0
  6
Continuous
 62
     7
370
    25
100
AcDbLine
 10
215.3004719409
 20
159.103662833
 30
0.0
 11
216.9333700702
 21
157.4707647037
 31
0.0
  0
LINE
  5
416
330
1F
100
AcDbEntity
  8
0
  6
Continuous
 62
     7
370
    25
100
AcDbLine
 10
216.2904214346
 20
160.0936123267
 30
0.0
 11
215.3004719409
 21
159.103662833
 31
0.0
  0
LINE
  5
417
330
1F
100
AcDbEntity
  8
0
  6
Continuous
 62
     7
370
    25
100
AcDbLine
 10
218.8429984367
 20
157.5410353246
 30
0.0
 11
216.2904214346
 21
160.0936123267
 31
0.0
  0
ARC
  5
418
330
1F
100
AcDbEntity
  8
0
  6
Continuous
 62
     7
370
    25
100
AcDbCircle
 10
218.418734368
 20
157.1167712559
 30
0.0
 40
0.600000000000029
100
AcDbArc
 50
316.8884918301
 51
45.0
  0
ARC
  5
419
330
1F
100
AcDbEntity
  8
0
  6
Continuous
 62
     7
370
    25
100
AcDbCircle
 10
231.7102699156
 20
144.6737638457
 30
0.0
 40
17.60695885154505
100
AcDbArc
 50
136.8884918301
 51
223.1115081699
  0
ARC
  5
41A
330
1F
100
AcDbEntity
  8
0
  6
Continuous
 62
     7
370
    25
100
AcDbCircle
 10
218.418734368
 20
132.2307564355
 30
0.0
 40
0.6000000000000167
100
AcDbArc
 50
315.0
 51
43.1115081699
  0
LINE
  5
41B
330
1F
100
AcDbEntity
  8
0
  6
Continuous
 62
     7
370
    25
100
AcDbLine
 10
216.2904214346
 20
129.2539153647
 30
0.0
 11
218.8429984367
 21
131.8064923668
 31
0.0
  0
LINE
  5
41C
330
1F
100
AcDbEntity
  8
0
  6
Continuous
 62
     7
370
    25
100
AcDbLine
 10
215.3004719409
 20
130.2438648584
 30
0.0
 11
216.2904214346
 21
129.2539153647
 31
0.0
  0
LINE
  5
41D
330
1F
100
AcDbEntity
  8
0
  6
Continuous
 62
     7
370
    25
100
AcDbLine
 10
161.9333700702
 20
131.8767629877
 30
0.0
 11
160.3004719409
 21
130.2438648584
 31
0.0
  0
ARC
  5
41E
330
1F
100
AcDbEntity
  8
0
  6
Continuous
 62
     7
370
    25
100
AcDbCircle
 10
161.5091060015
 20
132.3010270564
 30
0.0
 40
0.6000000000000444
100
AcDbArc
 50
315.0
 51
39.1432980901
  0
ARC
  5
41F
330
1F
100
AcDbEntity
  8
0
  6
Continuous
 62
     7
370
    25
100
AcDbCircle
 10
176.7102699156
 20
144.6737638457
 30
0.0
 40
19.00000000000002
100
AcDbArc
 50
140.8567019099
 51
219.1432980901
  0
ARC
  5
420
330
1F
100
AcDbEntity
  8
0
  6
Continuous
 62
     7
370
    25
100
AcDbCircle
 10
161.5091060015
 20
157.046500635
 30
0.0
 40
0.5999999999999888
100
AcDbArc
 50
320.8567019099
 51
45.0
  0
LINE
  5
421
330
1F
100
AcDbEntity
  8
0
  6
Continuous
 62
     7
370
    25
100
AcDbLine
 10
160.3004719409
 20
159.103662833
 30
0.0
 11
161.9333700702
 21
157.4707647037
 31
0.0
  0
LINE
  5
422
330
1F
100
AcDbEntity
  8
0
  6
Continuous
 62
     7
370
    25
100
AcDbLine
 10
161.2904214346
 20
160.0936123267
 30
0.0
 11
160.3004719409
 21
159.103662833
 31
0.0
  0
LINE
  5
423
330
1F
100
AcDbEntity
  8
0
  6
Continuous
 62
     7
370
    25
100
AcDbLine
 10
163.8429984367
 20
157.5410353246
 30
0.0
 11
161.2904214346
 21
160.0936123267
 31
0.0
  0
ARC
  5
424
330
1F
100
AcDbEntity
  8
0
  6
Continuous
 62
     7
370
    25
100
AcDbCircle
 10
163.418734368
 20
157.1167712559
 30
0.0
 40
0.6000000000000089
100
AcDbArc
 50
316.8884918301
 51
45.0
  0
ARC
  5
425
330
1F
100
AcDbEntity
  8
0
  6
Continuous
 62
     7
370
    25
100
AcDbCircle
 10
163.418734368
 20
132.2307564355
 30
0.0
 40
0.5999999999999687
100
AcDbArc
 50
315.0
 51
43.1115081699
  0
LINE
  5
426
330
1F
100
AcDbEntity
  8
0
  6
Continuous
 62
     7
370
    25
100
AcDbLine
 10
161.2904214346
 20
129.2539153647
 30
0.0
 11
163.8429984367
 21
131.8064923668
 31
0.0
  0
LINE
  5
427
330
1F
100
AcDbEntity
  8
0
  6
Continuous
 62
     7
370
    25
100
AcDbLine
 10
160.3004719409
 20
130.2438648584
 30
0.0
 11
161.2904214346
 21
129.2539153647
 31
0.0
  0
ARC
  5
428
330
1F
100
AcDbEntity
  8
0
  6
Continuous
 62
     7
370
    25
100
AcDbCircle
 10
176.7102699156
 20
144.6737638457
 30
0.0
 40
17.60695885154509
100
AcDbArc
 50
136.8884918301
 51
223.1115081699
  0
LINE
  5
429
330
1F
100
AcDbEntity
  8
0
  6
Continuous
 62
     7
370
    25
100
AcDbLine
 10
244.5775413945
 20
131.8064923668
 30
0.0
 11
247.1301183966
 21
129.2539153647
 31
0.0
  0
ARC
  5
42A
330
1F
100
AcDbEntity
  8
0
  6
Continuous
 62
     7
370
    25
100
AcDbCircle
 10
245.0018054632
 20
132.2307564355
 30
0.0
 40
0.5999999999999888
100
AcDbArc
 50
136.8884918301
 51
225.0
  0
ARC
  5
42B
330
1F
100
AcDbEntity
  8
0
  6
Continuous
 62
     7
370
    25
100
AcDbCircle
 10
231.7102699156
 20
144.6737638457
 30
0.0
 40
17.60695885154509
100
AcDbArc
 50
316.8884918301
 51
43.1115081699
  0
LINE
  5
42C
330
1F
100
AcDbEntity
  8
0
  6
Continuous
 62
     7
370
    25
100
AcDbLine
 10
248.1200678902
 20
159.103662833
 30
0.0
 11
247.1301183966
 21
160.0936123267
 31
0.0
  0
ARC
  5
42D
330
1F
100
AcDbEntity
  8
0
  6
Continuous
 62
     7
370
    25
100
AcDbCircle
 10
246.9114338296
 20
157.046500635
 30
0.0
 40
0.6000000000000084
100
AcDbArc
 50
135.0
 51
219.1432980901
  0
ARC
  5
42E
330
1F
100
AcDbEntity
  8
0
  6
Continuous
 62
     7
370
    25
100
AcDbCircle
 10
231.7102699156
 20
144.6737638457
 30
0.0
 40
19.00000000000002
100
AcDbArc
 50
320.8567019099
 51
39.1432980901
  0
ARC
  5
42F
330
1F
100
AcDbEntity
  8
0
  6
Continuous
 62
     7
370
    25
100
AcDbCircle
 10
246.9114338296
 20
132.3010270564
 30
0.0
 40
0.6000000000000264
100
AcDbArc
 50
140.8567019099
 51
225.0
  0
LINE
  5
430
330
1F
100
AcDbEntity
  8
0
  6
Continuous
 62
     7
370
    25
100
AcDbLine
 10
248.1200678902
 20
130.2438648584
 30
0.0
 11
246.4871697609
 21
131.8767629877
 31
0.0
  0
LINE
  5
431
330
1F
100
AcDbEntity
  8
0
  6
Continuous
 62
     7
370
    25
100
AcDbLine
 10
247.1301183966
 20
129.2539153647
 30
0.0
 11
248.1200678902
 21
130.2438648584
 31
0.0
  0
ARC
  5
432
330
1F
100
AcDbEntity
  8
0
  6
Continuous
 62
     7
370
    25
100
AcDbCircle
 10
245.0018054632
 20
157.1167712559
 30
0.0
 40
0.6000000000000089
100
AcDbArc
 50
135.0
 51
223.1115081699
  0
LINE
  5
433
330
1F
100
AcDbEntity
  8
0
  6
Continuous
 62
     7
370
    25
100
AcDbLine
 10
247.1301183966
 20
160.0936123267
 30
0.0
 11
244.5775413945
 21
157.5410353246
 31
0.0
  0
LINE
  5
434
330
1F
100
AcDbEntity
  8
0
  6
Continuous
 62
     7
370
    25
100
AcDbLine
 10
246.4871697609
 20
157.4707647037
 30
0.0
 11
248.1200678902
 21
159.103662833
 31
0.0
  0
LINE
  5
435
330
1F
100
AcDbEntity
  8
0
  6
Continuous
 62
     7
370
    25
100
AcDbLine
 10
189.5775413945
 20
131.8064923668
 30
0.0
 11
192.1301183966
 21
129.2539153647
 31
0.0
  0
ARC
  5
436
330
1F
100
AcDbEntity
  8
0
  6
Continuous
 62
     7
370
    25
100
AcDbCircle
 10
190.0018054632
 20
132.2307564355
 30
0.0
 40
0.5999999999999888
100
AcDbArc
 50
136.8884918301
 51
225.0
  0
ARC
  5
437
330
1F
100
AcDbEntity
  8
0
  6
Continuous
 62
     7
370
    25
100
AcDbCircle
 10
191.9114338296
 20
132.3010270564
 30
0.0
 40
0.6000000000000223
100
AcDbArc
 50
140.8567019099
 51
225.0
  0
LINE
  5
438
330
1F
100
AcDbEntity
  8
0
  6
Continuous
 62
     7
370
    25
100
AcDbLine
 10
193.1200678902
 20
130.2438648584
 30
0.0
 11
191.4871697609
 21
131.8767629877
 31
0.0
  0
LINE
  5
439
330
1F
100
AcDbEntity
  8
0
  6
Continuous
 62
     7
370
    25
100
AcDbLine
 10
192.1301183966
 20
129.2539153647
 30
0.0
 11
193.1200678902
 21
130.2438648584
 31
0.0
  0
ARC
  5
43A
330
1F
100
AcDbEntity
  8
0
  6
Continuous
 62
     7
370
    25
100
AcDbCircle
 10
176.7102699156
 20
144.6737638457
 30
0.0
 40
18.99999999999998
100
AcDbArc
 50
320.8567019099
 51
39.1432980901
  0
ARC
  5
43B
330
1F
100
AcDbEntity
  8
0
  6
Continuous
 62
     7
370
    25
100
AcDbCircle
 10
191.9114338296
 20
157.046500635
 30
0.0
 40
0.6000000000000084
100
AcDbArc
 50
135.0
 51
219.1432980901
  0
LINE
  5
43C
330
1F
100
AcDbEntity
  8
0
  6
Continuous
 62
     7
370
    25
100
AcDbLine
 10
191.4871697609
 20
157.4707647037
 30
0.0
 11
193.1200678902
 21
159.103662833
 31
0.0
  0
LINE
  5
43D
330
1F
100
AcDbEntity
  8
0
  6
Continuous
 62
     7
370
    25
100
AcDbLine
 10
192.1301183966
 20
160.0936123267
 30
0.0
 11
189.5775413945
 21
157.5410353246
 31
0.0
  0
LINE
  5
43E
330
1F
100
AcDbEntity
  8
0
  6
Continuous
 62
     7
370
    25
100
AcDbLine
 10
193.1200678902
 20
159.103662833
 30
0.0
 11
192.1301183966
 21
160.0936123267
 31
0.0
  0
ARC
  5
43F
330
1F
100
AcDbEntity
  8
0
  6
Continuous
 62
     7
370
    25
100
AcDbCircle
 10
190.0018054632
 20
157.1167712559
 30
0.0
 40
0.5999999999999959
100
AcDbArc
 50
135.0
 51
223.1115081699
  0
ARC
  5
440
330
1F
100
AcDbEntity
  8
0
  6
Continuous
 62
     7
370
    25
100
AcDbCircle
 10
176.7102699156
 20
144.6737638457
 30
0.0
 40
17.60695885154507
100
AcDbArc
 50
316.8884918301
 51
43.1115081699
  0
ARC
  5
441
330
1F
100
AcDbEntity
  8
0
  6
Continuous
 62
     7
370
    25
100
AcDbCircle
 10
170.0188192323
 20
150.2338436791
 30
0.0
 40
0.6000000000000089
100
AcDbArc
 50
225.0
 51
320.2760306007
  0
LINE
  5
442
330
1F
100
AcDbEntity
  8
0
  6
Continuous
 62
     7
370
    25
100
AcDbLine
 10
167.1077598271
 20
152.2963749469
 30
0.0
 11
169.5945551636
 21
149.8095796104
 31
0.0
  0
LINE
  5
443
330
1F
100
AcDbEntity
  8
0
  6
Continuous
 62
     7
370
    25
100
AcDbLine
 10
168.0977093207
 20
153.2863244406
 30
0.0
 11
167.1077598271
 21
152.2963749469
 31
0.0
  0
LINE
  5
444
330
1F
100
AcDbEntity
  8
0
  6
Continuous
 62
     7
370
    25
100
AcDbLine
 10
169.5811044665
 20
151.8029292948
 30
0.0
 11
168.0977093207
 21
153.2863244406
 31
0.0
  0
LINE
  5
445
330
1F
100
AcDbEntity
  8
0
  6
Continuous
 62
     7
370
    25
100
AcDbLine
 10
186.3127800041
 20
152.2963749469
 30
0.0
 11
185.3228305104
 21
153.2863244406
 31
0.0
  0
ARC
  5
446
330
1F
100
AcDbEntity
  8
0
  6
Continuous
 62
     7
370
    25
100
AcDbCircle
 10
176.7102699156
 20
144.6737638457
 30
0.0
 40
8.100000000000012
100
AcDbArc
 50
39.7239693993
 51
140.2760306007
  0
LINE
  5
447
330
1F
100
AcDbEntity
  8
0
  6
Continuous
 62
     7
370
    25
100
AcDbLine
 10
183.8259846676
 20
149.8095796104
 30
0.0
 11
186.3127800041
 21
152.2963749469
 31
0.0
  0
LINE
  5
448
330
1F
100
AcDbEntity
  8
0
  6
Continuous
 62
     7
370
    25
100
AcDbLine
 10
185.3228305104
 20
153.2863244406
 30
0.0
 11
183.8394353646
 21
151.8029292948
 31
0.0
  0
ARC
  5
449
330
1F
100
AcDbEntity
  8
0
  6
Continuous
 62
     7
370
    25
100
AcDbCircle
 10
176.7102699156
 20
144.6737638457
 30
0.0
 40
9.500000000000007
100
AcDbArc
 50
48.4057148459
 51
131.5942851541
  0
ARC
  5
44A
330
1F
100
AcDbEntity
  8
0
  6
Continuous
 62
     7
370
    25
100
AcDbCircle
 10
183.4017205989
 20
150.2338436791
 30
0.0
 40
0.600000000000029
100
AcDbArc
 50
219.7239693993
 51
315.0
  0
ARC
  5
44B
330
1F
100
AcDbEntity
  8
0
  6
Continuous
 62
     7
370
    25
100
AcDbCircle
 10
183.4151712959
 20
152.2271933635
 30
0.0
 40
0.5999999999999888
100
AcDbArc
 50
228.4057148459
 51
315.0
  0
ARC
  5
44C
330
1F
100
AcDbEntity
  8
0
  6
Continuous
 62
     7
370
    25
100
AcDbCircle
 10
170.0053685352
 20
152.2271933635
 30
0.0
 40
0.6000000000000089
100
AcDbArc
 50
225.0
 51
311.5942851541
  0
ARC
  5
44D
330
1F
100
AcDbEntity
  8
0
  6
Continuous
 62
     7
370
    25
100
AcDbCircle
 10
225.0188192323
 20
150.2338436791
 30
0.0
 40
0.600000000000029
100
AcDbArc
 50
225.0
 51
320.2760306007
  0
LINE
  5
44E
330
1F
100
AcDbEntity
  8
0
  6
Continuous
 62
     7
370
    25
100
AcDbLine
 10
222.1077598271
 20
152.2963749469
 30
0.0
 11
224.5945551636
 21
149.8095796104
 31
0.0
  0
LINE
  5
44F
330
1F
100
AcDbEntity
  8
0
  6
Continuous
 62
     7
370
    25
100
AcDbLine
 10
223.0977093207
 20
153.2863244406
 30
0.0
 11
222.1077598271
 21
152.2963749469
 31
0.0
  0
ARC
  5
450
330
1F
100
AcDbEntity
  8
0
  6
Continuous
 62
     7
370
    25
100
AcDbCircle
 10
238.4151712959
 20
152.2271933635
 30
0.0
 40
0.6000000000000038
100
AcDbArc
 50
228.4057148459
 51
315.0
  0
ARC
  5
451
330
1F
100
AcDbEntity
  8
0
  6
Continuous
 62
     7
370
    25
100
AcDbCircle
 10
231.7102699156
 20
144.6737638457
 30
0.0
 40
8.100000000000012
100
AcDbArc
 50
39.7239693993
 51
140.2760306007
  0
LINE
  5
452
330
1F
100
AcDbEntity
  8
0
  6
Continuous
 62
     7
370
    25
100
AcDbLine
 10
238.8259846676
 20
149.8095796104
 30
0.0
 11
241.3127800041
 21
152.2963749469
 31
0.0
  0
ARC
  5
453
330
1F
100
AcDbEntity
  8
0
  6
Continuous
 62
     7
370
    25
100
AcDbCircle
 10
238.4017205989
 20
150.2338436791
 30
0.0
 40
0.6000000000000186
100
AcDbArc
 50
219.7239693993
 51
315.0
  0
LINE
  5
454
330
1F
100
AcDbEntity
  8
0
  6
Continuous
 62
     7
370
    25
100
AcDbLine
 10
240.3228305104
 20
153.2863244406
 30
0.0
 11
238.8394353646
 21
151.8029292948
 31
0.0
  0
ARC
  5
455
330
1F
100
AcDbEntity
  8
0
  6
Continuous
 62
     7
370
    25
100
AcDbCircle
 10
225.0053685352
 20
152.2271933635
 30
0.0
 40
0.5999999999999888
100
AcDbArc
 50
225.0
 51
311.5942851541
  0
LINE
  5
456
330
1F
100
AcDbEntity
  8
0
  6
Continuous
 62
     7
370
    25
100
AcDbLine
 10
241.3127800041
 20
152.2963749469
 30
0.0
 11
240.3228305104
 21
153.2863244406
 31
0.0
  0
LINE
  5
457
330
1F
100
AcDbEntity
  8
0
  6
Continuous
 62
     7
370
    25
100
AcDbLine
 10
224.5811044665
 20
151.8029292948
 30
0.0
 11
223.0977093207
 21
153.2863244406
 31
0.0
  0
ARC
  5
458
330
1F
100
AcDbEntity
  8
0
  6
Continuous
 62
     7
370
    25
100
AcDbCircle
 10
231.7102699156
 20
144.6737638457
 30
0.0
 40
9.500000000000027
100
AcDbArc
 50
48.4057148459
 51
131.5942851541
  0
CIRCLE
  5
459
330
1F
100
AcDbEntity
  8
0
  6
Continuous
 62
     7
370
    25
100
AcDbCircle
 10
176.7102699156
 20
144.6737638457
 30
0.0
 40
1.0
  0
CIRCLE
  5
45A
330
1F
100
AcDbEntity
  8
0
  6
Continuous
 62
     7
370
    25
100
AcDbCircle
 10
231.7102699156
 20
144.6737638457
 30
0.0
 40
1.0
  0
LINE
  5
45B
330
1F
100
AcDbEntity
  8
0
  6
Continuous
 62
     7
370
    25
100
AcDbLine
 10
241.3127800041
 20
137.0511527445
 30
0.0
 11
238.8259846676
 21
139.537948081
 31
0.0
  0
LINE
  5
45C
330
1F
100
AcDbEntity
  8
0
  6
Continuous
 62
     7
370
    25
100
AcDbLine
 10
240.3228305104
 20
136.0612032508
 30
0.0
 11
241.3127800041
 21
137.0511527445
 31
0.0
  0
LINE
  5
45D
330
1F
100
AcDbEntity
  8
0
  6
Continuous
 62
     7
370
    25
100
AcDbLine
 10
238.8394353646
 20
137.5445983966
 30
0.0
 11
240.3228305104
 21
136.0612032508
 31
0.0
  0
ARC
  5
45E
330
1F
100
AcDbEntity
  8
0
  6
Continuous
 62
     7
370
    25
100
AcDbCircle
 10
238.4151712959
 20
137.1203343279
 30
0.0
 40
0.6000000000000089
100
AcDbArc
 50
45.0
 51
131.5942851541
  0
ARC
  5
45F
330
1F
100
AcDbEntity
  8
0
  6
Continuous
 62
     7
370
    25
100
AcDbCircle
 10
231.7102699156
 20
144.6737638457
 30
0.0
 40
9.500000000000027
100
AcDbArc
 50
228.4057148459
 51
311.5942851541
  0
ARC
  5
460
330
1F
100
AcDbEntity
  8
0
  6
Continuous
 62
     7
370
    25
100
AcDbCircle
 10
225.0053685352
 20
137.1203343279
 30
0.0
 40
0.6000000000000089
100
AcDbArc
 50
48.4057148459
 51
135.0
  0
LINE
  5
461
330
1F
100
AcDbEntity
  8
0
  6
Continuous
 62
     7
370
    25
100
AcDbLine
 10
223.0977093207
 20
136.0612032508
 30
0.0
 11
224.5811044665
 21
137.5445983966
 31
0.0
  0
LINE
  5
462
330
1F
100
AcDbEntity
  8
0
  6
Continuous
 62
     7
370
    25
100
AcDbLine
 10
222.1077598271
 20
137.0511527445
 30
0.0
 11
223.0977093207
 21
136.0612032508
 31
0.0
  0
LINE
  5
463
330
1F
100
AcDbEntity
  8
0
  6
Continuous
 62
     7
370
    25
100
AcDbLine
 10
224.5945551636
 20
139.537948081
 30
0.0
 11
222.1077598271
 21
137.0511527445
 31
0.0
  0
ARC
  5
464
330
1F
100
AcDbEntity
  8
0
  6
Continuous
 62
     7
370
    25
100
AcDbCircle
 10
225.0188192323
 20
139.1136840123
 30
0.0
 40
0.6000000000000186
100
AcDbArc
 50
39.7239693993
 51
135.0
  0
ARC
  5
465
330
1F
100
AcDbEntity
  8
0
  6
Continuous
 62
     7
370
    25
100
AcDbCircle
 10
231.7102699156
 20
144.6737638457
 30
0.0
 40
8.099999999999994
100
AcDbArc
 50
219.7239693993
 51
320.2760306007
  0
ARC
  5
466
330
1F
100
AcDbEntity
  8
0
  6
Continuous
 62
     7
370
    25
100
AcDbCircle
 10
238.4017205989
 20
139.1136840123
 30
0.0
 40
0.6000000000000186
100
AcDbArc
 50
45.0
 51
140.2760306007
  0
LINE
  5
467
330
1F
100
AcDbEntity
  8
0
  6
Continuous
 62
     7
370
    25
100
AcDbLine
 10
186.3127800041
 20
137.0511527445
 30
0.0
 11
183.8259846676
 21
139.537948081
 31
0.0
  0
LINE
  5
468
330
1F
100
AcDbEntity
  8
0
  6
Continuous
 62
     7
370
    25
100
AcDbLine
 10
185.3228305104
 20
136.0612032508
 30
0.0
 11
186.3127800041
 21
137.0511527445
 31
0.0
  0
LINE
  5
469
330
1F
100
AcDbEntity
  8
0
  6
Continuous
 62
     7
370
    25
100
AcDbLine
 10
183.8394353646
 20
137.5445983966
 30
0.0
 11
185.3228305104
 21
136.0612032508
 31
0.0
  0
ARC
  5
46A
330
1F
100
AcDbEntity
  8
0
  6
Continuous
 62
     7
370
    25
100
AcDbCircle
 10
183.4151712959
 20
137.1203343279
 30
0.0
 40
0.600000000000029
100
AcDbArc
 50
45.0
 51
131.5942851541
  0
ARC
  5
46B
330
1F
100
AcDbEntity
  8
0
  6
Continuous
 62
     7
370
    25
100
AcDbCircle
 10
176.7102699156
 20
144.6737638457
 30
0.0
 40
9.500000000000007
100
AcDbArc
 50
228.4057148459
 51
311.5942851541
  0
ARC
  5
46C
330
1F
100
AcDbEntity
  8
0
  6
Continuous
 62
     7
370
    25
100
AcDbCircle
 10
170.0053685352
 20
137.1203343279
 30
0.0
 40
0.600000000000049
100
AcDbArc
 50
48.4057148459
 51
135.0
  0
LINE
  5
46D
330
1F
100
AcDbEntity
  8
0
  6
Continuous
 62
     7
370
    25
100
AcDbLine
 10
168.0977093207
 20
136.0612032508
 30
0.0
 11
169.5811044665
 21
137.5445983966
 31
0.0
  0
LINE
  5
46E
330
1F
100
AcDbEntity
  8
0
  6
Continuous
 62
     7
370
    25
100
AcDbLine
 10
167.1077598271
 20
137.0511527445
 30
0.0
 11
168.0977093207
 21
136.0612032508
 31
0.0
  0
LINE
  5
46F
330
1F
100
AcDbEntity
  8
0
  6
Continuous
 62
     7
370
    25
100
AcDbLine
 10
169.5945551636
 20
139.537948081
 30
0.0
 11
167.1077598271
 21
137.0511527445
 31
0.0
  0
ARC
  5
470
330
1F
100
AcDbEntity
  8
0
  6
Continuous
 62
     7
370
    25
100
AcDbCircle
 10
170.0188192323
 20
139.1136840123
 30
0.0
 40
0.6000000000000186
100
AcDbArc
 50
39.7239693993
 51
135.0
  0
ARC
  5
471
330
1F
100
AcDbEntity
  8
0
  6
Continuous
 62
     7
370
    25
100
AcDbCircle
 10
176.7102699156
 20
144.6737638457
 30
0.0
 40
8.099999999999994
100
AcDbArc
 50
219.7239693993
 51
320.2760306007
  0
ARC
  5
472
330
1F
100
AcDbEntity
  8
0
  6
Continuous
 62
     7
370
    25
100
AcDbCircle
 10
183.4017205989
 20
139.1136840123
 30
0.0
 40
0.6000000000000089
100
AcDbArc
 50
45.0
 51
140.2760306007
  0
LINE
  5
473
330
1F
100
AcDbEntity
  8
0
  6
Continuous
 62
     7
370
    25
100
AcDbLine
 10
149.5102699156
 20
104.4737638457
 30
0.0
 11
258.9102699156
 21
104.4737638457
 31
0.0
  0
LINE
  5
474
330
1F
100
AcDbEntity
  8
0
  6
Continuous
 62
     7
370
    25
100
AcDbLine
 10
149.5102699156
 20
222.4737638457
 30
0.0
 11
149.5102699156
 21
104.4737638457
 31
0.0
  0
LINE
  5
475
330
1F
100
AcDbEntity
  8
0
  6
Continuous
 62
     7
370
    25
100
AcDbLine
 10
258.9102699156
 20
222.4737638457
 30
0.0
 11
149.5102699156
 21
222.4737638457
 31
0.0
  0
LINE
  5
476
330
1F
100
AcDbEntity
  8
0
  6
Continuous
 62
     7
370
    25
100
AcDbLine
 10
258.9102699156
 20
104.4737638457
 30
0.0
 11
258.9102699156
 21
222.4737638457
 31
0.0
  0
LINE
  5
477
330
1F
100
AcDbEntity
  8
0
  6
Continuous
 62
     7
370
    25
100
AcDbLine
 10
254.5302699156
 20
222.4737638457
 30
0.0
 11
254.5302699156
 21
222.5937638457
 31
0.0
  0
LINE
  5
478
330
1F
100
AcDbEntity
  8
0
  6
Continuous
 62
     7
370
    25
100
AcDbLine
 10
153.8902699156
 20
222.5937638457
 30
0.0
 11
153.8902699156
 21
222.4737638457
 31
0.0
  0
LINE
  5
479
330
1F
100
AcDbEntity
  8
0
  6
Continuous
 62
     7
370
    25
100
AcDbLine
 10
153.8902699156
 20
222.5937638457
 30
0.0
 11
153.8902699156
 21
223.0837638457
 31
0.0
  0
LINE
  5
47A
330
1F
100
AcDbEntity
  8
0
  6
Continuous
 62
     7
370
    25
100
AcDbLine
 10
254.5302699156
 20
223.0837638457
 30
0.0
 11
254.5302699156
 21
222.5937638457
 31
0.0
  0
LINE
  5
47B
330
1F
100
AcDbEntity
  8
0
  6
Continuous
 62
     7
370
    25
100
AcDbLine
 10
149.3902699156
 20
123.6537638457
 30
0.0
 11
148.9002699156
 21
123.6537638457
 31
0.0
  0
LINE
  5
47C
330
1F
100
AcDbEntity
  8
0
  6
Continuous
 62
     7
370
    25
100
AcDbLine
 10
148.9002699156
 20
222.7237638457
 30
0.0
 11
148.9002699156
 21
223.0537638457
 31
0.0
  0
LINE
  5
47D
330
1F
100
AcDbEntity
  8
0
  6
Continuous
 62
     7
370
    25
100
AcDbLine
 10
148.9002699156
 20
223.0537638457
 30
0.0
 11
149.3902699156
 21
223.0537638457
 31
0.0
  0
LINE
  5
47E
330
1F
100
AcDbEntity
  8
0
  6
Continuous
 62
     7
370
    25
100
AcDbLine
 10
152.9902699156
 20
223.0537638457
 30
0.0
 11
149.3902699156
 21
223.0537638457
 31
0.0
  0
LINE
  5
47F
330
1F
100
AcDbEntity
  8
0
  6
Continuous
 62
     7
370
    25
100
AcDbLine
 10
149.3902699156
 20
123.6537638457
 30
0.0
 11
149.5102699156
 21
123.6537638457
 31
0.0
  0
ARC
  5
480
330
1F
100
AcDbEntity
  8
0
  6
Continuous
 62
     7
370
    25
100
AcDbCircle
 10
152.9902699156
 20
222.6537638457
 30
0.0
 40
0.4000000000000057
100
AcDbArc
 50
0.0
 51
90.0
  0
LINE
  5
481
330
1F
100
AcDbEntity
  8
0
  6
Continuous
 62
     7
370
    25
100
AcDbLine
 10
153.3902699156
 20
222.4737638457
 30
0.0
 11
153.3902699156
 21
222.6537638457
 31
0.0
  0
LINE
  5
482
330
1F
100
AcDbEntity
  8
0
  6
Continuous
 62
     7
370
    25
100
AcDbLine
 10
148.9002699156
 20
223.0537638457
 30
0.0
 11
148.6502699156
 21
223.0537638457
 31
0.0
  0
LINE
  5
483
330
1F
100
AcDbEntity
  8
0
  6
Continuous
 62
     7
370
    25
100
AcDbLine
 10
148.6502699156
 20
223.0537638457
 30
0.0
 11
148.4102699156
 21
223.0537638457
 31
0.0
  0
LINE
  5
484
330
1F
100
AcDbEntity
  8
0
  6
Continuous
 62
     7
370
    25
100
AcDbLine
 10
258.9102699156
 20
123.6537638457
 30
0.0
 11
259.0302699156
 21
123.6537638457
 31
0.0
  0
LINE
  5
485
330
1F
100
AcDbEntity
  8
0
  6
Continuous
 62
     7
370
    25
100
AcDbLine
 10
255.0302699156
 20
222.6537638457
 30
0.0
 11
255.0302699156
 21
222.4737638457
 31
0.0
  0
ARC
  5
486
330
1F
100
AcDbEntity
  8
0
  6
Continuous
 62
     7
370
    25
100
AcDbCircle
 10
255.4302699156
 20
222.6537638457
 30
0.0
 40
0.4000000000000057
100
AcDbArc
 50
90.0
 51
180.0
  0
LINE
  5
487
330
1F
100
AcDbEntity
  8
0
  6
Continuous
 62
     7
370
    25
100
AcDbLine
 10
259.0302699156
 20
223.0537638457
 30
0.0
 11
255.4302699156
 21
223.0537638457
 31
0.0
  0
LINE
  5
488
330
1F
100
AcDbEntity
  8
0
  6
Continuous
 62
     7
370
    25
100
AcDbLine
 10
259.0302699156
 20
223.0537638457
 30
0.0
 11
259.5202699156
 21
223.0537638457
 31
0.0
  0
LINE
  5
489
330
1F
100
AcDbEntity
  8
0
  6
Continuous
 62
     7
370
    25
100
AcDbLine
 10
259.5202699156
 20
223.0537638457
 30
0.0
 11
259.5202699156
 21
222.7237638457
 31
0.0
  0
LINE
  5
48A
330
1F
100
AcDbEntity
  8
0
  6
Continuous
 62
     7
370
    25
100
AcDbLine
 10
259.5202699156
 20
123.6537638457
 30
0.0
 11
259.0302699156
 21
123.6537638457
 31
0.0
  0
LINE
  5
48B
330
1F
100
AcDbEntity
  8
0
  6
Continuous
 62
     7
370
    25
100
AcDbLine
 10
259.7702699156
 20
223.0537638457
 30
0.0
 11
259.5202699156
 21
223.0537638457
 31
0.0
  0
LINE
  5
48C
330
1F
100
AcDbEntity
  8
0
  6
Continuous
 62
     7
370
    25
100
AcDbLine
 10
260.0102699156
 20
223.0537638457
 30
0.0
 11
259.7702699156
 21
223.0537638457
 31
0.0
  0
SPLINE
  5
48D
330
1F
100
AcDbEntity
  8
0
  6
Continuous
 62
     7
370
    25
100
AcDbSpline
210
0.0
220
0.0
230
1.0
 70
     8
 71
     3
 72
    13
 73
     9
 74
     0
 42
0.00000001
 43
0.00000001
 40
0.0
 40
0.0
 40
0.0
 40
0.0
 40
0.2661750985946574
 40
0.4638367513029072
 40
0.5766952749781952
 40
0.7033085142479641
 40
0.8442698922377023
 40
1.0
 40
1.0
 40
1.0
 40
1.0
 10
144.7002699155837
 20
88.03376384570267
 30
0.0
 10
144.6357944490925
 20
88.00111213274555
 30
0.0
 10
144.5234394952522
 20
87.94421325474208
 30
0.0
 10
144.3990065697489
 20
87.88204494476923
 30
0.0
 10
144.3186016916628
 20
87.84803375732164
 30
0.0
 10
144.2625165530458
 20
87.8265815611072
 30
0.0
 10
144.2193339604649
 20
87.80915880334007
 30
0.0
 10
144.2133898919649
 20
87.80177936670394
 30
0.0
 10
144.2102699155838
 20
87.79790598132635
 30
0.0
  0
LINE
  5
48E
330
1F
100
AcDbEntity
  8
0
  6
Continuous
 62
     7
370
    25
100
AcDbLine
 10
144.2102699156
 20
230.5437638457
 30
0.0
 11
144.2102699156
 21
87.7979059813
 31
0.0
  0
SPLINE
  5
48F
330
1F
100
AcDbEntity
  8
0
  6
Continuous
 62
     7
370
    25
100
AcDbSpline
210
0.0
220
0.0
230
1.0
 70
     8
 71
     3
 72
    10
 73
     6
 74
     0
 42
0.00000001
 43
0.00000001
 40
0.0
 40
0.0
 40
0.0
 40
0.0
 40
0.1671132319129338
 40
0.5806872482015982
 40
1.0
 40
1.0
 40
1.0
 40
1.0
 10
144.4557025424022
 20
241.263887279668
 30
0.0
 10
144.4675460019192
 20
241.2674471626192
 30
0.0
 10
144.5086998102527
 20
241.2798170905486
 30
0.0
 10
144.5921520465111
 20
241.2934182578641
 30
0.0
 10
144.6640654605592
 20
241.2993588634444
 30
0.0
 10
144.7002699155837
 20
241.3023496321402
 30
0.0
  0
LINE
  5
490
330
1F
100
AcDbEntity
  8
0
  6
Continuous
 62
     7
370
    25
100
AcDbLine
 10
263.6502699156
 20
241.3023496321
 30
0.0
 11
263.7202699156
 21
241.3023496321
 31
0.0
  0
LINE
  5
491
330
1F
100
AcDbEntity
  8
0
  6
Continuous
 62
     7
370
    25
100
AcDbLine
 10
263.7202699156
 20
241.3023496321
 30
0.0
 11
263.7202699156
 21
241.2290590844
 31
0.0
  0
LINE
  5
492
330
1F
100
AcDbEntity
  8
0
  6
Continuous
 62
     7
370
    25
100
AcDbLine
 10
144.7002699156
 20
241.3023496321
 30
0.0
 11
144.7702699156
 21
241.3023496321
 31
0.0
  0
LINE
  5
493
330
1F
100
AcDbEntity
  8
0
  6
Continuous
 62
     7
370
    25
100
AcDbLine
 10
260.0102699156
 20
222.9737638457
 30
0.0
 11
260.0102699156
 21
223.5737638457
 31
0.0
  0
LINE
  5
494
330
1F
100
AcDbEntity
  8
0
  6
Continuous
 62
     7
370
    25
100
AcDbLine
 10
260.0102699156
 20
223.5737638457
 30
0.0
 11
259.4102699156
 21
223.5737638457
 31
0.0
  0
LINE
  5
495
330
1F
100
AcDbEntity
  8
0
  6
Continuous
 62
     7
370
    25
100
AcDbLine
 10
149.0102699156
 20
223.5737638457
 30
0.0
 11
148.4102699156
 21
223.5737638457
 31
0.0
  0
LINE
  5
496
330
1F
100
AcDbEntity
  8
0
  6
Continuous
 62
     7
370
    25
100
AcDbLine
 10
148.4102699156
 20
223.5737638457
 30
0.0
 11
148.4102699156
 21
222.9737638457
 31
0.0
  0
LINE
  5
497
330
1F
100
AcDbEntity
  8
0
  6
Continuous
 62
     7
370
    25
100
AcDbLine
 10
148.4102699156
 20
103.9737638457
 30
0.0
 11
148.4102699156
 21
103.3737638457
 31
0.0
  0
LINE
  5
498
330
1F
100
AcDbEntity
  8
0
  6
Continuous
 62
     7
370
    25
100
AcDbLine
 10
148.4102699156
 20
103.3737638457
 30
0.0
 11
149.0102699156
 21
103.3737638457
 31
0.0
  0
LINE
  5
499
330
1F
100
AcDbEntity
  8
0
  6
Continuous
 62
     7
370
    25
100
AcDbLine
 10
259.4102699156
 20
103.3737638457
 30
0.0
 11
260.0102699156
 21
103.3737638457
 31
0.0
  0
LINE
  5
49A
330
1F
100
AcDbEntity
  8
0
  6
Continuous
 62
     7
370
    25
100
AcDbLine
 10
260.0102699156
 20
103.3737638457
 30
0.0
 11
260.0102699156
 21
103.9737638457
 31
0.0
  0
LINE
  5
49B
330
1F
100
AcDbEntity
  8
0
  6
Continuous
 62
     7
370
    25
100
AcDbLine
 10
263.9502699156
 20
241.0537638457
 30
0.0
 11
263.9702699156
 21
241.0537638457
 31
0.0
  0
LINE
  5
49C
330
1F
100
AcDbEntity
  8
0
  6
Continuous
 62
     7
370
    25
100
AcDbLine
 10
264.2102699156
 20
87.7979059813
 30
0.0
 11
264.2102699156
 21
230.5437638457
 31
0.0
  0
SPLINE
  5
49D
330
1F
100
AcDbEntity
  8
0
  6
Continuous
 62
     7
370
    25
100
AcDbSpline
210
0.0
220
0.0
230
1.0
 70
     8
 71
     3
 72
    13
 73
     9
 74
     0
 42
0.00000001
 43
0.00000001
 40
0.0
 40
0.0
 40
0.0
 40
0.0
 40
0.135277793161456
 40
0.2682252521573404
 40
0.3995923443777369
 40
0.5301563783938104
 40
0.7417458414506426
 40
1.0
 40
1.0
 40
1.0
 40
1.0
 10
264.2102699155838
 20
87.79790598132642
 30
0.0
 10
264.2078899764498
 20
87.79986350614634
 30
0.0
 10
264.2031710956977
 20
87.8037448349008
 30
0.0
 10
264.1664647476095
 20
87.81951091557322
 30
0.0
 10
264.1119567821335
 20
87.8426524093188
 30
0.0
 10
264.0268162633773
 20
87.87987673686862
 30
0.0
 10
263.8968291127003
 20
87.9447639285999
 30
0.0
 10
263.7828949477268
 20
88.00219583474482
 30
0.0
 10
263.7202699155838
 20
88.0337638457027
 30
0.0
  0
LWPOLYLINE
  5
49E
330
1F
100
AcDbEntity
  8
0
  6
Continuous
 62
     7
370
    25
100
AcDbPolyline
 90
        2
 70
   128
 43
0.0
 10
144.7002699156
 20
88.0337638457
 10
144.7002699156
 20
88.0337638457
  0
SPLINE
  5
49F
330
1F
100
AcDbEntity
  8
0
  6
Continuous
 62
     7
370
    25
100
AcDbSpline
210
0.0
220
0.0
230
1.0
 70
     8
 71
     3
 72
    13
 73
     9
 74
     0
 42
0.00000001
 43
0.00000001
 40
0.0
 40
0.0
 40
0.0
 40
0.0
 40
0.2937796145462055
 40
0.5017905169043314
 40
0.6127470865397738
 40
0.7316933585997997
 40
0.860330955724655
 40
0.9999999999999999
 40
0.9999999999999999
 40
0.9999999999999999
 40
0.9999999999999999
 10
144.7002699155837
 20
88.03376384570267
 30
0.0
 10
144.6676512646153
 20
88.00140829030224
 30
0.0
 10
144.6119369504842
 20
87.94614335677646
 30
0.0
 10
144.5482889722627
 20
87.88358416925519
 30
0.0
 10
144.506237282719
 20
87.8485657069113
 30
0.0
 10
144.4772868312146
 20
87.82684704647626
 30
0.0
 10
144.4549924789786
 20
87.80927798777321
 30
0.0
 10
144.451886668589
 20
87.80179914782542
 30
0.0
 10
144.4502699155837
 20
87.79790598132632
 30
0.0
  0
LINE
  5
4A0
330
1F
100
AcDbEntity
  8
0
  6
Continuous
 62
     7
370
    25
100
AcDbLine
 10
144.2102699156
 20
87.7979059813
 30
0.0
 11
144.4502699156
 21
87.7979059813
 31
0.0
  0
LINE
  5
4A1
330
1F
100
AcDbEntity
  8
0
  6
Continuous
 62
     7
370
    25
100
AcDbLine
 10
144.4644120512
 20
87.5437638457
 30
0.0
 11
144.4644120512
 21
87.7837638457
 31
0.0
  0
SPLINE
  5
4A2
330
1F
100
AcDbEntity
  8
0
  6
Continuous
 62
     7
370
    25
100
AcDbSpline
210
0.0
220
0.0
230
1.0
 70
     8
 71
     3
 72
    12
 73
     8
 74
     0
 42
0.00000001
 43
0.00000001
 40
0.0
 40
0.0
 40
0.0
 40
0.0
 40
0.1791624594803228
 40
0.3582721707134197
 40
0.5383434827970139
 40
0.8146237010689331
 40
1.0
 40
1.0
 40
1.0
 40
1.0
 10
144.4644120512075
 20
87.78376384570265
 30
0.0
 10
144.4697672606701
 20
87.7864345567752
 30
0.0
 10
144.4804761029373
 20
87.79177519262093
 30
0.0
 10
144.508584676404
 20
87.83185888036455
 30
0.0
 10
144.5603909048536
 20
87.893604881651
 30
0.0
 10
144.6290288608887
 20
87.96263085387494
 30
0.0
 10
144.6798591995861
 20
88.01338408994978
 30
0.0
 10
144.7002699155838
 20
88.03376384570265
 30
0.0
  0
SPLINE
  5
4A3
330
1F
100
AcDbEntity
  8
0
  6
Continuous
 62
     7
370
    25
100
AcDbSpline
210
0.0
220
0.0
230
1.0
 70
     8
 71
     3
 72
    12
 73
     8
 74
     0
 42
0.00000001
 43
0.00000001
 40
0.0
 40
0.0
 40
0.0
 40
0.0
 40
0.2026829072298972
 40
0.4054374564821349
 40
0.6078856586274723
 40
0.8102916597481
 40
1.0
 40
1.0
 40
1.0
 40
1.0
 10
144.4644120512075
 20
87.54376384570261
 30
0.0
 10
144.4698642808055
 20
87.54910180896003
 30
0.0
 10
144.4807706671929
 20
87.55977962227674
 30
0.0
 10
144.5098781832626
 20
87.64230571834956
 30
0.0
 10
144.5610816084869
 20
87.75892404197482
 30
0.0
 10
144.6287358289229
 20
87.8936956396554
 30
0.0
 10
144.6769456051358
 20
87.98809339020046
 30
0.0
 10
144.7002699155838
 20
88.03376384570265
 30
0.0
  0
SPLINE
  5
4A4
330
1F
100
AcDbEntity
  8
0
  6
Continuous
 62
     7
370
    25
100
AcDbSpline
210
0.0
220
0.0
230
1.0
 70
     8
 71
     3
 72
    12
 73
     8
 74
     0
 42
0.00000001
 43
0.00000001
 40
0.0
 40
0.0
 40
0.0
 40
0.0
 40
0.2535214431154499
 40
0.5056549736616298
 40
0.7301991900182371
 40
0.9331626685176385
 40
1.0
 40
1.0
 40
1.0
 40
1.0
 10
263.7202699155838
 20
88.0337638457027
 30
0.0
 10
263.7512193045025
 20
87.97247684434079
 30
0.0
 10
263.8129486487593
 20
87.85023835958533
 30
0.0
 10
263.8907818343111
 20
87.69251936245409
 30
0.0
 10
263.9352085732169
 20
87.58530728531343
 30
0.0
 10
263.9521565074369
 20
87.54685176989196
 30
0.0
 10
263.9553393094175
 20
87.54437693313159
 30
0.0
 10
263.95612777996
 20
87.54376384570267
 30
0.0
  0
LINE
  5
4A5
330
1F
100
AcDbEntity
  8
0
  6
Continuous
 62
     7
370
    25
100
AcDbLine
 10
263.95612778
 20
87.5437638457
 30
0.0
 11
144.4644120512
 21
87.5437638457
 31
0.0
  0
SPLINE
  5
4A6
330
1F
100
AcDbEntity
  8
0
  6
Continuous
 62
     7
370
    25
100
AcDbSpline
210
0.0
220
0.0
230
1.0
 70
     8
 71
     3
 72
    13
 73
     9
 74
     0
 42
0.00000001
 43
0.00000001
 40
0.0
 40
0.0
 40
0.0
 40
0.0
 40
0.1202007763566582
 40
0.2408822434397649
 40
0.3643758194547899
 40
0.4928600149274509
 40
0.715559819529473
 40
1.0
 40
1.0
 40
1.0
 40
1.0
 10
263.9702699155837
 20
87.79790598132647
 30
0.0
 10
263.9690336534763
 20
87.7998815887992
 30
0.0
 10
263.9665561853687
 20
87.80384070432747
 30
0.0
 10
263.9475049522058
 20
87.81985553196935
 30
0.0
 10
263.9193910604956
 20
87.84324345962352
 30
0.0
 10
263.8748131752622
 20
87.88156254394147
 30
0.0
 10
263.8084970868944
 20
87.94664102436342
 30
0.0
 10
263.7519727722525
 20
88.00245781745244
 30
0.0
 10
263.7202699155838
 20
88.0337638457027
 30
0.0
  0
LINE
  5
4A7
330
1F
100
AcDbEntity
  8
0
  6
Continuous
 62
     7
370
    25
100
AcDbLine
 10
264.2102699156
 20
87.7979059813
 30
0.0
 11
263.9702699156
 21
87.7979059813
 31
0.0
  0
SPLINE
  5
4A8
330
1F
100
AcDbEntity
  8
0
  6
Continuous
 62
     7
370
    25
100
AcDbSpline
210
0.0
220
0.0
230
1.0
 70
     8
 71
     3
 72
    12
 73
     8
 74
     0
 42
0.00000001
 43
0.00000001
 40
0.0
 40
0.0
 40
0.0
 40
0.0
 40
0.3430909896768695
 40
0.559599224236129
 40
0.7414379879407237
 40
0.924175113080784
 40
1.0
 40
1.0
 40
1.0
 40
1.0
 10
263.7202699155838
 20
88.0337638457027
 30
0.0
 10
263.7582701206338
 20
87.99563274452875
 30
0.0
 10
263.8202504287928
 20
87.93343893799268
 30
0.0
 10
263.8922315486854
 20
87.85728761575733
 30
0.0
 10
263.9328966468668
 20
87.80796165639649
 30
0.0
 10
263.9513768421754
 20
87.78600791090788
 30
0.0
 10
263.9550504670588
 20
87.78427270532289
 30
0.0
 10
263.95612777996
 20
87.78376384570265
 30
0.0
  0
LINE
  5
4A9
330
1F
100
AcDbEntity
  8
0
  6
Continuous
 62
     7
370
    25
100
AcDbLine
 10
263.95612778
 20
87.5437638457
 30
0.0
 11
263.95612778
 21
87.7837638457
 31
0.0
  0
SPLINE
  5
4AA
330
1F
100
AcDbEntity
  8
0
  6
Continuous
 62
     7
370
    25
100
AcDbSpline
210
0.0
220
0.0
230
1.0
 70
     8
 71
     3
 72
    12
 73
     8
 74
     0
 42
0.00000001
 43
0.00000001
 40
0.0
 40
0.0
 40
0.0
 40
0.0
 40
0.2257684735104433
 40
0.4515807063918741
 40
0.6773931424202801
 40
0.9032053651228661
 40
1.0
 40
1.0
 40
1.0
 40
1.0
 10
260.0102699155838
 20
103.9737638457027
 30
0.0
 10
259.9523394922059
 20
103.9925843714891
 30
0.0
 10
259.8364674171377
 20
104.0302290709334
 30
0.0
 10
259.6841274173499
 20
104.0867070110551
 30
0.0
 10
259.5731166103189
 20
104.1431526176851
 30
0.0
 10
259.5252068183676
 20
104.1889580220709
 30
0.0
 10
259.5214093147299
 20
104.2157309296291
 30
0.0
 10
259.5202699155838
 20
104.2237638457027
 30
0.0
  0
LINE
  5
4AB
330
1F
100
AcDbEntity
  8
0
  6
Continuous
 62
     7
370
    25
100
AcDbLine
 10
259.5202699156
 20
104.2237638457
 30
0.0
 11
259.5202699156
 21
222.7237638457
 31
0.0
  0
SPLINE
  5
4AC
330
1F
100
AcDbEntity
  8
0
  6
Continuous
 62
     7
370
    25
100
AcDbSpline
210
0.0
220
0.0
230
1.0
 70
     8
 71
     3
 72
    12
 73
     8
 74
     0
 42
0.00000001
 43
0.00000001
 40
0.0
 40
0.0
 40
0.0
 40
0.0
 40
0.2257684735104068
 40
0.4515807063918895
 40
0.677393142420318
 40
0.9032053651228932
 40
1.0
 40
1.0
 40
1.0
 40
1.0
 10
259.5202699155838
 20
222.7237638457027
 30
0.0
 10
259.5262652019031
 20
222.7425843714891
 30
0.0
 10
259.5382569365726
 20
222.7802290709334
 30
0.0
 10
259.6314302706333
 20
222.8367070110551
 30
0.0
 10
259.7673114945538
 20
222.8931526176852
 30
0.0
 10
259.9031252976951
 20
222.9389580220709
 30
0.0
 10
259.9855417628373
 20
222.9657309296291
 30
0.0
 10
260.0102699155838
 20
222.9737638457027
 30
0.0
  0
LINE
  5
4AD
330
1F
100
AcDbEntity
  8
0
  6
Continuous
 62
     7
370
    25
100
AcDbLine
 10
148.9002699156
 20
222.7237638457
 30
0.0
 11
148.9002699156
 21
104.2237638457
 31
0.0
  0
SPLINE
  5
4AE
330
1F
100
AcDbEntity
  8
0
  6
Continuous
 62
     7
370
    25
100
AcDbSpline
210
0.0
220
0.0
230
1.0
 70
     8
 71
     3
 72
    12
 73
     8
 74
     0
 42
0.00000001
 43
0.00000001
 40
0.0
 40
0.0
 40
0.0
 40
0.0
 40
0.2257684735104222
 40
0.4515807063918936
 40
0.6773931424203411
 40
0.9032053651229073
 40
1.0
 40
1.0
 40
1.0
 40
1.0
 10
148.9002699155838
 20
104.2237638457027
 30
0.0
 10
148.8942746292645
 20
104.2049433199163
 30
0.0
 10
148.8822828945949
 20
104.167298620472
 30
0.0
 10
148.7891095605343
 20
104.1108206803503
 30
0.0
 10
148.6532283366137
 20
104.0543750737203
 30
0.0
 10
148.5174145334726
 20
104.0085696693345
 30
0.0
 10
148.4349980683303
 20
103.9817967617763
 30
0.0
 10
148.4102699155838
 20
103.9737638457027
 30
0.0
  0
SPLINE
  5
4AF
330
1F
100
AcDbEntity
  8
0
  6
Continuous
 62
     7
370
    25
100
AcDbSpline
210
0.0
220
0.0
230
1.0
 70
     8
 71
     3
 72
    12
 73
     8
 74
     0
 42
0.00000001
 43
0.00000001
 40
0.0
 40
0.0
 40
0.0
 40
0.0
 40
0.2257684735103923
 40
0.451580706391851
 40
0.6773931424203066
 40
0.9032053651228638
 40
1.0
 40
1.0
 40
1.0
 40
1.0
 10
148.4102699155838
 20
222.9737638457027
 30
0.0
 10
148.4682003389617
 20
222.9549433199163
 30
0.0
 10
148.5840724140298
 20
222.917298620472
 30
0.0
 10
148.7364124138176
 20
222.8608206803503
 30
0.0
 10
148.8474232208487
 20
222.8043750737203
 30
0.0
 10
148.8953330128
 20
222.7585696693345
 30
0.0
 10
148.8991305164377
 20
222.7317967617763
 30
0.0
 10
148.9002699155838
 20
222.7237638457027
 30
0.0
  0
LINE
  5
4B0
330
1F
100
AcDbEntity
  8
0
  6
Continuous
 62
     7
370
    25
100
AcDbLine
 10
259.1602699156
 20
223.0837638457
 30
0.0
 11
149.2602699156
 21
223.0837638457
 31
0.0
  0
SPLINE
  5
4B1
330
1F
100
AcDbEntity
  8
0
  6
Continuous
 62
     7
370
    25
100
AcDbSpline
210
0.0
220
0.0
230
1.0
 70
     8
 71
     3
 72
    12
 73
     8
 74
     0
 42
0.00000001
 43
0.00000001
 40
0.0
 40
0.0
 40
0.0
 40
0.0
 40
0.2257684735104218
 40
0.4515807063918683
 40
0.6773931424202947
 40
0.9032053651228511
 40
1.0
 40
1.0
 40
1.0
 40
1.0
 10
149.2602699155838
 20
223.0837638457027
 30
0.0
 10
149.2414493897973
 20
223.089759132022
 30
0.0
 10
149.2038046903531
 20
223.1017508666916
 30
0.0
 10
149.1473267502314
 20
223.1949242007522
 30
0.0
 10
149.0908811436013
 20
223.3308054246727
 30
0.0
 10
149.0450757392156
 20
223.4666192278139
 30
0.0
 10
149.0183028316574
 20
223.5490356929562
 30
0.0
 10
149.0102699155838
 20
223.5737638457027
 30
0.0
  0
SPLINE
  5
4B2
330
1F
100
AcDbEntity
  8
0
  6
Continuous
 62
     7
370
    25
100
AcDbSpline
210
0.0
220
0.0
230
1.0
 70
     8
 71
     3
 72
    12
 73
     8
 74
     0
 42
0.00000001
 43
0.00000001
 40
0.0
 40
0.0
 40
0.0
 40
0.0
 40
0.2257684735103873
 40
0.4515807063918273
 40
0.6773931424202667
 40
0.9032053651228409
 40
1.0
 40
1.0
 40
1.0
 40
1.0
 10
259.4102699155838
 20
223.5737638457027
 30
0.0
 10
259.3914493897973
 20
223.5158334223247
 30
0.0
 10
259.3538046903531
 20
223.3999613472566
 30
0.0
 10
259.2973267502314
 20
223.2476213474689
 30
0.0
 10
259.2408811436014
 20
223.1366105404378
 30
0.0
 10
259.1950757392156
 20
223.0887007484865
 30
0.0
 10
259.1683028316573
 20
223.0849032448488
 30
0.0
 10
259.1602699155838
 20
223.0837638457027
 30
0.0
  0
LINE
  5
4B3
330
1F
100
AcDbEntity
  8
0
  6
Continuous
 62
     7
370
    25
100
AcDbLine
 10
149.2602699156
 20
103.8637638457
 30
0.0
 11
259.1602699156
 21
103.8637638457
 31
0.0
  0
SPLINE
  5
4B4
330
1F
100
AcDbEntity
  8
0
  6
Continuous
 62
     7
370
    25
100
AcDbSpline
210
0.0
220
0.0
230
1.0
 70
     8
 71
     3
 72
    12
 73
     8
 74
     0
 42
0.00000001
 43
0.00000001
 40
0.0
 40
0.0
 40
0.0
 40
0.0
 40
0.2257684735104076
 40
0.4515807063918598
 40
0.6773931424203012
 40
0.9032053651228441
 40
1.0
 40
1.0
 40
1.0
 40
1.0
 10
259.1602699155838
 20
103.8637638457027
 30
0.0
 10
259.1790904413702
 20
103.8577685593834
 30
0.0
 10
259.2167351408145
 20
103.8457768247138
 30
0.0
 10
259.2732130809362
 20
103.7526034906533
 30
0.0
 10
259.3296586875662
 20
103.6167222667326
 30
0.0
 10
259.3754640919519
 20
103.4809084635915
 30
0.0
 10
259.4022369995103
 20
103.3984919984492
 30
0.0
 10
259.4102699155838
 20
103.3737638457027
 30
0.0
  0
SPLINE
  5
4B5
330
1F
100
AcDbEntity
  8
0
  6
Continuous
 62
     7
370
    25
100
AcDbSpline
210
0.0
220
0.0
230
1.0
 70
     8
 71
     3
 72
    12
 73
     8
 74
     0
 42
0.00000001
 43
0.00000001
 40
0.0
 40
0.0
 40
0.0
 40
0.0
 40
0.2257684735103791
 40
0.4515807063918156
 40
0.6773931424202634
 40
0.9032053651228452
 40
1.0
 40
1.0
 40
1.0
 40
1.0
 10
149.0102699155838
 20
103.3737638457027
 30
0.0
 10
149.0290904413702
 20
103.4316942690807
 30
0.0
 10
149.0667351408144
 20
103.5475663441488
 30
0.0
 10
149.1232130809361
 20
103.6999063439365
 30
0.0
 10
149.1796586875662
 20
103.8109171509676
 30
0.0
 10
149.2254640919519
 20
103.8588269429189
 30
0.0
 10
149.2522369995102
 20
103.8626244465566
 30
0.0
 10
149.2602699155838
 20
103.8637638457027
 30
0.0
  0
LINE
  5
4B6
330
1F
100
AcDbEntity
  8
0
  6
Continuous
 62
     7
370
    25
100
AcDbLine
 10
144.7002699156
 20
241.5437638457
 30
0.0
 11
144.7002699156
 21
241.3037638457
 31
0.0
  0
LINE
  5
4B7
330
1F
100
AcDbEntity
  8
0
  6
Continuous
 62
     7
370
    25
100
AcDbLine
 10
144.7002699156
 20
241.3037638457
 30
0.0
 11
144.7702699156
 21
241.3037638457
 31
0.0
  0
LINE
  5
4B8
330
1F
100
AcDbEntity
  8
0
  6
Continuous
 62
     7
370
    25
100
AcDbLine
 10
263.8111768744
 20
241.5352572775
 30
0.0
 11
263.7202699156
 21
241.5437638457
 31
0.0
  0
ARC
  5
4B9
330
1F
100
AcDbEntity
  8
0
  6
Continuous
 62
     7
370
    25
100
AcDbCircle
 10
263.7202699156
 20
241.0537638457
 30
0.0
 40
0.25
100
AcDbArc
 50
360.0
 51
23.0739180664
  0
ARC
  5
4BA
330
1F
100
AcDbEntity
  8
0
  6
Continuous
 62
     7
370
    25
100
AcDbCircle
 10
263.7202699156
 20
241.0537638457
 30
0.0
 40
0.2499999999999716
100
AcDbArc
 50
44.5218291345
 51
90.0
  0
LINE
  5
4BB
330
1F
100
AcDbEntity
  8
0
  6
Continuous
 62
     7
370
    25
100
AcDbLine
 10
263.7202699156
 20
241.3037638457
 30
0.0
 11
263.6502699156
 21
241.3037638457
 31
0.0
  0
ENDSEC
  0
SECTION
  2
OBJECTS
  0
DICTIONARY
  5
C
330
0
100
AcDbDictionary
281
     1
  3
ACAD_GROUP
350
D
  3
ACAD_LAYOUT
350
1A
  3
ACAD_MLINESTYLE
350
17
  3
ACAD_PLOTSETTINGS
350
19
  3
ACAD_PLOTSTYLENAME
350
E
  3
ACAD_SCALELIST
350
47
  3
DWGPROPS
350
4BC
  0
DICTIONARY
  5
D
102
{ACAD_REACTORS
330
C
102
}
330
C
100
AcDbDictionary
281
     1
  0
DICTIONARY
  5
1A
102
{ACAD_REACTORS
330
C
102
}
330
C
100
AcDbDictionary
281
     1
  3
Layout1
350
1E
  3
Layout2
350
26
  3
Model
350
22
  0
DICTIONARY
  5
17
102
{ACAD_REACTORS
330
C
102
}
330
C
100
AcDbDictionary
281
     1
  3
Standard
350
18
  0
DICTIONARY
  5
19
102
{ACAD_REACTORS
330
C
102
}
330
C
100
AcDbDictionary
281
     1
  0
ACDBDICTIONARYWDFLT
  5
E
102
{ACAD_REACTORS
330
C
102
}
330
C
100
AcDbDictionary
281
     1
  3
Normal
350
F
100
AcDbDictionaryWithDefault
340
F
  0
DICTIONARY
  5
47
102
{ACAD_REACTORS
330
C
102
}
330
C
100
AcDbDictionary
281
     1
  3
A0
350
48
  3
A1
350
49
  3
A2
350
4A
  3
A3
350
4B
  3
A4
350
4C
  3
A5
350
4D
  3
A6
350
4E
  3
A7
350
4F
  3
A8
350
50
  3
A9
350
51
  3
B0
350
52
  3
B1
350
53
  3
B2
350
54
  3
B3
350
55
  3
B4
350
56
  3
B5
350
57
  3
B6
350
58
  3
B7
350
59
  3
B8
350
5A
  3
B9
350
5B
  3
C0
350
5C
  3
C1
350
5D
  3
C2
350
5E
  3
C3
350
5F
  3
C4
350
60
  3
C5
350
61
  3
C6
350
62
  3
C7
350
63
  3
C8
350
64
  3
C9
350
65
  3
D0
350
66
  3
D1
350
67
  3
D2
350
68
  0
XRECORD
  5
4BC
102
{ACAD_REACTORS
330
C
102
}
330
C
100
AcDbXrecord
280
     1
  1
DWGPROPS COOKIE
  2

  3

  4

  6

  7

  8
rnd10
  9

300
=
301
=
302
=
303
=
304
=
305
=
306
=
307
=
308
=
309
=
 40
0.0
 41
2460195.281698565
 42
2460195.281698924
  1

 90
        0
  0
LAYOUT
  5
1E
102
{ACAD_REACTORS
330
1A
102
}
330
1A
100
AcDbPlotSettings
  1

  2
none_device
  4

  6

 40
0.0
 41
0.0
 42
0.0
 43
0.0
 44
0.0
 45
0.0
 46
0.0
 47
0.0
 48
0.0
 49
0.0
140
0.0
141
0.0
142
1.0
143
1.0
 70
   688
 72
     1
 73
     0
 74
     5
  7

 75
    16
147
1.0
148
0.0
149
0.0
100
AcDbLayout
  1
Layout1
 70
     1
 71
     1
 10
0.0
 20
0.0
 11
420.0
 21
297.0
 12
0.0
 22
0.0
 32
0.0
 14
1.0000000000E+20
 24
1.0000000000E+20
 34
1.0000000000E+20
 15
-1.0000000000E+20
 25
-1.0000000000E+20
 35
-1.0000000000E+20
146
0.0
 13
0.0
 23
0.0
 33
0.0
 16
1.0
 26
0.0
 36
0.0
 17
0.0
 27
1.0
 37
0.0
 76
     0
330
1B
  0
LAYOUT
  5
26
102
{ACAD_REACTORS
330
1A
102
}
330
1A
100
AcDbPlotSettings
  1

  2
none_device
  4

  6

 40
0.0
 41
0.0
 42
0.0
 43
0.0
 44
0.0
 45
0.0
 46
0.0
 47
0.0
 48
0.0
 49
0.0
140
0.0
141
0.0
142
1.0
143
1.0
 70
   688
 72
     1
 73
     0
 74
     5
  7

 75
    16
147
1.0
148
0.0
149
0.0
100
AcDbLayout
  1
Layout2
 70
     1
 71
     2
 10
0.0
 20
0.0
 11
0.0
 21
0.0
 12
0.0
 22
0.0
 32
0.0
 14
0.0
 24
0.0
 34
0.0
 15
0.0
 25
0.0
 35
0.0
146
0.0
 13
0.0
 23
0.0
 33
0.0
 16
1.0
 26
0.0
 36
0.0
 17
0.0
 27
1.0
 37
0.0
 76
     0
330
23
  0
LAYOUT
  5
22
102
{ACAD_REACTORS
330
1A
102
}
330
1A
100
AcDbPlotSettings
  1

  2
none_device
  4
Letter_(8.50_x_11.00_Inches)
  6

 40
6.35
 41
6.35
 42
6.35000508
 43
6.35000508
 44
215.9
 45
279.4
 46
0.0
 47
0.0
 48
0.0
 49
0.0
140
0.0
141
0.0
142
1.0
143
1.0
 70
  1712
 72
     1
 73
     0
 74
     0
  7

 75
     0
147
1.0
148
0.0
149
0.0
100
AcDbLayout
  1
Model
 70
     1
 71
     0
 10
0.0
 20
0.0
 11
420.0
 21
297.0
 12
0.0
 22
0.0
 32
0.0
 14
0.0
 24
0.0
 34
0.0
 15
420.0
 25
297.0
 35
0.0
146
0.0
 13
0.0
 23
0.0
 33
0.0
 16
1.0
 26
0.0
 36
0.0
 17
0.0
 27
1.0
 37
0.0
 76
     0
330
1F
331
29
  0
MLINESTYLE
  5
18
102
{ACAD_REACTORS
330
17
102
}
330
17
100
AcDbMlineStyle
  2
Standard
 70
     0
  3

 62
   256
 51
90.0
 52
90.0
 71
     2
 49
0.5
 62
   256
  6
BYLAYER
 49
-0.5
 62
   256
  6
BYLAYER
  0
ACDBPLACEHOLDER
  5
F
102
{ACAD_REACTORS
330
E
102
}
330
E
  0
SCALE
  5
48
102
{ACAD_REACTORS
330
47
102
}
330
47
100
AcDbScale
 70
     0
300
1:1
140
1.0
141
1.0
290
     1
  0
SCALE
  5
49
102
{ACAD_REACTORS
330
47
102
}
330
47
100
AcDbScale
 70
     0
300
1:2
140
1.0
141
2.0
290
     0
  0
SCALE
  5
4A
102
{ACAD_REACTORS
330
47
102
}
330
47
100
AcDbScale
 70
     0
300
1:4
140
1.0
141
4.0
290
     0
  0
SCALE
  5
4B
102
{ACAD_REACTORS
330
47
102
}
330
47
100
AcDbScale
 70
     0
300
1:5
140
1.0
141
5.0
290
     0
  0
SCALE
  5
4C
102
{ACAD_REACTORS
330
47
102
}
330
47
100
AcDbScale
 70
     0
300
1:8
140
1.0
141
8.0
290
     0
  0
SCALE
  5
4D
102
{ACAD_REACTORS
330
47
102
}
330
47
100
AcDbScale
 70
     0
300
1:10
140
1.0
141
10.0
290
     0
  0
SCALE
  5
4E
102
{ACAD_REACTORS
330
47
102
}
330
47
100
AcDbScale
 70
     0
300
1:16
140
1.0
141
16.0
290
     0
  0
SCALE
  5
4F
102
{ACAD_REACTORS
330
47
102
}
330
47
100
AcDbScale
 70
     0
300
1:20
140
1.0
141
20.0
290
     0
  0
SCALE
  5
50
102
{ACAD_REACTORS
330
47
102
}
330
47
100
AcDbScale
 70
     0
300
1:30
140
1.0
141
30.0
290
     0
  0
SCALE
  5
51
102
{ACAD_REACTORS
330
47
102
}
330
47
100
AcDbScale
 70
     0
300
1:40
140
1.0
141
40.0
290
     0
  0
SCALE
  5
52
102
{ACAD_REACTORS
330
47
102
}
330
47
100
AcDbScale
 70
     0
300
1:50
140
1.0
141
50.0
290
     0
  0
SCALE
  5
53
102
{ACAD_REACTORS
330
47
102
}
330
47
100
AcDbScale
 70
     0
300
1:100
140
1.0
141
100.0
290
     0
  0
SCALE
  5
54
102
{ACAD_REACTORS
330
47
102
}
330
47
100
AcDbScale
 70
     0
300
2:1
140
2.0
141
1.0
290
     0
  0
SCALE
  5
55
102
{ACAD_REACTORS
330
47
102
}
330
47
100
AcDbScale
 70
     0
300
4:1
140
4.0
141
1.0
290
     0
  0
SCALE
  5
56
102
{ACAD_REACTORS
330
47
102
}
330
47
100
AcDbScale
 70
     0
300
8:1
140
8.0
141
1.0
290
     0
  0
SCALE
  5
57
102
{ACAD_REACTORS
330
47
102
}
330
47
100
AcDbScale
 70
     0
300
10:1
140
10.0
141
1.0
290
     0
  0
SCALE
  5
58
102
{ACAD_REACTORS
330
47
102
}
330
47
100
AcDbScale
 70
     0
300
100:1
140
100.0
141
1.0
290
     0
  0
SCALE
  5
59
102
{ACAD_REACTORS
330
47
102
}
330
47
100
AcDbScale
 70
     0
300
1/128" = 1'-0"
140
0.0078125
141
12.0
290
     0
  0
SCALE
  5
5A
102
{ACAD_REACTORS
330
47
102
}
330
47
100
AcDbScale
 70
     0
300
1/64" = 1'-0"
140
0.015625
141
12.0
290
     0
  0
SCALE
  5
5B
102
{ACAD_REACTORS
330
47
102
}
330
47
100
AcDbScale
 70
     0
300
1/32" = 1'-0"
140
0.03125
141
12.0
290
     0
  0
SCALE
  5
5C
102
{ACAD_REACTORS
330
47
102
}
330
47
100
AcDbScale
 70
     0
300
1/16" = 1'-0"
140
0.0625
141
12.0
290
     0
  0
SCALE
  5
5D
102
{ACAD_REACTORS
330
47
102
}
330
47
100
AcDbScale
 70
     0
300
3/32" = 1'-0"
140
0.09375
141
12.0
290
     0
  0
SCALE
  5
5E
102
{ACAD_REACTORS
330
47
102
}
330
47
100
AcDbScale
 70
     0
300
1/8" = 1'-0"
140
0.125
141
12.0
290
     0
  0
SCALE
  5
5F
102
{ACAD_REACTORS
330
47
102
}
330
47
100
AcDbScale
 70
     0
300
3/16" = 1'-0"
140
0.1875
141
12.0
290
     0
  0
SCALE
  5
60
102
{ACAD_REACTORS
330
47
102
}
330
47
100
AcDbScale
 70
     0
300
1/4" = 1'-0"
140
0.25
141
12.0
290
     0
  0
SCALE
  5
61
102
{ACAD_REACTORS
330
47
102
}
330
47
100
AcDbScale
 70
     0
300
3/8" = 1'-0"
140
0.375
141
12.0
290
     0
  0
SCALE
  5
62
102
{ACAD_REACTORS
330
47
102
}
330
47
100
AcDbScale
 70
     0
300
1/2" = 1'-0"
140
0.5
141
12.0
290
     0
  0
SCALE
  5
63
102
{ACAD_REACTORS
330
47
102
}
330
47
100
AcDbScale
 70
     0
300
3/4" = 1'-0"
140
0.75
141
12.0
290
     0
  0
SCALE
  5
64
102
{ACAD_REACTORS
330
47
102
}
330
47
100
AcDbScale
 70
     0
300
1" = 1'-0"
140
1.0
141
12.0
290
     0
  0
SCALE
  5
65
102
{ACAD_REACTORS
330
47
102
}
330
47
100
AcDbScale
 70
     0
300
1-1/2" = 1'-0"
140
1.5
141
12.0
290
     0
  0
SCALE
  5
66
102
{ACAD_REACTORS
330
47
102
}
330
47
100
AcDbScale
 70
     0
300
3" = 1'-0"
140
3.0
141
12.0
290
     0
  0
SCALE
  5
67
102
{ACAD_REACTORS
330
47
102
}
330
47
100
AcDbScale
 70
     0
300
6" = 1'-0"
140
6.0
141
12.0
290
     0
  0
SCALE
  5
68
102
{ACAD_REACTORS
330
47
102
}
330
47
100
AcDbScale
 70
     0
300
1'-0" = 1'-0"
140
12.0
141
12.0
290
     0
  0
ENDSEC
  0
EOF
