  0
SECTION
  2
HEADER
  9
$LIMMIN
 10
0.000000
 20
0.000000
  9
$LIMMAX
 10
7000.000000
 20
3500.000000
  9
$EXTMIN
 10
0.000000
 20
0.000000
  9
$EXTMAX
 10
7000.000000
 20
3500.000000
  9
$ANGBASE
 50
0.0
  9
$ANGDIR
 70
0
  9
$DIMRND
 40
0.100000
  9
$DIMSE1
 70
0
  9
$DIMSE2
 70
0
  9
$DIMTXT
 40
3.500000
  9
$LTSCALE
 40
1.000000
  9
$LUPREC
 70
5
  9
$AUPREC
 70
5
  9
$PDMODE
 70
2
  9
$PDSIZE
 40
35.000000
  0
ENDSEC
  0
SECTION
  2
TABLES
  0
TABLE
  2
VPORT
  70
1
  0
VPORT
  2
*ACTIVE
 70
0
  10
0.0
 20
0.0
 11
1.0
 21
1.0
 12
594.0
 22
420.0
 13
0.0
 23
0.0
 14
10.0
 24
10.0
 15
10.0
 25
10.0
 16
0.0
 26
0.0
 36
1.0
 17
594.0
 27
420.0
 37
100.0
 40
1000.0
 41
1.0
 42
50.0
 43
0.0
 44
0.0
 50
0.0
 51
0.0
 71
0
 72
2000
 73
1
 74
3
 75
0
 76
0
 77
0
 78
1
  0
ENDTAB
  0
TABLE
  2
LTYPE
 70
4
  0
LTYPE
  2
CONTINUOUS
 70
0
  3
Solid line
 72
65
 73
0
 40
0.0
  0
LTYPE
  2
DASHED
 70
0
  3
Dashed line
 72
65
 73
2
 40
6.000000
 49
3.000000
 49
-3.000000
  0
LTYPE
  2
CENTER
 70
0
  3
Chain line
 72
65
 73
4
 40
24.000000
 49
15.000000
 49
-3.000000
 49
3.000000
 49
-3.000000
  0
LTYPE
  2
RANDOM
 70
0
  3
Random line
 72
65
 73
4
 40
22.500000
 49
6.000000
 49
-3.000000
 49
4.500000
 49
-9.000000
  0
ENDTAB
  0
TABLE
  2
STYLE
 70
9
  0
STYLE
  2
STANDARD
 40
0
 41
1.0
 50
0.0
 71
0
 42
0
  3
simplex
  4

 70
0
  0
ENDTAB
  0
TABLE
  2
LAYER
 70
3
  0
LAYER
  2
0
 70
0
 62
7
  6
CONTINUOUS
  0
LAYER
  2
0
 62
1
  6
CONTINUOUS
 70
0
  0
LAYER
  2
73CONTINUOUS
 62
1
  6
CONTINUOUS
 70
0
  0
ENDTAB
  0
ENDSEC
  0
SECTION
  2
BLOCKS
  0
ENDSEC
  0
SECTION
  2
ENTITIES
  0
LINE
  8
0
  6
CONTINUOUS
 62
1
 10
1919.327822
 20
1296.845313
 11
1845.327822
 21
1296.845313
  0
LINE
  8
0
  6
CONTINUOUS
 62
1
 10
1919.327822
 20
1286.845313
 11
1845.327822
 21
1286.845313
  0
LINE
  8
0
  6
CONTINUOUS
 62
1
 10
1845.327822
 20
1296.845313
 11
1845.327822
 21
1286.845313
  0
LINE
  8
0
  6
CONTINUOUS
 62
1
 10
1859.889674
 20
1280.907813
 11
1860.859729
 21
1187.782805
  0
ARC
  8
0
  6
CONTINUOUS
 62
1
 10
1853.890002
 20
1280.845313
 40
6.000000
 50
0.596809
 51
90.000000
  0
ARC
  8
0
  6
CONTINUOUS
 62
1
 10
1910.765658
 20
1280.845313
 40
6.000000
 50
90.000000
 51
179.403198
  0
LINE
  8
0
  6
CONTINUOUS
 62
1
 10
1919.327822
 20
1296.845313
 11
1919.327822
 21
1286.845313
  0
LINE
  8
0
  6
CONTINUOUS
 62
1
 10
1865.827822
 20
1152.845313
 11
1866.327822
 21
1152.845313
  0
LINE
  8
0
  6
CONTINUOUS
 62
1
 10
1866.327822
 20
1152.845313
 11
1865.827822
 21
1152.845313
  0
LINE
  8
0
  6
CONTINUOUS
 62
1
 10
1908.327822
 20
1152.845313
 11
1897.327822
 21
1156.845298
  0
LINE
  8
0
  6
CONTINUOUS
 62
1
 10
1856.327822
 20
1152.845313
 11
1867.327822
 21
1156.845298
  0
ARC
  8
0
  6
CONTINUOUS
 62
1
 10
1897.796252
 20
1187.845305
 40
5.999996
 50
269.999969
 51
359.403160
  0
ARC
  8
0
  6
CONTINUOUS
 62
1
 10
1866.859408
 20
1187.845305
 40
6.000000
 50
180.596802
 51
270.000000
  0
LINE
  8
0
  6
CONTINUOUS
 62
1
 10
1903.827822
 20
1190.845305
 11
1860.827822
 21
1190.845305
  0
LINE
  8
0
  6
CONTINUOUS
 62
1
 10
1904.765979
 20
1280.907813
 11
1903.795932
 21
1187.782805
  0
LINE
  8
0
  6
CONTINUOUS
 62
1
 10
1867.327822
 20
1181.845305
 11
1867.327822
 21
1156.845298
  0
LINE
  8
0
  6
CONTINUOUS
 62
1
 10
1897.327822
 20
1181.845305
 11
1897.327822
 21
1156.845298
  0
LINE
  8
0
  6
CONTINUOUS
 62
1
 10
1908.327822
 20
1152.845313
 11
1898.327822
 21
1152.845313
  0
LINE
  8
0
  6
CONTINUOUS
 62
1
 10
1856.327822
 20
1152.845313
 11
1856.327822
 21
1151.845313
  0
LINE
  8
0
  6
CONTINUOUS
 62
1
 10
1898.827822
 20
1152.845313
 11
1856.327822
 21
1152.845313
  0
LINE
  8
0
  6
CONTINUOUS
 62
1
 10
1897.327822
 20
1156.845298
 11
1867.358767
 21
1156.845298
  0
LINE
  8
0
  6
CONTINUOUS
 62
1
 10
1897.796252
 20
1181.845305
 11
1866.859408
 21
1181.845305
  0
LINE
  8
0
  6
CONTINUOUS
 62
1
 10
1908.327822
 20
1151.845313
 11
1856.327822
 21
1151.845313
  0
LINE
  8
0
  6
CONTINUOUS
 62
1
 10
1908.327822
 20
1152.845313
 11
1908.327822
 21
1151.845313
  0
LINE
  8
0
  6
CONTINUOUS
 62
1
 10
2525.327822
 20
1296.845313
 11
2433.327822
 21
1296.845313
  0
LINE
  8
0
  6
CONTINUOUS
 62
1
 10
2507.327822
 20
1286.845313
 11
2433.327822
 21
1286.845313
  0
LINE
  8
0
  6
CONTINUOUS
 62
1
 10
2433.327822
 20
1296.845313
 11
2433.327822
 21
1286.845313
  0
LINE
  8
0
  6
CONTINUOUS
 62
1
 10
2447.889674
 20
1280.907813
 11
2448.859729
 21
1187.782805
  0
ARC
  8
0
  6
CONTINUOUS
 62
1
 10
2441.890002
 20
1280.845313
 40
6.000000
 50
0.596809
 51
90.000000
  0
ARC
  8
0
  6
CONTINUOUS
 62
1
 10
2498.765658
 20
1280.845313
 40
6.000000
 50
90.000000
 51
179.403198
  0
LINE
  8
0
  6
CONTINUOUS
 62
1
 10
2453.827822
 20
1152.845313
 11
2454.327822
 21
1152.845313
  0
LINE
  8
0
  6
CONTINUOUS
 62
1
 10
2454.327822
 20
1152.845313
 11
2453.827822
 21
1152.845313
  0
LINE
  8
0
  6
CONTINUOUS
 62
1
 10
2496.327822
 20
1152.845313
 11
2485.327822
 21
1156.845298
  0
LINE
  8
0
  6
CONTINUOUS
 62
1
 10
2444.327822
 20
1152.845313
 11
2455.327822
 21
1156.845298
  0
ARC
  8
0
  6
CONTINUOUS
 62
1
 10
2485.796252
 20
1187.845305
 40
5.999996
 50
269.999969
 51
359.403160
  0
ARC
  8
0
  6
CONTINUOUS
 62
1
 10
2454.859408
 20
1187.845305
 40
6.000000
 50
180.596802
 51
270.000000
  0
LINE
  8
0
  6
CONTINUOUS
 62
1
 10
2491.827822
 20
1190.845305
 11
2448.827822
 21
1190.845305
  0
LINE
  8
0
  6
CONTINUOUS
 62
1
 10
2492.765979
 20
1280.907813
 11
2491.795932
 21
1187.782805
  0
LINE
  8
0
  6
CONTINUOUS
 62
1
 10
2455.327822
 20
1181.845305
 11
2455.327822
 21
1156.845298
  0
LINE
  8
0
  6
CONTINUOUS
 62
1
 10
2485.327822
 20
1181.845305
 11
2485.327822
 21
1156.845298
  0
LINE
  8
0
  6
CONTINUOUS
 62
1
 10
2496.327822
 20
1152.845313
 11
2486.327822
 21
1152.845313
  0
LINE
  8
0
  6
CONTINUOUS
 62
1
 10
2444.327822
 20
1152.845313
 11
2444.327822
 21
1151.845313
  0
LINE
  8
0
  6
CONTINUOUS
 62
1
 10
2486.827822
 20
1152.845313
 11
2444.327822
 21
1152.845313
  0
LINE
  8
0
  6
CONTINUOUS
 62
1
 10
2485.327822
 20
1156.845298
 11
2455.358767
 21
1156.845298
  0
LINE
  8
0
  6
CONTINUOUS
 62
1
 10
2485.796252
 20
1181.845305
 11
2454.859408
 21
1181.845305
  0
LINE
  8
0
  6
CONTINUOUS
 62
1
 10
2496.327822
 20
1151.845313
 11
2444.327822
 21
1151.845313
  0
LINE
  8
0
  6
CONTINUOUS
 62
1
 10
2496.327822
 20
1152.845313
 11
2496.327822
 21
1151.845313
  0
LINE
  8
0
  6
CONTINUOUS
 62
1
 10
1788.327822
 20
2306.845313
 11
1708.327822
 21
2306.845313
  0
LINE
  8
0
  6
CONTINUOUS
 62
1
 10
1708.327822
 20
2306.845313
 11
1708.327822
 21
1891.845313
  0
LINE
  8
0
  6
CONTINUOUS
 62
1
 10
1708.327822
 20
1891.845313
 11
1833.327822
 21
1891.845313
  0
LINE
  8
0
  6
CONTINUOUS
 62
1
 10
1833.327822
 20
1891.845313
 11
1833.327822
 21
1296.845313
  0
LINE
  8
0
  6
CONTINUOUS
 62
1
 10
1833.327822
 20
1296.845313
 11
2525.327822
 21
1296.845313
  0
LINE
  8
0
  6
CONTINUOUS
 62
1
 10
2543.637820
 20
2051.845313
 11
1788.327822
 21
2051.845313
  0
LINE
  8
0
  6
CONTINUOUS
 62
1
 10
1788.327822
 20
2051.845313
 11
1788.327822
 21
2306.845313
  0
LINE
  8
0
  6
CONTINUOUS
 62
1
 10
1788.327822
 20
2091.845313
 11
1708.327822
 21
2091.845313
  0
LINE
  8
0
  6
CONTINUOUS
 62
1
 10
1708.327822
 20
2001.845313
 11
2558.327822
 21
2001.845313
  0
LINE
  8
0
  6
CONTINUOUS
 62
1
 10
1833.327822
 20
1891.845313
 11
1833.327822
 21
2001.845313
  0
LINE
  8
0
  6
CONTINUOUS
 62
1
 10
1818.547822
 20
2051.845313
 11
1893.547822
 21
2051.845313
  0
LINE
  8
0
  6
CONTINUOUS
 62
1
 10
1893.547822
 20
2051.845313
 11
1893.547822
 21
2171.845313
  0
LINE
  8
0
  6
CONTINUOUS
 62
1
 10
1893.547822
 20
2171.845313
 11
1818.547822
 21
2171.845313
  0
LINE
  8
0
  6
CONTINUOUS
 62
1
 10
1818.547822
 20
2171.845313
 11
1818.547822
 21
2051.845313
  0
LINE
  8
0
  6
CONTINUOUS
 62
1
 10
1893.547822
 20
2171.845313
 11
1893.547822
 21
2149.325313
  0
LINE
  8
0
  6
CONTINUOUS
 62
1
 10
1893.547822
 20
2149.325313
 11
1910.357822
 21
2149.325313
  0
LINE
  8
0
  6
CONTINUOUS
 62
1
 10
1910.357822
 20
2149.325313
 11
1910.357822
 21
2171.845313
  0
LINE
  8
0
  6
CONTINUOUS
 62
1
 10
1910.357822
 20
2171.845313
 11
1893.547822
 21
2171.845313
  0
LINE
  8
0
  6
CONTINUOUS
 62
1
 10
1893.547822
 20
2096.355313
 11
1924.487822
 21
2096.355313
  0
LINE
  8
0
  6
CONTINUOUS
 62
1
 10
1924.487822
 20
2096.355313
 11
1924.487822
 21
2121.075313
  0
LINE
  8
0
  6
CONTINUOUS
 62
1
 10
1924.487822
 20
2121.075313
 11
1910.357822
 21
2149.325313
  0
LINE
  8
0
  6
CONTINUOUS
 62
1
 10
1910.357822
 20
2149.325313
 11
1893.547822
 21
2149.325313
  0
LINE
  8
0
  6
CONTINUOUS
 62
1
 10
1893.547822
 20
2149.325313
 11
1893.547822
 21
2096.355313
  0
LINE
  8
0
  6
CONTINUOUS
 62
1
 10
1910.357822
 20
2096.355313
 11
1896.237822
 21
2096.355313
  0
LINE
  8
0
  6
CONTINUOUS
 62
1
 10
1896.237822
 20
2096.355313
 11
1896.237822
 21
2064.575313
  0
LINE
  8
0
  6
CONTINUOUS
 62
1
 10
1896.237822
 20
2064.575313
 11
1910.357822
 21
2064.575313
  0
LINE
  8
0
  6
CONTINUOUS
 62
1
 10
1910.357822
 20
2064.575313
 11
1910.357822
 21
2096.355313
  0
LINE
  8
0
  6
CENTER
 62
4
 10
1886.277822
 20
1648.845313
 11
1771.327822
 21
1648.845313
  0
LINE
  8
0
  6
CONTINUOUS
 62
1
 10
2527.427676
 20
1890.345313
 11
2527.427676
 21
2001.845313
  0
LINE
  8
0
  6
CONTINUOUS
 62
1
 10
2507.327822
 20
1286.845313
 11
2507.327822
 21
1296.845313
  0
LINE
  8
0
  6
CONTINUOUS
 62
1
 10
2544.427676
 20
1927.345344
 11
2545.927676
 21
1927.345344
  0
LINE
  8
0
  6
CONTINUOUS
 62
1
 10
2544.427676
 20
1927.345344
 11
2544.427676
 21
1983.345344
  0
LINE
  8
0
  6
CONTINUOUS
 62
1
 10
2544.427676
 20
1927.345344
 11
2545.927676
 21
1927.345344
  0
LINE
  8
0
  6
CONTINUOUS
 62
1
 10
2544.427676
 20
1927.345344
 11
2544.427676
 21
1948.045356
  0
LINE
  8
0
  6
CONTINUOUS
 62
1
 10
2545.927676
 20
1927.345344
 11
2552.427676
 21
1936.845344
  0
LINE
  8
0
  6
CONTINUOUS
 62
1
 10
2545.927676
 20
1927.345344
 11
2552.427676
 21
1936.845344
  0
LINE
  8
0
  6
CONTINUOUS
 62
7
 10
2552.427676
 20
1971.830878
 11
2552.442134
 21
1971.845344
  0
LINE
  8
0
  6
CONTINUOUS
 62
7
 10
2552.427676
 20
1971.830878
 11
2552.442134
 21
1971.845344
  0
LINE
  8
0
  6
CONTINUOUS
 62
1
 10
2557.427676
 20
1938.845344
 11
2552.427676
 21
1938.845344
  0
LINE
  8
0
  6
CONTINUOUS
 62
1
 10
2577.427676
 20
1936.845344
 11
2557.427676
 21
1936.845344
  0
LINE
  8
0
  6
CONTINUOUS
 62
1
 10
2557.427676
 20
1938.845344
 11
2552.427676
 21
1938.845344
  0
LINE
  8
0
  6
CONTINUOUS
 62
1
 10
2577.427676
 20
1936.845344
 11
2557.427676
 21
1936.845344
  0
LINE
  8
0
  6
CONTINUOUS
 62
1
 10
2544.427676
 20
1983.345344
 11
2545.927676
 21
1983.345344
  0
LINE
  8
0
  6
CONTINUOUS
 62
1
 10
2544.427676
 20
1983.345344
 11
2545.927676
 21
1983.345344
  0
LINE
  8
0
  6
CONTINUOUS
 62
1
 10
2545.927676
 20
1983.345344
 11
2552.427676
 21
1973.845344
  0
LINE
  8
0
  6
CONTINUOUS
 62
1
 10
2552.427676
 20
1973.845344
 11
2552.427676
 21
1936.845344
  0
LINE
  8
0
  6
CONTINUOUS
 62
1
 10
2557.427676
 20
1973.845344
 11
2557.427676
 21
1936.845344
  0
LINE
  8
0
  6
CONTINUOUS
 62
1
 10
2557.427676
 20
1973.845344
 11
2577.427676
 21
1973.845344
  0
ARC
  8
0
  6
CONTINUOUS
 62
1
 10
2577.427676
 20
1969.845344
 40
4.000000
 50
0.000000
 51
90.000000
  0
LINE
  8
0
  6
CONTINUOUS
 62
1
 10
2545.927676
 20
1983.345344
 11
2552.427676
 21
1973.845344
  0
LINE
  8
0
  6
CONTINUOUS
 62
1
 10
2557.427676
 20
1973.845344
 11
2557.427676
 21
1971.845344
  0
LINE
  8
0
  6
CONTINUOUS
 62
1
 10
2557.427676
 20
1973.845344
 11
2577.427676
 21
1973.845344
  0
ARC
  8
0
  6
CONTINUOUS
 62
1
 10
2577.427676
 20
1969.845344
 40
4.000000
 50
0.000000
 51
90.000000
  0
LINE
  8
0
  6
CONTINUOUS
 62
1
 10
2581.427676
 20
1969.845344
 11
2581.427676
 21
1940.845344
  0
ARC
  8
0
  6
CONTINUOUS
 62
1
 10
2577.427676
 20
1940.845344
 40
4.000000
 50
270.000000
 51
0.000000
  0
LINE
  8
0
  6
CONTINUOUS
 62
1
 10
2581.427676
 20
1969.845344
 11
2581.427676
 21
1940.845344
  0
ARC
  8
0
  6
CONTINUOUS
 62
1
 10
2577.427676
 20
1940.845344
 40
4.000000
 50
270.000000
 51
0.000000
  0
LINE
  8
0
  6
CONTINUOUS
 62
1
 10
2557.427676
 20
1971.845344
 11
2552.427676
 21
1971.830878
  0
LINE
  8
0
  6
CONTINUOUS
 62
1
 10
2525.327822
 20
1999.846290
 11
2525.327822
 21
1296.845313
  0
LINE
  8
0
  6
CONTINUOUS
 62
1
 10
2525.327822
 20
1999.846290
 11
2525.327822
 21
1296.845313
  0
LINE
  8
0
  6
CONTINUOUS
 62
1
 10
2527.427676
 20
1888.745337
 11
2541.827700
 21
1888.745337
  0
ARC
  8
0
  6
CONTINUOUS
 62
1
 10
2541.827700
 20
1890.345313
 40
1.600000
 50
270.000000
 51
0.000000
  0
LINE
  8
0
  6
CONTINUOUS
 62
1
 10
2527.427676
 20
1888.745337
 11
2527.427676
 21
2001.845313
  0
LINE
  8
0
  6
CONTINUOUS
 62
1
 10
2543.427676
 20
2001.845313
 11
2543.427676
 21
1890.345313
  0
LINE
  8
0
  6
CONTINUOUS
 62
1
 10
2525.327822
 20
1317.745337
 11
2525.327822
 21
1309.745337
  0
LINE
  8
0
  6
CONTINUOUS
 62
1
 10
2533.711856
 20
1307.735694
 11
2548.011904
 21
1307.735694
  0
LINE
  8
0
  6
CONTINUOUS
 62
1
 10
2555.927920
 20
1862.337745
 11
2580.927920
 21
1887.337745
  0
LINE
  8
0
  6
CONTINUOUS
 62
1
 10
2525.327822
 20
1862.337745
 11
2555.927920
 21
1862.337745
  0
LINE
  8
0
  6
CONTINUOUS
 62
1
 10
2525.327822
 20
1887.337745
 11
2580.927920
 21
1887.337745
  0
LINE
  8
0
  6
CONTINUOUS
 62
1
 10
2533.711856
 20
1850.645362
 11
2533.711856
 21
1307.735694
  0
LINE
  8
0
  6
CONTINUOUS
 62
1
 10
2548.011904
 20
1850.645362
 11
2548.011904
 21
1307.735694
  0
LINE
  8
0
  6
CONTINUOUS
 62
1
 10
2533.711856
 20
1850.645362
 11
2548.011904
 21
1850.645362
  0
LINE
  8
0
  6
CONTINUOUS
 62
1
 10
2617.852525
 20
1782.402721
 11
2626.053535
 21
1790.603731
  0
ARC
  8
0
  6
CONTINUOUS
 62
1
 10
2602.011904
 20
1814.645362
 40
6.000000
 50
45.000000
 51
90.000000
  0
ARC
  8
0
  6
CONTINUOUS
 62
1
 10
2621.810894
 20
1794.846372
 40
6.000000
 50
315.000000
 51
45.000000
  0
ARC
  8
0
  6
CONTINUOUS
 62
1
 10
2613.609884
 20
1786.645362
 40
6.000000
 50
270.000000
 51
315.000000
  0
LINE
  8
0
  6
CONTINUOUS
 62
1
 10
2548.011904
 20
1780.645362
 11
2613.609884
 21
1780.645362
  0
LINE
  8
0
  6
CONTINUOUS
 62
1
 10
2602.011904
 20
1820.645362
 11
2548.011904
 21
1820.645362
  0
LINE
  8
0
  6
CONTINUOUS
 62
1
 10
2548.011904
 20
1820.645362
 11
2548.011904
 21
1780.645362
  0
LINE
  8
0
  6
CONTINUOUS
 62
1
 10
2626.053535
 20
1799.089013
 11
2606.254545
 21
1818.888003
  0
LINE
  8
0
  6
CONTINUOUS
 62
1
 10
2558.327822
 20
2001.844092
 11
2550.531436
 21
2046.059669
  0
ARC
  8
0
  6
CONTINUOUS
 62
1
 10
2543.637820
 20
2044.844092
 40
6.999986
 50
10.000061
 51
90.000000
  0
LINE
  8
0
  6
CONTINUOUS
 62
1
 10
2557.446193
 20
2006.844099
 11
2550.393114
 21
2046.844099
  0
ENDSEC
  0
EOF
