  0
SECTION
  2
HEADER
  9
$LIMMIN
 10
0.000000
 20
0.000000
  9
$LIMMAX
 10
7000.000000
 20
3500.000000
  9
$EXTMIN
 10
0.000000
 20
0.000000
  9
$EXTMAX
 10
7000.000000
 20
3500.000000
  9
$ANGBASE
 50
0.0
  9
$ANGDIR
 70
0
  9
$DIMRND
 40
0.100000
  9
$DIMSE1
 70
0
  9
$DIMSE2
 70
0
  9
$DIMTXT
 40
3.500000
  9
$LTSCALE
 40
1.000000
  9
$LUPREC
 70
5
  9
$AUPREC
 70
5
  9
$PDMODE
 70
2
  9
$PDSIZE
 40
35.000000
  0
ENDSEC
  0
SECTION
  2
TABLES
  0
TABLE
  2
VPORT
  70
1
  0
VPORT
  2
*ACTIVE
 70
0
  10
0.0
 20
0.0
 11
1.0
 21
1.0
 12
594.0
 22
420.0
 13
0.0
 23
0.0
 14
10.0
 24
10.0
 15
10.0
 25
10.0
 16
0.0
 26
0.0
 36
1.0
 17
594.0
 27
420.0
 37
100.0
 40
1000.0
 41
1.0
 42
50.0
 43
0.0
 44
0.0
 50
0.0
 51
0.0
 71
0
 72
2000
 73
1
 74
3
 75
0
 76
0
 77
0
 78
1
  0
ENDTAB
  0
TABLE
  2
LTYPE
 70
4
  0
LTYPE
  2
CONTINUOUS
 70
0
  3
Solid line
 72
65
 73
0
 40
0.0
  0
LTYPE
  2
DASHED
 70
0
  3
Dashed line
 72
65
 73
2
 40
6.000000
 49
3.000000
 49
-3.000000
  0
LTYPE
  2
CENTER
 70
0
  3
Chain line
 72
65
 73
4
 40
24.000000
 49
15.000000
 49
-3.000000
 49
3.000000
 49
-3.000000
  0
LTYPE
  2
RANDOM
 70
0
  3
Random line
 72
65
 73
4
 40
22.500000
 49
6.000000
 49
-3.000000
 49
4.500000
 49
-9.000000
  0
ENDTAB
  0
TABLE
  2
STYLE
 70
9
  0
STYLE
  2
STANDARD
 40
0
 41
1.0
 50
0.0
 71
0
 42
0
  3
simplex
  4

 70
0
  0
ENDTAB
  0
TABLE
  2
LAYER
 70
3
  0
LAYER
  2
0
 70
0
 62
7
  6
CONTINUOUS
  0
LAYER
  2
0
 62
1
  6
CONTINUOUS
 70
0
  0
LAYER
  2
73CONTINUOUS
 62
1
  6
CONTINUOUS
 70
0
  0
ENDTAB
  0
ENDSEC
  0
SECTION
  2
BLOCKS
  0
ENDSEC
  0
SECTION
  2
ENTITIES
  0
LINE
  8
0
  6
CONTINUOUS
 62
1
 10
2028.581448
 20
1577.866392
 11
1939.581448
 21
1577.866392
  0
LINE
  8
0
  6
CONTINUOUS
 62
1
 10
2028.581448
 20
1567.866392
 11
1939.581448
 21
1567.866392
  0
LINE
  8
0
  6
CONTINUOUS
 62
1
 10
1939.581448
 20
1577.866392
 11
1939.581448
 21
1567.866392
  0
LINE
  8
0
  6
CONTINUOUS
 62
1
 10
1961.643299
 20
1561.928892
 11
1962.613354
 21
1468.803885
  0
ARC
  8
0
  6
CONTINUOUS
 62
1
 10
1955.643628
 20
1561.866392
 40
6.000000
 50
0.596809
 51
90.000000
  0
ARC
  8
0
  6
CONTINUOUS
 62
1
 10
2012.519284
 20
1561.866392
 40
6.000000
 50
90.000000
 51
179.403198
  0
LINE
  8
0
  6
CONTINUOUS
 62
1
 10
2028.581448
 20
1577.866392
 11
2028.581448
 21
1567.866392
  0
LINE
  8
0
  6
CONTINUOUS
 62
1
 10
1967.581448
 20
1433.866392
 11
1968.081448
 21
1433.866392
  0
LINE
  8
0
  6
CONTINUOUS
 62
1
 10
1968.081448
 20
1433.866392
 11
1967.581448
 21
1433.866392
  0
LINE
  8
0
  6
CONTINUOUS
 62
1
 10
2010.081448
 20
1433.866392
 11
1999.081448
 21
1437.866377
  0
LINE
  8
0
  6
CONTINUOUS
 62
1
 10
1958.081448
 20
1433.866392
 11
1969.081448
 21
1437.866377
  0
ARC
  8
0
  6
CONTINUOUS
 62
1
 10
1999.549878
 20
1468.866385
 40
5.999996
 50
269.999969
 51
359.403160
  0
ARC
  8
0
  6
CONTINUOUS
 62
1
 10
1968.613034
 20
1468.866385
 40
6.000000
 50
180.596802
 51
270.000000
  0
LINE
  8
0
  6
CONTINUOUS
 62
1
 10
2005.581448
 20
1471.866385
 11
1962.581448
 21
1471.866385
  0
LINE
  8
0
  6
CONTINUOUS
 62
1
 10
2006.519604
 20
1561.928892
 11
2005.549557
 21
1468.803885
  0
LINE
  8
0
  6
CONTINUOUS
 62
1
 10
1969.081448
 20
1462.866385
 11
1969.081448
 21
1437.866377
  0
LINE
  8
0
  6
CONTINUOUS
 62
1
 10
1999.081448
 20
1462.866385
 11
1999.081448
 21
1437.866377
  0
LINE
  8
0
  6
CONTINUOUS
 62
1
 10
2010.081448
 20
1433.866392
 11
2000.081448
 21
1433.866392
  0
LINE
  8
0
  6
CONTINUOUS
 62
1
 10
1958.081448
 20
1433.866392
 11
1958.081448
 21
1432.866392
  0
LINE
  8
0
  6
CONTINUOUS
 62
1
 10
2000.581448
 20
1433.866392
 11
1958.081448
 21
1433.866392
  0
LINE
  8
0
  6
CONTINUOUS
 62
1
 10
1999.081448
 20
1437.866377
 11
1969.112393
 21
1437.866377
  0
LINE
  8
0
  6
CONTINUOUS
 62
1
 10
1999.549878
 20
1462.866385
 11
1968.613034
 21
1462.866385
  0
LINE
  8
0
  6
CONTINUOUS
 62
1
 10
2010.081448
 20
1432.866392
 11
1958.081448
 21
1432.866392
  0
LINE
  8
0
  6
CONTINUOUS
 62
1
 10
2010.081448
 20
1433.866392
 11
2010.081448
 21
1432.866392
  0
LINE
  8
0
  6
CONTINUOUS
 62
1
 10
1830.581448
 20
1577.866392
 11
1741.581448
 21
1577.866392
  0
LINE
  8
0
  6
CONTINUOUS
 62
1
 10
1830.581448
 20
1567.866392
 11
1741.581448
 21
1567.866392
  0
LINE
  8
0
  6
CONTINUOUS
 62
1
 10
1741.581448
 20
1577.866392
 11
1741.581448
 21
1567.866392
  0
LINE
  8
0
  6
CONTINUOUS
 62
1
 10
1763.643299
 20
1561.928892
 11
1764.613354
 21
1468.803885
  0
ARC
  8
0
  6
CONTINUOUS
 62
1
 10
1757.643628
 20
1561.866392
 40
6.000000
 50
0.596809
 51
90.000000
  0
ARC
  8
0
  6
CONTINUOUS
 62
1
 10
1814.519284
 20
1561.866392
 40
6.000000
 50
90.000000
 51
179.403198
  0
LINE
  8
0
  6
CONTINUOUS
 62
1
 10
1830.581448
 20
1577.866392
 11
1830.581448
 21
1567.866392
  0
LINE
  8
0
  6
CONTINUOUS
 62
1
 10
1769.581448
 20
1433.866392
 11
1770.081448
 21
1433.866392
  0
LINE
  8
0
  6
CONTINUOUS
 62
1
 10
1770.081448
 20
1433.866392
 11
1769.581448
 21
1433.866392
  0
LINE
  8
0
  6
CONTINUOUS
 62
1
 10
1812.081448
 20
1433.866392
 11
1801.081448
 21
1437.866377
  0
LINE
  8
0
  6
CONTINUOUS
 62
1
 10
1760.081448
 20
1433.866392
 11
1771.081448
 21
1437.866377
  0
ARC
  8
0
  6
CONTINUOUS
 62
1
 10
1801.549878
 20
1468.866385
 40
5.999996
 50
269.999969
 51
359.403160
  0
ARC
  8
0
  6
CONTINUOUS
 62
1
 10
1770.613034
 20
1468.866385
 40
6.000000
 50
180.596802
 51
270.000000
  0
LINE
  8
0
  6
CONTINUOUS
 62
1
 10
1807.581448
 20
1471.866385
 11
1764.581448
 21
1471.866385
  0
LINE
  8
0
  6
CONTINUOUS
 62
1
 10
1808.519604
 20
1561.928892
 11
1807.549557
 21
1468.803885
  0
LINE
  8
0
  6
CONTINUOUS
 62
1
 10
1771.081448
 20
1462.866385
 11
1771.081448
 21
1437.866377
  0
LINE
  8
0
  6
CONTINUOUS
 62
1
 10
1801.081448
 20
1462.866385
 11
1801.081448
 21
1437.866377
  0
LINE
  8
0
  6
CONTINUOUS
 62
1
 10
1812.081448
 20
1433.866392
 11
1802.081448
 21
1433.866392
  0
LINE
  8
0
  6
CONTINUOUS
 62
1
 10
1760.081448
 20
1433.866392
 11
1760.081448
 21
1432.866392
  0
LINE
  8
0
  6
CONTINUOUS
 62
1
 10
1802.581448
 20
1433.866392
 11
1760.081448
 21
1433.866392
  0
LINE
  8
0
  6
CONTINUOUS
 62
1
 10
1801.081448
 20
1437.866377
 11
1771.112393
 21
1437.866377
  0
LINE
  8
0
  6
CONTINUOUS
 62
1
 10
1801.549878
 20
1462.866385
 11
1770.613034
 21
1462.866385
  0
LINE
  8
0
  6
CONTINUOUS
 62
1
 10
1812.081448
 20
1432.866392
 11
1760.081448
 21
1432.866392
  0
LINE
  8
0
  6
CONTINUOUS
 62
1
 10
1812.081448
 20
1433.866392
 11
1812.081448
 21
1432.866392
  0
LINE
  8
0
  6
CONTINUOUS
 62
1
 10
1735.081448
 20
1577.866392
 11
2035.081448
 21
1577.866392
  0
LINE
  8
0
  6
CONTINUOUS
 62
1
 10
2035.081448
 20
1577.866392
 11
2035.081448
 21
2587.866392
  0
LINE
  8
0
  6
CONTINUOUS
 62
1
 10
2035.081448
 20
2587.866392
 11
1735.081448
 21
2587.866392
  0
LINE
  8
0
  6
CONTINUOUS
 62
1
 10
1735.081448
 20
2587.866392
 11
1735.081448
 21
1577.866392
  0
LINE
  8
0
  6
CONTINUOUS
 62
1
 10
2035.081448
 20
2332.866392
 11
1735.081448
 21
2332.866392
  0
LINE
  8
0
  6
CONTINUOUS
 62
1
 10
1960.081448
 20
2432.866392
 11
1810.081448
 21
2432.866392
  0
LINE
  8
0
  6
CONTINUOUS
 62
1
 10
1795.081448
 20
2389.476392
 11
1810.081448
 21
2389.476392
  0
LINE
  8
0
  6
CONTINUOUS
 62
1
 10
1960.081448
 20
2389.476392
 11
1975.311448
 21
2389.476392
  0
LINE
  8
0
  6
CONTINUOUS
 62
1
 10
1795.081448
 20
2332.866392
 11
1795.081448
 21
2425.476392
  0
LINE
  8
0
  6
CONTINUOUS
 62
1
 10
1810.081448
 20
2425.476392
 11
1810.081448
 21
2352.866392
  0
LINE
  8
0
  6
CONTINUOUS
 62
1
 10
1810.081448
 20
2352.866392
 11
1865.081448
 21
2352.866392
  0
LINE
  8
0
  6
CONTINUOUS
 62
1
 10
1905.081448
 20
2352.866392
 11
1960.081448
 21
2352.866392
  0
LINE
  8
0
  6
CONTINUOUS
 62
1
 10
1960.081448
 20
2352.866392
 11
1960.081448
 21
2425.476392
  0
LINE
  8
0
  6
CONTINUOUS
 62
1
 10
1835.081448
 20
2352.866392
 11
1835.081448
 21
2332.866392
  0
LINE
  8
0
  6
CONTINUOUS
 62
1
 10
1845.081448
 20
2332.866392
 11
1845.081448
 21
2352.866392
  0
LINE
  8
0
  6
CONTINUOUS
 62
1
 10
1865.081448
 20
2332.866392
 11
1865.081448
 21
2352.866392
  0
ARC
  8
0
  6
CONTINUOUS
 62
1
 10
1885.081448
 20
2352.866392
 40
20.000000
 50
0.001000
 51
179.999000
  0
LINE
  8
0
  6
CONTINUOUS
 62
1
 10
1905.081448
 20
2352.866392
 11
1905.081448
 21
2332.866392
  0
LINE
  8
0
  6
CONTINUOUS
 62
1
 10
1895.081448
 20
2332.866392
 11
1895.081448
 21
2352.866392
  0
ARC
  8
0
  6
CONTINUOUS
 62
1
 10
1885.081448
 20
2352.866392
 40
10.000000
 50
0.001000
 51
179.999000
  0
LINE
  8
0
  6
CONTINUOUS
 62
1
 10
1875.081448
 20
2352.866392
 11
1875.081448
 21
2332.866392
  0
LINE
  8
0
  6
CONTINUOUS
 62
1
 10
1925.081448
 20
2332.866392
 11
1925.081448
 21
2352.866392
  0
LINE
  8
0
  6
CONTINUOUS
 62
1
 10
1935.081448
 20
2352.866392
 11
1935.081448
 21
2332.866392
  0
LINE
  8
0
  6
CONTINUOUS
 62
1
 10
1975.311448
 20
2332.866392
 11
1975.311448
 21
2425.476392
  0
LINE
  8
0
  6
CONTINUOUS
 62
1
 10
1760.081448
 20
2332.866392
 11
1760.081448
 21
2452.866392
  0
LINE
  8
0
  6
CONTINUOUS
 62
1
 10
1760.081448
 20
2452.866392
 11
1795.081448
 21
2452.866392
  0
LINE
  8
0
  6
CONTINUOUS
 62
1
 10
1795.081448
 20
2452.866392
 11
1795.081448
 21
2425.476392
  0
LINE
  8
0
  6
CONTINUOUS
 62
1
 10
1795.081448
 20
2425.476392
 11
1810.081448
 21
2425.476392
  0
LINE
  8
0
  6
CONTINUOUS
 62
1
 10
1810.081448
 20
2425.476392
 11
1810.081448
 21
2452.866392
  0
LINE
  8
0
  6
CONTINUOUS
 62
1
 10
1810.081448
 20
2452.866392
 11
1960.081448
 21
2452.866392
  0
LINE
  8
0
  6
CONTINUOUS
 62
1
 10
1960.081448
 20
2452.866392
 11
1960.081448
 21
2425.476392
  0
LINE
  8
0
  6
CONTINUOUS
 62
1
 10
1960.081448
 20
2425.476392
 11
1975.311448
 21
2425.476392
  0
LINE
  8
0
  6
CONTINUOUS
 62
1
 10
1975.311448
 20
2425.476392
 11
1975.311448
 21
2452.866392
  0
LINE
  8
0
  6
CONTINUOUS
 62
1
 10
1975.311448
 20
2452.866392
 11
2010.311448
 21
2452.866392
  0
LINE
  8
0
  6
CONTINUOUS
 62
1
 10
2010.311448
 20
2452.866392
 11
2010.311448
 21
2332.866392
  0
LINE
  8
0
  6
CONTINUOUS
 62
1
 10
1736.081440
 20
2171.366392
 11
1736.081456
 21
2286.366362
  0
LINE
  8
0
  6
CONTINUOUS
 62
1
 10
1765.081501
 20
2274.366362
 11
1825.081486
 21
2274.366362
  0
LINE
  8
0
  6
CONTINUOUS
 62
1
 10
1765.081501
 20
2274.366362
 11
1767.631524
 21
2282.866392
  0
LINE
  8
0
  6
CONTINUOUS
 62
1
 10
1825.081486
 20
2274.366362
 11
1822.641126
 21
2282.866392
  0
LINE
  8
0
  6
CONTINUOUS
 62
1
 10
1736.081440
 20
2171.366392
 11
2034.081669
 21
2171.366392
  0
CIRCLE
  8
0
  6
CONTINUOUS
 62
1
 10
1832.081425
 20
2193.366423
 40
5.000000
  0
LINE
  8
0
  6
CONTINUOUS
 62
1
 10
2034.081669
 20
2171.366392
 11
2034.081669
 21
2282.866392
  0
LINE
  8
0
  6
CONTINUOUS
 62
1
 10
1965.881657
 20
2250.016356
 11
1965.881657
 21
2222.716368
  0
LINE
  8
0
  6
CONTINUOUS
 62
1
 10
1965.881657
 20
2222.716368
 11
1988.181645
 21
2222.716368
  0
LINE
  8
0
  6
CONTINUOUS
 62
1
 10
1965.881657
 20
2250.016356
 11
1988.181645
 21
2250.016325
  0
LINE
  8
0
  6
CONTINUOUS
 62
1
 10
1988.181645
 20
2222.716368
 11
1988.181645
 21
2250.016325
  0
CIRCLE
  8
0
  6
CONTINUOUS
 62
1
 10
1938.081425
 20
2193.366423
 40
5.000000
  0
CIRCLE
  8
0
  6
CONTINUOUS
 62
1
 10
1885.081425
 20
2266.366423
 40
1.800000
  0
LINE
  8
0
  6
CONTINUOUS
 62
1
 10
1865.081486
 20
2274.366331
 11
1925.081486
 21
2274.366301
  0
LINE
  8
0
  6
CONTINUOUS
 62
1
 10
1865.081486
 20
2274.366331
 11
1867.521830
 21
2282.866392
  0
LINE
  8
0
  6
CONTINUOUS
 62
1
 10
1925.081486
 20
2274.366301
 11
1922.531467
 21
2282.866392
  0
LINE
  8
0
  6
CONTINUOUS
 62
1
 10
1945.081486
 20
2274.366331
 11
2005.081486
 21
2274.366301
  0
LINE
  8
0
  6
CONTINUOUS
 62
1
 10
1945.081486
 20
2274.366331
 11
1947.521830
 21
2282.866392
  0
LINE
  8
0
  6
CONTINUOUS
 62
1
 10
2005.081486
 20
2274.366301
 11
2002.531467
 21
2282.866392
  0
LINE
  8
0
  6
CONTINUOUS
 62
1
 10
1780.706517
 20
2238.066420
 11
1805.706517
 21
2238.066420
  0
LINE
  8
0
  6
CONTINUOUS
 62
1
 10
1805.706517
 20
2238.066420
 11
1805.706517
 21
2263.066420
  0
LINE
  8
0
  6
CONTINUOUS
 62
1
 10
1805.706517
 20
2263.066420
 11
1780.706517
 21
2263.066420
  0
LINE
  8
0
  6
CONTINUOUS
 62
1
 10
1780.706517
 20
2263.066420
 11
1780.706517
 21
2238.066420
  0
LINE
  8
0
  6
CONTINUOUS
 62
1
 10
1964.381657
 20
2221.216368
 11
1964.381657
 21
2251.516358
  0
LINE
  8
0
  6
CONTINUOUS
 62
1
 10
1964.381657
 20
2251.516358
 11
1989.681645
 21
2251.516323
  0
LINE
  8
0
  6
CONTINUOUS
 62
1
 10
1989.681645
 20
2251.516323
 11
1989.681645
 21
2221.216368
  0
LINE
  8
0
  6
CONTINUOUS
 62
1
 10
1989.681645
 20
2221.216368
 11
1964.381657
 21
2221.216368
  0
CIRCLE
  8
0
  6
CONTINUOUS
 62
1
 10
1938.081425
 20
2193.366423
 40
6.500000
  0
CIRCLE
  8
0
  6
CONTINUOUS
 62
1
 10
1832.081425
 20
2193.366423
 40
6.500000
  0
CIRCLE
  8
0
  6
CONTINUOUS
 62
1
 10
1885.081425
 20
2236.366423
 40
28.000000
  0
ARC
  8
0
  6
CONTINUOUS
 62
1
 10
1885.081437
 20
2247.366423
 40
2.500000
 50
270.000000
 51
0.000000
  0
ARC
  8
0
  6
CONTINUOUS
 62
1
 10
1885.081437
 20
2247.366423
 40
2.500000
 50
180.000000
 51
270.000000
  0
LINE
  8
0
  6
CONTINUOUS
 62
1
 10
1887.581437
 20
2247.366423
 11
1887.581437
 21
2254.696715
  0
LINE
  8
0
  6
CONTINUOUS
 62
1
 10
1882.581437
 20
2247.366423
 11
1882.581437
 21
2254.696715
  0
ARC
  8
0
  6
CONTINUOUS
 62
1
 10
1885.081425
 20
2236.366423
 40
18.500000
 50
90.000000
 51
82.233551
  0
ARC
  8
0
  6
CONTINUOUS
 62
1
 10
1885.081425
 20
2236.366423
 40
18.500000
 50
82.233528
 51
90.000000
  0
LINE
  8
0
  6
CONTINUOUS
 62
1
 10
2035.081448
 20
2282.866392
 11
1735.081448
 21
2282.866392
  0
LINE
  8
0
  6
CONTINUOUS
 62
1
 10
2035.081448
 20
2168.358824
 11
1735.081448
 21
2168.358824
  0
LINE
  8
0
  6
CONTINUOUS
 62
1
 10
2035.081448
 20
2143.358824
 11
1735.081448
 21
2143.358824
  0
LINE
  8
0
  6
CONTINUOUS
 62
1
 10
2035.081448
 20
2131.666441
 11
1735.081448
 21
2131.666441
  0
LINE
  8
0
  6
CONTINUOUS
 62
1
 10
1735.081448
 20
1589.666441
 11
2033.081448
 21
1589.666441
  0
LINE
  8
0
  6
CONTINUOUS
 62
1
 10
1735.081448
 20
2131.666441
 11
1735.081448
 21
1589.666441
  0
LINE
  8
0
  6
CONTINUOUS
 62
1
 10
2033.081448
 20
2131.666441
 11
2033.081448
 21
1589.666441
  0
LINE
  8
0
  6
CONTINUOUS
 62
1
 10
1735.081448
 20
2131.666441
 11
2033.081448
 21
2131.666441
  0
LINE
  8
0
  6
CONTINUOUS
 62
1
 10
1936.081448
 20
1665.166441
 11
2005.081448
 21
1665.166441
  0
LINE
  8
0
  6
CONTINUOUS
 62
1
 10
2008.081448
 20
1668.166441
 11
2008.081448
 21
1687.166441
  0
LINE
  8
0
  6
CONTINUOUS
 62
1
 10
2005.081448
 20
1690.166441
 11
1936.081448
 21
1690.166441
  0
LINE
  8
0
  6
CONTINUOUS
 62
1
 10
1933.081448
 20
1687.166441
 11
1933.081448
 21
1668.166441
  0
ARC
  8
0
  6
CONTINUOUS
 62
1
 10
1936.081448
 20
1687.166441
 40
3.000000
 50
90.000000
 51
180.000000
  0
ARC
  8
0
  6
CONTINUOUS
 62
1
 10
1936.081448
 20
1668.166441
 40
3.000000
 50
180.000000
 51
270.000000
  0
ARC
  8
0
  6
CONTINUOUS
 62
1
 10
2005.081448
 20
1668.166441
 40
3.000000
 50
270.000000
 51
0.000000
  0
ARC
  8
0
  6
CONTINUOUS
 62
1
 10
2005.081448
 20
1687.166441
 40
3.000000
 50
0.000000
 51
90.000000
  0
LINE
  8
0
  6
CONTINUOUS
 62
1
 10
1767.081448
 20
2094.666441
 11
1767.081448
 21
2054.666441
  0
LINE
  8
0
  6
CONTINUOUS
 62
1
 10
1742.081448
 20
2090.509353
 11
1742.081448
 21
2058.823529
  0
LINE
  8
0
  6
CONTINUOUS
 62
1
 10
1767.081448
 20
2054.666441
 11
1744.924440
 21
2055.827641
  0
LINE
  8
0
  6
CONTINUOUS
 62
1
 10
1767.081448
 20
2094.666441
 11
1744.924440
 21
2093.505242
  0
ARC
  8
0
  6
CONTINUOUS
 62
1
 10
1745.081448
 20
2090.509353
 40
3.000000
 50
93.000000
 51
180.000000
  0
ARC
  8
0
  6
CONTINUOUS
 62
1
 10
1745.081448
 20
2058.823529
 40
3.000000
 50
180.000000
 51
267.000000
  0
LINE
  8
0
  6
CONTINUOUS
 62
1
 10
1905.002944
 20
2094.666441
 11
1905.002944
 21
2054.666441
  0
LINE
  8
0
  6
CONTINUOUS
 62
1
 10
1930.002944
 20
2090.509353
 11
1930.002944
 21
2058.823529
  0
LINE
  8
0
  6
CONTINUOUS
 62
1
 10
1905.002944
 20
2054.666441
 11
1927.159952
 21
2055.827641
  0
LINE
  8
0
  6
CONTINUOUS
 62
1
 10
1905.002944
 20
2094.666441
 11
1927.159952
 21
2093.505242
  0
ARC
  8
0
  6
CONTINUOUS
 62
1
 10
1927.002944
 20
2090.509353
 40
3.000000
 50
0.000000
 51
87.000000
  0
ARC
  8
0
  6
CONTINUOUS
 62
1
 10
1927.002944
 20
2058.823529
 40
3.000000
 50
273.000000
 51
0.000000
  0
LINE
  8
0
  6
CONTINUOUS
 62
1
 10
1767.081448
 20
2094.666441
 11
1905.002944
 21
2094.666441
  0
LINE
  8
0
  6
CONTINUOUS
 62
1
 10
1767.081448
 20
2054.666441
 11
1905.002944
 21
2054.666441
  0
ENDSEC
  0
EOF
