  0
SECTION
  2
HEADER
  9
$LIMMIN
 10
0.000000
 20
0.000000
  9
$LIMMAX
 10
7000.000000
 20
3500.000000
  9
$EXTMIN
 10
0.000000
 20
0.000000
  9
$EXTMAX
 10
7000.000000
 20
3500.000000
  9
$ANGBASE
 50
0.0
  9
$ANGDIR
 70
0
  9
$DIMRND
 40
0.100000
  9
$DIMSE1
 70
0
  9
$DIMSE2
 70
0
  9
$DIMTXT
 40
3.500000
  9
$LTSCALE
 40
1.000000
  9
$LUPREC
 70
5
  9
$AUPREC
 70
5
  9
$PDMODE
 70
2
  9
$PDSIZE
 40
35.000000
  0
ENDSEC
  0
SECTION
  2
TABLES
  0
TABLE
  2
VPORT
  70
1
  0
VPORT
  2
*ACTIVE
 70
0
  10
0.0
 20
0.0
 11
1.0
 21
1.0
 12
594.0
 22
420.0
 13
0.0
 23
0.0
 14
10.0
 24
10.0
 15
10.0
 25
10.0
 16
0.0
 26
0.0
 36
1.0
 17
594.0
 27
420.0
 37
100.0
 40
1000.0
 41
1.0
 42
50.0
 43
0.0
 44
0.0
 50
0.0
 51
0.0
 71
0
 72
2000
 73
1
 74
3
 75
0
 76
0
 77
0
 78
1
  0
ENDTAB
  0
TABLE
  2
LTYPE
 70
4
  0
LTYPE
  2
CONTINUOUS
 70
0
  3
Solid line
 72
65
 73
0
 40
0.0
  0
LTYPE
  2
DASHED
 70
0
  3
Dashed line
 72
65
 73
2
 40
6.000000
 49
3.000000
 49
-3.000000
  0
LTYPE
  2
CENTER
 70
0
  3
Chain line
 72
65
 73
4
 40
24.000000
 49
15.000000
 49
-3.000000
 49
3.000000
 49
-3.000000
  0
LTYPE
  2
RANDOM
 70
0
  3
Random line
 72
65
 73
4
 40
22.500000
 49
6.000000
 49
-3.000000
 49
4.500000
 49
-9.000000
  0
ENDTAB
  0
TABLE
  2
STYLE
 70
9
  0
STYLE
  2
STANDARD
 40
0
 41
1.0
 50
0.0
 71
0
 42
0
  3
simplex
  4

 70
0
  0
ENDTAB
  0
TABLE
  2
LAYER
 70
3
  0
LAYER
  2
0
 70
0
 62
7
  6
CONTINUOUS
  0
LAYER
  2
0
 62
1
  6
CONTINUOUS
 70
0
  0
LAYER
  2
73CONTINUOUS
 62
1
  6
CONTINUOUS
 70
0
  0
ENDTAB
  0
ENDSEC
  0
SECTION
  2
BLOCKS
  0
ENDSEC
  0
SECTION
  2
ENTITIES
  0
LINE
  8
0
  6
CONTINUOUS
 62
1
 10
1353.680995
 20
1269.236150
 11
1264.680995
 21
1269.236150
  0
LINE
  8
0
  6
CONTINUOUS
 62
1
 10
1353.680995
 20
1259.236150
 11
1264.680995
 21
1259.236150
  0
LINE
  8
0
  6
CONTINUOUS
 62
1
 10
1264.680995
 20
1269.236150
 11
1264.680995
 21
1259.236150
  0
LINE
  8
0
  6
CONTINUOUS
 62
1
 10
1286.742847
 20
1253.298650
 11
1287.712902
 21
1160.173643
  0
ARC
  8
0
  6
CONTINUOUS
 62
1
 10
1280.743175
 20
1253.236150
 40
6.000000
 50
0.596809
 51
90.000000
  0
ARC
  8
0
  6
CONTINUOUS
 62
1
 10
1337.618831
 20
1253.236150
 40
6.000000
 50
90.000000
 51
179.403198
  0
LINE
  8
0
  6
CONTINUOUS
 62
1
 10
1353.680995
 20
1269.236150
 11
1353.680995
 21
1259.236150
  0
LINE
  8
0
  6
CONTINUOUS
 62
1
 10
1292.680995
 20
1125.236150
 11
1293.180995
 21
1125.236150
  0
LINE
  8
0
  6
CONTINUOUS
 62
1
 10
1293.180995
 20
1125.236150
 11
1292.680995
 21
1125.236150
  0
LINE
  8
0
  6
CONTINUOUS
 62
1
 10
1335.180995
 20
1125.236150
 11
1324.180995
 21
1129.236135
  0
LINE
  8
0
  6
CONTINUOUS
 62
1
 10
1283.180995
 20
1125.236150
 11
1294.180995
 21
1129.236135
  0
ARC
  8
0
  6
CONTINUOUS
 62
1
 10
1324.649425
 20
1160.236143
 40
5.999996
 50
269.999969
 51
359.403160
  0
ARC
  8
0
  6
CONTINUOUS
 62
1
 10
1293.712581
 20
1160.236143
 40
6.000000
 50
180.596802
 51
270.000000
  0
LINE
  8
0
  6
CONTINUOUS
 62
1
 10
1330.680995
 20
1163.236143
 11
1287.680995
 21
1163.236143
  0
LINE
  8
0
  6
CONTINUOUS
 62
1
 10
1331.619152
 20
1253.298650
 11
1330.649105
 21
1160.173643
  0
LINE
  8
0
  6
CONTINUOUS
 62
1
 10
1294.180995
 20
1154.236143
 11
1294.180995
 21
1129.236135
  0
LINE
  8
0
  6
CONTINUOUS
 62
1
 10
1324.180995
 20
1154.236143
 11
1324.180995
 21
1129.236135
  0
LINE
  8
0
  6
CONTINUOUS
 62
1
 10
1335.180995
 20
1125.236150
 11
1325.180995
 21
1125.236150
  0
LINE
  8
0
  6
CONTINUOUS
 62
1
 10
1283.180995
 20
1125.236150
 11
1283.180995
 21
1124.236150
  0
LINE
  8
0
  6
CONTINUOUS
 62
1
 10
1325.680995
 20
1125.236150
 11
1283.180995
 21
1125.236150
  0
LINE
  8
0
  6
CONTINUOUS
 62
1
 10
1324.180995
 20
1129.236135
 11
1294.211940
 21
1129.236135
  0
LINE
  8
0
  6
CONTINUOUS
 62
1
 10
1324.649425
 20
1154.236143
 11
1293.712581
 21
1154.236143
  0
LINE
  8
0
  6
CONTINUOUS
 62
1
 10
1335.180995
 20
1124.236150
 11
1283.180995
 21
1124.236150
  0
LINE
  8
0
  6
CONTINUOUS
 62
1
 10
1335.180995
 20
1125.236150
 11
1335.180995
 21
1124.236150
  0
LINE
  8
0
  6
CONTINUOUS
 62
1
 10
855.680995
 20
1269.236150
 11
766.680995
 21
1269.236150
  0
LINE
  8
0
  6
CONTINUOUS
 62
1
 10
855.680995
 20
1259.236150
 11
766.680995
 21
1259.236150
  0
LINE
  8
0
  6
CONTINUOUS
 62
1
 10
766.680995
 20
1269.236150
 11
766.680995
 21
1259.236150
  0
LINE
  8
0
  6
CONTINUOUS
 62
1
 10
788.742847
 20
1253.298650
 11
789.712902
 21
1160.173643
  0
ARC
  8
0
  6
CONTINUOUS
 62
1
 10
782.743175
 20
1253.236150
 40
6.000000
 50
0.596809
 51
90.000000
  0
ARC
  8
0
  6
CONTINUOUS
 62
1
 10
839.618831
 20
1253.236150
 40
6.000000
 50
90.000000
 51
179.403198
  0
LINE
  8
0
  6
CONTINUOUS
 62
1
 10
855.680995
 20
1269.236150
 11
855.680995
 21
1259.236150
  0
LINE
  8
0
  6
CONTINUOUS
 62
1
 10
794.680995
 20
1125.236150
 11
795.180995
 21
1125.236150
  0
LINE
  8
0
  6
CONTINUOUS
 62
1
 10
795.180995
 20
1125.236150
 11
794.680995
 21
1125.236150
  0
LINE
  8
0
  6
CONTINUOUS
 62
1
 10
837.180995
 20
1125.236150
 11
826.180995
 21
1129.236135
  0
LINE
  8
0
  6
CONTINUOUS
 62
1
 10
785.180995
 20
1125.236150
 11
796.180995
 21
1129.236135
  0
ARC
  8
0
  6
CONTINUOUS
 62
1
 10
826.649425
 20
1160.236143
 40
5.999996
 50
269.999969
 51
359.403160
  0
ARC
  8
0
  6
CONTINUOUS
 62
1
 10
795.712581
 20
1160.236143
 40
6.000000
 50
180.596802
 51
270.000000
  0
LINE
  8
0
  6
CONTINUOUS
 62
1
 10
832.680995
 20
1163.236143
 11
789.680995
 21
1163.236143
  0
LINE
  8
0
  6
CONTINUOUS
 62
1
 10
833.619152
 20
1253.298650
 11
832.649105
 21
1160.173643
  0
LINE
  8
0
  6
CONTINUOUS
 62
1
 10
796.180995
 20
1154.236143
 11
796.180995
 21
1129.236135
  0
LINE
  8
0
  6
CONTINUOUS
 62
1
 10
826.180995
 20
1154.236143
 11
826.180995
 21
1129.236135
  0
LINE
  8
0
  6
CONTINUOUS
 62
1
 10
837.180995
 20
1125.236150
 11
827.180995
 21
1125.236150
  0
LINE
  8
0
  6
CONTINUOUS
 62
1
 10
785.180995
 20
1125.236150
 11
785.180995
 21
1124.236150
  0
LINE
  8
0
  6
CONTINUOUS
 62
1
 10
827.680995
 20
1125.236150
 11
785.180995
 21
1125.236150
  0
LINE
  8
0
  6
CONTINUOUS
 62
1
 10
826.180995
 20
1129.236135
 11
796.211940
 21
1129.236135
  0
LINE
  8
0
  6
CONTINUOUS
 62
1
 10
826.649425
 20
1154.236143
 11
795.712581
 21
1154.236143
  0
LINE
  8
0
  6
CONTINUOUS
 62
1
 10
837.180995
 20
1124.236150
 11
785.180995
 21
1124.236150
  0
LINE
  8
0
  6
CONTINUOUS
 62
1
 10
837.180995
 20
1125.236150
 11
837.180995
 21
1124.236150
  0
LINE
  8
0
  6
CONTINUOUS
 62
1
 10
760.180995
 20
1269.236150
 11
1360.180995
 21
1269.236150
  0
LINE
  8
0
  6
CONTINUOUS
 62
1
 10
1360.180995
 20
1269.236150
 11
1360.180995
 21
2279.236150
  0
LINE
  8
0
  6
CONTINUOUS
 62
1
 10
1360.180995
 20
2279.236150
 11
760.180995
 21
2279.236150
  0
LINE
  8
0
  6
CONTINUOUS
 62
1
 10
760.180995
 20
2279.236150
 11
760.180995
 21
1269.236150
  0
LINE
  8
0
  6
CONTINUOUS
 62
1
 10
1360.180995
 20
2024.236150
 11
760.180995
 21
2024.236150
  0
LINE
  8
0
  6
CONTINUOUS
 62
1
 10
985.180995
 20
2124.236150
 11
835.180995
 21
2124.236150
  0
LINE
  8
0
  6
CONTINUOUS
 62
1
 10
820.180995
 20
2080.846150
 11
835.180995
 21
2080.846150
  0
LINE
  8
0
  6
CONTINUOUS
 62
1
 10
985.180995
 20
2080.846150
 11
1000.410995
 21
2080.846150
  0
LINE
  8
0
  6
CONTINUOUS
 62
1
 10
820.180995
 20
2024.236150
 11
820.180995
 21
2116.846150
  0
LINE
  8
0
  6
CONTINUOUS
 62
1
 10
835.180995
 20
2116.846150
 11
835.180995
 21
2044.236150
  0
LINE
  8
0
  6
CONTINUOUS
 62
1
 10
835.180995
 20
2044.236150
 11
890.180995
 21
2044.236150
  0
LINE
  8
0
  6
CONTINUOUS
 62
1
 10
930.180995
 20
2044.236150
 11
985.180995
 21
2044.236150
  0
LINE
  8
0
  6
CONTINUOUS
 62
1
 10
985.180995
 20
2044.236150
 11
985.180995
 21
2116.846150
  0
LINE
  8
0
  6
CONTINUOUS
 62
1
 10
860.180995
 20
2044.236150
 11
860.180995
 21
2024.236150
  0
LINE
  8
0
  6
CONTINUOUS
 62
1
 10
870.180995
 20
2024.236150
 11
870.180995
 21
2044.236150
  0
LINE
  8
0
  6
CONTINUOUS
 62
1
 10
890.180995
 20
2024.236150
 11
890.180995
 21
2044.236150
  0
ARC
  8
0
  6
CONTINUOUS
 62
1
 10
910.180995
 20
2044.236150
 40
20.000000
 50
0.001000
 51
179.999000
  0
LINE
  8
0
  6
CONTINUOUS
 62
1
 10
930.180995
 20
2044.236150
 11
930.180995
 21
2024.236150
  0
LINE
  8
0
  6
CONTINUOUS
 62
1
 10
920.180995
 20
2024.236150
 11
920.180995
 21
2044.236150
  0
ARC
  8
0
  6
CONTINUOUS
 62
1
 10
910.180995
 20
2044.236150
 40
10.000000
 50
0.001000
 51
179.999000
  0
LINE
  8
0
  6
CONTINUOUS
 62
1
 10
900.180995
 20
2044.236150
 11
900.180995
 21
2024.236150
  0
LINE
  8
0
  6
CONTINUOUS
 62
1
 10
950.180995
 20
2024.236150
 11
950.180995
 21
2044.236150
  0
LINE
  8
0
  6
CONTINUOUS
 62
1
 10
960.180995
 20
2044.236150
 11
960.180995
 21
2024.236150
  0
LINE
  8
0
  6
CONTINUOUS
 62
1
 10
1000.410995
 20
2024.236150
 11
1000.410995
 21
2116.846150
  0
LINE
  8
0
  6
CONTINUOUS
 62
1
 10
785.180995
 20
2024.236150
 11
785.180995
 21
2144.236150
  0
LINE
  8
0
  6
CONTINUOUS
 62
1
 10
785.180995
 20
2144.236150
 11
820.180995
 21
2144.236150
  0
LINE
  8
0
  6
CONTINUOUS
 62
1
 10
820.180995
 20
2144.236150
 11
820.180995
 21
2116.846150
  0
LINE
  8
0
  6
CONTINUOUS
 62
1
 10
820.180995
 20
2116.846150
 11
835.180995
 21
2116.846150
  0
LINE
  8
0
  6
CONTINUOUS
 62
1
 10
835.180995
 20
2116.846150
 11
835.180995
 21
2144.236150
  0
LINE
  8
0
  6
CONTINUOUS
 62
1
 10
835.180995
 20
2144.236150
 11
985.180995
 21
2144.236150
  0
LINE
  8
0
  6
CONTINUOUS
 62
1
 10
985.180995
 20
2144.236150
 11
985.180995
 21
2116.846150
  0
LINE
  8
0
  6
CONTINUOUS
 62
1
 10
985.180995
 20
2116.846150
 11
1000.410995
 21
2116.846150
  0
LINE
  8
0
  6
CONTINUOUS
 62
1
 10
1000.410995
 20
2116.846150
 11
1000.410995
 21
2144.236150
  0
LINE
  8
0
  6
CONTINUOUS
 62
1
 10
1000.410995
 20
2144.236150
 11
1035.410995
 21
2144.236150
  0
LINE
  8
0
  6
CONTINUOUS
 62
1
 10
1035.410995
 20
2144.236150
 11
1035.410995
 21
2024.236150
  0
LINE
  8
0
  6
CONTINUOUS
 62
1
 10
1285.180995
 20
2124.236150
 11
1135.180995
 21
2124.236150
  0
LINE
  8
0
  6
CONTINUOUS
 62
1
 10
1120.180995
 20
2080.846150
 11
1135.180995
 21
2080.846150
  0
LINE
  8
0
  6
CONTINUOUS
 62
1
 10
1285.180995
 20
2080.846150
 11
1300.410995
 21
2080.846150
  0
LINE
  8
0
  6
CONTINUOUS
 62
1
 10
1120.180995
 20
2024.236150
 11
1120.180995
 21
2116.846150
  0
LINE
  8
0
  6
CONTINUOUS
 62
1
 10
1135.180995
 20
2116.846150
 11
1135.180995
 21
2044.236150
  0
LINE
  8
0
  6
CONTINUOUS
 62
1
 10
1135.180995
 20
2044.236150
 11
1190.180995
 21
2044.236150
  0
LINE
  8
0
  6
CONTINUOUS
 62
1
 10
1230.180995
 20
2044.236150
 11
1285.180995
 21
2044.236150
  0
LINE
  8
0
  6
CONTINUOUS
 62
1
 10
1285.180995
 20
2044.236150
 11
1285.180995
 21
2116.846150
  0
LINE
  8
0
  6
CONTINUOUS
 62
1
 10
1160.180995
 20
2044.236150
 11
1160.180995
 21
2024.236150
  0
LINE
  8
0
  6
CONTINUOUS
 62
1
 10
1170.180995
 20
2024.236150
 11
1170.180995
 21
2044.236150
  0
LINE
  8
0
  6
CONTINUOUS
 62
1
 10
1190.180995
 20
2024.236150
 11
1190.180995
 21
2044.236150
  0
ARC
  8
0
  6
CONTINUOUS
 62
1
 10
1210.180995
 20
2044.236150
 40
20.000000
 50
0.001000
 51
179.999000
  0
LINE
  8
0
  6
CONTINUOUS
 62
1
 10
1230.180995
 20
2044.236150
 11
1230.180995
 21
2024.236150
  0
LINE
  8
0
  6
CONTINUOUS
 62
1
 10
1220.180995
 20
2024.236150
 11
1220.180995
 21
2044.236150
  0
ARC
  8
0
  6
CONTINUOUS
 62
1
 10
1210.180995
 20
2044.236150
 40
10.000000
 50
0.001000
 51
179.999000
  0
LINE
  8
0
  6
CONTINUOUS
 62
1
 10
1200.180995
 20
2044.236150
 11
1200.180995
 21
2024.236150
  0
LINE
  8
0
  6
CONTINUOUS
 62
1
 10
1250.180995
 20
2024.236150
 11
1250.180995
 21
2044.236150
  0
LINE
  8
0
  6
CONTINUOUS
 62
1
 10
1260.180995
 20
2044.236150
 11
1260.180995
 21
2024.236150
  0
LINE
  8
0
  6
CONTINUOUS
 62
1
 10
1300.410995
 20
2024.236150
 11
1300.410995
 21
2116.846150
  0
LINE
  8
0
  6
CONTINUOUS
 62
1
 10
1085.180995
 20
2024.236150
 11
1085.180995
 21
2144.236150
  0
LINE
  8
0
  6
CONTINUOUS
 62
1
 10
1085.180995
 20
2144.236150
 11
1120.180995
 21
2144.236150
  0
LINE
  8
0
  6
CONTINUOUS
 62
1
 10
1120.180995
 20
2144.236150
 11
1120.180995
 21
2116.846150
  0
LINE
  8
0
  6
CONTINUOUS
 62
1
 10
1120.180995
 20
2116.846150
 11
1135.180995
 21
2116.846150
  0
LINE
  8
0
  6
CONTINUOUS
 62
1
 10
1135.180995
 20
2116.846150
 11
1135.180995
 21
2144.236150
  0
LINE
  8
0
  6
CONTINUOUS
 62
1
 10
1135.180995
 20
2144.236150
 11
1285.180995
 21
2144.236150
  0
LINE
  8
0
  6
CONTINUOUS
 62
1
 10
1285.180995
 20
2144.236150
 11
1285.180995
 21
2116.846150
  0
LINE
  8
0
  6
CONTINUOUS
 62
1
 10
1285.180995
 20
2116.846150
 11
1300.410995
 21
2116.846150
  0
LINE
  8
0
  6
CONTINUOUS
 62
1
 10
1300.410995
 20
2116.846150
 11
1300.410995
 21
2144.236150
  0
LINE
  8
0
  6
CONTINUOUS
 62
1
 10
1300.410995
 20
2144.236150
 11
1335.410995
 21
2144.236150
  0
LINE
  8
0
  6
CONTINUOUS
 62
1
 10
1335.410995
 20
2144.236150
 11
1335.410995
 21
2024.236150
  0
LINE
  8
0
  6
CONTINUOUS
 62
1
 10
761.180988
 20
1862.736150
 11
761.181003
 21
1977.736120
  0
CIRCLE
  8
0
  6
CONTINUOUS
 62
1
 10
857.180973
 20
1884.736181
 40
5.000000
  0
LINE
  8
0
  6
CONTINUOUS
 62
1
 10
790.181049
 20
1965.736120
 11
850.181034
 21
1965.736120
  0
LINE
  8
0
  6
CONTINUOUS
 62
1
 10
790.181049
 20
1965.736120
 11
792.731071
 21
1974.236150
  0
LINE
  8
0
  6
CONTINUOUS
 62
1
 10
850.181034
 20
1965.736120
 11
847.740673
 21
1974.236150
  0
LINE
  8
0
  6
CONTINUOUS
 62
1
 10
761.180988
 20
1862.736150
 11
1359.181217
 21
1862.736150
  0
LINE
  8
0
  6
CONTINUOUS
 62
1
 10
990.981235
 20
1941.386114
 11
990.981235
 21
1914.086126
  0
LINE
  8
0
  6
CONTINUOUS
 62
1
 10
990.981235
 20
1914.086126
 11
1013.281223
 21
1914.086126
  0
LINE
  8
0
  6
CONTINUOUS
 62
1
 10
990.981235
 20
1941.386114
 11
1013.281223
 21
1941.386083
  0
LINE
  8
0
  6
CONTINUOUS
 62
1
 10
1013.281223
 20
1914.086126
 11
1013.281223
 21
1941.386083
  0
CIRCLE
  8
0
  6
CONTINUOUS
 62
1
 10
963.180973
 20
1884.736181
 40
5.000000
  0
CIRCLE
  8
0
  6
CONTINUOUS
 62
1
 10
910.181003
 20
1957.736181
 40
1.800000
  0
LINE
  8
0
  6
CONTINUOUS
 62
1
 10
901.851993
 20
1965.736120
 11
908.960575
 21
1965.736120
  0
LINE
  8
0
  6
CONTINUOUS
 62
1
 10
930.181034
 20
1965.736120
 11
870.181034
 21
1965.736120
  0
LINE
  8
0
  6
CONTINUOUS
 62
1
 10
950.181034
 20
1965.736089
 11
1010.181034
 21
1965.736059
  0
LINE
  8
0
  6
CONTINUOUS
 62
1
 10
870.181034
 20
1965.736120
 11
872.621394
 21
1974.236150
  0
LINE
  8
0
  6
CONTINUOUS
 62
1
 10
930.181034
 20
1965.736120
 11
927.740673
 21
1974.236150
  0
LINE
  8
0
  6
CONTINUOUS
 62
1
 10
950.181034
 20
1965.736089
 11
952.621377
 21
1974.236150
  0
LINE
  8
0
  6
CONTINUOUS
 62
1
 10
1010.181034
 20
1965.736059
 11
1007.631014
 21
1974.236150
  0
CIRCLE
  8
0
  6
CONTINUOUS
 62
1
 10
1157.180973
 20
1884.736181
 40
5.000000
  0
LINE
  8
0
  6
CONTINUOUS
 62
1
 10
1030.181034
 20
1965.736120
 11
1090.181034
 21
1965.736120
  0
LINE
  8
0
  6
CONTINUOUS
 62
1
 10
1030.181034
 20
1965.736120
 11
1032.731069
 21
1974.236150
  0
LINE
  8
0
  6
CONTINUOUS
 62
1
 10
1090.181034
 20
1965.736120
 11
1087.740647
 21
1974.236150
  0
LINE
  8
0
  6
CONTINUOUS
 62
1
 10
1141.851993
 20
1965.736120
 11
1148.960575
 21
1965.736120
  0
LINE
  8
0
  6
CONTINUOUS
 62
1
 10
1170.181034
 20
1965.736120
 11
1110.181034
 21
1965.736120
  0
LINE
  8
0
  6
CONTINUOUS
 62
1
 10
1110.181034
 20
1965.736120
 11
1112.621368
 21
1974.236150
  0
LINE
  8
0
  6
CONTINUOUS
 62
1
 10
1359.181217
 20
1862.736150
 11
1359.181217
 21
1974.236150
  0
LINE
  8
0
  6
CONTINUOUS
 62
1
 10
1290.981205
 20
1941.386114
 11
1290.981205
 21
1914.086126
  0
LINE
  8
0
  6
CONTINUOUS
 62
1
 10
1290.981205
 20
1914.086126
 11
1313.281192
 21
1914.086126
  0
LINE
  8
0
  6
CONTINUOUS
 62
1
 10
1290.981205
 20
1941.386114
 11
1313.281192
 21
1941.386083
  0
LINE
  8
0
  6
CONTINUOUS
 62
1
 10
1313.281192
 20
1914.086126
 11
1313.281192
 21
1941.386083
  0
CIRCLE
  8
0
  6
CONTINUOUS
 62
1
 10
1263.180973
 20
1884.736181
 40
5.000000
  0
CIRCLE
  8
0
  6
CONTINUOUS
 62
1
 10
1210.180973
 20
1957.736181
 40
1.800000
  0
LINE
  8
0
  6
CONTINUOUS
 62
1
 10
1190.181034
 20
1965.736089
 11
1250.181034
 21
1965.736059
  0
LINE
  8
0
  6
CONTINUOUS
 62
1
 10
1170.181034
 20
1965.736120
 11
1167.740647
 21
1974.236150
  0
LINE
  8
0
  6
CONTINUOUS
 62
1
 10
1190.181034
 20
1965.736089
 11
1192.621377
 21
1974.236150
  0
LINE
  8
0
  6
CONTINUOUS
 62
1
 10
1250.181034
 20
1965.736059
 11
1247.631014
 21
1974.236150
  0
LINE
  8
0
  6
CONTINUOUS
 62
1
 10
1270.181034
 20
1965.736089
 11
1330.181034
 21
1965.736059
  0
LINE
  8
0
  6
CONTINUOUS
 62
1
 10
1270.181034
 20
1965.736089
 11
1272.621377
 21
1974.236150
  0
LINE
  8
0
  6
CONTINUOUS
 62
1
 10
1330.181034
 20
1965.736059
 11
1327.631014
 21
1974.236150
  0
LINE
  8
0
  6
CONTINUOUS
 62
1
 10
805.806064
 20
1929.436178
 11
830.806064
 21
1929.436178
  0
LINE
  8
0
  6
CONTINUOUS
 62
1
 10
830.806064
 20
1929.436178
 11
830.806064
 21
1954.436178
  0
LINE
  8
0
  6
CONTINUOUS
 62
1
 10
830.806064
 20
1954.436178
 11
805.806064
 21
1954.436178
  0
LINE
  8
0
  6
CONTINUOUS
 62
1
 10
805.806064
 20
1954.436178
 11
805.806064
 21
1929.436178
  0
LINE
  8
0
  6
CONTINUOUS
 62
1
 10
989.481235
 20
1912.586126
 11
989.481235
 21
1942.886116
  0
LINE
  8
0
  6
CONTINUOUS
 62
1
 10
989.481235
 20
1942.886116
 11
1014.781223
 21
1942.886081
  0
LINE
  8
0
  6
CONTINUOUS
 62
1
 10
1014.781223
 20
1942.886081
 11
1014.781223
 21
1912.586126
  0
LINE
  8
0
  6
CONTINUOUS
 62
1
 10
1014.781223
 20
1912.586126
 11
989.481235
 21
1912.586126
  0
LINE
  8
0
  6
CONTINUOUS
 62
1
 10
1289.481205
 20
1912.586126
 11
1289.481205
 21
1942.886116
  0
LINE
  8
0
  6
CONTINUOUS
 62
1
 10
1289.481205
 20
1942.886116
 11
1314.781192
 21
1942.886081
  0
LINE
  8
0
  6
CONTINUOUS
 62
1
 10
1314.781192
 20
1942.886081
 11
1314.781192
 21
1912.586126
  0
LINE
  8
0
  6
CONTINUOUS
 62
1
 10
1314.781192
 20
1912.586126
 11
1289.481205
 21
1912.586126
  0
CIRCLE
  8
0
  6
CONTINUOUS
 62
1
 10
1263.180973
 20
1884.736181
 40
6.500000
  0
CIRCLE
  8
0
  6
CONTINUOUS
 62
1
 10
1157.180973
 20
1884.736181
 40
6.500000
  0
CIRCLE
  8
0
  6
CONTINUOUS
 62
1
 10
857.180973
 20
1884.736181
 40
6.500000
  0
CIRCLE
  8
0
  6
CONTINUOUS
 62
1
 10
963.180973
 20
1884.736181
 40
6.500000
  0
CIRCLE
  8
0
  6
CONTINUOUS
 62
1
 10
1210.180973
 20
1927.736181
 40
28.000000
  0
ARC
  8
0
  6
CONTINUOUS
 62
1
 10
1210.180984
 20
1938.736181
 40
2.500000
 50
270.000000
 51
0.000000
  0
ARC
  8
0
  6
CONTINUOUS
 62
1
 10
1210.180984
 20
1938.736181
 40
2.500000
 50
180.000000
 51
270.000000
  0
LINE
  8
0
  6
CONTINUOUS
 62
1
 10
1212.680984
 20
1938.736181
 11
1212.680984
 21
1946.066473
  0
LINE
  8
0
  6
CONTINUOUS
 62
1
 10
1207.680984
 20
1938.736181
 11
1207.680984
 21
1946.066473
  0
ARC
  8
0
  6
CONTINUOUS
 62
1
 10
1210.180973
 20
1927.736181
 40
18.500000
 50
90.000000
 51
82.233551
  0
ARC
  8
0
  6
CONTINUOUS
 62
1
 10
1210.180973
 20
1927.736181
 40
18.500000
 50
82.233528
 51
90.000000
  0
CIRCLE
  8
0
  6
CONTINUOUS
 62
1
 10
910.180973
 20
1927.736181
 40
28.000000
  0
ARC
  8
0
  6
CONTINUOUS
 62
1
 10
910.180984
 20
1938.736181
 40
2.500000
 50
270.000000
 51
0.000000
  0
ARC
  8
0
  6
CONTINUOUS
 62
1
 10
910.180984
 20
1938.736181
 40
2.500000
 50
180.000000
 51
270.000000
  0
LINE
  8
0
  6
CONTINUOUS
 62
1
 10
912.680984
 20
1938.736181
 11
912.680984
 21
1946.066473
  0
LINE
  8
0
  6
CONTINUOUS
 62
1
 10
907.680984
 20
1938.736181
 11
907.680984
 21
1946.066473
  0
ARC
  8
0
  6
CONTINUOUS
 62
1
 10
910.180973
 20
1927.736181
 40
18.500000
 50
90.000000
 51
82.233551
  0
ARC
  8
0
  6
CONTINUOUS
 62
1
 10
910.180973
 20
1927.736181
 40
18.500000
 50
82.233528
 51
90.000000
  0
LINE
  8
0
  6
CONTINUOUS
 62
1
 10
1360.180995
 20
1974.236150
 11
760.180995
 21
1974.236150
  0
LINE
  8
0
  6
CONTINUOUS
 62
1
 10
1360.180995
 20
1859.728582
 11
760.180995
 21
1859.728582
  0
LINE
  8
0
  6
CONTINUOUS
 62
1
 10
1360.180995
 20
1834.728582
 11
760.180995
 21
1834.728582
  0
LINE
  8
0
  6
CONTINUOUS
 62
1
 10
1360.180995
 20
1823.036199
 11
760.180995
 21
1823.036199
  0
LINE
  8
0
  6
CONTINUOUS
 62
1
 10
760.180995
 20
1281.036199
 11
1358.180995
 21
1281.036199
  0
LINE
  8
0
  6
CONTINUOUS
 62
1
 10
760.180995
 20
1823.036199
 11
760.180995
 21
1281.036199
  0
LINE
  8
0
  6
CONTINUOUS
 62
1
 10
1358.180995
 20
1823.036199
 11
1358.180995
 21
1281.036199
  0
LINE
  8
0
  6
CONTINUOUS
 62
1
 10
760.180995
 20
1823.036199
 11
1358.180995
 21
1823.036199
  0
LINE
  8
0
  6
CONTINUOUS
 62
1
 10
1261.180995
 20
1356.536199
 11
1330.180995
 21
1356.536199
  0
LINE
  8
0
  6
CONTINUOUS
 62
1
 10
1333.180995
 20
1359.536199
 11
1333.180995
 21
1378.536199
  0
LINE
  8
0
  6
CONTINUOUS
 62
1
 10
1330.180995
 20
1381.536199
 11
1261.180995
 21
1381.536199
  0
LINE
  8
0
  6
CONTINUOUS
 62
1
 10
1258.180995
 20
1378.536199
 11
1258.180995
 21
1359.536199
  0
ARC
  8
0
  6
CONTINUOUS
 62
1
 10
1261.180995
 20
1378.536199
 40
3.000000
 50
90.000000
 51
180.000000
  0
ARC
  8
0
  6
CONTINUOUS
 62
1
 10
1261.180995
 20
1359.536199
 40
3.000000
 50
180.000000
 51
270.000000
  0
ARC
  8
0
  6
CONTINUOUS
 62
1
 10
1330.180995
 20
1359.536199
 40
3.000000
 50
270.000000
 51
0.000000
  0
ARC
  8
0
  6
CONTINUOUS
 62
1
 10
1330.180995
 20
1378.536199
 40
3.000000
 50
0.000000
 51
90.000000
  0
LINE
  8
0
  6
CONTINUOUS
 62
1
 10
792.180995
 20
1786.036199
 11
792.180995
 21
1746.036199
  0
LINE
  8
0
  6
CONTINUOUS
 62
1
 10
767.180995
 20
1781.879111
 11
767.180995
 21
1750.193287
  0
LINE
  8
0
  6
CONTINUOUS
 62
1
 10
792.180995
 20
1746.036199
 11
770.023988
 21
1747.197399
  0
LINE
  8
0
  6
CONTINUOUS
 62
1
 10
792.180995
 20
1786.036199
 11
770.023988
 21
1784.875000
  0
ARC
  8
0
  6
CONTINUOUS
 62
1
 10
770.180995
 20
1781.879111
 40
3.000000
 50
93.000000
 51
180.000000
  0
ARC
  8
0
  6
CONTINUOUS
 62
1
 10
770.180995
 20
1750.193287
 40
3.000000
 50
180.000000
 51
267.000000
  0
LINE
  8
0
  6
CONTINUOUS
 62
1
 10
1230.102492
 20
1786.036199
 11
1230.102492
 21
1746.036199
  0
LINE
  8
0
  6
CONTINUOUS
 62
1
 10
1255.102492
 20
1781.879111
 11
1255.102492
 21
1750.193287
  0
LINE
  8
0
  6
CONTINUOUS
 62
1
 10
1230.102492
 20
1746.036199
 11
1252.259499
 21
1747.197399
  0
LINE
  8
0
  6
CONTINUOUS
 62
1
 10
1230.102492
 20
1786.036199
 11
1252.259499
 21
1784.875000
  0
ARC
  8
0
  6
CONTINUOUS
 62
1
 10
1252.102492
 20
1781.879111
 40
3.000000
 50
0.000000
 51
87.000000
  0
ARC
  8
0
  6
CONTINUOUS
 62
1
 10
1252.102492
 20
1750.193287
 40
3.000000
 50
273.000000
 51
0.000000
  0
LINE
  8
0
  6
CONTINUOUS
 62
1
 10
792.180995
 20
1786.036199
 11
1230.102492
 21
1786.036199
  0
LINE
  8
0
  6
CONTINUOUS
 62
1
 10
792.180995
 20
1746.036199
 11
1230.102492
 21
1746.036199
  0
ENDSEC
  0
EOF
