  0
SECTION
  2
HEADER
  9
$LIMMIN
 10
0.000000
 20
0.000000
  9
$LIMMAX
 10
7000.000000
 20
3500.000000
  9
$EXTMIN
 10
0.000000
 20
0.000000
  9
$EXTMAX
 10
7000.000000
 20
3500.000000
  9
$ANGBASE
 50
0.0
  9
$ANGDIR
 70
0
  9
$DIMRND
 40
0.100000
  9
$DIMSE1
 70
0
  9
$DIMSE2
 70
0
  9
$DIMTXT
 40
3.500000
  9
$LTSCALE
 40
1.000000
  9
$LUPREC
 70
5
  9
$AUPREC
 70
5
  9
$PDMODE
 70
2
  9
$PDSIZE
 40
35.000000
  0
ENDSEC
  0
SECTION
  2
TABLES
  0
TABLE
  2
VPORT
  70
1
  0
VPORT
  2
*ACTIVE
 70
0
  10
0.0
 20
0.0
 11
1.0
 21
1.0
 12
594.0
 22
420.0
 13
0.0
 23
0.0
 14
10.0
 24
10.0
 15
10.0
 25
10.0
 16
0.0
 26
0.0
 36
1.0
 17
594.0
 27
420.0
 37
100.0
 40
1000.0
 41
1.0
 42
50.0
 43
0.0
 44
0.0
 50
0.0
 51
0.0
 71
0
 72
2000
 73
1
 74
3
 75
0
 76
0
 77
0
 78
1
  0
ENDTAB
  0
TABLE
  2
LTYPE
 70
4
  0
LTYPE
  2
CONTINUOUS
 70
0
  3
Solid line
 72
65
 73
0
 40
0.0
  0
LTYPE
  2
DASHED
 70
0
  3
Dashed line
 72
65
 73
2
 40
6.000000
 49
3.000000
 49
-3.000000
  0
LTYPE
  2
CENTER
 70
0
  3
Chain line
 72
65
 73
4
 40
24.000000
 49
15.000000
 49
-3.000000
 49
3.000000
 49
-3.000000
  0
LTYPE
  2
RANDOM
 70
0
  3
Random line
 72
65
 73
4
 40
22.500000
 49
6.000000
 49
-3.000000
 49
4.500000
 49
-9.000000
  0
ENDTAB
  0
TABLE
  2
STYLE
 70
9
  0
STYLE
  2
STANDARD
 40
0
 41
1.0
 50
0.0
 71
0
 42
0
  3
simplex
  4

 70
0
  0
ENDTAB
  0
TABLE
  2
LAYER
 70
3
  0
LAYER
  2
0
 70
0
 62
7
  6
CONTINUOUS
  0
LAYER
  2
0
 62
1
  6
CONTINUOUS
 70
0
  0
LAYER
  2
73CONTINUOUS
 62
1
  6
CONTINUOUS
 70
0
  0
ENDTAB
  0
ENDSEC
  0
SECTION
  2
BLOCKS
  0
ENDSEC
  0
SECTION
  2
ENTITIES
  0
LINE
  8
0
  6
CONTINUOUS
 62
1
 10
2011.312217
 20
2213.180146
 11
2011.312217
 21
1363.180146
  0
LINE
  8
0
  6
CONTINUOUS
 62
1
 10
2011.312217
 20
1363.180146
 11
2611.312217
 21
1363.180146
  0
LINE
  8
0
  6
CONTINUOUS
 62
1
 10
2611.312217
 20
1363.180146
 11
2611.312217
 21
2213.180146
  0
LINE
  8
0
  6
CONTINUOUS
 62
1
 10
2611.312217
 20
2213.180146
 11
2011.312217
 21
2213.180146
  0
LINE
  8
0
  6
CONTINUOUS
 62
1
 10
2611.312217
 20
1363.180146
 11
2611.312217
 21
1313.180146
  0
LINE
  8
0
  6
CONTINUOUS
 62
1
 10
2611.312217
 20
1313.180146
 11
2011.312217
 21
1313.180146
  0
LINE
  8
0
  6
CONTINUOUS
 62
1
 10
2011.312217
 20
1313.180146
 11
2011.312217
 21
1363.180146
  0
LINE
  8
0
  6
CONTINUOUS
 62
1
 10
2261.942217
 20
1951.180146
 11
2056.942217
 21
1951.180146
  0
LINE
  8
0
  6
CONTINUOUS
 62
1
 10
2056.942217
 20
1951.180146
 11
2056.942217
 21
1651.180146
  0
LINE
  8
0
  6
CONTINUOUS
 62
1
 10
2056.942217
 20
1651.180146
 11
2261.942217
 21
1651.180146
  0
LINE
  8
0
  6
CONTINUOUS
 62
1
 10
2261.942217
 20
1651.180146
 11
2261.942217
 21
1951.180146
  0
LINE
  8
0
  6
CONTINUOUS
 62
1
 10
2191.312217
 20
1951.180146
 11
2181.312217
 21
1991.180146
  0
LINE
  8
0
  6
CONTINUOUS
 62
1
 10
2181.312217
 20
1991.180146
 11
2141.312217
 21
1991.180146
  0
LINE
  8
0
  6
CONTINUOUS
 62
1
 10
2141.312217
 20
1991.180146
 11
2131.312217
 21
1951.180146
  0
LINE
  8
0
  6
CONTINUOUS
 62
1
 10
2261.942217
 20
1685.960146
 11
2056.942217
 21
1685.960146
  0
LINE
  8
0
  6
CONTINUOUS
 62
1
 10
2261.942217
 20
1715.960146
 11
2056.942217
 21
1715.960146
  0
LINE
  8
0
  6
CONTINUOUS
 62
1
 10
2261.942217
 20
1745.960146
 11
2056.942217
 21
1745.960146
  0
LINE
  8
0
  6
CONTINUOUS
 62
1
 10
2261.942217
 20
1775.960146
 11
2056.942217
 21
1775.960146
  0
LINE
  8
0
  6
CONTINUOUS
 62
1
 10
2261.942217
 20
1805.960146
 11
2056.942217
 21
1805.960146
  0
LINE
  8
0
  6
CONTINUOUS
 62
1
 10
2261.942217
 20
1835.960146
 11
2056.942217
 21
1835.960146
  0
LINE
  8
0
  6
CONTINUOUS
 62
1
 10
2261.942217
 20
1865.960146
 11
2056.942217
 21
1865.960146
  0
LINE
  8
0
  6
CONTINUOUS
 62
1
 10
2261.942217
 20
1895.960146
 11
2056.942217
 21
1895.960146
  0
LINE
  8
0
  6
CONTINUOUS
 62
1
 10
2261.942217
 20
1925.960146
 11
2056.942217
 21
1925.960146
  0
LINE
  8
0
  6
CONTINUOUS
 62
1
 10
2249.442217
 20
1651.180146
 11
2249.442217
 21
1951.180146
  0
LINE
  8
0
  6
CONTINUOUS
 62
1
 10
2219.442217
 20
1651.180146
 11
2219.442217
 21
1951.180146
  0
LINE
  8
0
  6
CONTINUOUS
 62
1
 10
2189.442217
 20
1651.180146
 11
2189.442217
 21
1951.180146
  0
LINE
  8
0
  6
CONTINUOUS
 62
1
 10
2159.442217
 20
1651.180146
 11
2159.442217
 21
1951.180146
  0
LINE
  8
0
  6
CONTINUOUS
 62
1
 10
2129.442217
 20
1651.180146
 11
2129.442217
 21
1951.180146
  0
LINE
  8
0
  6
CONTINUOUS
 62
1
 10
2099.442217
 20
1651.180146
 11
2099.442217
 21
1951.180146
  0
LINE
  8
0
  6
CONTINUOUS
 62
1
 10
2069.442217
 20
1651.180146
 11
2069.442217
 21
1951.180146
  0
LINE
  8
0
  6
CONTINUOUS
 62
1
 10
2596.312217
 20
2133.180146
 11
2596.312217
 21
1436.770146
  0
LINE
  8
0
  6
CONTINUOUS
 62
1
 10
2596.312217
 20
1436.770146
 11
2026.312217
 21
1436.770146
  0
LINE
  8
0
  6
CONTINUOUS
 62
1
 10
2026.312217
 20
1436.770146
 11
2026.312217
 21
2133.180146
  0
LINE
  8
0
  6
CONTINUOUS
 62
1
 10
2051.312217
 20
2068.180146
 11
2051.312217
 21
1566.170146
  0
LINE
  8
0
  6
CONTINUOUS
 62
1
 10
2051.312217
 20
1566.170146
 11
2149.142217
 21
1566.170146
  0
LINE
  8
0
  6
CONTINUOUS
 62
1
 10
2066.312217
 20
2068.180146
 11
2066.312217
 21
2023.180146
  0
LINE
  8
0
  6
CONTINUOUS
 62
1
 10
2066.312217
 20
2023.180146
 11
2256.312217
 21
2023.180146
  0
LINE
  8
0
  6
CONTINUOUS
 62
1
 10
2256.312217
 20
2023.180146
 11
2256.312217
 21
2068.180146
  0
LINE
  8
0
  6
CONTINUOUS
 62
1
 10
2251.312217
 20
2068.180146
 11
2286.312217
 21
2068.180146
  0
LINE
  8
0
  6
CONTINUOUS
 62
1
 10
2286.312217
 20
2068.180146
 11
2286.312217
 21
2128.180146
  0
LINE
  8
0
  6
CONTINUOUS
 62
1
 10
2286.312217
 20
2128.180146
 11
2251.312217
 21
2128.180146
  0
LINE
  8
0
  6
CONTINUOUS
 62
1
 10
2071.312217
 20
2128.180146
 11
2071.312217
 21
2068.180146
  0
LINE
  8
0
  6
CONTINUOUS
 62
1
 10
2086.312217
 20
2023.180146
 11
2086.312217
 21
2128.180146
  0
LINE
  8
0
  6
CONTINUOUS
 62
1
 10
2236.312217
 20
2128.180146
 11
2236.312217
 21
2023.180146
  0
LINE
  8
0
  6
CONTINUOUS
 62
1
 10
2251.312217
 20
2068.180146
 11
2251.312217
 21
2128.180146
  0
LINE
  8
0
  6
CONTINUOUS
 62
1
 10
2611.312217
 20
2133.180146
 11
2011.312217
 21
2133.180146
  0
LINE
  8
0
  6
CONTINUOUS
 62
1
 10
2086.312217
 20
2043.180146
 11
2236.312217
 21
2043.180146
  0
LINE
  8
0
  6
CONTINUOUS
 62
1
 10
2236.312217
 20
2053.180146
 11
2086.312217
 21
2053.180146
  0
LINE
  8
0
  6
CONTINUOUS
 62
1
 10
2111.312217
 20
2043.180146
 11
2111.312217
 21
2053.180146
  0
LINE
  8
0
  6
CONTINUOUS
 62
1
 10
2121.312217
 20
2053.180146
 11
2121.312217
 21
2043.180146
  0
LINE
  8
0
  6
CONTINUOUS
 62
1
 10
2141.312217
 20
2043.180146
 11
2141.312217
 21
2053.180146
  0
LINE
  8
0
  6
CONTINUOUS
 62
1
 10
2151.312217
 20
2053.180146
 11
2151.312217
 21
2043.180146
  0
LINE
  8
0
  6
CONTINUOUS
 62
1
 10
2171.312217
 20
2043.180146
 11
2171.312217
 21
2053.180146
  0
LINE
  8
0
  6
CONTINUOUS
 62
1
 10
2181.312217
 20
2053.180146
 11
2181.312217
 21
2043.180146
  0
LINE
  8
0
  6
CONTINUOUS
 62
1
 10
2201.312217
 20
2043.180146
 11
2201.312217
 21
2053.180146
  0
LINE
  8
0
  6
CONTINUOUS
 62
1
 10
2211.312217
 20
2053.180146
 11
2211.312217
 21
2043.180146
  0
LINE
  8
0
  6
CONTINUOUS
 62
1
 10
2173.482217
 20
1566.170146
 11
2271.312217
 21
1566.170146
  0
LINE
  8
0
  6
CONTINUOUS
 62
1
 10
2271.312217
 20
1566.170146
 11
2271.312217
 21
2068.180146
  0
LINE
  8
0
  6
CONTINUOUS
 62
1
 10
2071.312217
 20
2110.180146
 11
2086.312217
 21
2110.180146
  0
LINE
  8
0
  6
CONTINUOUS
 62
1
 10
2236.312217
 20
2110.180146
 11
2251.312217
 21
2110.180146
  0
LINE
  8
0
  6
CONTINUOUS
 62
1
 10
2251.312217
 20
2086.180146
 11
2236.312217
 21
2086.180146
  0
LINE
  8
0
  6
CONTINUOUS
 62
1
 10
2086.312217
 20
2086.180146
 11
2071.312217
 21
2086.180146
  0
LINE
  8
0
  6
CONTINUOUS
 62
1
 10
2071.312217
 20
2128.180146
 11
2036.312217
 21
2128.180146
  0
LINE
  8
0
  6
CONTINUOUS
 62
1
 10
2036.312217
 20
2128.180146
 11
2036.312217
 21
2068.180146
  0
LINE
  8
0
  6
CONTINUOUS
 62
1
 10
2036.312217
 20
2068.180146
 11
2071.312217
 21
2068.180146
  0
LINE
  8
0
  6
CONTINUOUS
 62
1
 10
2236.312217
 20
2128.180146
 11
2086.312217
 21
2128.180146
  0
LINE
  8
0
  6
CONTINUOUS
 62
1
 10
2149.442217
 20
1651.180146
 11
2149.442217
 21
1456.770146
  0
LINE
  8
0
  6
CONTINUOUS
 62
1
 10
2149.442217
 20
1456.770146
 11
2169.442217
 21
1456.770146
  0
LINE
  8
0
  6
CONTINUOUS
 62
1
 10
2169.442217
 20
1456.770146
 11
2169.442217
 21
1651.180146
  0
LINE
  8
0
  6
CONTINUOUS
 62
1
 10
2169.442217
 20
1651.180146
 11
2149.442217
 21
1651.180146
  0
LINE
  8
0
  6
CONTINUOUS
 62
1
 10
2360.672217
 20
1951.180146
 11
2565.672217
 21
1951.180146
  0
LINE
  8
0
  6
CONTINUOUS
 62
1
 10
2565.672217
 20
1951.180146
 11
2565.672217
 21
1651.180146
  0
LINE
  8
0
  6
CONTINUOUS
 62
1
 10
2565.672217
 20
1651.180146
 11
2360.672217
 21
1651.180146
  0
LINE
  8
0
  6
CONTINUOUS
 62
1
 10
2360.672217
 20
1651.180146
 11
2360.672217
 21
1951.180146
  0
LINE
  8
0
  6
CONTINUOUS
 62
1
 10
2431.312217
 20
1951.180146
 11
2441.312217
 21
1991.180146
  0
LINE
  8
0
  6
CONTINUOUS
 62
1
 10
2441.312217
 20
1991.180146
 11
2481.312217
 21
1991.180146
  0
LINE
  8
0
  6
CONTINUOUS
 62
1
 10
2481.312217
 20
1991.180146
 11
2491.312217
 21
1951.180146
  0
LINE
  8
0
  6
CONTINUOUS
 62
1
 10
2360.672217
 20
1685.960146
 11
2565.672217
 21
1685.960146
  0
LINE
  8
0
  6
CONTINUOUS
 62
1
 10
2360.672217
 20
1715.960146
 11
2565.672217
 21
1715.960146
  0
LINE
  8
0
  6
CONTINUOUS
 62
1
 10
2360.672217
 20
1745.960146
 11
2565.672217
 21
1745.960146
  0
LINE
  8
0
  6
CONTINUOUS
 62
1
 10
2360.672217
 20
1775.960146
 11
2565.672217
 21
1775.960146
  0
LINE
  8
0
  6
CONTINUOUS
 62
1
 10
2360.672217
 20
1805.960146
 11
2565.672217
 21
1805.960146
  0
LINE
  8
0
  6
CONTINUOUS
 62
1
 10
2360.672217
 20
1835.960146
 11
2565.672217
 21
1835.960146
  0
LINE
  8
0
  6
CONTINUOUS
 62
1
 10
2360.672217
 20
1865.960146
 11
2565.672217
 21
1865.960146
  0
LINE
  8
0
  6
CONTINUOUS
 62
1
 10
2360.672217
 20
1895.960146
 11
2565.672217
 21
1895.960146
  0
LINE
  8
0
  6
CONTINUOUS
 62
1
 10
2360.672217
 20
1925.960146
 11
2565.672217
 21
1925.960146
  0
LINE
  8
0
  6
CONTINUOUS
 62
1
 10
2373.172217
 20
1651.180146
 11
2373.172217
 21
1951.180146
  0
LINE
  8
0
  6
CONTINUOUS
 62
1
 10
2403.172217
 20
1651.180146
 11
2403.172217
 21
1951.180146
  0
LINE
  8
0
  6
CONTINUOUS
 62
1
 10
2433.172217
 20
1651.180146
 11
2433.172217
 21
1951.180146
  0
LINE
  8
0
  6
CONTINUOUS
 62
1
 10
2463.172217
 20
1651.180146
 11
2463.172217
 21
1951.180146
  0
LINE
  8
0
  6
CONTINUOUS
 62
1
 10
2493.172217
 20
1651.180146
 11
2493.172217
 21
1951.180146
  0
LINE
  8
0
  6
CONTINUOUS
 62
1
 10
2523.172217
 20
1651.180146
 11
2523.172217
 21
1951.180146
  0
LINE
  8
0
  6
CONTINUOUS
 62
1
 10
2553.172217
 20
1651.180146
 11
2553.172217
 21
1951.180146
  0
LINE
  8
0
  6
CONTINUOUS
 62
1
 10
2571.312217
 20
2068.180146
 11
2571.312217
 21
1566.170146
  0
LINE
  8
0
  6
CONTINUOUS
 62
1
 10
2571.312217
 20
1566.170146
 11
2473.482217
 21
1566.170146
  0
LINE
  8
0
  6
CONTINUOUS
 62
1
 10
2556.312217
 20
2068.180146
 11
2556.312217
 21
2023.180146
  0
LINE
  8
0
  6
CONTINUOUS
 62
1
 10
2556.312217
 20
2023.180146
 11
2366.312217
 21
2023.180146
  0
LINE
  8
0
  6
CONTINUOUS
 62
1
 10
2366.312217
 20
2023.180146
 11
2366.312217
 21
2068.180146
  0
LINE
  8
0
  6
CONTINUOUS
 62
1
 10
2371.312217
 20
2068.180146
 11
2336.312217
 21
2068.180146
  0
LINE
  8
0
  6
CONTINUOUS
 62
1
 10
2336.312217
 20
2068.180146
 11
2336.312217
 21
2128.180146
  0
LINE
  8
0
  6
CONTINUOUS
 62
1
 10
2336.312217
 20
2128.180146
 11
2371.312217
 21
2128.180146
  0
LINE
  8
0
  6
CONTINUOUS
 62
1
 10
2551.312217
 20
2128.180146
 11
2551.312217
 21
2068.180146
  0
LINE
  8
0
  6
CONTINUOUS
 62
1
 10
2536.312217
 20
2023.180146
 11
2536.312217
 21
2128.180146
  0
LINE
  8
0
  6
CONTINUOUS
 62
1
 10
2386.312217
 20
2128.180146
 11
2386.312217
 21
2023.180146
  0
LINE
  8
0
  6
CONTINUOUS
 62
1
 10
2371.312217
 20
2068.180146
 11
2371.312217
 21
2128.180146
  0
LINE
  8
0
  6
CONTINUOUS
 62
1
 10
2536.312217
 20
2043.180146
 11
2386.312217
 21
2043.180146
  0
LINE
  8
0
  6
CONTINUOUS
 62
1
 10
2386.312217
 20
2053.180146
 11
2536.312217
 21
2053.180146
  0
LINE
  8
0
  6
CONTINUOUS
 62
1
 10
2511.312217
 20
2043.180146
 11
2511.312217
 21
2053.180146
  0
LINE
  8
0
  6
CONTINUOUS
 62
1
 10
2501.312217
 20
2053.180146
 11
2501.312217
 21
2043.180146
  0
LINE
  8
0
  6
CONTINUOUS
 62
1
 10
2481.312217
 20
2043.180146
 11
2481.312217
 21
2053.180146
  0
LINE
  8
0
  6
CONTINUOUS
 62
1
 10
2471.312217
 20
2053.180146
 11
2471.312217
 21
2043.180146
  0
LINE
  8
0
  6
CONTINUOUS
 62
1
 10
2451.312217
 20
2043.180146
 11
2451.312217
 21
2053.180146
  0
LINE
  8
0
  6
CONTINUOUS
 62
1
 10
2441.312217
 20
2053.180146
 11
2441.312217
 21
2043.180146
  0
LINE
  8
0
  6
CONTINUOUS
 62
1
 10
2421.312217
 20
2043.180146
 11
2421.312217
 21
2053.180146
  0
LINE
  8
0
  6
CONTINUOUS
 62
1
 10
2411.312217
 20
2053.180146
 11
2411.312217
 21
2043.180146
  0
LINE
  8
0
  6
CONTINUOUS
 62
1
 10
2449.142217
 20
1566.170146
 11
2351.312217
 21
1566.170146
  0
LINE
  8
0
  6
CONTINUOUS
 62
1
 10
2351.312217
 20
1566.170146
 11
2351.312217
 21
2068.180146
  0
LINE
  8
0
  6
CONTINUOUS
 62
1
 10
2551.312217
 20
2110.180146
 11
2536.312217
 21
2110.180146
  0
LINE
  8
0
  6
CONTINUOUS
 62
1
 10
2386.312217
 20
2110.180146
 11
2371.312217
 21
2110.180146
  0
LINE
  8
0
  6
CONTINUOUS
 62
1
 10
2371.312217
 20
2086.180146
 11
2386.312217
 21
2086.180146
  0
LINE
  8
0
  6
CONTINUOUS
 62
1
 10
2536.312217
 20
2086.180146
 11
2551.312217
 21
2086.180146
  0
LINE
  8
0
  6
CONTINUOUS
 62
1
 10
2551.312217
 20
2128.180146
 11
2586.312217
 21
2128.180146
  0
LINE
  8
0
  6
CONTINUOUS
 62
1
 10
2586.312217
 20
2128.180146
 11
2586.312217
 21
2068.180146
  0
LINE
  8
0
  6
CONTINUOUS
 62
1
 10
2586.312217
 20
2068.180146
 11
2551.312217
 21
2068.180146
  0
LINE
  8
0
  6
CONTINUOUS
 62
1
 10
2386.312217
 20
2128.180146
 11
2536.312217
 21
2128.180146
  0
LINE
  8
0
  6
CONTINUOUS
 62
1
 10
2473.172217
 20
1651.180146
 11
2473.172217
 21
1456.770146
  0
LINE
  8
0
  6
CONTINUOUS
 62
1
 10
2473.172217
 20
1456.770146
 11
2453.172217
 21
1456.770146
  0
LINE
  8
0
  6
CONTINUOUS
 62
1
 10
2453.172217
 20
1456.770146
 11
2453.172217
 21
1651.180146
  0
LINE
  8
0
  6
CONTINUOUS
 62
1
 10
2453.172217
 20
1651.180146
 11
2473.172217
 21
1651.180146
  0
LINE
  8
0
  6
CONTINUOUS
 62
1
 10
2596.312217
 20
1450.770146
 11
2026.312217
 21
1450.770146
  0
LINE
  8
0
  6
CENTER
 62
4
 10
2311.312217
 20
2267.420146
 11
2311.312217
 21
2177.760146
  0
LINE
  8
0
  6
CONTINUOUS
 62
1
 10
2018.312217
 20
1313.180146
 11
2018.312217
 21
1297.337235
  0
LINE
  8
0
  6
CONTINUOUS
 62
1
 10
2043.312217
 20
1293.180146
 11
2043.312217
 21
1313.180146
  0
LINE
  8
0
  6
CONTINUOUS
 62
1
 10
2018.312217
 20
1313.180146
 11
2043.312217
 21
1313.180146
  0
LINE
  8
0
  6
CONTINUOUS
 62
1
 10
2043.312217
 20
1293.180146
 11
2021.155209
 21
1294.341346
  0
ARC
  8
0
  6
CONTINUOUS
 62
1
 10
2021.312217
 20
1297.337235
 40
3.000000
 50
180.000000
 51
267.000000
  0
LINE
  8
0
  6
CONTINUOUS
 62
1
 10
2043.312217
 20
1293.180146
 11
2481.233713
 21
1293.180146
  0
LINE
  8
0
  6
CONTINUOUS
 62
1
 10
2506.233713
 20
1313.180146
 11
2506.233713
 21
1297.337235
  0
LINE
  8
0
  6
CONTINUOUS
 62
1
 10
2481.233713
 20
1293.180146
 11
2481.233713
 21
1313.180146
  0
LINE
  8
0
  6
CONTINUOUS
 62
1
 10
2506.233713
 20
1313.180146
 11
2481.233713
 21
1313.180146
  0
LINE
  8
0
  6
CONTINUOUS
 62
1
 10
2481.233713
 20
1293.180146
 11
2503.390721
 21
1294.341346
  0
ARC
  8
0
  6
CONTINUOUS
 62
1
 10
2503.233713
 20
1297.337235
 40
3.000000
 50
273.000000
 51
0.000000
  0
ENDSEC
  0
EOF
