  0
SECTION
  2
HEADER
  9
$LIMMIN
 10
0.000000
 20
0.000000
  9
$LIMMAX
 10
901.000000
 20
892.000000
  9
$EXTMIN
 10
0.000000
 20
0.000000
  9
$EXTMAX
 10
2000.000000
 20
2000.000000
  9
$ANGBASE
 50
0.0
  9
$ANGDIR
 70
0
  9
$DIMRND
 40
0.100000
  9
$DIMSE1
 70
0
  9
$DIMSE2
 70
0
  9
$DIMTXT
 40
3.500000
  9
$LTSCALE
 40
1.000000
  9
$LUPREC
 70
5
  9
$AUPREC
 70
5
  9
$PDMODE
 70
2
  9
$PDSIZE
 40
10.000000
  0
ENDSEC
  0
SECTION
  2
TABLES
  0
TABLE
  2
VPORT
  70
1
  0
VPORT
  2
*ACTIVE
 70
0
  10
0.0
 20
0.0
 11
1.0
 21
1.0
 12
594.0
 22
420.0
 13
0.0
 23
0.0
 14
10.0
 24
10.0
 15
10.0
 25
10.0
 16
0.0
 26
0.0
 36
1.0
 17
594.0
 27
420.0
 37
100.0
 40
1000.0
 41
1.0
 42
50.0
 43
0.0
 44
0.0
 50
0.0
 51
0.0
 71
0
 72
2000
 73
1
 74
3
 75
0
 76
0
 77
0
 78
1
  0
ENDTAB
  0
TABLE
  2
LTYPE
 70
4
  0
LTYPE
  2
CONTINUOUS
 70
0
  3
Solid line
 72
65
 73
0
 40
0.0
  0
LTYPE
  2
DASHED
 70
0
  3
Dashed line
 72
65
 73
2
 40
6.000000
 49
3.000000
 49
-3.000000
  0
LTYPE
  2
CENTER
 70
0
  3
Chain line
 72
65
 73
4
 40
24.000000
 49
15.000000
 49
-3.000000
 49
3.000000
 49
-3.000000
  0
LTYPE
  2
RANDOM
 70
0
  3
Random line
 72
65
 73
4
 40
22.500000
 49
6.000000
 49
-3.000000
 49
4.500000
 49
-9.000000
  0
ENDTAB
  0
TABLE
  2
STYLE
 70
9
  0
STYLE
  2
STANDARD
 40
0
 41
1.0
 50
0.0
 71
0
 42
0
  3
simplex
  4

 70
0
  0
ENDTAB
  0
TABLE
  2
LAYER
 70
5
  0
LAYER
  2
0
 70
0
 62
7
  6
CONTINUOUS
  0
LAYER
  2
0
 62
1
  6
CONTINUOUS
 70
0
  0
LAYER
  2
MODEL
 62
1
  6
CONTINUOUS
 70
0
  0
LAYER
  2
MODEL-73CONTINUOUS
 62
1
  6
CONTINUOUS
 70
0
  0
LAYER
  2
MODEL-73ADSDOT
 62
1
  6
CONTINUOUS
 70
0
  0
ENDTAB
  0
ENDSEC
  0
SECTION
  2
BLOCKS
  0
ENDSEC
  0
SECTION
  2
ENTITIES
  0
LINE
  8
0
  6
CONTINUOUS
 62
1
 10
1197.468454
 20
194.016650
 11
297.468454
 21
194.016650
  0
LINE
  8
MODEL-73CONTINUOUS
  6
CONTINUOUS
 62
1
 10
374.968454
 20
958.016650
 11
348.968454
 21
958.016650
  0
LINE
  8
MODEL-73CONTINUOUS
  6
CONTINUOUS
 62
1
 10
348.968454
 20
958.016650
 11
348.968454
 21
932.016650
  0
LINE
  8
MODEL-73CONTINUOUS
  6
CONTINUOUS
 62
1
 10
348.968454
 20
932.016650
 11
374.968454
 21
932.016650
  0
LINE
  8
MODEL-73CONTINUOUS
  6
CONTINUOUS
 62
1
 10
374.968454
 20
932.016650
 11
374.968454
 21
958.016650
  0
LINE
  8
MODEL-73CONTINUOUS
  6
CONTINUOUS
 62
1
 10
1119.968454
 20
958.016650
 11
1145.968454
 21
958.016650
  0
LINE
  8
MODEL-73CONTINUOUS
  6
CONTINUOUS
 62
1
 10
1145.968454
 20
958.016650
 11
1145.968454
 21
932.016650
  0
LINE
  8
MODEL-73CONTINUOUS
  6
CONTINUOUS
 62
1
 10
1145.968454
 20
932.016650
 11
1119.968454
 21
932.016650
  0
LINE
  8
MODEL-73CONTINUOUS
  6
CONTINUOUS
 62
1
 10
1119.968454
 20
932.016650
 11
1119.968454
 21
958.016650
  0
LINE
  8
MODEL-73CONTINUOUS
  6
CONTINUOUS
 62
1
 10
1092.468454
 20
958.016650
 11
402.468454
 21
958.016650
  0
LINE
  8
MODEL-73CONTINUOUS
  6
CONTINUOUS
 62
1
 10
402.468454
 20
958.016650
 11
402.468454
 21
932.016650
  0
LINE
  8
MODEL-73CONTINUOUS
  6
CONTINUOUS
 62
1
 10
402.468454
 20
932.016650
 11
1092.468454
 21
932.016650
  0
LINE
  8
MODEL-73CONTINUOUS
  6
CONTINUOUS
 62
1
 10
1092.468454
 20
932.016650
 11
1092.468454
 21
958.016650
  0
LINE
  8
MODEL-73CONTINUOUS
  6
CONTINUOUS
 62
1
 10
1073.868454
 20
932.016650
 11
1073.868454
 21
958.016650
  0
LINE
  8
MODEL-73CONTINUOUS
  6
CONTINUOUS
 62
1
 10
1046.668454
 20
958.016650
 11
1046.668454
 21
932.016650
  0
LINE
  8
MODEL-73CONTINUOUS
  6
CONTINUOUS
 62
1
 10
1019.468454
 20
932.016650
 11
1019.468454
 21
958.016650
  0
LINE
  8
MODEL-73CONTINUOUS
  6
CONTINUOUS
 62
1
 10
992.268454
 20
958.016650
 11
992.268454
 21
932.016650
  0
LINE
  8
MODEL-73CONTINUOUS
  6
CONTINUOUS
 62
1
 10
965.068454
 20
932.016650
 11
965.068454
 21
958.016650
  0
LINE
  8
MODEL-73CONTINUOUS
  6
CONTINUOUS
 62
1
 10
937.868454
 20
958.016650
 11
937.868454
 21
932.016650
  0
LINE
  8
MODEL-73CONTINUOUS
  6
CONTINUOUS
 62
1
 10
910.668454
 20
932.016650
 11
910.668454
 21
958.016650
  0
LINE
  8
MODEL-73CONTINUOUS
  6
CONTINUOUS
 62
1
 10
883.468454
 20
958.016650
 11
883.468454
 21
932.016650
  0
LINE
  8
MODEL-73CONTINUOUS
  6
CONTINUOUS
 62
1
 10
856.268454
 20
932.016650
 11
856.268454
 21
958.016650
  0
LINE
  8
MODEL-73CONTINUOUS
  6
CONTINUOUS
 62
1
 10
829.068454
 20
958.016650
 11
829.068454
 21
932.016650
  0
LINE
  8
MODEL-73CONTINUOUS
  6
CONTINUOUS
 62
1
 10
801.868454
 20
932.016650
 11
801.868454
 21
958.016650
  0
LINE
  8
MODEL-73CONTINUOUS
  6
CONTINUOUS
 62
1
 10
774.668454
 20
958.016650
 11
774.668454
 21
932.016650
  0
LINE
  8
MODEL-73CONTINUOUS
  6
CONTINUOUS
 62
1
 10
747.468454
 20
932.016650
 11
747.468454
 21
958.016650
  0
LINE
  8
MODEL-73CONTINUOUS
  6
CONTINUOUS
 62
1
 10
720.268454
 20
958.016650
 11
720.268454
 21
932.016650
  0
LINE
  8
MODEL-73CONTINUOUS
  6
CONTINUOUS
 62
1
 10
693.068454
 20
932.016650
 11
693.068454
 21
958.016650
  0
LINE
  8
MODEL-73CONTINUOUS
  6
CONTINUOUS
 62
1
 10
665.868454
 20
958.016650
 11
665.868454
 21
932.016650
  0
LINE
  8
MODEL-73CONTINUOUS
  6
CONTINUOUS
 62
1
 10
638.668454
 20
932.016650
 11
638.668454
 21
958.016650
  0
LINE
  8
MODEL-73CONTINUOUS
  6
CONTINUOUS
 62
1
 10
611.468454
 20
958.016650
 11
611.468454
 21
932.016650
  0
LINE
  8
MODEL-73CONTINUOUS
  6
CONTINUOUS
 62
1
 10
584.268454
 20
932.016650
 11
584.268454
 21
958.016650
  0
LINE
  8
MODEL-73CONTINUOUS
  6
CONTINUOUS
 62
1
 10
557.068454
 20
958.016650
 11
557.068454
 21
932.016650
  0
LINE
  8
MODEL-73CONTINUOUS
  6
CONTINUOUS
 62
1
 10
529.868454
 20
932.016650
 11
529.868454
 21
958.016650
  0
LINE
  8
MODEL-73CONTINUOUS
  6
CONTINUOUS
 62
1
 10
502.668454
 20
958.016650
 11
502.668454
 21
932.016650
  0
LINE
  8
MODEL-73CONTINUOUS
  6
CONTINUOUS
 62
1
 10
475.468454
 20
932.016650
 11
475.468454
 21
958.016650
  0
LINE
  8
MODEL-73CONTINUOUS
  6
CONTINUOUS
 62
1
 10
448.268454
 20
958.016650
 11
448.268454
 21
932.016650
  0
LINE
  8
MODEL-73CONTINUOUS
  6
CONTINUOUS
 62
1
 10
421.068454
 20
932.016650
 11
421.068454
 21
958.016650
  0
LINE
  8
MODEL-73CONTINUOUS
  6
CONTINUOUS
 62
1
 10
297.468454
 20
926.016650
 11
1197.468454
 21
926.016650
  0
LINE
  8
MODEL-73CONTINUOUS
  6
CONTINUOUS
 62
1
 10
1197.468454
 20
886.016650
 11
297.468454
 21
886.016650
  0
LINE
  8
MODEL-73CONTINUOUS
  6
CONTINUOUS
 62
1
 10
682.468454
 20
176.816650
 11
667.468454
 21
129.816650
  0
LINE
  8
MODEL-73CONTINUOUS
  6
CONTINUOUS
 62
1
 10
667.468454
 20
129.816650
 11
642.468454
 21
139.816650
  0
LINE
  8
MODEL-73CONTINUOUS
  6
CONTINUOUS
 62
1
 10
642.468454
 20
139.816650
 11
642.468454
 21
176.816650
  0
LINE
  8
MODEL-73CONTINUOUS
  6
CONTINUOUS
 62
1
 10
712.468454
 20
176.816650
 11
727.468454
 21
129.816650
  0
LINE
  8
MODEL-73CONTINUOUS
  6
CONTINUOUS
 62
1
 10
727.468454
 20
129.816650
 11
752.468454
 21
139.816650
  0
LINE
  8
MODEL-73CONTINUOUS
  6
CONTINUOUS
 62
1
 10
752.468454
 20
139.816650
 11
752.468454
 21
176.816650
  0
LINE
  8
MODEL-73CONTINUOUS
  6
CONTINUOUS
 62
1
 10
297.468454
 20
176.816650
 11
1197.468454
 21
176.816650
  0
LINE
  8
MODEL-73CONTINUOUS
  6
CONTINUOUS
 62
1
 10
1197.468454
 20
176.816650
 11
1197.468454
 21
964.016650
  0
LINE
  8
MODEL-73CONTINUOUS
  6
CONTINUOUS
 62
1
 10
1197.468454
 20
964.016650
 11
297.468454
 21
964.016650
  0
LINE
  8
MODEL-73CONTINUOUS
  6
CONTINUOUS
 62
1
 10
297.468454
 20
964.016650
 11
297.468454
 21
176.816650
  0
LINE
  8
MODEL-73CONTINUOUS
  6
CONTINUOUS
 62
1
 10
376.468454
 20
886.016650
 11
376.468454
 21
292.016650
  0
LINE
  8
MODEL-73CONTINUOUS
  6
CONTINUOUS
 62
1
 10
1117.468454
 20
292.016650
 11
1117.468454
 21
886.016650
  0
LINE
  8
MODEL-73CONTINUOUS
  6
CONTINUOUS
 62
1
 10
870.468454
 20
886.016650
 11
870.468454
 21
292.016650
  0
LINE
  8
MODEL-73CONTINUOUS
  6
CONTINUOUS
 62
1
 10
623.468454
 20
292.016650
 11
623.468454
 21
886.016650
  0
LINE
  8
MODEL-73CONTINUOUS
  6
CONTINUOUS
 62
1
 10
297.468454
 20
292.016650
 11
1197.468454
 21
292.016650
  0
ARC
  8
MODEL-73CONTINUOUS
  6
CONTINUOUS
 62
1
 10
499.968454
 20
734.016650
 40
27.500000
 50
180.000000
 51
0.000000
  0
ARC
  8
MODEL-73CONTINUOUS
  6
CONTINUOUS
 62
1
 10
499.968454
 20
734.016650
 40
27.500000
 50
0.000000
 51
180.000000
  0
ARC
  8
MODEL-73CONTINUOUS
  6
CONTINUOUS
 62
1
 10
499.968454
 20
469.016650
 40
27.500000
 50
180.000000
 51
0.000000
  0
ARC
  8
MODEL-73CONTINUOUS
  6
CONTINUOUS
 62
1
 10
499.968454
 20
469.016650
 40
27.500000
 50
0.000000
 51
180.000000
  0
ARC
  8
MODEL-73CONTINUOUS
  6
CONTINUOUS
 62
1
 10
499.968454
 20
734.016650
 40
97.500000
 50
180.000000
 51
0.000000
  0
ARC
  8
MODEL-73CONTINUOUS
  6
CONTINUOUS
 62
1
 10
499.968454
 20
734.016650
 40
97.500000
 50
0.000000
 51
180.000000
  0
ARC
  8
MODEL-73CONTINUOUS
  6
CONTINUOUS
 62
1
 10
499.968454
 20
469.016650
 40
97.500000
 50
180.000000
 51
0.000000
  0
ARC
  8
MODEL-73CONTINUOUS
  6
CONTINUOUS
 62
1
 10
499.968454
 20
469.016650
 40
97.500000
 50
0.000000
 51
180.000000
  0
LINE
  8
MODEL-73CONTINUOUS
  6
CONTINUOUS
 62
1
 10
310.468454
 20
976.016650
 11
1184.468454
 21
976.016650
  0
LINE
  8
MODEL-73CONTINUOUS
  6
CONTINUOUS
 62
1
 10
1184.468454
 20
976.016650
 11
1184.468454
 21
1039.016650
  0
LINE
  8
MODEL-73CONTINUOUS
  6
CONTINUOUS
 62
1
 10
1184.468454
 20
1039.016650
 11
310.468454
 21
1039.016650
  0
LINE
  8
MODEL-73CONTINUOUS
  6
CONTINUOUS
 62
1
 10
310.468454
 20
1039.016650
 11
310.468454
 21
976.016650
  0
LINE
  8
MODEL-73CONTINUOUS
  6
CONTINUOUS
 62
1
 10
411.558454
 20
976.016650
 11
411.558454
 21
964.016650
  0
LINE
  8
MODEL-73CONTINUOUS
  6
CONTINUOUS
 62
1
 10
565.788454
 20
964.016650
 11
565.788454
 21
976.016650
  0
LINE
  8
MODEL-73CONTINUOUS
  6
CONTINUOUS
 62
1
 10
798.778454
 20
976.016650
 11
798.778454
 21
964.016650
  0
LINE
  8
MODEL-73CONTINUOUS
  6
CONTINUOUS
 62
1
 10
1077.708454
 20
964.016650
 11
1077.708454
 21
976.016650
  0
ARC
  8
MODEL-73ADSDOT
  6
DASHED
 62
1
 10
1152.468454
 20
1004.016650
 40
12.500000
 50
180.000000
 51
0.000000
  0
ARC
  8
MODEL-73ADSDOT
  6
DASHED
 62
1
 10
1152.468454
 20
1004.016650
 40
12.500000
 50
0.000000
 51
180.000000
  0
ENDSEC
  0
EOF
