  0
SECTION
  2
HEADER
  9
$LIMMIN
 10
0.000000
 20
0.000000
  9
$LIMMAX
 10
7000.000000
 20
3500.000000
  9
$EXTMIN
 10
0.000000
 20
0.000000
  9
$EXTMAX
 10
7000.000000
 20
3500.000000
  9
$ANGBASE
 50
0.0
  9
$ANGDIR
 70
0
  9
$DIMRND
 40
0.100000
  9
$DIMSE1
 70
0
  9
$DIMSE2
 70
0
  9
$DIMTXT
 40
3.500000
  9
$LTSCALE
 40
1.000000
  9
$LUPREC
 70
5
  9
$AUPREC
 70
5
  9
$PDMODE
 70
2
  9
$PDSIZE
 40
35.000000
  0
ENDSEC
  0
SECTION
  2
TABLES
  0
TABLE
  2
VPORT
  70
1
  0
VPORT
  2
*ACTIVE
 70
0
  10
0.0
 20
0.0
 11
1.0
 21
1.0
 12
594.0
 22
420.0
 13
0.0
 23
0.0
 14
10.0
 24
10.0
 15
10.0
 25
10.0
 16
0.0
 26
0.0
 36
1.0
 17
594.0
 27
420.0
 37
100.0
 40
1000.0
 41
1.0
 42
50.0
 43
0.0
 44
0.0
 50
0.0
 51
0.0
 71
0
 72
2000
 73
1
 74
3
 75
0
 76
0
 77
0
 78
1
  0
ENDTAB
  0
TABLE
  2
LTYPE
 70
4
  0
LTYPE
  2
CONTINUOUS
 70
0
  3
Solid line
 72
65
 73
0
 40
0.0
  0
LTYPE
  2
DASHED
 70
0
  3
Dashed line
 72
65
 73
2
 40
6.000000
 49
3.000000
 49
-3.000000
  0
LTYPE
  2
CENTER
 70
0
  3
Chain line
 72
65
 73
4
 40
24.000000
 49
15.000000
 49
-3.000000
 49
3.000000
 49
-3.000000
  0
LTYPE
  2
RANDOM
 70
0
  3
Random line
 72
65
 73
4
 40
22.500000
 49
6.000000
 49
-3.000000
 49
4.500000
 49
-9.000000
  0
ENDTAB
  0
TABLE
  2
STYLE
 70
9
  0
STYLE
  2
STANDARD
 40
0
 41
1.0
 50
0.0
 71
0
 42
0
  3
simplex
  4

 70
0
  0
ENDTAB
  0
TABLE
  2
LAYER
 70
2
  0
LAYER
  2
0
 70
0
 62
7
  6
CONTINUOUS
  0
LAYER
  2
0
 62
1
  6
CONTINUOUS
 70
0
  0
ENDTAB
  0
ENDSEC
  0
SECTION
  2
BLOCKS
  0
ENDSEC
  0
SECTION
  2
ENTITIES
  0
LINE
  8
0
  6
CONTINUOUS
 62
1
 10
4625.524237
 20
2237.723982
 11
4625.524237
 21
2642.723982
  0
LINE
  8
0
  6
CONTINUOUS
 62
1
 10
4561.524237
 20
2675.723982
 11
4506.524237
 21
2675.723982
  0
LINE
  8
0
  6
CONTINUOUS
 62
1
 10
4521.524237
 20
2675.723982
 11
4521.524237
 21
2177.723982
  0
LINE
  8
0
  6
CONTINUOUS
 62
1
 10
4578.524237
 20
2670.723982
 11
4521.524237
 21
2670.723982
  0
LINE
  8
0
  6
CONTINUOUS
 62
1
 10
4506.524237
 20
2675.723982
 11
4578.524237
 21
2675.723982
  0
LINE
  8
0
  6
CONTINUOUS
 62
1
 10
4578.524237
 20
2675.723982
 11
4578.524237
 21
2710.293982
  0
LINE
  8
0
  6
CONTINUOUS
 62
1
 10
4578.524237
 20
2710.293982
 11
4561.524237
 21
2717.723982
  0
LINE
  8
0
  6
CONTINUOUS
 62
1
 10
4506.524237
 20
2072.723982
 11
4561.524237
 21
2087.723982
  0
LINE
  8
0
  6
CONTINUOUS
 62
1
 10
4561.524237
 20
2087.723982
 11
4561.524237
 21
2177.723982
  0
LINE
  8
0
  6
CONTINUOUS
 62
1
 10
4506.524237
 20
2177.723982
 11
4561.524237
 21
2177.723982
  0
LINE
  8
0
  6
CONTINUOUS
 62
1
 10
4521.524237
 20
2187.723982
 11
4578.524237
 21
2187.723982
  0
LINE
  8
0
  6
CONTINUOUS
 62
1
 10
4578.524237
 20
2187.723982
 11
4578.524237
 21
2670.723982
  0
LINE
  8
0
  6
CONTINUOUS
 62
1
 10
4578.524237
 20
2267.723982
 11
4605.524237
 21
2267.723982
  0
LINE
  8
0
  6
CONTINUOUS
 62
1
 10
4605.524237
 20
2267.723982
 11
4605.524237
 21
2612.723982
  0
LINE
  8
0
  6
CONTINUOUS
 62
1
 10
4605.524237
 20
2612.723982
 11
4578.524237
 21
2612.723982
  0
LINE
  8
0
  6
CONTINUOUS
 62
1
 10
4578.524237
 20
2237.723982
 11
4625.524237
 21
2237.723982
  0
LINE
  8
0
  6
CONTINUOUS
 62
1
 10
4625.524237
 20
2642.723982
 11
4578.524237
 21
2642.723982
  0
LINE
  8
0
  6
CONTINUOUS
 62
1
 10
4578.524237
 20
2675.723982
 11
4578.524237
 21
2692.723982
  0
LINE
  8
0
  6
CONTINUOUS
 62
1
 10
3791.524237
 20
2717.723982
 11
3894.524237
 21
2717.723982
  0
LINE
  8
0
  6
CONTINUOUS
 62
1
 10
3861.524237
 20
2755.723982
 11
3829.524237
 21
2755.723982
  0
LINE
  8
0
  6
CONTINUOUS
 62
1
 10
3829.524237
 20
2755.723982
 11
3829.524237
 21
2793.723982
  0
LINE
  8
0
  6
CONTINUOUS
 62
1
 10
3829.524237
 20
2793.723982
 11
3791.524237
 21
2793.723982
  0
LINE
  8
0
  6
CONTINUOUS
 62
1
 10
3791.524237
 20
2793.723982
 11
3791.524237
 21
2717.723982
  0
LINE
  8
0
  6
CONTINUOUS
 62
1
 10
3791.524237
 20
2717.723982
 11
3791.524237
 21
2012.723982
  0
LINE
  8
0
  6
CONTINUOUS
 62
1
 10
3791.524237
 20
2012.723982
 11
4506.524237
 21
2012.723982
  0
LINE
  8
0
  6
CONTINUOUS
 62
1
 10
4506.524237
 20
2012.723982
 11
4506.524237
 21
2717.723982
  0
LINE
  8
0
  6
CONTINUOUS
 62
1
 10
3791.524237
 20
2027.723982
 11
4506.524237
 21
2027.723982
  0
LINE
  8
0
  6
CONTINUOUS
 62
1
 10
3791.524237
 20
2537.723982
 11
3726.524237
 21
2537.723982
  0
LINE
  8
0
  6
CONTINUOUS
 62
1
 10
3726.524237
 20
2537.723982
 11
3726.524237
 21
2337.723982
  0
LINE
  8
0
  6
CONTINUOUS
 62
1
 10
3726.524237
 20
2337.723982
 11
3791.524237
 21
2337.723982
  0
LINE
  8
0
  6
CONTINUOUS
 62
1
 10
4551.524237
 20
2717.723982
 11
4561.524237
 21
2717.723982
  0
LINE
  8
0
  6
CONTINUOUS
 62
1
 10
4561.524237
 20
2717.723982
 11
4561.524237
 21
2755.723982
  0
LINE
  8
0
  6
CONTINUOUS
 62
1
 10
4561.524237
 20
2755.723982
 11
3829.524237
 21
2755.723982
  0
LINE
  8
0
  6
CONTINUOUS
 62
1
 10
4561.524237
 20
2717.723982
 11
3791.524237
 21
2717.723982
  0
LINE
  8
0
  6
CONTINUOUS
 62
1
 10
4625.524237
 20
1515.723982
 11
4625.524237
 21
1920.723982
  0
LINE
  8
0
  6
CONTINUOUS
 62
1
 10
4561.524237
 20
1953.723982
 11
4506.524237
 21
1953.723982
  0
LINE
  8
0
  6
CONTINUOUS
 62
1
 10
4521.524237
 20
1953.723982
 11
4521.524237
 21
1455.723982
  0
LINE
  8
0
  6
CONTINUOUS
 62
1
 10
4578.524237
 20
1948.723982
 11
4521.524237
 21
1948.723982
  0
LINE
  8
0
  6
CONTINUOUS
 62
1
 10
4506.524237
 20
1953.723982
 11
4578.524237
 21
1953.723982
  0
LINE
  8
0
  6
CONTINUOUS
 62
1
 10
4578.524237
 20
1953.723982
 11
4578.524237
 21
1988.293982
  0
LINE
  8
0
  6
CONTINUOUS
 62
1
 10
4578.524237
 20
1988.293982
 11
4561.524237
 21
1995.723982
  0
LINE
  8
0
  6
CONTINUOUS
 62
1
 10
4506.524237
 20
1350.723982
 11
4561.524237
 21
1365.723982
  0
LINE
  8
0
  6
CONTINUOUS
 62
1
 10
4561.524237
 20
1365.723982
 11
4561.524237
 21
1455.723982
  0
LINE
  8
0
  6
CONTINUOUS
 62
1
 10
4506.524237
 20
1455.723982
 11
4561.524237
 21
1455.723982
  0
LINE
  8
0
  6
CONTINUOUS
 62
1
 10
4521.524237
 20
1465.723982
 11
4578.524237
 21
1465.723982
  0
LINE
  8
0
  6
CONTINUOUS
 62
1
 10
4578.524237
 20
1465.723982
 11
4578.524237
 21
1948.723982
  0
LINE
  8
0
  6
CONTINUOUS
 62
1
 10
4578.524237
 20
1545.723982
 11
4605.524237
 21
1545.723982
  0
LINE
  8
0
  6
CONTINUOUS
 62
1
 10
4605.524237
 20
1545.723982
 11
4605.524237
 21
1890.723982
  0
LINE
  8
0
  6
CONTINUOUS
 62
1
 10
4605.524237
 20
1890.723982
 11
4578.524237
 21
1890.723982
  0
LINE
  8
0
  6
CONTINUOUS
 62
1
 10
4578.524237
 20
1515.723982
 11
4625.524237
 21
1515.723982
  0
LINE
  8
0
  6
CONTINUOUS
 62
1
 10
4625.524237
 20
1920.723982
 11
4578.524237
 21
1920.723982
  0
LINE
  8
0
  6
CONTINUOUS
 62
1
 10
4578.524237
 20
1953.723982
 11
4578.524237
 21
1970.723982
  0
LINE
  8
0
  6
CONTINUOUS
 62
1
 10
3791.524237
 20
2012.723982
 11
3791.524237
 21
1290.723982
  0
LINE
  8
0
  6
CONTINUOUS
 62
1
 10
3791.524237
 20
1290.723982
 11
4506.524237
 21
1290.723982
  0
LINE
  8
0
  6
CONTINUOUS
 62
1
 10
4506.524237
 20
1290.723982
 11
4506.524237
 21
2012.723982
  0
LINE
  8
0
  6
CONTINUOUS
 62
1
 10
3791.524237
 20
1305.723982
 11
4506.524237
 21
1305.723982
  0
LINE
  8
0
  6
CONTINUOUS
 62
1
 10
3791.524237
 20
1815.723982
 11
3726.524237
 21
1815.723982
  0
LINE
  8
0
  6
CONTINUOUS
 62
1
 10
3726.524237
 20
1815.723982
 11
3726.524237
 21
1615.723982
  0
LINE
  8
0
  6
CONTINUOUS
 62
1
 10
3726.524237
 20
1615.723982
 11
3791.524237
 21
1615.723982
  0
LINE
  8
0
  6
CONTINUOUS
 62
1
 10
4561.524237
 20
1995.723982
 11
3791.524237
 21
1995.723982
  0
ENDSEC
  0
EOF
