  0
SECTION
  2
HEADER
  9
$LIMMIN
 10
0.000000
 20
0.000000
  9
$LIMMAX
 10
7000.000000
 20
3500.000000
  9
$EXTMIN
 10
0.000000
 20
0.000000
  9
$EXTMAX
 10
7000.000000
 20
3500.000000
  9
$ANGBASE
 50
0.0
  9
$ANGDIR
 70
0
  9
$DIMRND
 40
0.100000
  9
$DIMSE1
 70
0
  9
$DIMSE2
 70
0
  9
$DIMTXT
 40
3.500000
  9
$LTSCALE
 40
1.000000
  9
$LUPREC
 70
5
  9
$AUPREC
 70
5
  9
$PDMODE
 70
2
  9
$PDSIZE
 40
35.000000
  0
ENDSEC
  0
SECTION
  2
TABLES
  0
TABLE
  2
VPORT
  70
1
  0
VPORT
  2
*ACTIVE
 70
0
  10
0.0
 20
0.0
 11
1.0
 21
1.0
 12
594.0
 22
420.0
 13
0.0
 23
0.0
 14
10.0
 24
10.0
 15
10.0
 25
10.0
 16
0.0
 26
0.0
 36
1.0
 17
594.0
 27
420.0
 37
100.0
 40
1000.0
 41
1.0
 42
50.0
 43
0.0
 44
0.0
 50
0.0
 51
0.0
 71
0
 72
2000
 73
1
 74
3
 75
0
 76
0
 77
0
 78
1
  0
ENDTAB
  0
TABLE
  2
LTYPE
 70
4
  0
LTYPE
  2
CONTINUOUS
 70
0
  3
Solid line
 72
65
 73
0
 40
0.0
  0
LTYPE
  2
DASHED
 70
0
  3
Dashed line
 72
65
 73
2
 40
6.000000
 49
3.000000
 49
-3.000000
  0
LTYPE
  2
CENTER
 70
0
  3
Chain line
 72
65
 73
4
 40
24.000000
 49
15.000000
 49
-3.000000
 49
3.000000
 49
-3.000000
  0
LTYPE
  2
RANDOM
 70
0
  3
Random line
 72
65
 73
4
 40
22.500000
 49
6.000000
 49
-3.000000
 49
4.500000
 49
-9.000000
  0
ENDTAB
  0
TABLE
  2
STYLE
 70
9
  0
STYLE
  2
STANDARD
 40
0
 41
1.0
 50
0.0
 71
0
 42
0
  3
simplex
  4

 70
0
  0
ENDTAB
  0
TABLE
  2
LAYER
 70
3
  0
LAYER
  2
0
 70
0
 62
7
  6
CONTINUOUS
  0
LAYER
  2
0
 62
1
  6
CONTINUOUS
 70
0
  0
LAYER
  2
73CONTINUOUS
 62
1
  6
CONTINUOUS
 70
0
  0
ENDTAB
  0
ENDSEC
  0
SECTION
  2
BLOCKS
  0
ENDSEC
  0
SECTION
  2
ENTITIES
  0
LINE
  8
0
  6
CONTINUOUS
 62
1
 10
2128.706850
 20
1756.874147
 11
2128.706850
 21
2161.874147
  0
LINE
  8
0
  6
CONTINUOUS
 62
1
 10
2064.706850
 20
2194.874147
 11
2009.706850
 21
2194.874147
  0
LINE
  8
0
  6
CONTINUOUS
 62
1
 10
2024.706850
 20
2194.874147
 11
2024.706850
 21
1696.874147
  0
LINE
  8
0
  6
CONTINUOUS
 62
1
 10
2081.706850
 20
2189.874147
 11
2024.706850
 21
2189.874147
  0
LINE
  8
0
  6
CONTINUOUS
 62
1
 10
2009.706850
 20
2194.874147
 11
2081.706850
 21
2194.874147
  0
LINE
  8
0
  6
CONTINUOUS
 62
1
 10
2081.706850
 20
2194.874147
 11
2081.706850
 21
2229.444147
  0
LINE
  8
0
  6
CONTINUOUS
 62
1
 10
2081.706850
 20
2229.444147
 11
2064.706850
 21
2236.874147
  0
LINE
  8
0
  6
CONTINUOUS
 62
1
 10
2009.706850
 20
1591.874147
 11
2064.706850
 21
1606.874147
  0
LINE
  8
0
  6
CONTINUOUS
 62
1
 10
2064.706850
 20
1606.874147
 11
2064.706850
 21
1696.874147
  0
LINE
  8
0
  6
CONTINUOUS
 62
1
 10
2009.706850
 20
1696.874147
 11
2064.706850
 21
1696.874147
  0
LINE
  8
0
  6
CONTINUOUS
 62
1
 10
2024.706850
 20
1706.874147
 11
2081.706850
 21
1706.874147
  0
LINE
  8
0
  6
CONTINUOUS
 62
1
 10
2081.706850
 20
1706.874147
 11
2081.706850
 21
2189.874147
  0
LINE
  8
0
  6
CONTINUOUS
 62
1
 10
2081.706850
 20
1786.874147
 11
2108.706850
 21
1786.874147
  0
LINE
  8
0
  6
CONTINUOUS
 62
1
 10
2108.706850
 20
1786.874147
 11
2108.706850
 21
2131.874147
  0
LINE
  8
0
  6
CONTINUOUS
 62
1
 10
2108.706850
 20
2131.874147
 11
2081.706850
 21
2131.874147
  0
LINE
  8
0
  6
CONTINUOUS
 62
1
 10
2081.706850
 20
1756.874147
 11
2128.706850
 21
1756.874147
  0
LINE
  8
0
  6
CONTINUOUS
 62
1
 10
2128.706850
 20
2161.874147
 11
2081.706850
 21
2161.874147
  0
LINE
  8
0
  6
CONTINUOUS
 62
1
 10
2081.706850
 20
2194.874147
 11
2081.706850
 21
2211.874147
  0
LINE
  8
0
  6
CONTINUOUS
 62
1
 10
1364.706850
 20
2274.874147
 11
1332.706850
 21
2274.874147
  0
LINE
  8
0
  6
CONTINUOUS
 62
1
 10
1332.706850
 20
2274.874147
 11
1332.706850
 21
2312.874147
  0
LINE
  8
0
  6
CONTINUOUS
 62
1
 10
1332.706850
 20
2312.874147
 11
1294.706850
 21
2312.874147
  0
LINE
  8
0
  6
CONTINUOUS
 62
1
 10
1294.706850
 20
2312.874147
 11
1294.706850
 21
2236.874147
  0
LINE
  8
0
  6
CONTINUOUS
 62
1
 10
1294.706850
 20
2236.874147
 11
1294.706850
 21
1531.874147
  0
LINE
  8
0
  6
CONTINUOUS
 62
1
 10
1294.706850
 20
1531.874147
 11
2009.706850
 21
1531.874147
  0
LINE
  8
0
  6
CONTINUOUS
 62
1
 10
2009.706850
 20
1531.874147
 11
2009.706850
 21
2236.874147
  0
LINE
  8
0
  6
CONTINUOUS
 62
1
 10
1294.706850
 20
1546.874147
 11
2009.706850
 21
1546.874147
  0
LINE
  8
0
  6
CONTINUOUS
 62
1
 10
1294.706850
 20
2056.874147
 11
1229.706850
 21
2056.874147
  0
LINE
  8
0
  6
CONTINUOUS
 62
1
 10
1229.706850
 20
2056.874147
 11
1229.706850
 21
1856.874147
  0
LINE
  8
0
  6
CONTINUOUS
 62
1
 10
1229.706850
 20
1856.874147
 11
1294.706850
 21
1856.874147
  0
LINE
  8
0
  6
CONTINUOUS
 62
1
 10
1294.706850
 20
2236.874147
 11
2064.706850
 21
2236.874147
  0
LINE
  8
0
  6
CONTINUOUS
 62
1
 10
2064.706850
 20
2236.874147
 11
2064.706850
 21
2274.874147
  0
LINE
  8
0
  6
CONTINUOUS
 62
1
 10
2064.706850
 20
2274.874147
 11
1332.706850
 21
2274.874147
  0
LINE
  8
73CONTINUOUS
  6
CONTINUOUS
 62
1
 10
1371.706850
 20
1531.874147
 11
1371.706850
 21
1493.874147
  0
LINE
  8
73CONTINUOUS
  6
CONTINUOUS
 62
1
 10
1371.706850
 20
1493.874147
 11
2009.706850
 21
1493.874147
  0
LINE
  8
73CONTINUOUS
  6
CONTINUOUS
 62
1
 10
2009.706850
 20
1493.874147
 11
2009.706850
 21
1531.874147
  0
LINE
  8
73CONTINUOUS
  6
CONTINUOUS
 62
1
 10
1419.706850
 20
1029.874147
 11
1961.706850
 21
1029.874147
  0
LINE
  8
73CONTINUOUS
  6
CONTINUOUS
 62
1
 10
1961.706850
 20
989.874147
 11
1419.706850
 21
989.874147
  0
LINE
  8
73CONTINUOUS
  6
CONTINUOUS
 62
1
 10
1381.706850
 20
859.874147
 11
1419.706850
 21
859.874147
  0
LINE
  8
73CONTINUOUS
  6
CONTINUOUS
 62
1
 10
1381.706850
 20
853.164147
 11
1419.706850
 21
853.164147
  0
LINE
  8
73CONTINUOUS
  6
CONTINUOUS
 62
1
 10
1394.036850
 20
853.164147
 11
1394.036850
 21
839.874147
  0
LINE
  8
73CONTINUOUS
  6
CONTINUOUS
 62
1
 10
1394.036850
 20
839.874147
 11
1385.706850
 21
839.874147
  0
LINE
  8
73CONTINUOUS
  6
CONTINUOUS
 62
1
 10
1385.706850
 20
839.874147
 11
1375.706850
 21
829.874147
  0
LINE
  8
73CONTINUOUS
  6
CONTINUOUS
 62
1
 10
1375.706850
 20
829.874147
 11
1425.706850
 21
829.874147
  0
LINE
  8
73CONTINUOUS
  6
CONTINUOUS
 62
1
 10
1425.706850
 20
829.874147
 11
1415.706850
 21
839.874147
  0
LINE
  8
73CONTINUOUS
  6
CONTINUOUS
 62
1
 10
1415.706850
 20
839.874147
 11
1407.376850
 21
839.874147
  0
LINE
  8
73CONTINUOUS
  6
CONTINUOUS
 62
1
 10
1407.376850
 20
839.874147
 11
1407.376850
 21
853.164147
  0
LINE
  8
73CONTINUOUS
  6
CONTINUOUS
 62
1
 10
1407.376850
 20
853.164147
 11
1394.036850
 21
853.164147
  0
LINE
  8
73CONTINUOUS
  6
CONTINUOUS
 62
1
 10
1394.036850
 20
839.874147
 11
1407.376850
 21
839.874147
  0
LINE
  8
73CONTINUOUS
  6
CONTINUOUS
 62
1
 10
1381.706850
 20
853.164147
 11
1381.706850
 21
1493.874147
  0
LINE
  8
73CONTINUOUS
  6
CONTINUOUS
 62
1
 10
1419.706850
 20
853.164147
 11
1419.706850
 21
1493.874147
  0
LINE
  8
73CONTINUOUS
  6
CONTINUOUS
 62
1
 10
1961.706850
 20
859.874147
 11
1999.706850
 21
859.874147
  0
LINE
  8
73CONTINUOUS
  6
CONTINUOUS
 62
1
 10
1961.706850
 20
853.164147
 11
1999.706850
 21
853.164147
  0
LINE
  8
73CONTINUOUS
  6
CONTINUOUS
 62
1
 10
1974.036850
 20
853.164147
 11
1974.036850
 21
839.874147
  0
LINE
  8
73CONTINUOUS
  6
CONTINUOUS
 62
1
 10
1974.036850
 20
839.874147
 11
1965.706850
 21
839.874147
  0
LINE
  8
73CONTINUOUS
  6
CONTINUOUS
 62
1
 10
1965.706850
 20
839.874147
 11
1955.706850
 21
829.874147
  0
LINE
  8
73CONTINUOUS
  6
CONTINUOUS
 62
1
 10
1955.706850
 20
829.874147
 11
2005.706850
 21
829.874147
  0
LINE
  8
73CONTINUOUS
  6
CONTINUOUS
 62
1
 10
2005.706850
 20
829.874147
 11
1995.706850
 21
839.874147
  0
LINE
  8
73CONTINUOUS
  6
CONTINUOUS
 62
1
 10
1995.706850
 20
839.874147
 11
1987.366850
 21
839.874147
  0
LINE
  8
73CONTINUOUS
  6
CONTINUOUS
 62
1
 10
1987.366850
 20
839.874147
 11
1987.366850
 21
853.164147
  0
LINE
  8
73CONTINUOUS
  6
CONTINUOUS
 62
1
 10
1987.366850
 20
853.164147
 11
1974.036850
 21
853.164147
  0
LINE
  8
73CONTINUOUS
  6
CONTINUOUS
 62
1
 10
1974.036850
 20
839.874147
 11
1987.366850
 21
839.874147
  0
LINE
  8
73CONTINUOUS
  6
CONTINUOUS
 62
1
 10
1961.706850
 20
853.164147
 11
1961.706850
 21
1493.874147
  0
LINE
  8
73CONTINUOUS
  6
CONTINUOUS
 62
1
 10
1999.706850
 20
853.164147
 11
1999.706850
 21
1493.874147
  0
ENDSEC
  0
EOF
