  0
SECTION
  2
HEADER
  9
$ACADVER
  1
AC1021
  9
$ACADMAINTVER
 70
    25
  9
$DWGCODEPAGE
  3
ANSI_1252
  9
$INSBASE
 10
0.0
 20
0.0
 30
0.0
  9
$EXTMIN
 10
0.0
 20
0.0
 30
0.0
  9
$EXTMAX
 10
841.0
 20
594.0
 30
0.0
  9
$LIMMIN
 10
0.0
 20
0.0
  9
$LIMMAX
 10
841.0
 20
594.0
  9
$ORTHOMODE
 70
     0
  9
$REGENMODE
 70
     1
  9
$FILLMODE
 70
     1
  9
$QTEXTMODE
 70
     0
  9
$MIRRTEXT
 70
     1
  9
$LTSCALE
 40
1.0
  9
$ATTMODE
 70
     1
  9
$TEXTSIZE
 40
3.5
  9
$TRACEWID
 40
1.0
  9
$TEXTSTYLE
  7
STANDARD
  9
$CLAYER
  8
0
  9
$CELTYPE
  6
ByLayer
  9
$CECOLOR
 62
   256
  9
$CELTSCALE
 40
1.0
  9
$DISPSILH
 70
     0
  9
$DIMSCALE
 40
1.0
  9
$DIMASZ
 40
3.302
  9
$DIMEXO
 40
1.0
  9
$DIMDLI
 40
3.75
  9
$DIMRND
 40
0.0
  9
$DIMDLE
 40
0.0
  9
$DIMEXE
 40
1.0
  9
$DIMTP
 40
0.0
  9
$DIMTM
 40
0.0
  9
$DIMTXT
 40
3.5
  9
$DIMCEN
 40
2.5
  9
$DIMTSZ
 40
0.0
  9
$DIMTOL
 70
     0
  9
$DIMLIM
 70
     0
  9
$DIMTIH
 70
     1
  9
$DIMTOH
 70
     1
  9
$DIMSE1
 70
     0
  9
$DIMSE2
 70
     0
  9
$DIMTAD
 70
     1
  9
$DIMZIN
 70
     0
  9
$DIMBLK
  1

  9
$DIMASO
 70
     1
  9
$DIMSHO
 70
     1
  9
$DIMPOST
  1

  9
$DIMAPOST
  1

  9
$DIMALT
 70
     0
  9
$DIMALTD
 70
     3
  9
$DIMALTF
 40
0.0393700787
  9
$DIMLFAC
 40
1.0
  9
$DIMTOFL
 70
     1
  9
$DIMTVP
 40
0.0
  9
$DIMTIX
 70
     0
  9
$DIMSOXD
 70
     0
  9
$DIMSAH
 70
     0
  9
$DIMBLK1
  1

  9
$DIMBLK2
  1

  9
$DIMSTYLE
  2
ISO-25
  9
$DIMCLRD
 70
     0
  9
$DIMCLRE
 70
     0
  9
$DIMCLRT
 70
     0
  9
$DIMTFAC
 40
1.0
  9
$DIMGAP
 40
1.524
  9
$DIMJUST
 70
     0
  9
$DIMSD1
 70
     0
  9
$DIMSD2
 70
     0
  9
$DIMTOLJ
 70
     0
  9
$DIMTZIN
 70
     0
  9
$DIMALTZ
 70
     0
  9
$DIMALTTZ
 70
     0
  9
$DIMUPT
 70
     0
  9
$DIMDEC
 70
     1
  9
$DIMTDEC
 70
     1
  9
$DIMALTU
 70
     2
  9
$DIMALTTD
 70
     3
  9
$DIMTXSTY
  7
STANDARD
  9
$DIMAUNIT
 70
     0
  9
$DIMADEC
 70
     1
  9
$DIMALTRND
 40
0.0
  9
$DIMAZIN
 70
     0
  9
$DIMDSEP
 70
    44
  9
$DIMATFIT
 70
     3
  9
$DIMFRAC
 70
     0
  9
$DIMLDRBLK
  1

  9
$DIMLUNIT
 70
     2
  9
$DIMLWD
 70
    -2
  9
$DIMLWE
 70
    -2
  9
$DIMTMOVE
 70
     0
  9
$DIMFXL
 40
1.0
  9
$DIMFXLON
 70
     0
  9
$DIMJOGANG
 40
0.7853981634
  9
$DIMTFILL
 70
     0
  9
$DIMTFILLCLR
 70
     0
  9
$DIMARCSYM
 70
     0
  9
$DIMLTYPE
  6

  9
$DIMLTEX1
  6

  9
$DIMLTEX2
  6

  9
$LUNITS
 70
     2
  9
$LUPREC
 70
     1
  9
$SKETCHINC
 40
1.0
  9
$FILLETRAD
 40
10.0
  9
$AUNITS
 70
     0
  9
$AUPREC
 70
     1
  9
$MENU
  1
.
  9
$ELEVATION
 40
0.0
  9
$PELEVATION
 40
0.0
  9
$THICKNESS
 40
0.0
  9
$LIMCHECK
 70
     0
  9
$CHAMFERA
 40
10.0
  9
$CHAMFERB
 40
10.0
  9
$CHAMFERC
 40
20.0
  9
$CHAMFERD
 40
0.0
  9
$SKPOLY
 70
     0
  9
$TDCREATE
 40
2455700.6152525
  9
$TDUCREATE
 40
2455700.573585833
  9
$TDUPDATE
 40
2455700.615252512
  9
$TDUUPDATE
 40
2455700.573585845
  9
$TDINDWG
 40
0.0000000116
  9
$TDUSRTIMER
 40
0.0000000116
  9
$USRTIMER
 70
     1
  9
$ANGBASE
 50
0.0
  9
$ANGDIR
 70
     0
  9
$PDMODE
 70
     0
  9
$PDSIZE
 40
-1.0
  9
$PLINEWID
 40
0.0
  9
$SPLFRAME
 70
     0
  9
$SPLINETYPE
 70
     6
  9
$SPLINESEGS
 70
     8
  9
$HANDSEED
  5
2C3
  9
$SURFTAB1
 70
     6
  9
$SURFTAB2
 70
     6
  9
$SURFTYPE
 70
     6
  9
$SURFU
 70
     6
  9
$SURFV
 70
     6
  9
$UCSBASE
  2

  9
$UCSNAME
  2

  9
$UCSORG
 10
0.0
 20
0.0
 30
0.0
  9
$UCSXDIR
 10
1.0
 20
0.0
 30
0.0
  9
$UCSYDIR
 10
0.0
 20
1.0
 30
0.0
  9
$UCSORTHOREF
  2

  9
$UCSORTHOVIEW
 70
     0
  9
$UCSORGTOP
 10
0.0
 20
0.0
 30
0.0
  9
$UCSORGBOTTOM
 10
0.0
 20
0.0
 30
0.0
  9
$UCSORGLEFT
 10
0.0
 20
0.0
 30
0.0
  9
$UCSORGRIGHT
 10
0.0
 20
0.0
 30
0.0
  9
$UCSORGFRONT
 10
0.0
 20
0.0
 30
0.0
  9
$UCSORGBACK
 10
0.0
 20
0.0
 30
0.0
  9
$PUCSBASE
  2

  9
$PUCSNAME
  2

  9
$PUCSORG
 10
0.0
 20
0.0
 30
0.0
  9
$PUCSXDIR
 10
1.0
 20
0.0
 30
0.0
  9
$PUCSYDIR
 10
0.0
 20
1.0
 30
0.0
  9
$PUCSORTHOREF
  2

  9
$PUCSORTHOVIEW
 70
     0
  9
$PUCSORGTOP
 10
0.0
 20
0.0
 30
0.0
  9
$PUCSORGBOTTOM
 10
0.0
 20
0.0
 30
0.0
  9
$PUCSORGLEFT
 10
0.0
 20
0.0
 30
0.0
  9
$PUCSORGRIGHT
 10
0.0
 20
0.0
 30
0.0
  9
$PUCSORGFRONT
 10
0.0
 20
0.0
 30
0.0
  9
$PUCSORGBACK
 10
0.0
 20
0.0
 30
0.0
  9
$USERI1
 70
     0
  9
$USERI2
 70
     0
  9
$USERI3
 70
     0
  9
$USERI4
 70
     0
  9
$USERI5
 70
     0
  9
$USERR1
 40
0.0
  9
$USERR2
 40
0.0
  9
$USERR3
 40
0.0
  9
$USERR4
 40
0.0
  9
$USERR5
 40
0.0
  9
$WORLDVIEW
 70
     1
  9
$SHADEDGE
 70
     3
  9
$SHADEDIF
 70
    70
  9
$TILEMODE
 70
     1
  9
$MAXACTVP
 70
    64
  9
$PINSBASE
 10
0.0
 20
0.0
 30
0.0
  9
$PLIMCHECK
 70
     0
  9
$PEXTMIN
 10
1.0000000000E+20
 20
1.0000000000E+20
 30
1.0000000000E+20
  9
$PEXTMAX
 10
-1.0000000000E+20
 20
-1.0000000000E+20
 30
-1.0000000000E+20
  9
$PLIMMIN
 10
0.0
 20
0.0
  9
$PLIMMAX
 10
420.0
 20
297.0
  9
$UNITMODE
 70
     0
  9
$VISRETAIN
 70
     1
  9
$PLINEGEN
 70
     0
  9
$PSLTSCALE
 70
     1
  9
$TREEDEPTH
 70
  3020
  9
$CMLSTYLE
  2
Standard
  9
$CMLJUST
 70
     0
  9
$CMLSCALE
 40
20.0
  9
$PROXYGRAPHICS
 70
     1
  9
$MEASUREMENT
 70
     1
  9
$CELWEIGHT
370
    -1
  9
$ENDCAPS
280
     0
  9
$JOINSTYLE
280
     0
  9
$LWDISPLAY
290
     1
  9
$INSUNITS
 70
     4
  9
$HYPERLINKBASE
  1

  9
$STYLESHEET
  1

  9
$XEDIT
290
     1
  9
$CEPSNTYPE
380
     0
  9
$PSTYLEMODE
290
     1
  9
$FINGERPRINTGUID
  2
{29125EE6-B235-4CBA-B08A-1B7A9C7DE909}
  9
$VERSIONGUID
  2
{FAEB1C32-E019-11D5-929B-00C0DF256EC4}
  9
$EXTNAMES
290
     1
  9
$PSVPSCALE
 40
0.0
  9
$OLESTARTUP
290
     0
  9
$SORTENTS
280
   127
  9
$INDEXCTL
280
     0
  9
$HIDETEXT
280
     1
  9
$XCLIPFRAME
290
     0
  9
$HALOGAP
280
     0
  9
$OBSCOLOR
 70
   257
  9
$OBSLTYPE
280
     0
  9
$INTERSECTIONDISPLAY
280
     0
  9
$INTERSECTIONCOLOR
 70
   257
  9
$DIMASSOC
280
     2
  9
$PROJECTNAME
  1

  9
$CAMERADISPLAY
290
     0
  9
$LENSLENGTH
 40
50.0
  9
$CAMERAHEIGHT
 40
0.0
  9
$STEPSPERSEC
 40
2.0
  9
$STEPSIZE
 40
6.0
  9
$3DDWFPREC
 40
2.0
  9
$PSOLWIDTH
 40
5.0
  9
$PSOLHEIGHT
 40
80.0
  9
$LOFTANG1
 40
1.5707963268
  9
$LOFTANG2
 40
1.5707963268
  9
$LOFTMAG1
 40
0.0
  9
$LOFTMAG2
 40
0.0
  9
$LOFTPARAM
 70
     7
  9
$LOFTNORMALS
280
     1
  9
$LATITUDE
 40
37.795
  9
$LONGITUDE
 40
-122.394
  9
$NORTHDIRECTION
 40
0.0
  9
$TIMEZONE
 70
 -8000
  9
$LIGHTGLYPHDISPLAY
280
     1
  9
$TILEMODELIGHTSYNCH
280
     1
  9
$SOLIDHIST
280
     1
  9
$SHOWHIST
280
     1
  9
$DWFFRAME
280
     2
  9
$DGNFRAME
280
     2
  9
$REALWORLDSCALE
290
     1
  9
$INTERFERECOLOR
 62
   256
  9
$CSHADOW
280
     0
  9
$SHADOWPLANELOCATION
 40
0.0
  0
ENDSEC
  0
SECTION
  2
CLASSES
  0
CLASS
  1
ACDBDICTIONARYWDFLT
  2
AcDbDictionaryWithDefault
  3
ObjectDBX Classes
 90
        0
 91
        4
280
     0
281
     0
  0
CLASS
  1
VISUALSTYLE
  2
AcDbVisualStyle
  3
ObjectDBX Classes
 90
     4095
 91
        4
280
     0
281
     0
  0
CLASS
  1
MATERIAL
  2
AcDbMaterial
  3
ObjectDBX Classes
 90
     1153
 91
        4
280
     0
281
     0
  0
ENDSEC
  0
SECTION
  2
TABLES
  0
TABLE
  2
VPORT
  5
8
330
0
100
AcDbSymbolTable
 70
     1
  0
VPORT
  5
29
330
8
100
AcDbSymbolTableRecord
100
AcDbViewportTableRecord
  2
*Active
 70
     0
 10
0.0
 20
0.0
 11
1.0
 21
1.0
 12
420.5
 22
297.0
 13
0.0
 23
0.0
 14
10.0
 24
10.0
 15
10.0
 25
10.0
 16
0.0
 26
0.0
 36
1.0
 17
0.0
 27
0.0
 37
0.0
 40
594.0
 41
1.4158249158
 42
50.0
 43
0.0
 44
0.0
 50
0.0
 51
0.0
 71
     0
 72
  2000
 73
     1
 74
     3
 75
     0
 76
     0
 77
     0
 78
     0
281
     0
 65
     1
110
0.0
120
0.0
130
0.0
111
1.0
121
0.0
131
0.0
112
0.0
122
1.0
132
0.0
 79
     0
146
0.0
 60
     3
 61
     5
292
     1
282
     1
141
0.0
142
0.0
 63
   250
  0
ENDTAB
  0
TABLE
  2
LTYPE
  5
5
330
0
100
AcDbSymbolTable
 70
     8
  0
LTYPE
  5
14
330
5
100
AcDbSymbolTableRecord
100
AcDbLinetypeTableRecord
  2
ByBlock
 70
     0
  3

 72
    65
 73
     0
 40
0.0
  0
LTYPE
  5
15
330
5
100
AcDbSymbolTableRecord
100
AcDbLinetypeTableRecord
  2
ByLayer
 70
     0
  3

 72
    65
 73
     0
 40
0.0
  0
LTYPE
  5
16
330
5
100
AcDbSymbolTableRecord
100
AcDbLinetypeTableRecord
  2
Continuous
 70
     0
  3
Solid line
 72
    65
 73
     0
 40
0.0
  0
LTYPE
  5
3F
330
5
100
AcDbSymbolTableRecord
100
AcDbLinetypeTableRecord
  2
SLD-Solid
 70
     0
  3
SolidWorks Line Style
 72
    65
 73
     0
 40
0.0
  0
LTYPE
  5
40
330
5
100
AcDbSymbolTableRecord
100
AcDbLinetypeTableRecord
  2
SLD-Dashed
 70
     0
  3
SolidWorks Line Style
 72
    65
 73
     2
 40
1.905
 49
1.27
 74
     0
 49
-0.635
 74
     0
  0
LTYPE
  5
41
330
5
100
AcDbSymbolTableRecord
100
AcDbLinetypeTableRecord
  2
SLD-Phantom
 70
     0
  3
SolidWorks Line Style
 72
    65
 73
     6
 40
12.7
 49
6.35
 74
     0
 49
-1.27
 74
     0
 49
1.27
 74
     0
 49
-1.27
 74
     0
 49
1.27
 74
     0
 49
-1.27
 74
     0
  0
LTYPE
  5
42
330
5
100
AcDbSymbolTableRecord
100
AcDbLinetypeTableRecord
  2
SLD-Chain
 70
     0
  3
SolidWorks Line Style
 72
    65
 73
     4
 40
10.16
 49
6.35
 74
     0
 49
-1.27
 74
     0
 49
1.27
 74
     0
 49
-1.27
 74
     0
  0
LTYPE
  5
43
330
5
100
AcDbSymbolTableRecord
100
AcDbLinetypeTableRecord
  2
SLD-Center
 70
     0
  3
SolidWorks Line Style
 72
    65
 73
     4
 40
19.05
 49
15.24
 74
     0
 49
-1.27
 74
     0
 49
1.27
 74
     0
 49
-1.27
 74
     0
  0
LTYPE
  5
44
330
5
100
AcDbSymbolTableRecord
100
AcDbLinetypeTableRecord
  2
SLD-Stitch
 70
     0
  3
SolidWorks Line Style
 72
    65
 73
     2
 40
0.635
 49
0.0
 74
     0
 49
-0.635
 74
     0
  0
LTYPE
  5
45
330
5
100
AcDbSymbolTableRecord
100
AcDbLinetypeTableRecord
  2
SLD-Thin-Thick-Chain
 70
     0
  3
SolidWorks Line Style
 72
    65
 73
     4
 40
10.16
 49
6.35
 74
     0
 49
-1.27
 74
     0
 49
1.27
 74
     0
 49
-1.27
 74
     0
  0
ENDTAB
  0
TABLE
  2
LAYER
  5
2
330
0
100
AcDbSymbolTable
 70
     1
  0
LAYER
  5
10
330
2
100
AcDbSymbolTableRecord
100
AcDbLayerTableRecord
  2
0
 70
     0
 62
     7
  6
Continuous
370
    -3
390
F
347
3E
  0
ENDTAB
  0
TABLE
  2
STYLE
  5
3
330
0
100
AcDbSymbolTable
 70
     1
  0
STYLE
  5
11
330
3
100
AcDbSymbolTableRecord
100
AcDbTextStyleTableRecord
  2
STANDARD
 70
     0
 40
0.0
 41
1.0
 50
0.0
 71
     0
 42
2.5
  3
GOTHIC.TTF
  4

1001
ACAD
1000
CENTURY GOTHIC
1071
       34
  0
ENDTAB
  0
TABLE
  2
VIEW
  5
6
330
0
100
AcDbSymbolTable
 70
     0
  0
ENDTAB
  0
TABLE
  2
UCS
  5
7
330
0
100
AcDbSymbolTable
 70
     0
  0
ENDTAB
  0
TABLE
  2
APPID
  5
9
330
0
100
AcDbSymbolTable
 70
     1
  0
APPID
  5
12
330
9
100
AcDbSymbolTableRecord
100
AcDbRegAppTableRecord
  2
ACAD
 70
     0
  0
ENDTAB
  0
TABLE
  2
DIMSTYLE
  5
A
330
0
100
AcDbSymbolTable
 70
     1
100
AcDbDimStyleTable
  0
DIMSTYLE
105
27
330
A
100
AcDbSymbolTableRecord
100
AcDbDimStyleTableRecord
  2
ISO-25
 70
     0
 41
2.5
 42
0.625
 43
3.75
 44
1.25
 73
     0
 74
     0
 77
     1
 78
     8
140
2.5
141
2.5
143
0.0393700787
147
0.625
171
     3
172
     1
271
     2
272
     2
274
     3
278
    44
283
     0
284
     8
340
11
  0
ENDTAB
  0
TABLE
  2
BLOCK_RECORD
  5
1
330
0
100
AcDbSymbolTable
 70
     1
  0
BLOCK_RECORD
  5
1F
330
1
100
AcDbSymbolTableRecord
100
AcDbBlockTableRecord
  2
*Model_Space
340
22
 70
     0
280
     1
281
     0
  0
BLOCK_RECORD
  5
1B
330
1
100
AcDbSymbolTableRecord
100
AcDbBlockTableRecord
  2
*Paper_Space
340
1E
 70
     0
280
     1
281
     0
  0
BLOCK_RECORD
  5
23
330
1
100
AcDbSymbolTableRecord
100
AcDbBlockTableRecord
  2
*Paper_Space0
340
26
 70
     0
280
     1
281
     0
  0
ENDTAB
  0
ENDSEC
  0
SECTION
  2
BLOCKS
  0
BLOCK
  5
20
330
1F
100
AcDbEntity
  8
0
100
AcDbBlockBegin
  2
*Model_Space
 70
     0
 10
0.0
 20
0.0
 30
0.0
  3
*Model_Space
  1

  0
ENDBLK
  5
21
330
1F
100
AcDbEntity
  8
0
100
AcDbBlockEnd
  0
BLOCK
  5
1C
330
1B
100
AcDbEntity
 67
     1
  8
0
100
AcDbBlockBegin
  2
*Paper_Space
 70
     0
 10
0.0
 20
0.0
 30
0.0
  3
*Paper_Space
  1

  0
ENDBLK
  5
1D
330
1B
100
AcDbEntity
 67
     1
  8
0
100
AcDbBlockEnd
  0
BLOCK
  5
24
330
23
100
AcDbEntity
  8
0
100
AcDbBlockBegin
  2
*Paper_Space0
 70
     0
 10
0.0
 20
0.0
 30
0.0
  3
*Paper_Space0
  1

  0
ENDBLK
  5
25
330
23
100
AcDbEntity
  8
0
100
AcDbBlockEnd
  0
ENDSEC
  0
SECTION
  2
ENTITIES
  0
LINE
  5
46
330
1F
100
AcDbEntity
  8
0
  6
SLD-Solid
 62
     7
370
    15
100
AcDbLine
 10
806.0013811669
 20
618.0672537427
 30
0.0
 11
805.1849201583
 21
618.1215031968
 31
0.0
  0
LINE
  5
47
330
1F
100
AcDbEntity
  8
0
  6
SLD-Solid
 62
     7
370
    15
100
AcDbLine
 10
809.8938111334
 20
617.8086226525
 30
0.0
 11
809.0854260477
 21
617.8623355048
 31
0.0
  0
LINE
  5
48
330
1F
100
AcDbEntity
  8
0
  6
SLD-Solid
 62
     7
370
    15
100
AcDbLine
 10
64.1127523447
 20
583.3520832042
 30
0.0
 11
68.9127523447
 21
583.3520832042
 31
0.0
  0
LINE
  5
49
330
1F
100
AcDbEntity
  8
0
  6
SLD-Solid
 62
     7
370
    15
100
AcDbLine
 10
68.9127523447
 20
608.3520832042
 30
0.0
 11
64.1127523447
 21
608.3520832042
 31
0.0
  0
SPLINE
  5
4A
330
1F
100
AcDbEntity
  8
0
  6
SLD-Solid
 62
     7
370
    15
100
AcDbSpline
210
0.0
220
0.0
230
1.0
 70
     8
 71
     3
 72
    11
 73
     7
 74
     0
 42
0.00000001
 43
0.00000001
 40
0.0
 40
0.0
 40
0.0
 40
0.0
 40
0.12148063554735
 40
0.5678253578226568
 40
0.8436721293950192
 40
1.0
 40
1.0
 40
1.0
 40
1.0
 10
835.5139347026342
 20
429.2783465916594
 30
0.0
 10
836.9151335479239
 20
429.2771081425364
 30
0.0
 10
843.4646237783828
 20
429.271319377823
 30
0.0
 10
853.2041461937947
 20
429.4002939205235
 30
0.0
 10
863.3275110935016
 20
429.3870967523003
 30
0.0
 10
868.2986181895407
 20
429.1853887237706
 30
0.0
 10
870.0967861314584
 20
429.112426121372
 30
0.0
  0
SPLINE
  5
4B
330
1F
100
AcDbEntity
  8
0
  6
SLD-Solid
 62
     7
370
    15
100
AcDbSpline
210
0.0
220
0.0
230
1.0
 70
     8
 71
     3
 72
    11
 73
     7
 74
     0
 42
0.00000001
 43
0.00000001
 40
0.0
 40
0.0
 40
0.0
 40
0.0
 40
0.1810035937128586
 40
0.4503585812667348
 40
0.7687436523328436
 40
1.0
 40
1.0
 40
1.0
 40
1.0
 10
870.0926837341156
 20
458.5750322686158
 30
0.0
 10
868.0118941420081
 20
458.5010863756758
 30
0.0
 10
862.8346408654646
 20
458.3171001533484
 30
0.0
 10
853.9724552185943
 20
458.3068717281489
 30
0.0
 10
844.5216963711255
 20
458.4172717945129
 30
0.0
 10
838.180681129344
 20
458.4152212931868
 30
0.0
 10
835.5127598713431
 20
458.4143585644487
 30
0.0
  0
SPLINE
  5
4C
330
1F
100
AcDbEntity
  8
0
  6
SLD-Solid
 62
     7
370
    15
100
AcDbSpline
210
0.0
220
0.0
230
1.0
 70
     8
 71
     3
 72
    21
 73
    17
 74
     0
 42
0.00000001
 43
0.00000001
 40
0.0
 40
0.0
 40
0.0
 40
0.0
 40
0.0058343733488825
 40
0.0321434828064079
 40
0.0602092602724961
 40
0.077792355038856
 40
0.0913304743952213
 40
0.1043805901341197
 40
0.2772607844210139
 40
0.4501499290443818
 40
0.6230369048651928
 40
0.7959577496988943
 40
0.9689100111106705
 40
0.9911553069203046
 40
0.9980183542308858
 40
1.0
 40
1.0
 40
1.0
 40
1.0
 10
871.6364556635971
 20
429.2986197900655
 30
0.0
 10
871.6294841049336
 20
429.2982133037839
 30
0.0
 10
871.5910754939938
 20
429.2959738370878
 30
0.0
 10
871.7939089881635
 20
429.2972413247829
 30
0.0
 10
872.1762543854062
 20
429.2752107751617
 30
0.0
 10
872.8386644877627
 20
429.2624038888667
 30
0.0
 10
873.0907841623276
 20
429.2642323096169
 30
0.0
 10
874.2440971086259
 20
429.2622197630573
 30
0.0
 10
876.1962499116808
 20
429.2639135846328
 30
0.0
 10
878.6756883389556
 20
429.2623744615142
 30
0.0
 10
880.9684927781916
 20
429.2633286541104
 30
0.0
 10
882.4634985083305
 20
429.2589419718121
 30
0.0
 10
884.5820200151255
 20
429.2697487385072
 30
0.0
 10
884.1947876548389
 20
429.2598301274696
 30
0.0
 10
884.6591480491522
 20
429.2639478464352
 30
0.0
 10
884.6229033488986
 20
429.2636483037604
 30
0.0
 10
884.6147827554238
 20
429.2635811914853
 30
0.0
  0
SPLINE
  5
4D
330
1F
100
AcDbEntity
  8
0
  6
SLD-Solid
 62
     7
370
    15
100
AcDbSpline
210
0.0
220
0.0
230
1.0
 70
     8
 71
     3
 72
    10
 73
     6
 74
     0
 42
0.00000001
 43
0.00000001
 40
0.0
 40
0.0
 40
0.0
 40
0.0
 40
0.0091631184541143
 40
0.5042232182011193
 40
1.0
 40
1.0
 40
1.0
 40
1.0
 10
883.7699434202683
 20
458.3707559065641
 30
0.0
 10
883.7753603609208
 20
458.3717386662053
 30
0.0
 10
884.0734408956542
 20
458.4258174420549
 30
0.0
 10
884.4563415155816
 20
458.4008137117054
 30
0.0
 10
884.6563781600446
 20
458.396637495053
 30
0.0
 10
884.7564688265114
 20
458.3945478763777
 30
0.0
  0
SPLINE
  5
4E
330
1F
100
AcDbEntity
  8
0
  6
SLD-Solid
 62
     7
370
    15
100
AcDbSpline
210
0.0
220
0.0
230
1.0
 70
     8
 71
     3
 72
    24
 73
    20
 74
     0
 42
0.00000001
 43
0.00000001
 40
0.0
 40
0.0
 40
0.0
 40
0.0
 40
0.0035454821761057
 40
0.0189036254309156
 40
0.0352020939480954
 40
0.0400879721724418
 40
0.044966819276638
 40
0.0497597315810973
 40
0.2195639902885016
 40
0.3893333537403084
 40
0.5590544959836684
 40
0.7286889530082621
 40
0.8983429204056258
 40
0.945326738490429
 40
0.9553760695337504
 40
0.9660368369016351
 40
0.9774215535987023
 40
0.9881569794803963
 40
1.0
 40
1.0
 40
1.0
 40
1.0
 10
884.8103838508542
 20
458.3904818984561
 30
0.0
 10
884.8181901797369
 20
458.3898696945359
 30
0.0
 10
884.8598115756038
 20
458.3866055761392
 30
0.0
 10
884.621654305955
 20
458.4080638326039
 30
0.0
 10
884.3046120687011
 20
458.4365355940153
 30
0.0
 10
883.8314174844546
 20
458.4426918029835
 30
0.0
 10
883.8114037326733
 20
458.4418543184364
 30
0.0
 10
883.2221299582911
 20
458.4439260600508
 30
0.0
 10
882.1699784757263
 20
458.4410352778196
 30
0.0
 10
880.1402677804824
 20
458.4419253276304
 30
0.0
 10
877.8888914846767
 20
458.4409685688802
 30
0.0
 10
875.1112897071829
 20
458.4415687345536
 30
0.0
 10
873.3384942608333
 20
458.4381688949078
 30
0.0
 10
871.4096130736784
 20
458.4412611298669
 30
0.0
 10
871.1275432138549
 20
458.4337497135338
 30
0.0
 10
871.3320996943617
 20
458.4407454345193
 30
0.0
 10
871.9668866446511
 20
458.3745342290914
 30
0.0
 10
872.3277126849835
 20
458.2863383980635
 30
0.0
 10
872.3694619039377
 20
458.2736337582547
 30
0.0
 10
872.3913605256571
 20
458.2669698227796
 30
0.0
  0
SPLINE
  5
4F
330
1F
100
AcDbEntity
  8
0
  6
SLD-Solid
 62
     7
370
    15
100
AcDbSpline
210
0.0
220
0.0
230
1.0
 70
     8
 71
     3
 72
    10
 73
     6
 74
     0
 42
0.00000001
 43
0.00000001
 40
0.0
 40
0.0
 40
0.0
 40
0.0
 40
0.0092672633886066
 40
0.5999340580240692
 40
1.0
 40
1.0
 40
1.0
 40
1.0
 10
884.6483673803225
 20
458.6035909185921
 30
0.0
 10
884.605700115743
 20
458.6021122177999
 30
0.0
 10
881.8435529628517
 20
458.5063856877883
 30
0.0
 10
877.2505518127642
 20
458.4374417124196
 30
0.0
 10
872.6811307868928
 20
458.446028224513
 30
0.0
 10
870.8359613890872
 20
458.4494955279764
 30
0.0
  0
LWPOLYLINE
  5
50
330
1F
100
AcDbEntity
  8
0
  6
SLD-Solid
 62
     7
370
    15
100
AcDbPolyline
 90
        3
 70
   128
 43
0.0
 10
865.9976797415
 20
458.4484151827
 10
852.2185729401
 20
458.4485988158
 10
835.5140049164
 20
458.4488082902
  0
SPLINE
  5
51
330
1F
100
AcDbEntity
  8
0
  6
SLD-Solid
 62
     7
370
    15
100
AcDbSpline
210
0.0
220
0.0
230
1.0
 70
     8
 71
     3
 72
     9
 73
     5
 74
     0
 42
0.00000001
 43
0.00000001
 40
0.0
 40
0.0
 40
0.0
 40
0.0
 40
0.7741808595415876
 40
1.0
 40
1.0
 40
1.0
 40
1.0
 10
835.5126573394833
 20
429.2553573973474
 30
0.0
 10
843.4181515515785
 20
429.2562183452782
 30
0.0
 10
853.6295822717548
 20
429.2573304212491
 30
0.0
 10
863.8394772455578
 20
429.2546375149569
 30
0.0
 10
866.1450669527127
 20
429.2540294051727
 30
0.0
  0
SPLINE
  5
52
330
1F
100
AcDbEntity
  8
0
  6
SLD-Solid
 62
     7
370
    15
100
AcDbSpline
210
0.0
220
0.0
230
1.0
 70
     8
 71
     3
 72
    10
 73
     6
 74
     0
 42
0.00000001
 43
0.00000001
 40
0.0
 40
0.0
 40
0.0
 40
0.0
 40
0.4083964916892494
 40
0.9938954208393094
 40
1.0
 40
1.0
 40
1.0
 40
1.0
 10
870.8214278211782
 20
429.2529271895762
 30
0.0
 10
872.7365320770004
 20
429.2579483002369
 30
0.0
 10
877.3972316398654
 20
429.2701679421656
 30
0.0
 10
882.0637649605087
 20
429.1846353909478
 30
0.0
 10
884.8336264075514
 20
429.0936706025183
 30
0.0
 10
884.8622077770498
 20
429.0927319641498
 30
0.0
  0
SPLINE
  5
53
330
1F
100
AcDbEntity
  8
0
  6
SLD-Solid
 62
     7
370
    15
100
AcDbSpline
210
0.0
220
0.0
230
1.0
 70
     8
 71
     3
 72
    11
 73
     7
 74
     0
 42
0.00000001
 43
0.00000001
 40
0.0
 40
0.0
 40
0.0
 40
0.0
 40
0.2517224808233407
 40
0.5030805494144173
 40
0.7535912935116246
 40
1.0
 40
1.0
 40
1.0
 40
1.0
 10
891.6854092673108
 20
453.1903519441931
 30
0.0
 10
891.4227167102661
 20
453.9894282730887
 30
0.0
 10
890.897711889509
 20
455.5864241284049
 30
0.0
 10
889.0972876503745
 20
457.3694529796048
 30
0.0
 10
886.9098440371936
 20
458.4945927431363
 30
0.0
 10
885.3422393074982
 20
458.5614793997449
 30
0.0
 10
884.5649071799792
 20
458.5946466555584
 30
0.0
  0
SPLINE
  5
54
330
1F
100
AcDbEntity
  8
0
  6
SLD-Solid
 62
     7
370
    15
100
AcDbSpline
210
0.0
220
0.0
230
1.0
 70
     8
 71
     3
 72
    11
 73
     7
 74
     0
 42
0.00000001
 43
0.00000001
 40
0.0
 40
0.0
 40
0.0
 40
0.0
 40
0.2464092407976659
 40
0.4969199021702611
 40
0.7482773968705823
 40
1.0
 40
1.0
 40
1.0
 40
1.0
 10
884.564907179979
 20
429.1095197529137
 30
0.0
 10
885.3422394114497
 20
429.1426858149326
 30
0.0
 10
886.9098423761997
 20
429.2095699798303
 30
0.0
 10
889.0972807274742
 20
430.3347046396106
 30
0.0
 10
890.8976966425384
 20
432.1177416917969
 30
0.0
 10
891.4226985744285
 20
433.7147375326561
 30
0.0
 10
891.6853900494311
 20
434.5138149598534
 30
0.0
  0
ARC
  5
55
330
1F
100
AcDbEntity
  8
0
  6
SLD-Solid
 62
     7
370
    15
100
AcDbCircle
 10
846.4525869658
 20
443.8520832042
 30
0.0
 40
46.24999970944332
100
AcDbArc
 50
348.5111848764
 51
11.4945663561
  0
LINE
  5
56
330
1F
100
AcDbEntity
  8
0
  6
SLD-Solid
 62
     7
370
    15
100
AcDbLine
 10
800.9056407986
 20
631.7252198012
 30
0.0
 11
801.3841396813
 21
630.6247477119
 31
0.0
  0
LINE
  5
57
330
1F
100
AcDbEntity
  8
0
  6
SLD-Solid
 62
     7
370
    15
100
AcDbLine
 10
168.9108857558
 20
-204.5856215673
 30
0.0
 11
168.9108857558
 21
-200.5856215673
 31
0.0
  0
LINE
  5
58
330
1F
100
AcDbEntity
  8
0
  6
SLD-Solid
 62
     7
370
    15
100
AcDbLine
 10
111.9108857558
 20
-200.5856215673
 30
0.0
 11
111.9108857558
 21
-204.5856215673
 31
0.0
  0
ARC
  5
59
330
1F
100
AcDbEntity
  8
0
  6
SLD-Solid
 62
     7
370
    15
100
AcDbCircle
 10
166.9108857558
 20
-204.5856215673
 30
0.0
 40
2.000000000000028
100
AcDbArc
 50
270.0
 51
0.0
  0
ARC
  5
5A
330
1F
100
AcDbEntity
  8
0
  6
SLD-Solid
 62
     7
370
    15
100
AcDbCircle
 10
113.9108857558
 20
-204.5856215673
 30
0.0
 40
2.000000000000028
100
AcDbArc
 50
180.0
 51
270.0
  0
LINE
  5
5B
330
1F
100
AcDbEntity
  8
0
  6
SLD-Solid
 62
     7
370
    15
100
AcDbLine
 10
168.7108857558
 20
-200.5856215673
 30
0.0
 11
168.7108857558
 21
-132.5856215673
 31
0.0
  0
LINE
  5
5C
330
1F
100
AcDbEntity
  8
0
  6
SLD-Solid
 62
     7
370
    15
100
AcDbLine
 10
112.1108857558
 20
-132.5856215673
 30
0.0
 11
112.1108857558
 21
-200.5856215673
 31
0.0
  0
LINE
  5
5D
330
1F
100
AcDbEntity
  8
0
  6
SLD-Solid
 62
     7
370
    15
100
AcDbLine
 10
817.0127523447
 20
-30.6479167958
 30
0.0
 11
817.0127523447
 21
-32.1479167958
 31
0.0
  0
LINE
  5
5E
330
1F
100
AcDbEntity
  8
0
  6
SLD-Solid
 62
     7
370
    15
100
AcDbLine
 10
834.0127523447
 20
-32.1479167958
 30
0.0
 11
834.0127523447
 21
-30.6479167958
 31
0.0
  0
LINE
  5
5F
330
1F
100
AcDbEntity
  8
0
  6
SLD-Solid
 62
     7
370
    15
100
AcDbLine
 10
817.0127523447
 20
-32.1479167958
 30
0.0
 11
817.5127523447
 21
-32.6479167958
 31
0.0
  0
LINE
  5
60
330
1F
100
AcDbEntity
  8
0
  6
SLD-Solid
 62
     7
370
    15
100
AcDbLine
 10
833.5127523447
 20
-32.6479167958
 30
0.0
 11
834.0127523447
 21
-32.1479167958
 31
0.0
  0
ARC
  5
61
330
1F
100
AcDbEntity
  8
0
  6
SLD-Solid
 62
     7
370
    15
100
AcDbCircle
 10
173.8108857558
 20
-40.0856215673
 30
0.0
 40
1.5
100
AcDbArc
 50
90.0
 51
180.0
  0
ARC
  5
62
330
1F
100
AcDbEntity
  8
0
  6
SLD-Solid
 62
     7
370
    15
100
AcDbCircle
 10
107.0108857558
 20
-40.0856215673
 30
0.0
 40
1.5
100
AcDbArc
 50
0.0
 51
90.0
  0
LINE
  5
63
330
1F
100
AcDbEntity
  8
0
  6
SLD-Solid
 62
     7
370
    15
100
AcDbLine
 10
172.3108857558
 20
-126.5530556216
 30
0.0
 11
172.3108857558
 21
-40.0856215673
 31
0.0
  0
LINE
  5
64
330
1F
100
AcDbEntity
  8
0
  6
SLD-Solid
 62
     7
370
    15
100
AcDbLine
 10
108.5108857558
 20
-40.0856215673
 30
0.0
 11
108.5108857558
 21
-126.5530556216
 31
0.0
  0
ARC
  5
65
330
1F
100
AcDbEntity
  8
0
  6
SLD-Solid
 62
     7
370
    15
100
AcDbCircle
 10
167.6108857558
 20
-126.5530556216
 30
0.0
 40
4.699999999999989
100
AcDbArc
 50
350.5402980318
 51
0.0
  0
ARC
  5
66
330
1F
100
AcDbEntity
  8
0
  6
SLD-Solid
 62
     7
370
    15
100
AcDbCircle
 10
113.2108857558
 20
-126.5530556216
 30
0.0
 40
4.699999999999991
100
AcDbArc
 50
180.0
 51
189.4597019682
  0
LINE
  5
67
330
1F
100
AcDbEntity
  8
0
  6
SLD-Solid
 62
     7
370
    15
100
AcDbLine
 10
108.5747989828
 20
-127.3255188461
 30
0.0
 11
109.4512355354
 21
-132.5856215673
 31
0.0
  0
LINE
  5
68
330
1F
100
AcDbEntity
  8
0
  6
SLD-Solid
 62
     7
370
    15
100
AcDbLine
 10
171.3705359761
 20
-132.5856215673
 30
0.0
 11
172.2469725288
 21
-127.3255188461
 31
0.0
  0
LINE
  5
69
330
1F
100
AcDbEntity
  8
0
  6
SLD-Solid
 62
     7
370
    15
100
AcDbLine
 10
761.5608857558
 20
-36.5856215673
 30
0.0
 11
761.5608857558
 21
-36.4479167958
 31
0.0
  0
LINE
  5
6A
330
1F
100
AcDbEntity
  8
0
  6
SLD-Solid
 62
     7
370
    15
100
AcDbLine
 10
753.2608857558
 20
-36.4479167958
 30
0.0
 11
753.2608857558
 21
-36.5856215673
 31
0.0
  0
LINE
  5
6B
330
1F
100
AcDbEntity
  8
0
  6
SLD-Solid
 62
     7
370
    15
100
AcDbLine
 10
821.8462495248
 20
556.5203655316
 30
0.0
 11
830.1207467103
 21
563.4147615406
 31
0.0
  0
LINE
  5
6C
330
1F
100
AcDbEntity
  8
0
  6
SLD-Solid
 62
     7
370
    15
100
AcDbLine
 10
805.3537785546
 20
618.100261412
 30
0.0
 11
801.7601448905
 21
618.3390390908
 31
0.0
  0
LINE
  5
6D
330
1F
100
AcDbEntity
  8
0
  6
SLD-Solid
 62
     7
370
    15
100
AcDbLine
 10
812.5067780309
 20
617.6249829694
 30
0.0
 11
809.7367693755
 21
617.8090351847
 31
0.0
  0
LINE
  5
6E
330
1F
100
AcDbEntity
  8
0
  6
SLD-Solid
 62
     7
370
    15
100
AcDbLine
 10
817.5883820336
 20
617.070454192
 30
0.0
 11
812.5067780309
 21
617.6249829694
 31
0.0
  0
LINE
  5
6F
330
1F
100
AcDbEntity
  8
0
  6
SLD-Solid
 62
     7
370
    15
100
AcDbLine
 10
830.1207467103
 20
563.4147615406
 30
0.0
 11
845.8819408718
 21
577.7200533074
 31
0.0
  0
ARC
  5
70
330
1F
100
AcDbEntity
  8
0
  6
SLD-Solid
 62
     7
370
    15
100
AcDbCircle
 10
845.2098616287
 20
578.4605325381
 30
0.0
 40
0.9999999999999948
100
AcDbArc
 50
312.227745318
 51
18.0
  0
LINE
  5
71
330
1F
100
AcDbEntity
  8
0
  6
SLD-Solid
 62
     7
370
    15
100
AcDbLine
 10
808.4772938776
 20
617.9027426252
 30
0.0
 11
806.0218481339
 21
618.0658938225
 31
0.0
  0
LINE
  5
72
330
1F
100
AcDbEntity
  8
0
  6
SLD-Solid
 62
     7
370
    15
100
AcDbLine
 10
805.1849201583
 20
618.1215031968
 30
0.0
 11
804.2528739552
 21
618.183432667
 31
0.0
  0
LINE
  5
73
330
1F
100
AcDbEntity
  8
0
  6
SLD-Solid
 62
     7
370
    15
100
AcDbLine
 10
833.5127523447
 20
496.8520832042
 30
0.0
 11
833.5127523447
 21
499.3520832042
 31
0.0
  0
LINE
  5
74
330
1F
100
AcDbEntity
  8
0
  6
SLD-Solid
 62
     7
370
    15
100
AcDbLine
 10
812.3114167312
 20
579.3934274954
 30
0.0
 11
814.0104614532
 21
580.6364414806
 31
0.0
  0
LINE
  5
75
330
1F
100
AcDbEntity
  8
0
  6
SLD-Solid
 62
     7
370
    15
100
AcDbLine
 10
809.5959329621
 20
594.2229631419
 30
0.0
 11
807.4907516189
 21
594.2299091496
 31
0.0
  0
LINE
  5
76
330
1F
100
AcDbEntity
  8
0
  6
SLD-Solid
 62
     7
370
    15
100
AcDbLine
 10
18.4127523447
 20
491.8520832042
 30
0.0
 11
18.4127523447
 21
489.6520832042
 31
0.0
  0
LINE
  5
77
330
1F
100
AcDbEntity
  8
0
  6
SLD-Solid
 62
     7
370
    15
100
AcDbLine
 10
41.4127523447
 20
489.6520832042
 30
0.0
 11
41.4127523447
 21
491.8520832042
 31
0.0
  0
ARC
  5
78
330
1F
100
AcDbEntity
  8
0
  6
SLD-Solid
 62
     7
370
    15
100
AcDbCircle
 10
756.4108857558
 20
-204.5856215673
 30
0.0
 40
2.0
100
AcDbArc
 50
270.0
 51
0.0
  0
ARC
  5
79
330
1F
100
AcDbEntity
  8
0
  6
SLD-Solid
 62
     7
370
    15
100
AcDbCircle
 10
703.4108857558
 20
-204.5856215673
 30
0.0
 40
2.0
100
AcDbArc
 50
180.0
 51
270.0
  0
LINE
  5
7A
330
1F
100
AcDbEntity
  8
0
  6
SLD-Solid
 62
     7
370
    15
100
AcDbLine
 10
758.4108857558
 20
-204.5856215673
 30
0.0
 11
758.4108857558
 21
-200.5856215673
 31
0.0
  0
LINE
  5
7B
330
1F
100
AcDbEntity
  8
0
  6
SLD-Solid
 62
     7
370
    15
100
AcDbLine
 10
701.4108857558
 20
-200.5856215673
 30
0.0
 11
701.4108857558
 21
-204.5856215673
 31
0.0
  0
LINE
  5
7C
330
1F
100
AcDbEntity
  8
0
  6
SLD-Solid
 62
     7
370
    15
100
AcDbLine
 10
17.4127523447
 20
476.6520832042
 30
0.0
 11
18.4127523447
 21
475.6520832042
 31
0.0
  0
LINE
  5
7D
330
1F
100
AcDbEntity
  8
0
  6
SLD-Solid
 62
     7
370
    15
100
AcDbLine
 10
41.4127523447
 20
475.6520832042
 30
0.0
 11
42.4127523447
 21
476.6520832042
 31
0.0
  0
LINE
  5
7E
330
1F
100
AcDbEntity
  8
0
  6
SLD-Solid
 62
     7
370
    15
100
AcDbLine
 10
17.4127523447
 20
489.6520832042
 30
0.0
 11
17.4127523447
 21
476.6520832042
 31
0.0
  0
LINE
  5
7F
330
1F
100
AcDbEntity
  8
0
  6
SLD-Solid
 62
     7
370
    15
100
AcDbLine
 10
42.4127523447
 20
476.6520832042
 30
0.0
 11
42.4127523447
 21
489.6520832042
 31
0.0
  0
LINE
  5
80
330
1F
100
AcDbEntity
  8
0
  6
SLD-Solid
 62
     7
370
    15
100
AcDbLine
 10
19.2627523447
 20
493.3591899854
 30
0.0
 11
19.2627523447
 21
492.6520832042
 31
0.0
  0
LINE
  5
81
330
1F
100
AcDbEntity
  8
0
  6
SLD-Solid
 62
     7
370
    15
100
AcDbLine
 10
40.5627523447
 20
492.6520832042
 30
0.0
 11
40.5627523447
 21
493.3591899854
 31
0.0
  0
LINE
  5
82
330
1F
100
AcDbEntity
  8
0
  6
SLD-Solid
 62
     7
370
    15
100
AcDbLine
 10
834.0127523447
 20
494.3520832042
 30
0.0
 11
834.0127523447
 21
495.8520832042
 31
0.0
  0
LINE
  5
83
330
1F
100
AcDbEntity
  8
0
  6
SLD-Solid
 62
     7
370
    15
100
AcDbLine
 10
817.0127523447
 20
495.8520832042
 30
0.0
 11
817.0127523447
 21
494.3520832042
 31
0.0
  0
LINE
  5
84
330
1F
100
AcDbEntity
  8
0
  6
SLD-Solid
 62
     7
370
    15
100
AcDbLine
 10
834.0127523447
 20
495.8520832042
 30
0.0
 11
833.5127523447
 21
496.3520832042
 31
0.0
  0
LINE
  5
85
330
1F
100
AcDbEntity
  8
0
  6
SLD-Solid
 62
     7
370
    15
100
AcDbLine
 10
817.5127523447
 20
496.3520832042
 30
0.0
 11
817.0127523447
 21
495.8520832042
 31
0.0
  0
LINE
  5
86
330
1F
100
AcDbEntity
  8
0
  6
SLD-Solid
 62
     7
370
    15
100
AcDbLine
 10
829.4127523447
 20
-35.6479167958
 30
0.0
 11
829.4127523447
 21
-35.1479167958
 31
0.0
  0
LINE
  5
87
330
1F
100
AcDbEntity
  8
0
  6
SLD-Solid
 62
     7
370
    15
100
AcDbLine
 10
821.6127523447
 20
-35.1479167958
 30
0.0
 11
821.6127523447
 21
-35.6479167958
 31
0.0
  0
LINE
  5
88
330
1F
100
AcDbEntity
  8
0
  6
SLD-Solid
 62
     7
370
    15
100
AcDbLine
 10
758.2108857558
 20
-200.5856215673
 30
0.0
 11
758.2108857558
 21
-132.5856215673
 31
0.0
  0
LINE
  5
89
330
1F
100
AcDbEntity
  8
0
  6
SLD-Solid
 62
     7
370
    15
100
AcDbLine
 10
701.6108857558
 20
-132.5856215673
 30
0.0
 11
701.6108857558
 21
-200.5856215673
 31
0.0
  0
ARC
  5
8A
330
1F
100
AcDbEntity
  8
0
  6
SLD-Solid
 62
     7
370
    15
100
AcDbCircle
 10
763.3108857558
 20
-40.0856215673
 30
0.0
 40
1.5
100
AcDbArc
 50
90.0
 51
180.0
  0
ARC
  5
8B
330
1F
100
AcDbEntity
  8
0
  6
SLD-Solid
 62
     7
370
    15
100
AcDbCircle
 10
696.5108857558
 20
-40.0856215673
 30
0.0
 40
1.5
100
AcDbArc
 50
0.0
 51
90.0
  0
ARC
  5
8C
330
1F
100
AcDbEntity
  8
0
  6
SLD-Solid
 62
     7
370
    15
100
AcDbCircle
 10
757.1108857558
 20
-126.5530556216
 30
0.0
 40
4.700000000000012
100
AcDbArc
 50
350.5402980318
 51
0.0
  0
ARC
  5
8D
330
1F
100
AcDbEntity
  8
0
  6
SLD-Solid
 62
     7
370
    15
100
AcDbCircle
 10
702.7108857558
 20
-126.5530556216
 30
0.0
 40
4.700000000000045
100
AcDbArc
 50
180.0
 51
189.4597019682
  0
LINE
  5
8E
330
1F
100
AcDbEntity
  8
0
  6
SLD-Solid
 62
     7
370
    15
100
AcDbLine
 10
761.8108857558
 20
-126.5530556216
 30
0.0
 11
761.8108857558
 21
-40.0856215673
 31
0.0
  0
LINE
  5
8F
330
1F
100
AcDbEntity
  8
0
  6
SLD-Solid
 62
     7
370
    15
100
AcDbLine
 10
698.0108857558
 20
-40.0856215673
 30
0.0
 11
698.0108857558
 21
-126.5530556216
 31
0.0
  0
LINE
  5
90
330
1F
100
AcDbEntity
  8
0
  6
SLD-Solid
 62
     7
370
    15
100
AcDbLine
 10
698.0747989828
 20
-127.3255188461
 30
0.0
 11
698.9512355354
 21
-132.5856215673
 31
0.0
  0
LINE
  5
91
330
1F
100
AcDbEntity
  8
0
  6
SLD-Solid
 62
     7
370
    15
100
AcDbLine
 10
760.8705359761
 20
-132.5856215673
 30
0.0
 11
761.7469725288
 21
-127.3255188461
 31
0.0
  0
LINE
  5
92
330
1F
100
AcDbEntity
  8
0
  6
SLD-Solid
 62
     7
370
    15
100
AcDbLine
 10
833.5127523447
 20
-35.1479167958
 30
0.0
 11
833.5127523447
 21
-32.6479167958
 31
0.0
  0
LINE
  5
93
330
1F
100
AcDbEntity
  8
0
  6
SLD-Solid
 62
     7
370
    15
100
AcDbLine
 10
149.2627524511
 20
663.0520832075
 30
0.0
 11
171.4627524511
 21
663.0520832075
 31
0.0
  0
LINE
  5
94
330
1F
100
AcDbEntity
  8
0
  6
SLD-Solid
 62
   142
420
    32960
370
     0
100
AcDbLine
 10
149.2627524511
 20
663.8520832075
 30
0.0
 11
149.2627524511
 21
663.0520832075
 31
0.0
  0
LINE
  5
95
330
1F
100
AcDbEntity
  8
0
  6
SLD-Solid
 62
     7
370
    15
100
AcDbLine
 10
149.2627524511
 20
663.8520832075
 30
0.0
 11
171.4627524511
 21
663.8520832075
 31
0.0
  0
LINE
  5
96
330
1F
100
AcDbEntity
  8
0
  6
SLD-Solid
 62
   142
420
    32960
370
     0
100
AcDbLine
 10
171.4627524511
 20
663.0520832075
 30
0.0
 11
171.4627524511
 21
663.8520832075
 31
0.0
  0
ARC
  5
97
330
1F
100
AcDbEntity
  8
0
  6
SLD-Solid
 62
   142
420
    32960
370
     0
100
AcDbCircle
 10
171.4627524511
 20
661.8020832075
 30
0.0
 40
1.250000000000028
100
AcDbArc
 50
0.0000000122
 51
90.0
  0
LINE
  5
98
330
1F
100
AcDbEntity
  8
0
  6
SLD-Solid
 62
   142
420
    32960
370
     0
100
AcDbLine
 10
172.7127524511
 20
661.8020832075
 30
0.0
 11
172.7127524511
 21
653.0520832075
 31
0.0
  0
LINE
  5
99
330
1F
100
AcDbEntity
  8
0
  6
SLD-Solid
 62
   142
420
    32960
370
     0
100
AcDbLine
 10
172.7127522598
 20
653.0520832075
 30
0.0
 11
172.7127524511
 21
653.0520832075
 31
0.0
  0
LINE
  5
9A
330
1F
100
AcDbEntity
  8
0
  6
SLD-Solid
 62
     7
370
    15
100
AcDbLine
 10
61.3127523447
 20
652.6520832042
 30
0.0
 11
61.2581761661
 21
652.6520832042
 31
0.0
  0
LINE
  5
9B
330
1F
100
AcDbEntity
  8
0
  6
SLD-Solid
 62
     7
370
    15
100
AcDbLine
 10
-1.6372476553
 20
652.6520832042
 30
0.0
 11
61.2581761661
 21
652.6520832042
 31
0.0
  0
SPLINE
  5
9C
330
1F
100
AcDbEntity
  8
0
  6
SLD-Solid
 62
   142
420
    32960
370
     0
100
AcDbSpline
210
0.0
220
0.0
230
1.0
 70
     8
 71
     3
 72
    14
 73
    10
 74
     0
 42
0.00000001
 43
0.00000001
 40
0.0
 40
0.0
 40
0.0
 40
0.0
 40
0.25
 40
0.25
 40
0.5
 40
0.5
 40
0.75
 40
0.75
 40
1.0
 40
1.0
 40
1.0
 40
1.0
 10
-1.630176587443577
 20
650.6020832042345
 30
0.0
 10
-1.630765843094573
 20
650.8704275767287
 30
0.0
 10
-1.631355098745624
 20
651.1386663671709
 30
0.0
 10
-1.632533610047504
 20
651.6345021139948
 30
0.0
 10
-1.633122865698611
 20
651.8619039801832
 30
0.0
 10
-1.634301377000658
 20
652.2414002311505
 30
0.0
 10
-1.634890632651487
 20
652.3933453003607
 30
0.0
 10
-1.636069143953589
 20
652.5987271914046
 30
0.0
 10
-1.636658399604474
 20
652.6520832042345
 30
0.0
 10
-1.637247655255469
 20
652.6520832042344
 30
0.0
  0
LINE
  5
9D
330
1F
100
AcDbEntity
  8
0
  6
SLD-Solid
 62
   142
420
    32960
370
     0
100
AcDbLine
 10
61.3127523447
 20
652.6520832042
 30
0.0
 11
61.3127523447
 21
650.6020832042
 31
0.0
  0
LINE
  5
9E
330
1F
100
AcDbEntity
  8
0
  6
SLD-Solid
 62
     7
370
    15
100
AcDbLine
 10
8.3198234126
 20
640.6520832042
 30
0.0
 11
61.3127523447
 21
640.6520832042
 31
0.0
  0
LINE
  5
9F
330
1F
100
AcDbEntity
  8
0
  6
SLD-Solid
 62
   142
420
    32960
370
     0
100
AcDbLine
 10
8.3198234126
 20
640.6520832042
 30
0.0
 11
-1.6301765874
 21
650.6020832042
 31
0.0
  0
LINE
  5
A0
330
1F
100
AcDbEntity
  8
0
  6
SLD-Solid
 62
   142
420
    32960
370
     0
100
AcDbLine
 10
61.3127523447
 20
640.6520832042
 30
0.0
 11
61.3127523447
 21
650.6020832042
 31
0.0
  0
ARC
  5
A1
330
1F
100
AcDbEntity
  8
0
  6
SLD-Solid
 62
   142
420
    32960
370
     0
100
AcDbCircle
 10
-1.6372476553
 20
650.6020832042
 30
0.0
 40
2.049999999999996
100
AcDbArc
 50
90.0
 51
180.0
  0
SPLINE
  5
A2
330
1F
100
AcDbEntity
  8
0
  6
SLD-Solid
 62
   142
420
    32960
370
     0
100
AcDbSpline
210
0.0
220
0.0
230
1.0
 70
     8
 71
     3
 72
     8
 73
     4
 74
     0
 42
0.00000001
 43
0.00000001
 40
0.0
 40
0.0
 40
0.0
 40
0.0
 40
1.0
 40
1.0
 40
1.0
 40
1.0
 10
61.31274286788463
 20
652.6513568499605
 30
0.0
 10
61.35416921818715
 20
652.6502537765339
 30
0.0
 10
61.39556210073127
 20
652.6478941593936
 30
0.0
 10
61.43684543874151
 20
652.6442823353251
 30
0.0
  0
LINE
  5
A3
330
1F
100
AcDbEntity
  8
0
  6
SLD-Solid
 62
   142
420
    32960
370
     0
100
AcDbLine
 10
66.3634504294
 20
652.213260249
 30
0.0
 11
61.4368454387
 21
652.6442823353
 31
0.0
  0
LINE
  5
A4
330
1F
100
AcDbEntity
  8
0
  6
SLD-Solid
 62
   142
420
    32960
370
     0
100
AcDbLine
 10
-3.6872476553
 20
493.4520832042
 30
0.0
 11
-3.6872476553
 21
650.6020832042
 31
0.0
  0
ARC
  5
A5
330
1F
100
AcDbEntity
  8
0
  6
SLD-Solid
 62
   142
420
    32960
370
     0
100
AcDbCircle
 10
-1.6372476553
 20
494.7020832042
 30
0.0
 40
2.050000000000011
100
AcDbArc
 50
180.0
 51
270.0
  0
SPLINE
  5
A6
330
1F
100
AcDbEntity
  8
0
  6
SLD-Solid
 62
   142
420
    32960
370
     0
100
AcDbSpline
210
0.0
220
0.0
230
1.0
 70
     8
 71
     3
 72
    14
 73
    10
 74
     0
 42
0.00000001
 43
0.00000001
 40
0.0
 40
0.0
 40
0.0
 40
0.0
 40
0.25
 40
0.25
 40
0.5
 40
0.5
 40
0.75
 40
0.75
 40
1.0
 40
1.0
 40
1.0
 40
1.0
 10
-1.637247655255081
 20
650.595012136423
 30
0.0
 10
-1.905592027749148
 20
650.5956013920741
 30
0.0
 10
-2.17383081819178
 20
650.5961906477253
 30
0.0
 10
-2.669666565015327
 20
650.5973691590267
 30
0.0
 10
-2.897068431203742
 20
650.5979584146778
 30
0.0
 10
-3.276564682171412
 20
650.5991369259799
 30
0.0
 10
-3.42850975138137
 20
650.599726181631
 30
0.0
 10
-3.633891642425113
 20
650.6009046929329
 30
0.0
 10
-3.687247655255077
 20
650.6014939485839
 30
0.0
 10
-3.687247655255077
 20
650.6020832042349
 30
0.0
  0
LINE
  5
A7
330
1F
100
AcDbEntity
  8
0
  6
SLD-Solid
 62
   142
420
    32960
370
     0
100
AcDbLine
 10
-3.6872476553
 20
493.4520832042
 30
0.0
 11
-2.0872476553
 21
493.4520832042
 31
0.0
  0
LINE
  5
A8
330
1F
100
AcDbEntity
  8
0
  6
SLD-Solid
 62
   142
420
    32960
370
     0
100
AcDbLine
 10
779.0127523447
 20
-29.6479167958
 30
0.0
 11
779.0127523447
 21
-19.6479167958
 31
0.0
  0
LINE
  5
A9
330
1F
100
AcDbEntity
  8
0
  6
SLD-Solid
 62
   142
420
    32960
370
     0
100
AcDbLine
 10
779.0127523447
 20
-19.6479167958
 30
0.0
 11
779.0127523447
 21
-14.6479167958
 31
0.0
  0
LINE
  5
AA
330
1F
100
AcDbEntity
  8
0
  6
SLD-Solid
 62
   142
420
    32960
370
     0
100
AcDbLine
 10
807.5800975842
 20
634.3533168812
 30
0.0
 11
801.1852793807
 21
631.5061603797
 31
0.0
  0
LINE
  5
AB
330
1F
100
AcDbEntity
  8
0
  6
SLD-Solid
 62
   142
420
    32960
370
     0
100
AcDbLine
 10
805.1899201583
 20
618.1211031894
 30
0.0
 11
805.2120300804
 21
618.118816723
 31
0.0
  0
LINE
  5
AC
330
1F
100
AcDbEntity
  8
0
  6
SLD-Solid
 62
   142
420
    32960
370
     0
100
AcDbLine
 10
809.8584898448
 20
617.8099481102
 30
0.0
 11
809.87843128
 21
617.8096389925
 31
0.0
  0
SPLINE
  5
AD
330
1F
100
AcDbEntity
  8
0
  6
SLD-Solid
 62
   142
420
    32960
370
     0
100
AcDbSpline
210
0.0
220
0.0
230
1.0
 70
     8
 71
     3
 72
    10
 73
     6
 74
     0
 42
0.00000001
 43
0.00000001
 40
0.0
 40
0.0
 40
0.0
 40
0.0
 40
0.4913907913253406
 40
0.9818583873149143
 40
1.0
 40
1.0
 40
1.0
 40
1.0
 10
809.8784312800269
 20
617.809638992523
 30
0.0
 10
809.8703686764537
 20
617.8095879080488
 30
0.0
 10
809.8542586168398
 20
617.8094858350747
 30
0.0
 10
809.7789054583799
 20
617.8095002842284
 30
0.0
 10
809.6937300988434
 20
617.8120073559899
 30
0.0
 10
809.6906919737824
 20
617.8120967808843
 30
0.0
  0
SPLINE
  5
AE
330
1F
100
AcDbEntity
  8
0
  6
SLD-Solid
 62
   142
420
    32960
370
     0
100
AcDbSpline
210
0.0
220
0.0
230
1.0
 70
     8
 71
     3
 72
    11
 73
     7
 74
     0
 42
0.00000001
 43
0.00000001
 40
0.0
 40
0.0
 40
0.0
 40
0.0
 40
0.0506499174103443
 40
0.5247128303943508
 40
0.7622993678543689
 40
1.0
 40
1.0
 40
1.0
 40
1.0
 10
805.3644471407906
 20
618.1007198483434
 30
0.0
 10
805.3572971379548
 20
618.1014615593281
 30
0.0
 10
805.2832259762012
 20
618.1091453876551
 30
0.0
 10
805.2340609397676
 20
618.1152433305733
 30
0.0
 10
805.195829305134
 20
618.1201111071538
 30
0.0
 10
805.1918901891406
 20
618.1207724424049
 30
0.0
 10
805.1899201583432
 20
618.1211031894086
 30
0.0
  0
SPLINE
  5
AF
330
1F
100
AcDbEntity
  8
0
  6
SLD-Solid
 62
   142
420
    32960
370
     0
100
AcDbSpline
210
0.0
220
0.0
230
1.0
 70
     8
 71
     3
 72
    13
 73
     9
 74
     0
 42
0.00000001
 43
0.00000001
 40
0.0
 40
0.0
 40
0.0
 40
0.0
 40
0.0427271562437384
 40
0.2820231572481854
 40
0.5202885061822893
 40
0.7600182588244642
 40
0.8796329299929236
 40
0.9999999999999999
 40
0.9999999999999999
 40
0.9999999999999999
 40
0.9999999999999999
 10
809.0890715722907
 20
617.8620827208633
 30
0.0
 10
809.088708937918
 20
617.8621116514147
 30
0.0
 10
809.0863153479935
 20
617.8623026092548
 30
0.0
 10
809.0701751770245
 20
617.8631166049821
 30
0.0
 10
809.0015810413236
 20
617.866786038237
 30
0.0
 10
808.9190446832695
 20
617.8713125878395
 30
0.0
 10
808.8417459933744
 20
617.8757011654177
 30
0.0
 10
808.8003447439847
 20
617.8780908352762
 30
0.0
 10
808.7795792179942
 20
617.8792894162921
 30
0.0
  0
SPLINE
  5
B0
330
1F
100
AcDbEntity
  8
0
  6
SLD-Solid
 62
   142
420
    32960
370
     0
100
AcDbSpline
210
0.0
220
0.0
230
1.0
 70
     8
 71
     3
 72
    13
 73
     9
 74
     0
 42
0.00000001
 43
0.00000001
 40
0.0
 40
0.0
 40
0.0
 40
0.0
 40
0.0625234477983374
 40
0.1250288441722308
 40
0.2500295548749858
 40
0.4999123112426986
 40
0.7499314087066092
 40
1.0
 40
1.0
 40
1.0
 40
1.0
 10
808.7795792179942
 20
617.8792894162921
 30
0.0
 10
808.7562784534372
 20
617.880651307011
 30
0.0
 10
808.7096836515911
 20
617.883374695251
 30
0.0
 10
808.6126963711317
 20
617.8891250453277
 30
0.0
 10
808.4357861489384
 20
617.8998979136834
 30
0.0
 10
808.1749694605415
 20
617.9162759539923
 30
0.0
 10
807.8580953794934
 20
617.936819139499
 30
0.0
 10
807.6463401693119
 20
617.9508668692808
 30
0.0
 10
807.5404520854829
 20
617.9578914293256
 30
0.0
  0
SPLINE
  5
B1
330
1F
100
AcDbEntity
  8
0
  6
SLD-Solid
 62
   142
420
    32960
370
     0
100
AcDbSpline
210
0.0
220
0.0
230
1.0
 70
     8
 71
     3
 72
    16
 73
    12
 74
     0
 42
0.00000001
 43
0.00000001
 40
0.0
 40
0.0
 40
0.0
 40
0.0
 40
0.1252631461791165
 40
0.2505188863277627
 40
0.3757538585426491
 40
0.5009662291659975
 40
0.626036618742633
 40
0.7509240976724814
 40
0.8647214306627558
 40
0.9776019377437084
 40
1.0
 40
1.0
 40
1.0
 40
1.0
 10
807.5404520854829
 20
617.9578914293256
 30
0.0
 10
807.4618807093401
 20
617.9631457481155
 30
0.0
 10
807.304742602491
 20
617.9736540750398
 30
0.0
 10
807.0692569870132
 20
617.9895871068386
 30
0.0
 10
806.8351770891194
 20
618.0057283723286
 30
0.0
 10
806.6034379333888
 20
618.0219608274148
 30
0.0
 10
806.3793238918805
 20
618.0381969172424
 30
0.0
 10
806.1872760507333
 20
618.0527710536644
 30
0.0
 10
806.0427061020295
 20
618.0640067379794
 30
0.0
 10
805.9993919565811
 20
618.0674464663842
 30
0.0
 10
805.997565499964
 20
618.067492871661
 30
0.0
 10
805.9972630936834
 20
618.0675005549791
 30
0.0
  0
SPLINE
  5
B2
330
1F
100
AcDbEntity
  8
0
  6
SLD-Solid
 62
   142
420
    32960
370
     0
100
AcDbSpline
210
0.0
220
0.0
230
1.0
 70
     8
 71
     3
 72
    18
 73
    14
 74
     0
 42
0.00000001
 43
0.00000001
 40
0.0
 40
0.0
 40
0.0
 40
0.0
 40
0.0625056993940011
 40
0.1249366024064394
 40
0.1873950569475777
 40
0.2498256751883411
 40
0.3219622618204945
 40
0.3747766092284815
 40
0.4997092147424165
 40
0.6247460768752849
 40
0.7498233215064717
 40
0.8702808453861062
 40
1.0
 40
1.0
 40
1.0
 40
1.0
 10
805.9972630936834
 20
618.0675005549791
 30
0.0
 10
805.9994143414953
 20
618.0672615638946
 30
0.0
 10
806.0037142628648
 20
618.0667838677101
 30
0.0
 10
806.0426547713827
 20
618.0633704466632
 30
0.0
 10
806.1037274209941
 20
618.0582296462734
 30
0.0
 10
806.1890774353815
 20
618.0512583725824
 30
0.0
 10
806.2908352802515
 20
618.0433764688786
 30
0.0
 10
806.4377759169796
 20
618.0323596609271
 30
0.0
 10
806.6263634694283
 20
618.0185895080739
 30
0.0
 10
806.8675531277289
 20
618.001647735173
 30
0.0
 10
807.1080461854103
 20
617.9851629072883
 30
0.0
 10
807.3522432035306
 20
617.9686583397223
 30
0.0
 10
807.5151839966121
 20
617.9577960662119
 30
0.0
 10
807.599670456573
 20
617.9521638668183
 30
0.0
  0
SPLINE
  5
B3
330
1F
100
AcDbEntity
  8
0
  6
SLD-Solid
 62
   142
420
    32960
370
     0
100
AcDbSpline
210
0.0
220
0.0
230
1.0
 70
     8
 71
     3
 72
    18
 73
    14
 74
     0
 42
0.00000001
 43
0.00000001
 40
0.0
 40
0.0
 40
0.0
 40
0.0
 40
0.1251150348332531
 40
0.2502142338132709
 40
0.3753103425832116
 40
0.5003678378249694
 40
0.6304875666387431
 40
0.7500246333156942
 40
0.8126119443874578
 40
0.8749668753729609
 40
0.9374460115586883
 40
0.9687143461569329
 40
1.0
 40
1.0
 40
1.0
 40
1.0
 10
807.599670456573
 20
617.9521638668183
 30
0.0
 10
807.6765214398205
 20
617.9470775791276
 30
0.0
 10
807.8302136792598
 20
617.9369056475191
 30
0.0
 10
808.0604210921693
 20
617.9219251176689
 30
0.0
 10
808.2894267384437
 20
617.907322390569
 30
0.0
 10
808.5184750874822
 20
617.8931295990261
 30
0.0
 10
808.7350410152471
 20
617.8803896637623
 30
0.0
 10
808.8923927137878
 20
617.8718238786846
 30
0.0
 10
808.9908896995521
 20
617.8667111829216
 30
0.0
 10
809.0491692584837
 20
617.8638049320867
 30
0.0
 10
809.0768704623046
 20
617.8625405030853
 30
0.0
 10
809.0877152492163
 20
617.8620955035915
 30
0.0
 10
809.0886193811573
 20
617.8620869825589
 30
0.0
 10
809.0890715722905
 20
617.8620827208632
 30
0.0
  0
ARC
  5
B4
330
1F
100
AcDbEntity
  8
0
  6
SLD-Solid
 62
     7
370
    15
100
AcDbCircle
 10
70.5627524511
 20
731.8315383673
 30
0.0
 40
2.049999999999997
100
AcDbArc
 50
75.0
 51
180.0000000122
  0
ARC
  5
B5
330
1F
100
AcDbEntity
  8
0
  6
SLD-Solid
 62
   142
420
    32960
370
     0
100
AcDbCircle
 10
70.5627524511
 20
731.8315383673
 30
0.0
 40
1.249999999999972
100
AcDbArc
 50
75.0
 51
180.0000000122
  0
LINE
  5
B6
330
1F
100
AcDbEntity
  8
0
  6
SLD-Solid
 62
     7
370
    15
100
AcDbLine
 10
68.5127524511
 20
683.0520832075
 30
0.0
 11
68.5127524511
 21
731.8315383673
 31
0.0
  0
LINE
  5
B7
330
1F
100
AcDbEntity
  8
0
  6
SLD-Solid
 62
     7
370
    15
100
AcDbLine
 10
68.5127524511
 20
683.0520832075
 30
0.0
 11
69.3127524511
 21
683.0520832075
 31
0.0
  0
LINE
  5
B8
330
1F
100
AcDbEntity
  8
0
  6
SLD-Solid
 62
     7
370
    15
100
AcDbLine
 10
69.3127524511
 20
683.0520832075
 30
0.0
 11
69.3127524511
 21
731.8315383673
 31
0.0
  0
LINE
  5
B9
330
1F
100
AcDbEntity
  8
0
  6
SLD-Solid
 62
     7
370
    15
100
AcDbLine
 10
70.8862762574
 20
733.0389456501
 30
0.0
 11
104.1832285786
 21
724.1170541653
 31
0.0
  0
LINE
  5
BA
330
1F
100
AcDbEntity
  8
0
  6
SLD-Solid
 62
     7
370
    15
100
AcDbLine
 10
71.0933314935
 20
733.8116863112
 30
0.0
 11
104.3902838147
 21
724.8897948263
 31
0.0
  0
ARC
  5
BB
330
1F
100
AcDbEntity
  8
0
  6
SLD-Solid
 62
     7
370
    15
100
AcDbCircle
 10
97.7127524511
 20
699.968908508
 30
0.0
 40
25.00000000000004
100
AcDbArc
 50
0.0000000122
 51
75.0
  0
ARC
  5
BC
330
1F
100
AcDbEntity
  8
0
  6
SLD-Solid
 62
     7
370
    15
100
AcDbCircle
 10
97.7127524511
 20
699.968908508
 30
0.0
 40
25.79999999999998
100
AcDbArc
 50
0.0000000122
 51
75.0
  0
ARC
  5
BD
330
1F
100
AcDbEntity
  8
0
  6
SLD-Solid
 62
   142
420
    32960
370
     0
100
AcDbCircle
 10
124.7627524511
 20
685.1020832075
 30
0.0
 40
2.049999999999997
100
AcDbArc
 50
180.0000000122
 51
270.0
  0
LINE
  5
BE
330
1F
100
AcDbEntity
  8
0
  6
SLD-Solid
 62
     7
370
    15
100
AcDbLine
 10
122.7127524511
 20
699.968908508
 30
0.0
 11
122.7127524511
 21
685.1020832075
 31
0.0
  0
LINE
  5
BF
330
1F
100
AcDbEntity
  8
0
  6
SLD-Solid
 62
     7
370
    15
100
AcDbLine
 10
123.5127524511
 20
699.968908508
 30
0.0
 11
123.5127524511
 21
685.1020832075
 31
0.0
  0
LINE
  5
C0
330
1F
100
AcDbEntity
  8
0
  6
SLD-Solid
 62
   142
420
    32960
370
     0
100
AcDbLine
 10
122.7127524511
 20
685.1020832075
 30
0.0
 11
123.5127524511
 21
685.1020832075
 31
0.0
  0
ARC
  5
C1
330
1F
100
AcDbEntity
  8
0
  6
SLD-Solid
 62
   142
420
    32960
370
     0
100
AcDbCircle
 10
124.7627524511
 20
685.1020832075
 30
0.0
 40
1.250000000000114
100
AcDbArc
 50
180.0000000122
 51
270.0
  0
LINE
  5
C2
330
1F
100
AcDbEntity
  8
0
  6
SLD-Solid
 62
     7
370
    15
100
AcDbLine
 10
124.7627524511
 20
683.8520832075
 30
0.0
 11
145.9627524511
 21
683.8520832075
 31
0.0
  0
LINE
  5
C3
330
1F
100
AcDbEntity
  8
0
  6
SLD-Solid
 62
     7
370
    15
100
AcDbLine
 10
124.7627524511
 20
683.0520832075
 30
0.0
 11
145.9627524511
 21
683.0520832075
 31
0.0
  0
LINE
  5
C4
330
1F
100
AcDbEntity
  8
0
  6
SLD-Solid
 62
   142
420
    32960
370
     0
100
AcDbLine
 10
145.9627524511
 20
683.0520832075
 30
0.0
 11
145.9627524511
 21
683.8520832075
 31
0.0
  0
LINE
  5
C5
330
1F
100
AcDbEntity
  8
0
  6
SLD-Solid
 62
   142
420
    32960
370
     0
100
AcDbLine
 10
124.7627524511
 20
683.8520832075
 30
0.0
 11
124.7627524511
 21
683.0520832075
 31
0.0
  0
ARC
  5
C6
330
1F
100
AcDbEntity
  8
0
  6
SLD-Solid
 62
   142
420
    32960
370
     0
100
AcDbCircle
 10
145.9627524511
 20
681.8020832075
 30
0.0
 40
2.049999999999983
100
AcDbArc
 50
0.0000000122
 51
90.0
  0
ARC
  5
C7
330
1F
100
AcDbEntity
  8
0
  6
SLD-Solid
 62
   142
420
    32960
370
     0
100
AcDbCircle
 10
145.9627524511
 20
681.8020832075
 30
0.0
 40
1.25
100
AcDbArc
 50
0.0000000122
 51
90.0
  0
LINE
  5
C8
330
1F
100
AcDbEntity
  8
0
  6
SLD-Solid
 62
   142
420
    32960
370
     0
100
AcDbLine
 10
147.2127524511
 20
681.8020832075
 30
0.0
 11
147.2127524511
 21
665.1020832075
 31
0.0
  0
LINE
  5
C9
330
1F
100
AcDbEntity
  8
0
  6
SLD-Solid
 62
   142
420
    32960
370
     0
100
AcDbLine
 10
148.0127524511
 20
681.8020832075
 30
0.0
 11
148.0127524511
 21
665.1020832075
 31
0.0
  0
LINE
  5
CA
330
1F
100
AcDbEntity
  8
0
  6
SLD-Solid
 62
   142
420
    32960
370
     0
100
AcDbLine
 10
148.0127522598
 20
665.1020832075
 30
0.0
 11
148.0127524511
 21
665.1020832075
 31
0.0
  0
LINE
  5
CB
330
1F
100
AcDbEntity
  8
0
  6
SLD-Solid
 62
   142
420
    32960
370
     0
100
AcDbLine
 10
64.1127523447
 20
608.2976365455
 30
0.0
 11
64.1127523447
 21
608.3520832042
 31
0.0
  0
LINE
  5
CC
330
1F
100
AcDbEntity
  8
0
  6
SLD-Solid
 62
   142
420
    32960
370
     0
100
AcDbLine
 10
64.1127523447
 20
583.3520832042
 30
0.0
 11
64.1127523447
 21
608.2976365455
 31
0.0
  0
SPLINE
  5
CD
330
1F
100
AcDbEntity
  8
0
  6
SLD-Solid
 62
   142
420
    32960
370
     0
100
AcDbSpline
210
0.0
220
0.0
230
1.0
 70
    24
 71
     3
 72
     8
 73
     4
 74
     0
 42
0.00000001
 43
0.00000001
 40
5.0
 40
5.0
 40
5.0
 40
5.0
 40
6.0
 40
6.0
 40
6.0
 40
6.0
 10
837.1127523447415
 20
-0.1479167957638139
 30
0.0
 10
837.1127523447415
 20
-0.1503182357524557
 30
0.0
 10
837.1127523447415
 20
0.7468953104062814
 30
0.0
 10
837.1127523447415
 20
1.846066534143154
 30
0.0
  0
LINE
  5
CE
330
1F
100
AcDbEntity
  8
0
  6
SLD-Solid
 62
     7
370
    15
100
AcDbLine
 10
835.5127523447
 20
-0.1479167958
 30
0.0
 11
837.1127523447
 21
-0.1479167958
 31
0.0
  0
LINE
  5
CF
330
1F
100
AcDbEntity
  8
0
  6
SLD-Solid
 62
     7
370
    15
100
AcDbLine
 10
835.5127523447
 20
59.8520832042
 30
0.0
 11
837.1127523447
 21
59.8520832042
 31
0.0
  0
SPLINE
  5
D0
330
1F
100
AcDbEntity
  8
0
  6
SLD-Solid
 62
   142
420
    32960
370
     0
100
AcDbSpline
210
0.0
220
0.0
230
1.0
 70
    24
 71
     3
 72
     8
 73
     4
 74
     0
 42
0.00000001
 43
0.00000001
 40
7.0
 40
7.0
 40
7.0
 40
7.0
 40
8.0
 40
8.0
 40
8.0
 40
8.0
 10
837.1127523447415
 20
57.85770532450968
 30
0.0
 10
837.1127523447415
 20
58.95687654928286
 30
0.0
 10
837.1127523447415
 20
59.85448417018563
 30
0.0
 10
837.1127523447415
 20
59.85208320423621
 30
0.0
  0
LINE
  5
D1
330
1F
100
AcDbEntity
  8
0
  6
SLD-Solid
 62
   142
420
    32960
370
     0
100
AcDbLine
 10
837.1127523447
 20
1.8460665341
 30
0.0
 11
837.1127523447
 21
57.8577053245
 31
0.0
  0
LINE
  5
D2
330
1F
100
AcDbEntity
  8
0
  6
SLD-Solid
 62
   142
420
    32960
370
     0
100
AcDbLine
 10
779.0127523447
 20
-17.8979167958
 30
0.0
 11
779.0127523447
 21
-20.6979167958
 31
0.0
  0
LINE
  5
D3
330
1F
100
AcDbEntity
  8
0
  6
SLD-Solid
 62
   142
420
    32960
370
     0
100
AcDbLine
 10
779.0127523447
 20
-27.3979167958
 30
0.0
 11
779.0127523447
 21
-24.5979167958
 31
0.0
  0
LINE
  5
D4
330
1F
100
AcDbEntity
  8
0
  6
SLD-Solid
 62
   142
420
    32960
370
     0
100
AcDbLine
 10
779.0127523447
 20
-17.8979167958
 30
0.0
 11
779.0127523447
 21
-20.6979167958
 31
0.0
  0
LINE
  5
D5
330
1F
100
AcDbEntity
  8
0
  6
SLD-Solid
 62
   142
420
    32960
370
     0
100
AcDbLine
 10
779.0127523447
 20
-27.3979167958
 30
0.0
 11
779.0127523447
 21
-24.5979167958
 31
0.0
  0
LINE
  5
D6
330
1F
100
AcDbEntity
  8
0
  6
SLD-Solid
 62
   142
420
    32960
370
     0
100
AcDbLine
 10
779.0127523447
 20
-17.8979167958
 30
0.0
 11
779.0127523447
 21
-20.6979167958
 31
0.0
  0
LINE
  5
D7
330
1F
100
AcDbEntity
  8
0
  6
SLD-Solid
 62
   142
420
    32960
370
     0
100
AcDbLine
 10
779.0127523447
 20
-27.3979167958
 30
0.0
 11
779.0127523447
 21
-24.5979167958
 31
0.0
  0
LWPOLYLINE
  5
D8
330
1F
100
AcDbEntity
  8
0
  6
SLD-Solid
 62
   142
420
    32960
370
     0
100
AcDbPolyline
 90
        3
 70
   128
 43
0.0
 10
774.7098625047
 20
-35.0216178315
 10
774.907295993
 20
-34.842460444
 10
775.0890861544
 20
-34.6418217616
  0
LINE
  5
D9
330
1F
100
AcDbEntity
  8
0
  6
SLD-Solid
 62
   142
420
    32960
370
     0
100
AcDbLine
 10
827.5220535606
 20
545.9861586262
 30
0.0
 11
828.9328622209
 21
545.4764792503
 31
0.0
  0
LINE
  5
DA
330
1F
100
AcDbEntity
  8
0
  6
SLD-Solid
 62
   142
420
    32960
370
     0
100
AcDbLine
 10
690.5127523637
 20
646.8520832052
 30
0.0
 11
690.9702366516
 21
646.8520832052
 31
0.0
  0
SPLINE
  5
DB
330
1F
100
AcDbEntity
  8
0
  6
SLD-Solid
 62
   142
420
    32960
370
     0
100
AcDbSpline
210
0.0
220
0.0
230
1.0
 70
     8
 71
     3
 72
    19
 73
    15
 74
     0
 42
0.00000001
 43
0.00000001
 40
0.0
 40
0.0
 40
0.0
 40
0.0
 40
0.0571143122037956
 40
0.1156859695386126
 40
0.1757206699038258
 40
0.2372237019665112
 40
0.300199981864316
 40
0.3646540860234664
 40
0.4305902805559966
 40
0.4980125476391944
 40
0.6162771910106123
 40
0.7486631870564219
 40
0.8538896613728921
 40
1.0
 40
1.0
 40
1.0
 40
1.0
 10
837.1127523447415
 20
-0.1479167957638139
 30
0.0
 10
837.1613798593036
 20
-0.116102288537312
 30
0.0
 10
837.2598756820024
 20
-0.0516614860154863
 30
0.0
 10
837.4016614940493
 20
0.05696168661673
 30
0.0
 10
837.5403093442391
 20
0.1760641769276705
 30
0.0
 10
837.67426656823
 20
0.3065993657943022
 30
0.0
 10
837.8026114547421
 20
0.4484014847737083
 30
0.0
 10
837.9241798922412
 20
0.6014975897309927
 30
0.0
 10
838.0378327681063
 20
0.7657409980152963
 30
0.0
 10
838.1678216941287
 20
0.9835925089637376
 30
0.0
 10
838.305906540955
 20
1.273099630160257
 30
0.0
 10
838.4173651671574
 20
1.613463435466145
 30
0.0
 10
838.4962229826765
 20
1.991179089211481
 30
0.0
 10
838.5066757866908
 20
2.24325734730052
 30
0.0
 10
838.5127523447416
 20
2.389798712326086
 30
0.0
  0
SPLINE
  5
DC
330
1F
100
AcDbEntity
  8
0
  6
SLD-Solid
 62
   142
420
    32960
370
     0
100
AcDbSpline
210
0.0
220
0.0
230
1.0
 70
     8
 71
     3
 72
    19
 73
    15
 74
     0
 42
0.00000001
 43
0.00000001
 40
0.0
 40
0.0
 40
0.0
 40
0.0
 40
0.0571115640935923
 40
0.1156812592866361
 40
0.1757147833893933
 40
0.2372174247608634
 40
0.3001940990521396
 40
0.3646493820584513
 40
0.4305875391447034
 40
0.498012551648665
 40
0.616261616538452
 40
0.7486631924159508
 40
0.8538790033185846
 40
1.0
 40
1.0
 40
1.0
 40
1.0
 10
837.1127523447416
 20
59.85208320423624
 30
0.0
 10
837.1613775408024
 20
59.8202702688409
 30
0.0
 10
837.2598693962203
 20
59.75583217321972
 30
0.0
 10
837.4016508614919
 20
59.64721321690103
 30
0.0
 10
837.5402966176301
 20
59.52811381919135
 30
0.0
 10
837.6742537894348
 20
59.3975803020545
 30
0.0
 10
837.802600359573
 20
59.25577809042066
 30
0.0
 10
837.9241718655868
 20
59.10267981810918
 30
0.0
 10
838.0378287787169
 20
58.93843191524051
 30
0.0
 10
838.1678124864706
 20
58.72058982790313
 30
0.0
 10
838.3059006620085
 20
58.43108155066034
 30
0.0
 10
838.4173586549811
 20
58.09072847631793
 30
0.0
 10
838.4962215044737
 20
57.71299805470309
 30
0.0
 10
838.506674962866
 20
57.46091976953544
 30
0.0
 10
838.5127523447416
 20
57.31436769614631
 30
0.0
  0
LINE
  5
DD
330
1F
100
AcDbEntity
  8
0
  6
SLD-Solid
 62
   142
420
    32960
370
     0
100
AcDbLine
 10
838.5127523447
 20
57.3143676961
 30
0.0
 11
838.5127523447
 21
2.3897987123
 31
0.0
  0
SPLINE
  5
DE
330
1F
100
AcDbEntity
  8
0
  6
SLD-Solid
 62
   142
420
    32960
370
     0
100
AcDbSpline
210
0.0
220
0.0
230
1.0
 70
     8
 71
     3
 72
    19
 73
    15
 74
     0
 42
0.00000001
 43
0.00000001
 40
0.0
 40
0.0
 40
0.0
 40
0.0
 40
0.057104878942964
 40
0.1156686822574313
 40
0.1756971814074724
 40
0.2371957328763226
 40
0.3001693154156198
 40
0.3646225633509876
 40
0.4305597964141064
 40
0.4979850465109802
 40
0.6162371795388831
 40
0.7486453112633539
 40
0.8538681106766423
 40
1.0
 40
1.0
 40
1.0
 40
1.0
 10
837.1127523447415
 20
57.85333476908539
 30
0.0
 10
837.1613776991038
 20
57.84656866786603
 30
0.0
 10
837.2598706959808
 20
57.83286360401596
 30
0.0
 10
837.4016520135245
 20
57.80970517531503
 30
0.0
 10
837.5402978008186
 20
57.78433961322904
 30
0.0
 10
837.6742549288442
 20
57.75658540018813
 30
0.0
 10
837.8026014559811
 20
57.72649293835516
 30
0.0
 10
837.9241728989717
 20
57.69404811915793
 30
0.0
 10
838.0378297370125
 20
57.65925497761886
 30
0.0
 10
838.1678140733318
 20
57.61305255172602
 30
0.0
 10
838.3059022891352
 20
57.55144868594247
 30
0.0
 10
838.4173594106503
 20
57.47927556359326
 30
0.0
 10
838.4962216565676
 20
57.39887758464318
 30
0.0
 10
838.5066750057118
 20
57.34543689534499
 30
0.0
 10
838.5127523447416
 20
57.31436769614631
 30
0.0
  0
SPLINE
  5
DF
330
1F
100
AcDbEntity
  8
0
  6
SLD-Solid
 62
   142
420
    32960
370
     0
100
AcDbSpline
210
0.0
220
0.0
230
1.0
 70
     8
 71
     3
 72
    14
 73
    10
 74
     0
 42
0.00000001
 43
0.00000001
 40
0.0
 40
0.0
 40
0.0
 40
0.0
 40
0.25
 40
0.25
 40
0.5
 40
0.5
 40
0.75
 40
0.75
 40
1.0
 40
1.0
 40
1.0
 40
1.0
 10
794.170679138196
 20
626.0020832016482
 30
0.0
 10
794.4184181789562
 20
626.1080014651554
 30
0.0
 10
794.6660568052183
 20
626.213887102014
 30
0.0
 10
795.1226813766242
 20
626.4130993583244
 30
0.0
 10
795.3314817799688
 20
626.5063656915909
 30
0.0
 10
795.6774609157383
 20
626.6696270665643
 30
0.0
 10
795.8144976406179
 20
626.7395759672236
 30
0.0
 10
795.9948841798013
 20
626.8490330460162
 30
0.0
 10
796.0381571401754
 20
626.8885162527941
 30
0.0
 10
796.030685516864
 20
626.9115115448558
 30
0.0
  0
SPLINE
  5
E0
330
1F
100
AcDbEntity
  8
0
  6
SLD-Solid
 62
     7
370
    15
100
AcDbSpline
210
0.0
220
0.0
230
1.0
 70
     8
 71
     3
 72
    20
 73
    16
 74
     0
 42
0.00000001
 43
0.00000001
 40
0.0
 40
0.0
 40
0.0
 40
0.0
 40
0.124999999999995
 40
0.124999999999995
 40
0.24999999999999
 40
0.24999999999999
 40
0.374999999999985
 40
0.374999999999985
 40
0.49999999999998
 40
0.49999999999998
 40
0.624999999999975
 40
0.624999999999975
 40
0.74999999999997
 40
0.74999999999997
 40
1.0
 40
1.0
 40
1.0
 40
1.0
 10
834.2707679876222
 20
509.220639264383
 30
0.0
 10
834.2594698751406
 20
509.2554112791686
 30
0.0
 10
834.2357177819378
 20
509.2855221973068
 30
0.0
 10
834.163976927128
 20
509.3380199852937
 30
0.0
 10
834.1153772143713
 20
509.3605692742044
 30
0.0
 10
833.9950159884326
 20
509.3978718102423
 30
0.0
 10
833.9240266726621
 20
509.4125544241132
 30
0.0
 10
833.7605891482593
 20
509.4353867702035
 30
0.0
 10
833.6670187922155
 20
509.4435480670712
 30
0.0
 10
833.464592813537
 20
509.4538493515537
 30
0.0
 10
833.3554428374387
 20
509.4561150517271
 30
0.0
 10
833.1210489520527
 20
509.4561520527943
 30
0.0
 10
832.9955204616963
 20
509.4538694086988
 30
0.0
 10
832.6101121283237
 20
509.4424469608658
 30
0.0
 10
832.3323619170901
 20
509.4285167646658
 30
0.0
 10
832.0523109300568
 20
509.414408674508
 30
0.0
  0
LINE
  5
E1
330
1F
100
AcDbEntity
  8
0
  6
SLD-Solid
 62
   142
420
    32960
370
     0
100
AcDbLine
 10
834.2707679876
 20
509.2206392644
 30
0.0
 11
833.5099227746
 21
508.9734256689
 31
0.0
  0
SPLINE
  5
E2
330
1F
100
AcDbEntity
  8
0
  6
SLD-Solid
 62
   142
420
    32960
370
     0
100
AcDbSpline
210
0.0
220
0.0
230
1.0
 70
     8
 71
     3
 72
    12
 73
     8
 74
     0
 42
0.00000001
 43
0.00000001
 40
0.0
 40
0.0
 40
0.0
 40
0.0
 40
0.2500000000000178
 40
0.2500000000000178
 40
0.5000000000000356
 40
0.5000000000000356
 40
1.0
 40
1.0
 40
1.0
 40
1.0
 10
833.5099227745861
 20
508.9734256688831
 30
0.0
 10
833.4873207133545
 20
509.0429876606418
 30
0.0
 10
833.434653870138
 20
509.1009591306453
 30
0.0
 10
833.2698402480156
 20
509.2006940747892
 30
0.0
 10
833.1602327365108
 20
509.2406070538377
 30
0.0
 10
832.7619078180593
 20
509.3404392877274
 30
0.0
 10
832.4115653385387
 20
509.3773258208111
 30
0.0
 10
832.0523109300568
 20
509.414408674508
 30
0.0
  0
SPLINE
  5
E3
330
1F
100
AcDbEntity
  8
0
  6
SLD-Solid
 62
     7
370
    15
100
AcDbSpline
210
0.0
220
0.0
230
1.0
 70
     8
 71
     3
 72
    14
 73
    10
 74
     0
 42
0.00000001
 43
0.00000001
 40
0.0
 40
0.0
 40
0.0
 40
0.0
 40
0.25
 40
0.25
 40
0.5
 40
0.5
 40
0.75
 40
0.75
 40
1.0
 40
1.0
 40
1.0
 40
1.0
 10
776.5127523447409
 20
626.5449764204617
 30
0.0
 10
776.5127523447409
 20
626.499735318894
 30
0.0
 10
776.566108357571
 20
626.4544942173261
 30
0.0
 10
776.7714902486147
 20
626.3640120141905
 30
0.0
 10
776.9234353178247
 20
626.3187709126229
 30
0.0
 10
777.3029315687924
 20
626.2282887094872
 30
0.0
 10
777.5303334349805
 20
626.1830476079194
 30
0.0
 10
778.0261691818044
 20
626.0925654047837
 30
0.0
 10
778.294407972247
 20
626.0473243032161
 30
0.0
 10
778.5627523447409
 20
626.0020832016481
 30
0.0
  0
LINE
  5
E4
330
1F
100
AcDbEntity
  8
0
  6
SLD-Solid
 62
   142
420
    32960
370
     0
100
AcDbLine
 10
776.5127523447
 20
626.5449764205
 30
0.0
 11
776.5127523447
 21
508.8715154557
 31
0.0
  0
SPLINE
  5
E5
330
1F
100
AcDbEntity
  8
0
  6
SLD-Solid
 62
   142
420
    32960
370
     0
100
AcDbSpline
210
0.0
220
0.0
230
1.0
 70
     8
 71
     3
 72
    14
 73
    10
 74
     0
 42
0.00000001
 43
0.00000001
 40
0.0
 40
0.0
 40
0.0
 40
0.0
 40
0.25
 40
0.25
 40
0.5
 40
0.5
 40
0.75
 40
0.75
 40
1.0
 40
1.0
 40
1.0
 40
1.0
 10
778.5627523447409
 20
509.4144086745083
 30
0.0
 10
778.2944079722467
 20
509.3691675729405
 30
0.0
 10
778.0261691818044
 20
509.3239264713727
 30
0.0
 10
777.5303334349805
 20
509.2334442682369
 30
0.0
 10
777.3029315687922
 20
509.1882031666693
 30
0.0
 10
776.9234353178247
 20
509.0977209635338
 30
0.0
 10
776.7714902486147
 20
509.052479861966
 30
0.0
 10
776.566108357571
 20
508.9619976588305
 30
0.0
 10
776.5127523447409
 20
508.9167565572627
 30
0.0
 10
776.5127523447409
 20
508.8715154556949
 30
0.0
  0
SPLINE
  5
E6
330
1F
100
AcDbEntity
  8
0
  6
SLD-Solid
 62
   142
420
    32960
370
     0
100
AcDbSpline
210
0.0
220
0.0
230
1.0
 70
     8
 71
     3
 72
    14
 73
    10
 74
     0
 42
0.00000001
 43
0.00000001
 40
0.0
 40
0.0
 40
0.0
 40
0.0
 40
0.25
 40
0.25
 40
0.5
 40
0.5
 40
0.75
 40
0.75
 40
1.0
 40
1.0
 40
1.0
 40
1.0
 10
794.4608233094527
 20
628.0520832016482
 30
0.0
 10
794.4366446285147
 20
628.0520832016481
 30
0.0
 10
794.4124659475768
 20
627.9987271888183
 30
0.0
 10
794.3641085857005
 20
627.7933452977744
 30
0.0
 10
794.3399299047626
 20
627.6414002285645
 30
0.0
 10
794.2915725428865
 20
627.2619039775966
 30
0.0
 10
794.2673938619482
 20
627.0345021114085
 30
0.0
 10
794.2190365000722
 20
626.5386663645847
 30
0.0
 10
794.1948578191341
 20
626.2704275741424
 30
0.0
 10
794.1706791381961
 20
626.0020832016481
 30
0.0
  0
LINE
  5
E7
330
1F
100
AcDbEntity
  8
0
  6
SLD-Solid
 62
   142
420
    32960
370
     0
100
AcDbLine
 10
778.0198591259
 20
628.0520832016
 30
0.0
 11
778.5127523447
 21
628.0520832016
 31
0.0
  0
SPLINE
  5
E8
330
1F
100
AcDbEntity
  8
0
  6
SLD-Solid
 62
   142
420
    32960
370
     0
100
AcDbSpline
210
0.0
220
0.0
230
1.0
 70
     8
 71
     3
 72
    14
 73
    10
 74
     0
 42
0.00000001
 43
0.00000001
 40
0.0
 40
0.0
 40
0.0
 40
0.0
 40
0.25
 40
0.25
 40
0.5
 40
0.5
 40
0.75
 40
0.75
 40
1.0
 40
1.0
 40
1.0
 40
1.0
 10
778.5627523447409
 20
626.0020832016481
 30
0.0
 10
778.517511243173
 20
626.2704275741423
 30
0.0
 10
778.4722701416053
 20
626.5386663645847
 30
0.0
 10
778.3817879384696
 20
627.0345021114084
 30
0.0
 10
778.336546836902
 20
627.2619039775968
 30
0.0
 10
778.2460646337663
 20
627.6414002285645
 30
0.0
 10
778.2008235321987
 20
627.7933452977745
 30
0.0
 10
778.1103413290631
 20
627.9987271888183
 30
0.0
 10
778.0651002274952
 20
628.0520832016482
 30
0.0
 10
778.0198591259275
 20
628.0520832016482
 30
0.0
  0
SPLINE
  5
E9
330
1F
100
AcDbEntity
  8
0
  6
SLD-Solid
 62
   142
420
    32960
370
     0
100
AcDbSpline
210
0.0
220
0.0
230
1.0
 70
     8
 71
     3
 72
    14
 73
    10
 74
     0
 42
0.00000001
 43
0.00000001
 40
0.0
 40
0.0
 40
0.0
 40
0.0
 40
0.25
 40
0.25
 40
0.5
 40
0.5
 40
0.75
 40
0.75
 40
1.0
 40
1.0
 40
1.0
 40
1.0
 10
778.0198591259275
 20
507.3644086745083
 30
0.0
 10
778.0651002274952
 20
507.3644086745083
 30
0.0
 10
778.1103413290631
 20
507.4177646873381
 30
0.0
 10
778.2008235321985
 20
507.623146578382
 30
0.0
 10
778.2460646337664
 20
507.7750916475919
 30
0.0
 10
778.3365468369019
 20
508.1545878985597
 30
0.0
 10
778.3817879384698
 20
508.381989764748
 30
0.0
 10
778.4722701416053
 20
508.8778255115718
 30
0.0
 10
778.5175112431732
 20
509.1460643020142
 30
0.0
 10
778.5627523447409
 20
509.4144086745083
 30
0.0
  0
SPLINE
  5
EA
330
1F
100
AcDbEntity
  8
0
  6
SLD-Solid
 62
   142
420
    32960
370
     0
100
AcDbSpline
210
0.0
220
0.0
230
1.0
 70
     8
 71
     3
 72
    20
 73
    16
 74
     0
 42
0.00000001
 43
0.00000001
 40
0.0
 40
0.0
 40
0.0
 40
0.0
 40
0.1249999999999934
 40
0.1249999999999934
 40
0.2499999999999869
 40
0.2499999999999869
 40
0.3749999999999803
 40
0.3749999999999803
 40
0.4999999999999738
 40
0.4999999999999738
 40
0.6249999999999672
 40
0.6249999999999672
 40
0.7499999999999607
 40
0.7499999999999607
 40
1.0
 40
1.0
 40
1.0
 40
1.0
 10
832.0523109300568
 20
509.414408674508
 30
0.0
 10
832.0888723900648
 20
509.2790567025518
 30
0.0
 10
832.1248493754232
 20
509.1458889133438
 30
0.0
 10
832.1969468821062
 20
508.8840836539505
 30
0.0
 10
832.2334106674261
 20
508.7542589526517
 30
0.0
 10
832.3060811516782
 20
508.5057045481782
 30
0.0
 10
832.3419820522683
 20
508.3879442061275
 30
0.0
 10
832.414201876359
 20
508.1655226653242
 30
0.0
 10
832.4508785611137
 20
508.0600123526231
 30
0.0
 10
832.5232287323616
 20
507.8705603950998
 30
0.0
 10
832.5591127388254
 20
507.7857928552276
 30
0.0
 10
832.6315796228935
 20
507.6364955419422
 30
0.0
 10
832.6681991361506
 20
507.5722300055171
 30
0.0
 10
832.776433467493
 20
507.4186238644934
 30
0.0
 10
832.849014599086
 20
507.3644086745082
 30
0.0
 10
832.9221375222937
 20
507.3644086745081
 30
0.0
  0
SPLINE
  5
EB
330
1F
100
AcDbEntity
  8
0
  6
SLD-Solid
 62
   142
420
    32960
370
     0
100
AcDbSpline
210
0.0
220
0.0
230
1.0
 70
     8
 71
     3
 72
    14
 73
    10
 74
     0
 42
0.00000001
 43
0.00000001
 40
0.0
 40
0.0
 40
0.0
 40
0.0
 40
0.25
 40
0.25
 40
0.5
 40
0.5
 40
0.75
 40
0.75
 40
1.0
 40
1.0
 40
1.0
 40
1.0
 10
777.3127523447409
 20
626.5449764204617
 30
0.0
 10
777.3127523447409
 20
626.499735318894
 30
0.0
 10
777.3452864989057
 20
626.4544942173261
 30
0.0
 10
777.470519359298
 20
626.3640120141905
 30
0.0
 10
777.5631687917432
 20
626.3187709126229
 30
0.0
 10
777.7945689447723
 20
626.2282887094872
 30
0.0
 10
777.9332286192773
 20
626.1830476079194
 30
0.0
 10
778.235567489292
 20
626.0925654047837
 30
0.0
 10
778.3991277273665
 20
626.0473243032161
 30
0.0
 10
778.5627523447409
 20
626.0020832016481
 30
0.0
  0
LINE
  5
EC
330
1F
100
AcDbEntity
  8
0
  6
SLD-Solid
 62
   142
420
    32960
370
     0
100
AcDbLine
 10
776.5127523447
 20
626.5449764205
 30
0.0
 11
777.3127523447
 21
626.5449764205
 31
0.0
  0
SPLINE
  5
ED
330
1F
100
AcDbEntity
  8
0
  6
SLD-Solid
 62
   142
420
    32960
370
     0
100
AcDbSpline
210
0.0
220
0.0
230
1.0
 70
     8
 71
     3
 72
    10
 73
     6
 74
     0
 42
0.00000001
 43
0.00000001
 40
0.0
 40
0.0
 40
0.0
 40
0.0
 40
0.4954024121002941
 40
0.9906756041138193
 40
1.0
 40
1.0
 40
1.0
 40
1.0
 10
826.1027050504977
 20
563.4061116609502
 30
0.0
 10
826.0566486475816
 20
563.3733670360435
 30
0.0
 10
825.9645478550378
 20
563.3078863272932
 30
0.0
 10
825.8693236984008
 20
563.2570240007025
 30
0.0
 10
825.829449456558
 20
563.2460437166576
 30
0.0
 10
825.8287126254166
 20
563.2458408133584
 30
0.0
  0
SPLINE
  5
EE
330
1F
100
AcDbEntity
  8
0
  6
SLD-Solid
 62
   142
420
    32960
370
     0
100
AcDbSpline
210
0.0
220
0.0
230
1.0
 70
     8
 71
     3
 72
     9
 73
     5
 74
     0
 42
0.00000001
 43
0.00000001
 40
0.0
 40
0.0
 40
0.0
 40
0.0
 40
0.9008264178912984
 40
1.0
 40
1.0
 40
1.0
 40
1.0
 10
821.0955670036309
 20
583.1750871432632
 30
0.0
 10
821.122405970853
 20
583.0907820586702
 30
0.0
 10
821.1521996876992
 20
582.9971956774111
 30
0.0
 10
821.1356505341507
 20
582.9012507577776
 30
0.0
 10
821.1340092953126
 20
582.8917355564125
 30
0.0
  0
LINE
  5
EF
330
1F
100
AcDbEntity
  8
0
  6
SLD-Solid
 62
   142
420
    32960
370
     0
100
AcDbLine
 10
816.9900744134
 20
582.1571090575
 30
0.0
 11
816.8714353549
 21
582.5215131885
 31
0.0
  0
SPLINE
  5
F0
330
1F
100
AcDbEntity
  8
0
  6
SLD-Solid
 62
   142
420
    32960
370
     0
100
AcDbSpline
210
0.0
220
0.0
230
1.0
 70
     8
 71
     3
 72
    10
 73
     6
 74
     0
 42
0.00000001
 43
0.00000001
 40
0.0
 40
0.0
 40
0.0
 40
0.0
 40
0.1385420655773593
 40
0.5689020663599486
 40
1.0
 40
1.0
 40
1.0
 40
1.0
 10
805.7453663089376
 20
618.0561271071316
 30
0.0
 10
805.814763720659
 20
618.0497970025168
 30
0.0
 10
806.0997337098368
 20
618.0238033840396
 30
0.0
 10
806.7259123114485
 20
617.9747550970322
 30
0.0
 10
807.258084993981
 20
617.9383967215125
 30
0.0
 10
807.5243992672754
 20
617.9202019612916
 30
0.0
  0
LINE
  5
F1
330
1F
100
AcDbEntity
  8
0
  6
SLD-Solid
 62
   142
420
    32960
370
     0
100
AcDbLine
 10
810.3402472532
 20
607.2737717115
 30
0.0
 11
809.6124996963
 21
607.2279470659
 31
0.0
  0
LINE
  5
F2
330
1F
100
AcDbEntity
  8
0
  6
SLD-Solid
 62
   142
420
    32960
370
     0
100
AcDbLine
 10
809.6124996963
 20
607.2279470659
 30
0.0
 11
809.5157814269
 21
607.5249413569
 31
0.0
  0
LINE
  5
F3
330
1F
100
AcDbEntity
  8
0
  6
SLD-Solid
 62
   142
420
    32960
370
     0
100
AcDbLine
 10
716.7627523472
 20
662.6520832016
 30
0.0
 11
694.9627523472
 21
662.6520832016
 31
0.0
  0
LINE
  5
F4
330
1F
100
AcDbEntity
  8
0
  6
SLD-Solid
 62
   142
420
    32960
370
     0
100
AcDbLine
 10
694.9627523472
 20
663.8520832016
 30
0.0
 11
694.9627523472
 21
662.6520832016
 31
0.0
  0
LINE
  5
F5
330
1F
100
AcDbEntity
  8
0
  6
SLD-Solid
 62
     7
370
    15
100
AcDbLine
 10
716.7627523472
 20
663.8520832016
 30
0.0
 11
694.9627523472
 21
663.8520832016
 31
0.0
  0
LINE
  5
F6
330
1F
100
AcDbEntity
  8
0
  6
SLD-Solid
 62
   142
420
    32960
370
     0
100
AcDbLine
 10
718.0127523472
 20
665.1020832016
 30
0.0
 11
719.2127523472
 21
665.1020832016
 31
0.0
  0
ARC
  5
F7
330
1F
100
AcDbEntity
  8
0
  6
SLD-Solid
 62
   142
420
    32960
370
     0
100
AcDbCircle
 10
716.7627523472
 20
665.1020832016
 30
0.0
 40
1.250000000000114
100
AcDbArc
 50
270.0
 51
0.0
  0
ARC
  5
F8
330
1F
100
AcDbEntity
  8
0
  6
SLD-Solid
 62
   142
420
    32960
370
     0
100
AcDbCircle
 10
716.7627523472
 20
665.1020832016
 30
0.0
 40
2.450000000000045
100
AcDbArc
 50
270.0
 51
0.0
  0
LINE
  5
F9
330
1F
100
AcDbEntity
  8
0
  6
SLD-Solid
 62
   142
420
    32960
370
     0
100
AcDbLine
 10
690.9702366413
 20
646.6520832042
 30
0.0
 11
690.9702366412
 21
648.1020832052
 31
0.0
  0
LINE
  5
FA
330
1F
100
AcDbEntity
  8
0
  6
SLD-Solid
 62
   142
420
    32960
370
     0
100
AcDbLine
 10
690.9702366412
 20
661.8520832021
 30
0.0
 11
690.9702366412
 21
648.1020832052
 31
0.0
  0
LINE
  5
FB
330
1F
100
AcDbEntity
  8
0
  6
SLD-Solid
 62
     7
370
    15
100
AcDbLine
 10
870.0973822162
 20
429.1943982043
 30
0.0
 11
869.9930919056
 21
429.153546101
 31
0.0
  0
LINE
  5
FC
330
1F
100
AcDbEntity
  8
0
  6
SLD-Solid
 62
     7
370
    15
100
AcDbLine
 10
883.4444782682
 20
458.4036020083
 30
0.0
 11
883.7646627402
 21
458.4035721321
 31
0.0
  0
SPLINE
  5
FD
330
1F
100
AcDbEntity
  8
0
  6
SLD-Solid
 62
     7
370
    15
100
AcDbSpline
210
0.0
220
0.0
230
1.0
 70
     8
 71
     3
 72
    12
 73
     8
 74
     0
 42
0.00000001
 43
0.00000001
 40
0.75
 40
0.75
 40
0.75
 40
0.75
 40
0.8125
 40
0.8125
 40
0.875
 40
0.875
 40
1.0
 40
1.0
 40
1.0
 40
1.0
 10
872.4132481751557
 20
458.2602577140768
 30
0.0
 10
872.2170026685767
 20
458.3213073862436
 30
0.0
 10
872.0175396052932
 20
458.3734155394669
 30
0.0
 10
871.6182546904852
 20
458.4585437440989
 30
0.0
 10
871.4175673364367
 20
458.4918444183415
 30
0.0
 10
870.8124163231558
 20
458.5643616495864
 30
0.0
 10
870.4048703016985
 20
458.576418373899
 30
0.0
 10
869.9930919055913
 20
458.5506203074838
 30
0.0
  0
SPLINE
  5
FE
330
1F
100
AcDbEntity
  8
0
  6
SLD-Solid
 62
     7
370
    15
100
AcDbSpline
210
0.0
220
0.0
230
1.0
 70
     8
 71
     3
 72
    12
 73
     8
 74
     0
 42
0.00000001
 43
0.00000001
 40
0.75
 40
0.75
 40
0.75
 40
0.75
 40
0.8125
 40
0.8125
 40
0.875
 40
0.875
 40
1.0
 40
1.0
 40
1.0
 40
1.0
 10
872.4132481751474
 20
429.4439086943826
 30
0.0
 10
872.2170026685684
 20
429.3828590222159
 30
0.0
 10
872.017539605289
 20
429.330750868994
 30
0.0
 10
871.6182546904851
 20
429.2456226643628
 30
0.0
 10
871.4175673364366
 20
429.2123219901201
 30
0.0
 10
870.8124163231557
 20
429.1398047588752
 30
0.0
 10
870.4048703016983
 20
429.1277480345627
 30
0.0
 10
869.9930919055912
 20
429.1535461009779
 30
0.0
  0
SPLINE
  5
FF
330
1F
100
AcDbEntity
  8
0
  6
SLD-Solid
 62
     7
370
    15
100
AcDbSpline
210
0.0
220
0.0
230
1.0
 70
     8
 71
     3
 72
    26
 73
    22
 74
     0
 42
0.00000001
 43
0.00000001
 40
0.0
 40
0.0
 40
0.0
 40
0.0
 40
0.0273633368393256
 40
0.0548360898638625
 40
0.0824191384445162
 40
0.1101133609737333
 40
0.1379196348978809
 40
0.1658388367487738
 40
0.1938718421752254
 40
0.2220195259748628
 40
0.2502827621272936
 40
0.3723728258291195
 40
0.500067271455207
 40
0.6191344571856421
 40
0.7498737078546085
 40
0.7815261864260257
 40
0.8171857489089539
 40
0.8568572283825102
 40
0.9005460197813991
 40
0.948258092230095
 40
1.0
 40
1.0
 40
1.0
 40
1.0
 10
891.7778664576496
 20
434.6830073925951
 30
0.0
 10
891.7587096226379
 20
434.5944895362865
 30
0.0
 10
891.720319351291
 20
434.4170998724599
 30
0.0
 10
891.6494755691275
 20
434.153625454749
 30
0.0
 10
891.568777556479
 20
433.8919299489901
 30
0.0
 10
891.4772736634791
 20
433.6326439216002
 30
0.0
 10
891.3752396923051
 20
433.3761526796436
 30
0.0
 10
891.262642280289
 20
433.1229117638343
 30
0.0
 10
891.1395587357856
 20
432.8733665303052
 30
0.0
 10
891.0060453568557
 20
432.6279522659176
 30
0.0
 10
890.7033167818373
 20
432.1210594646109
 30
0.0
 10
890.1471347431577
 20
431.3824541555298
 30
0.0
 10
889.2478294374662
 20
430.5490136208022
 30
0.0
 10
888.1941668948949
 20
429.8700932861744
 30
0.0
 10
887.3297454422151
 20
429.5094398858955
 30
0.0
 10
886.70045230444
 20
429.3281334449237
 30
0.0
 10
886.3561235097644
 20
429.2464217828385
 30
0.0
 10
885.9687163228762
 20
429.1758566556028
 30
0.0
 10
885.5381831339796
 20
429.1238744741251
 30
0.0
 10
885.0650674386551
 20
429.0951017144699
 30
0.0
 10
884.7360708691434
 20
429.1045856450799
 30
0.0
 10
884.564907179979
 20
429.1095197529137
 30
0.0
  0
SPLINE
  5
100
330
1F
100
AcDbEntity
  8
0
  6
SLD-Solid
 62
     7
370
    15
100
AcDbSpline
210
0.0
220
0.0
230
1.0
 70
     8
 71
     3
 72
    26
 73
    22
 74
     0
 42
0.00000001
 43
0.00000001
 40
0.0
 40
0.0
 40
0.0
 40
0.0
 40
0.0273623823797526
 40
0.0548344195311229
 40
0.0824169908493725
 40
0.1101109747513553
 40
0.1379172487073981
 40
0.1658366892738228
 40
0.193870172124093
 40
0.2220185720817
 40
0.2502827631531713
 40
0.3723677889030308
 40
0.5000672726350849
 40
0.6191293059301561
 40
0.7498737071981483
 40
0.7815240527163436
 40
0.8171823341730764
 40
0.856853385406567
 40
0.9005426023346007
 40
0.9482559552930211
 40
1.0
 40
1.0
 40
1.0
 40
1.0
 10
891.7778664576495
 20
453.0211590158771
 30
0.0
 10
891.7587103249963
 20
453.1096737902063
 30
0.0
 10
891.7203212914712
 20
453.287058061901
 30
0.0
 10
891.6494798651984
 20
453.5505257397151
 30
0.0
 10
891.5687839541409
 20
453.8122169269859
 30
0.0
 10
891.4772816859945
 20
454.0715010074581
 30
0.0
 10
891.3752485851375
 20
454.3279925909965
 30
0.0
 10
891.2626510281451
 20
454.5812360343288
 30
0.0
 10
891.1395660668978
 20
454.8307858581978
 30
0.0
 10
891.0060497529248
 20
455.0762066272871
 30
0.0
 10
890.7033272324228
 20
455.5830901402809
 30
0.0
 10
890.1471462931224
 20
456.3216995148359
 30
0.0
 10
889.2478559684341
 20
457.1551321587893
 30
0.0
 10
888.1941824719869
 20
457.8340650095391
 30
0.0
 10
887.3297683426971
 20
458.1947190778434
 30
0.0
 10
886.7004699865983
 20
458.3760280592264
 30
0.0
 10
886.356153892511
 20
458.4577381301922
 30
0.0
 10
885.9687512571948
 20
458.5283044763353
 30
0.0
 10
885.5382141440709
 20
458.5802893532661
 30
0.0
 10
885.065085838885
 20
458.6090648036433
 30
0.0
 10
884.7360779471479
 20
458.5995808234299
 30
0.0
 10
884.5649071799793
 20
458.5946466555584
 30
0.0
  0
LINE
  5
101
330
1F
100
AcDbEntity
  8
0
  6
SLD-Solid
 62
     7
370
    15
100
AcDbLine
 10
891.598881363
 20
453.1707809879
 30
0.0
 11
891.7778664576
 21
453.0211590159
 31
0.0
  0
LINE
  5
102
330
1F
100
AcDbEntity
  8
0
  6
SLD-Solid
 62
     7
370
    15
100
AcDbLine
 10
891.7778664576
 20
434.6830073926
 30
0.0
 11
891.5988645506
 21
434.5333855167
 31
0.0
  0
LINE
  5
103
330
1F
100
AcDbEntity
  8
0
  6
SLD-Solid
 62
   142
420
    32960
370
     0
100
AcDbLine
 10
779.0127523447
 20
504.6020832042
 30
0.0
 11
779.0127523447
 21
507.4020832042
 31
0.0
  0
LINE
  5
104
330
1F
100
AcDbEntity
  8
0
  6
SLD-Solid
 62
   142
420
    32960
370
     0
100
AcDbLine
 10
779.0127523447
 20
504.6020832042
 30
0.0
 11
779.0127523447
 21
507.4020832042
 31
0.0
  0
LINE
  5
105
330
1F
100
AcDbEntity
  8
0
  6
SLD-Solid
 62
   142
420
    32960
370
     0
100
AcDbLine
 10
779.0127523447
 20
504.6020832042
 30
0.0
 11
779.0127523447
 21
507.4020832042
 31
0.0
  0
LINE
  5
106
330
1F
100
AcDbEntity
  8
0
  6
SLD-Solid
 62
   142
420
    32960
370
     0
100
AcDbLine
 10
821.6127523447
 20
499.8520832042
 30
0.0
 11
829.4127523447
 21
499.8520832042
 31
0.0
  0
LINE
  5
107
330
1F
100
AcDbEntity
  8
0
  6
SLD-Solid
 62
   142
420
    32960
370
     0
100
AcDbLine
 10
823.2658226848
 20
546.7795171886
 30
0.0
 11
822.9940029951
 21
546.8777168195
 31
0.0
  0
LINE
  5
108
330
1F
100
AcDbEntity
  8
0
  6
SLD-Solid
 62
   142
420
    32960
370
     0
100
AcDbLine
 10
827.9683571422
 20
545.0806441275
 30
0.0
 11
823.2658226848
 21
546.7795171886
 31
0.0
  0
LINE
  5
109
330
1F
100
AcDbEntity
  8
0
  6
SLD-Solid
 62
     7
370
    15
100
AcDbLine
 10
845.7181464047
 20
538.6682214029
 30
0.0
 11
827.9683571422
 21
545.0806441275
 31
0.0
  0
LINE
  5
10A
330
1F
100
AcDbEntity
  8
0
  6
SLD-Solid
 62
   142
420
    32960
370
     0
100
AcDbLine
 10
823.5376423746
 20
547.5319227017
 30
0.0
 11
823.2658226848
 21
547.6301223327
 31
0.0
  0
LINE
  5
10B
330
1F
100
AcDbEntity
  8
0
  6
SLD-Solid
 62
     7
370
    15
100
AcDbLine
 10
845.9899660944
 20
539.4206269161
 30
0.0
 11
828.2401768319
 21
545.8330496407
 31
0.0
  0
LINE
  5
10C
330
1F
100
AcDbEntity
  8
0
  6
SLD-Solid
 62
   142
420
    32960
370
     0
100
AcDbLine
 10
823.5376423746
 20
547.5319227017
 30
0.0
 11
828.2401768319
 21
545.8330496407
 31
0.0
  0
ARC
  5
10D
330
1F
100
AcDbEntity
  8
0
  6
SLD-Solid
 62
     7
370
    15
100
AcDbCircle
 10
842.3204002826
 20
529.2631524883
 30
0.0
 40
10.00000000000001
100
AcDbArc
 50
320.1368571726
 51
70.1368571726
  0
ARC
  5
10E
330
1F
100
AcDbEntity
  8
0
  6
SLD-Solid
 62
     7
370
    15
100
AcDbCircle
 10
842.3204002826
 20
529.2631524883
 30
0.0
 40
10.80000000000014
100
AcDbArc
 50
320.1368571726
 51
70.1368571726
  0
LINE
  5
10F
330
1F
100
AcDbEntity
  8
0
  6
SLD-Solid
 62
   142
420
    32960
370
     0
100
AcDbLine
 10
850.6102386234
 20
522.3408277137
 30
0.0
 11
849.996176524
 21
522.8535925119
 31
0.0
  0
LINE
  5
110
330
1F
100
AcDbEntity
  8
0
  6
SLD-Solid
 62
   142
420
    32960
370
     0
100
AcDbLine
 10
842.9610425151
 20
514.428659337
 30
0.0
 11
844.2429545103
 21
515.9638145853
 31
0.0
  0
LINE
  5
111
330
1F
100
AcDbEntity
  8
0
  6
SLD-Solid
 62
   142
420
    32960
370
     0
100
AcDbLine
 10
844.2429545103
 20
515.9638145853
 30
0.0
 11
849.996176524
 21
522.8535925119
 31
0.0
  0
LINE
  5
112
330
1F
100
AcDbEntity
  8
0
  6
SLD-Solid
 62
   142
420
    32960
370
     0
100
AcDbLine
 10
844.8570166097
 20
515.4510497872
 30
0.0
 11
850.6102386234
 21
522.3408277137
 31
0.0
  0
LINE
  5
113
330
1F
100
AcDbEntity
  8
0
  6
SLD-Solid
 62
   142
420
    32960
370
     0
100
AcDbLine
 10
844.8570166097
 20
515.4510497872
 30
0.0
 11
843.5751046144
 21
513.9158945389
 31
0.0
  0
LINE
  5
114
330
1F
100
AcDbEntity
  8
0
  6
SLD-Solid
 62
   142
420
    32960
370
     0
100
AcDbLine
 10
828.2401768319
 20
545.8330496407
 30
0.0
 11
827.9683571422
 21
545.0806441275
 31
0.0
  0
LINE
  5
115
330
1F
100
AcDbEntity
  8
0
  6
SLD-Solid
 62
   142
420
    32960
370
     0
100
AcDbLine
 10
843.5751046144
 20
513.9158945389
 30
0.0
 11
842.9610425151
 21
514.428659337
 31
0.0
  0
ARC
  5
116
330
1F
100
AcDbEntity
  8
0
  6
SLD-Solid
 62
   142
420
    32960
370
     0
100
AcDbCircle
 10
822.5692847298
 20
545.7020832052
 30
0.0
 40
2.049999999999955
100
AcDbArc
 50
70.1368571726
 51
90.0
  0
LINE
  5
117
330
1F
100
AcDbEntity
  8
0
  6
SLD-Solid
 62
     7
370
    15
100
AcDbLine
 10
152.0127523575
 20
663.8520832075
 30
0.0
 11
152.0127523575
 21
683.8520832052
 31
0.0
  0
LINE
  5
118
330
1F
100
AcDbEntity
  8
0
  6
SLD-Solid
 62
     7
370
    15
100
AcDbLine
 10
714.0127523575
 20
662.6420832017
 30
0.0
 11
714.0127523575
 21
662.6520832016
 31
0.0
  0
LINE
  5
119
330
1F
100
AcDbEntity
  8
0
  6
SLD-Solid
 62
     7
370
    15
100
AcDbLine
 10
714.0127523575
 20
663.8520832016
 30
0.0
 11
714.0127523575
 21
683.8520832052
 31
0.0
  0
LINE
  5
11A
330
1F
100
AcDbEntity
  8
0
  6
SLD-Solid
 62
     7
370
    15
100
AcDbLine
 10
152.0127523575
 20
683.8520832052
 30
0.0
 11
714.0127523575
 21
683.8520832052
 31
0.0
  0
LINE
  5
11B
330
1F
100
AcDbEntity
  8
0
  6
SLD-Solid
 62
   142
420
    32960
370
     0
100
AcDbLine
 10
172.2110839286
 20
661.8520832052
 30
0.0
 11
175.5127523637
 21
661.8520832052
 31
0.0
  0
LINE
  5
11C
330
1F
100
AcDbEntity
  8
0
  6
SLD-Solid
 62
   142
420
    32960
370
     0
100
AcDbLine
 10
690.5127523637
 20
661.8520832052
 30
0.0
 11
693.8072870743
 21
661.8520832052
 31
0.0
  0
LINE
  5
11D
330
1F
100
AcDbEntity
  8
0
  6
SLD-Solid
 62
     7
370
    15
100
AcDbLine
 10
783.7127523447
 20
-26.4979167958
 30
0.0
 11
783.7127523447
 21
490.2020832042
 31
0.0
  0
SPLINE
  5
11E
330
1F
100
AcDbEntity
  8
0
  6
SLD-Solid
 62
   142
420
    32960
370
     0
100
AcDbSpline
210
0.0
220
0.0
230
1.0
 70
     8
 71
     3
 72
    12
 73
     8
 74
     0
 42
0.00000001
 43
0.00000001
 40
0.0
 40
0.0
 40
0.0
 40
0.0
 40
0.1622307853863691
 40
0.4106775957261616
 40
0.6591247578680682
 40
0.9075717193365769
 40
1.0
 40
1.0
 40
1.0
 40
1.0
 10
785.5127523447429
 20
-27.5836501340947
 30
0.0
 10
785.3530822172927
 20
-27.52491648625466
 30
0.0
 10
784.9488867750132
 20
-27.37623574587777
 30
0.0
 10
784.3840449343678
 20
-27.13756449098875
 30
0.0
 10
783.9186604284587
 20
-26.86786702352445
 30
0.0
 10
783.7301637445848
 20
-26.65405877422222
 30
0.0
 10
783.7164663827479
 20
-26.53122355153425
 30
0.0
 10
783.712752344743
 20
-26.49791679576358
 30
0.0
  0
SPLINE
  5
11F
330
1F
100
AcDbEntity
  8
0
  6
SLD-Solid
 62
   142
420
    32960
370
     0
100
AcDbSpline
210
0.0
220
0.0
230
1.0
 70
     8
 71
     3
 72
    11
 73
     7
 74
     0
 42
0.00000001
 43
0.00000001
 40
0.0
 40
0.0
 40
0.0
 40
0.0
 40
0.2716412431748744
 40
0.5432824863497231
 40
0.8149237295245626
 40
1.0
 40
1.0
 40
1.0
 40
1.0
 10
783.7127523447431
 20
490.2020832042363
 30
0.0
 10
783.7434692760417
 20
490.3003573143932
 30
0.0
 10
783.8049031386386
 20
490.4969055347068
 30
0.0
 10
784.2804309192733
 20
490.7917278651768
 30
0.0
 10
784.8810863322274
 20
491.0552328022966
 30
0.0
 10
785.3305966544344
 20
491.2204636292594
 30
0.0
 10
785.5127523447413
 20
491.2874203460655
 30
0.0
  0
SPLINE
  5
120
330
1F
100
AcDbEntity
  8
0
  6
SLD-Solid
 62
     7
370
    15
100
AcDbSpline
210
0.0
220
0.0
230
1.0
 70
     8
 71
     3
 72
    11
 73
     7
 74
     0
 42
0.00000001
 43
0.00000001
 40
0.0
 40
0.0
 40
0.0
 40
0.0
 40
0.271641243174741
 40
0.5432824863494862
 40
0.8149237295242419
 40
1.0
 40
1.0
 40
1.0
 40
1.0
 10
783.7127523447431
 20
-26.49791679576352
 30
0.0
 10
783.7434692760417
 20
-26.76683370085509
 30
0.0
 10
783.8049031386385
 20
-27.30466751103822
 30
0.0
 10
784.2804309192734
 20
-27.97792015275619
 30
0.0
 10
784.8810863322279
 20
-28.41644738040439
 30
0.0
 10
785.3305966544355
 20
-28.47461667864521
 30
0.0
 10
785.5127523447429
 20
-28.49818870391868
 30
0.0
  0
SPLINE
  5
121
330
1F
100
AcDbEntity
  8
0
  6
SLD-Solid
 62
   142
420
    32960
370
     0
100
AcDbSpline
210
0.0
220
0.0
230
1.0
 70
     8
 71
     3
 72
    10
 73
     6
 74
     0
 42
0.00000001
 43
0.00000001
 40
0.0
 40
0.0
 40
0.0
 40
0.0
 40
0.0939234129706431
 40
0.7072251820364979
 40
1.0
 40
1.0
 40
1.0
 40
1.0
 10
784.8373720927933
 20
-27.31969595895129
 30
0.0
 10
784.8507676858208
 20
-27.340695590306
 30
0.0
 10
784.951633917335
 20
-27.49881876362137
 30
0.0
 10
785.1992783796851
 20
-27.65068303558155
 30
0.0
 10
785.4361980005817
 20
-27.68658721324046
 30
0.0
 10
785.5127523447429
 20
-27.69818870391871
 30
0.0
  0
LINE
  5
122
330
1F
100
AcDbEntity
  8
0
  6
SLD-Solid
 62
     7
370
    15
100
AcDbLine
 10
778.5127523447
 20
628.8520832017
 30
0.0
 11
794.7519131606
 21
628.8520832017
 31
0.0
  0
LINE
  5
123
330
1F
100
AcDbEntity
  8
0
  6
SLD-Solid
 62
   142
420
    32960
370
     0
100
AcDbLine
 10
776.5127523447
 20
628.8520832017
 30
0.0
 11
778.5127523447
 21
628.8520832017
 31
0.0
  0
LINE
  5
124
330
1F
100
AcDbEntity
  8
0
  6
SLD-Solid
 62
   142
420
    32960
370
     0
100
AcDbLine
 10
778.5127523447
 20
628.8520832017
 30
0.0
 11
778.5127523447
 21
628.0520832017
 31
0.0
  0
LINE
  5
125
330
1F
100
AcDbEntity
  8
0
  6
SLD-Solid
 62
   142
420
    32960
370
     0
100
AcDbLine
 10
778.5127523447
 20
628.0520832017
 30
0.0
 11
794.7519131606
 21
628.0520832017
 31
0.0
  0
LINE
  5
126
330
1F
100
AcDbEntity
  8
0
  6
SLD-Solid
 62
   142
420
    32960
370
     0
100
AcDbLine
 10
794.7519131606
 20
628.0520832017
 30
0.0
 11
794.7519131606
 21
628.8520832017
 31
0.0
  0
LINE
  5
127
330
1F
100
AcDbEntity
  8
0
  6
SLD-Solid
 62
   142
420
    32960
370
     0
100
AcDbLine
 10
124.7627524505
 20
683.0520832075
 30
0.0
 11
124.7627524505
 21
682.5520832075
 31
0.0
  0
LINE
  5
128
330
1F
100
AcDbEntity
  8
0
  6
SLD-Solid
 62
     7
370
    15
100
AcDbLine
 10
797.056905775
 20
630.1607862954
 30
0.0
 11
820.552040362
 21
640.3767615652
 31
0.0
  0
LINE
  5
129
330
1F
100
AcDbEntity
  8
0
  6
SLD-Solid
 62
   142
420
    32960
370
     0
100
AcDbLine
 10
693.7227523472
 20
661.4020832017
 30
0.0
 11
693.7227523472
 21
648.7020832016
 31
0.0
  0
ARC
  5
12A
330
1F
100
AcDbEntity
  8
0
  6
SLD-Solid
 62
     7
370
    15
100
AcDbCircle
 10
694.9627523472
 20
661.4020832017
 30
0.0
 40
1.240000000000123
100
AcDbArc
 50
90.0
 51
180.0
  0
LINE
  5
12B
330
1F
100
AcDbEntity
  8
0
  6
SLD-Solid
 62
     7
370
    15
100
AcDbLine
 10
716.7627523472
 20
662.6420832017
 30
0.0
 11
694.9627523472
 21
662.6420832017
 31
0.0
  0
ARC
  5
12C
330
1F
100
AcDbEntity
  8
0
  6
SLD-Solid
 62
   142
420
    32960
370
     0
100
AcDbCircle
 10
716.7627523472
 20
665.1020832017
 30
0.0
 40
2.460000000000036
100
AcDbArc
 50
270.0
 51
0.0
  0
LINE
  5
12D
330
1F
100
AcDbEntity
  8
0
  6
SLD-Solid
 62
     7
370
    15
100
AcDbLine
 10
719.2227523472
 20
681.3520832016
 30
0.0
 11
719.2227523472
 21
665.1020832017
 31
0.0
  0
LINE
  5
12E
330
1F
100
AcDbEntity
  8
0
  6
SLD-Solid
 62
   142
420
    32960
370
     0
100
AcDbLine
 10
720.4627523472
 20
681.3520832016
 30
0.0
 11
719.2227523472
 21
681.3520832016
 31
0.0
  0
LINE
  5
12F
330
1F
100
AcDbEntity
  8
0
  6
SLD-Solid
 62
   142
420
    32960
370
     0
100
AcDbLine
 10
720.4627523472
 20
681.4020832016
 30
0.0
 11
720.4627523472
 21
681.3520832016
 31
0.0
  0
LINE
  5
130
330
1F
100
AcDbEntity
  8
0
  6
SLD-Solid
 62
   142
420
    32960
370
     0
100
AcDbLine
 10
811.7795608457
 20
681.3520832016
 30
0.0
 11
811.7795608457
 21
681.4020832016
 31
0.0
  0
LINE
  5
131
330
1F
100
AcDbEntity
  8
0
  6
SLD-Solid
 62
   142
420
    32960
370
     0
100
AcDbLine
 10
812.2795608457
 20
681.3520832016
 30
0.0
 11
811.7795608457
 21
681.3520832016
 31
0.0
  0
LINE
  5
132
330
1F
100
AcDbEntity
  8
0
  6
SLD-Solid
 62
   142
420
    32960
370
     0
100
AcDbLine
 10
812.2795608457
 20
682.5464006496
 30
0.0
 11
812.2795608457
 21
681.3520832016
 31
0.0
  0
ARC
  5
133
330
1F
100
AcDbEntity
  8
0
  6
SLD-Solid
 62
     7
370
    15
100
AcDbCircle
 10
811.7795608457
 20
660.5520832017
 30
0.0
 40
21.99999999999999
100
AcDbArc
 50
293.5
 51
88.6977110648
  0
LINE
  5
134
330
1F
100
AcDbEntity
  8
0
  6
SLD-Solid
 62
   142
420
    32960
370
     0
100
AcDbLine
 10
797.056905775
 20
630.1607862954
 30
0.0
 11
797.056905775
 21
631.3020832016
 31
0.0
  0
ARC
  5
135
330
1F
100
AcDbEntity
  8
0
  6
SLD-Solid
 62
   142
420
    32960
370
     0
100
AcDbCircle
 10
796.931905775
 20
631.3020832016
 30
0.0
 40
0.125
100
AcDbArc
 50
0.0
 51
180.0
  0
LINE
  5
136
330
1F
100
AcDbEntity
  8
0
  6
SLD-Solid
 62
   142
420
    32960
370
     0
100
AcDbLine
 10
776.6127523472
 20
648.7520832016
 30
0.0
 11
776.6127523472
 21
631.3020832016
 31
0.0
  0
LINE
  5
137
330
1F
100
AcDbEntity
  8
0
  6
SLD-Solid
 62
   142
420
    32960
370
     0
100
AcDbLine
 10
776.6023167396
 20
648.7520832016
 30
0.0
 11
776.6127523472
 21
648.7520832016
 31
0.0
  0
ARC
  5
138
330
1F
100
AcDbEntity
  8
0
  6
SLD-Solid
 62
   142
420
    32960
370
     0
100
AcDbCircle
 10
776.4877523472
 20
648.7020832016
 30
0.0
 40
0.1250000000000312
100
AcDbArc
 50
23.5781784782
 51
156.4218215218
  0
LINE
  5
139
330
1F
100
AcDbEntity
  8
0
  6
SLD-Solid
 62
   142
420
    32960
370
     0
100
AcDbLine
 10
776.3627523472
 20
648.7520832016
 30
0.0
 11
776.3731879548
 21
648.7520832016
 31
0.0
  0
LINE
  5
13A
330
1F
100
AcDbEntity
  8
0
  6
SLD-Solid
 62
   142
420
    32960
370
     0
100
AcDbLine
 10
776.3627523472
 20
648.7020832016
 30
0.0
 11
776.3627523472
 21
648.7520832016
 31
0.0
  0
ARC
  5
13B
330
1F
100
AcDbEntity
  8
0
  6
SLD-Solid
 62
   142
420
    32960
370
     0
100
AcDbCircle
 10
799.7716239835
 20
645.2448828404
 30
0.0
 40
0.25000000000004
100
AcDbArc
 50
99.9421486626
 51
279.9421486627
  0
ARC
  5
13C
330
1F
100
AcDbEntity
  8
0
  6
SLD-Solid
 62
   142
420
    32960
370
     0
100
AcDbCircle
 10
799.2795608457
 20
648.0520832017
 30
0.0
 40
3.100000000000181
100
AcDbArc
 50
279.9421486627
 51
80.0578513373
  0
ARC
  5
13D
330
1F
100
AcDbEntity
  8
0
  6
SLD-Solid
 62
   142
420
    32960
370
     0
100
AcDbCircle
 10
799.7716239835
 20
650.8592835629
 30
0.0
 40
0.2500000000000596
100
AcDbArc
 50
80.0578513373
 51
260.0578513373
  0
ARC
  5
13E
330
1F
100
AcDbEntity
  8
0
  6
SLD-Solid
 62
     7
370
    15
100
AcDbCircle
 10
799.2795608457
 20
648.0520832017
 30
0.0
 40
2.600000000000062
100
AcDbArc
 50
279.9421486627
 51
80.0578513373
  0
ARC
  5
13F
330
1F
100
AcDbEntity
  8
0
  6
SLD-Solid
 62
   142
420
    32960
370
     0
100
AcDbCircle
 10
798.7874977078
 20
650.8592835629
 30
0.0
 40
0.2500000000000793
100
AcDbArc
 50
279.9421486627
 51
99.9421486626
  0
ARC
  5
140
330
1F
100
AcDbEntity
  8
0
  6
SLD-Solid
 62
   142
420
    32960
370
     0
100
AcDbCircle
 10
799.2795608457
 20
648.0520832017
 30
0.0
 40
3.100000000000049
100
AcDbArc
 50
99.9421486627
 51
260.0578513373
  0
ARC
  5
141
330
1F
100
AcDbEntity
  8
0
  6
SLD-Solid
 62
   142
420
    32960
370
     0
100
AcDbCircle
 10
798.7874977078
 20
645.2448828404
 30
0.0
 40
0.2500000000000793
100
AcDbArc
 50
260.0578513374
 51
80.0578513373
  0
ARC
  5
142
330
1F
100
AcDbEntity
  8
0
  6
SLD-Solid
 62
   142
420
    32960
370
     0
100
AcDbCircle
 10
799.2795608457
 20
648.0520832017
 30
0.0
 40
2.600000000000042
100
AcDbArc
 50
99.9421486627
 51
260.0578513373
  0
LINE
  5
143
330
1F
100
AcDbEntity
  8
0
  6
SLD-Solid
 62
   142
420
    32960
370
     0
100
AcDbLine
 10
693.7227523472
 20
646.5221529223
 30
0.0
 11
693.7227523472
 21
648.7020832016
 31
0.0
  0
LINE
  5
144
330
1F
100
AcDbEntity
  8
0
  6
SLD-Solid
 62
   142
420
    32960
370
     0
100
AcDbLine
 10
776.3627523472
 20
646.2520832016
 30
0.0
 11
775.1853710645
 21
646.2520832016
 31
0.0
  0
LINE
  5
145
330
1F
100
AcDbEntity
  8
0
  6
SLD-Solid
 62
   142
420
    32960
370
     0
100
AcDbLine
 10
776.3627523472
 20
648.7020832016
 30
0.0
 11
776.3627523472
 21
646.2520832016
 31
0.0
  0
LINE
  5
146
330
1F
100
AcDbEntity
  8
0
  6
SLD-Solid
 62
   142
420
    32960
370
     0
100
AcDbLine
 10
776.6127523472
 20
628.8520832016
 30
0.0
 11
776.6127523472
 21
631.3020832016
 31
0.0
  0
LINE
  5
147
330
1F
100
AcDbEntity
  8
0
  6
SLD-Solid
 62
   142
420
    32960
370
     0
100
AcDbLine
 10
794.7519131606
 20
628.8520832016
 30
0.0
 11
796.806905775
 21
628.8520832016
 31
0.0
  0
LINE
  5
148
330
1F
100
AcDbEntity
  8
0
  6
SLD-Solid
 62
   142
420
    32960
370
     0
100
AcDbLine
 10
796.806905775
 20
631.3020832016
 30
0.0
 11
796.806905775
 21
628.8520832016
 31
0.0
  0
LINE
  5
149
330
1F
100
AcDbEntity
  8
0
  6
SLD-Solid
 62
     7
370
    15
100
AcDbLine
 10
720.4627523472
 20
681.4020832016
 30
0.0
 11
720.4627523472
 21
683.8520832016
 31
0.0
  0
LINE
  5
14A
330
1F
100
AcDbEntity
  8
0
  6
SLD-Solid
 62
     7
370
    15
100
AcDbLine
 10
720.4627523472
 20
683.8520832016
 30
0.0
 11
811.7795608457
 21
683.8520832016
 31
0.0
  0
LINE
  5
14B
330
1F
100
AcDbEntity
  8
0
  6
SLD-Solid
 62
   142
420
    32960
370
     0
100
AcDbLine
 10
811.7795608457
 20
683.8520832016
 30
0.0
 11
811.7795608457
 21
681.4020832016
 31
0.0
  0
ARC
  5
14C
330
1F
100
AcDbEntity
  8
0
  6
SLD-Solid
 62
     7
370
    15
100
AcDbCircle
 10
811.7795608457
 20
660.5520832016
 30
0.0
 40
23.30000000000002
100
AcDbArc
 50
293.5
 51
88.7703824493
  0
ARC
  5
14D
330
1F
100
AcDbEntity
  8
0
  6
SLD-Solid
 62
   142
420
    32960
370
     0
100
AcDbCircle
 10
811.7795608457
 20
660.5520832016
 30
0.0
 40
23.30000000000002
100
AcDbArc
 50
88.7703824493
 51
90.0
  0
LINE
  5
14E
330
1F
100
AcDbEntity
  8
0
  6
SLD-Solid
 62
   142
420
    32960
370
     0
100
AcDbLine
 10
718.0127523472
 20
681.4020832016
 30
0.0
 11
718.0127523472
 21
665.1020832016
 31
0.0
  0
LINE
  5
14F
330
1F
100
AcDbEntity
  8
0
  6
SLD-Solid
 62
   142
420
    32960
370
     0
100
AcDbLine
 10
812.2795608457
 20
682.6464263691
 30
0.0
 11
812.2795608457
 21
683.846717777
 31
0.0
  0
ARC
  5
150
330
1F
100
AcDbEntity
  8
0
  6
SLD-Solid
 62
   142
420
    32960
370
     0
100
AcDbCircle
 10
811.7795608457
 20
660.5520832016
 30
0.0
 40
22.1
100
AcDbArc
 50
293.5
 51
88.703604783
  0
LINE
  5
151
330
1F
100
AcDbEntity
  8
0
  6
SLD-Solid
 62
   142
420
    32960
370
     0
100
AcDbLine
 10
821.0704141516
 20
639.1845834685
 30
0.0
 11
820.5919152689
 21
640.2850555577
 31
0.0
  0
LINE
  5
152
330
1F
100
AcDbEntity
  8
0
  6
SLD-Solid
 62
   142
420
    32960
370
     0
100
AcDbLine
 10
798.816371473
 20
629.5082503189
 30
0.0
 11
821.0704141516
 21
639.1845834685
 31
0.0
  0
LINE
  5
153
330
1F
100
AcDbEntity
  8
0
  6
SLD-Solid
 62
   142
420
    32960
370
     0
100
AcDbLine
 10
798.816371473
 20
629.5082503189
 30
0.0
 11
797.8993113986
 21
629.10950125
 31
0.0
  0
ARC
  5
154
330
1F
100
AcDbEntity
  8
0
  6
SLD-Solid
 62
   142
420
    32960
370
     0
100
AcDbCircle
 10
720.4627523472
 20
681.4020832016
 30
0.0
 40
2.450000000000045
100
AcDbArc
 50
90.0
 51
180.0
  0
LINE
  5
155
330
1F
100
AcDbEntity
  8
0
  6
SLD-Solid
 62
   142
420
    32960
370
     0
100
AcDbLine
 10
811.1767136317
 20
636.1912093731
 30
0.0
 11
811.6552125144
 21
635.0907372839
 31
0.0
  0
LINE
  5
156
330
1F
100
AcDbEntity
  8
0
  6
SLD-Solid
 62
   142
420
    32960
370
     0
100
AcDbLine
 10
806.5914132598
 20
634.1974640285
 30
0.0
 11
811.1767136317
 21
636.1912093731
 31
0.0
  0
LINE
  5
157
330
1F
100
AcDbEntity
  8
0
  6
SLD-Solid
 62
   142
420
    32960
370
     0
100
AcDbLine
 10
806.5914132598
 20
634.1974640285
 30
0.0
 11
807.0699121425
 21
633.0969919392
 31
0.0
  0
LINE
  5
158
330
1F
100
AcDbEntity
  8
0
  6
SLD-Solid
 62
   142
420
    32960
370
     0
100
AcDbLine
 10
806.5914132598
 20
634.1974640285
 30
0.0
 11
800.9056407986
 21
631.7252198012
 31
0.0
  0
LINE
  5
159
330
1F
100
AcDbEntity
  8
0
  6
SLD-Solid
 62
   142
420
    32960
370
     0
100
AcDbLine
 10
807.5800975842
 20
634.3533168812
 30
0.0
 11
801.1852793807
 21
631.5061603797
 31
0.0
  0
LINE
  5
15A
330
1F
100
AcDbEntity
  8
0
  6
SLD-Solid
 62
     7
370
    15
100
AcDbLine
 10
168.9108857558
 20
-200.5856215673
 30
0.0
 11
111.9108857558
 21
-200.5856215673
 31
0.0
  0
LINE
  5
15B
330
1F
100
AcDbEntity
  8
0
  6
SLD-Solid
 62
     7
370
    15
100
AcDbLine
 10
166.910885685
 20
-206.5856215673
 30
0.0
 11
113.9108857558
 21
-206.5856215673
 31
0.0
  0
LINE
  5
15C
330
1F
100
AcDbEntity
  8
0
  6
SLD-Solid
 62
   142
420
    32960
370
     0
100
AcDbLine
 10
775.0526830145
 20
646.0520832052
 30
0.0
 11
776.6127523472
 21
646.0520832052
 31
0.0
  0
SPLINE
  5
15D
330
1F
100
AcDbEntity
  8
0
  6
SLD-Solid
 62
   142
420
    32960
370
     0
100
AcDbSpline
210
0.0
220
0.0
230
1.0
 70
     8
 71
     3
 72
     9
 73
     5
 74
     0
 42
0.00000001
 43
0.00000001
 40
0.0
 40
0.0
 40
0.0
 40
0.0
 40
0.4963320672236915
 40
1.0
 40
1.0
 40
1.0
 40
1.0
 10
819.7791588208343
 20
581.0139655201498
 30
0.0
 10
819.4027502271481
 20
580.9444631856181
 30
0.0
 10
818.6443696619115
 20
580.8044312611842
 30
0.0
 10
817.8848991433318
 20
580.664719672211
 30
0.0
 10
817.5023781972343
 20
580.5943514250083
 30
0.0
  0
SPLINE
  5
15E
330
1F
100
AcDbEntity
  8
0
  6
SLD-Solid
 62
   142
420
    32960
370
     0
100
AcDbSpline
210
0.0
220
0.0
230
1.0
 70
     8
 71
     3
 72
     9
 73
     5
 74
     0
 42
0.00000001
 43
0.00000001
 40
0.0
 40
0.0
 40
0.0
 40
0.0
 40
0.499898107262343
 40
1.0
 40
1.0
 40
1.0
 40
1.0
 10
819.7149297611863
 20
581.7083980208893
 30
0.0
 10
819.7260258041277
 20
581.5925683405114
 30
0.0
 10
819.7482224133573
 20
581.3608617613206
 30
0.0
 10
819.7688452841281
 20
581.1296133088988
 30
0.0
 10
819.7791588208343
 20
581.0139655201497
 30
0.0
  0
SPLINE
  5
15F
330
1F
100
AcDbEntity
  8
0
  6
SLD-Solid
 62
   142
420
    32960
370
     0
100
AcDbSpline
210
0.0
220
0.0
230
1.0
 70
     8
 71
     3
 72
    12
 73
     8
 74
     0
 42
0.00000001
 43
0.00000001
 40
0.0
 40
0.0
 40
0.0
 40
0.0
 40
0.1251099641818082
 40
0.2501560287773452
 40
0.4998854219306335
 40
0.7498967401005096
 40
1.0
 40
1.0
 40
1.0
 40
1.0
 10
819.3171712432725
 20
582.1044391830455
 30
0.0
 10
819.325914312247
 20
582.0807411550757
 30
0.0
 10
819.3433959846966
 20
582.0333572028419
 30
0.0
 10
819.3928886175013
 20
581.9471938482818
 30
0.0
 10
819.4727850745213
 20
581.8548831211466
 30
0.0
 10
819.5873068526412
 20
581.7683982120624
 30
0.0
 10
819.6723832440059
 20
581.7284006872763
 30
0.0
 10
819.714929259967
 20
581.7083982482843
 30
0.0
  0
SPLINE
  5
160
330
1F
100
AcDbEntity
  8
0
  6
SLD-Solid
 62
   142
420
    32960
370
     0
100
AcDbSpline
210
0.0
220
0.0
230
1.0
 70
     8
 71
     3
 72
    16
 73
    12
 74
     0
 42
0.00000001
 43
0.00000001
 40
0.0
 40
0.0
 40
0.0
 40
0.0
 40
0.1250863805376946
 40
0.250099596820147
 40
0.3751035203423618
 40
0.5000746512833277
 40
0.6250242473268612
 40
0.7499427910612609
 40
0.8748498777441062
 40
0.9374198567272558
 40
1.0
 40
1.0
 40
1.0
 40
1.0
 10
819.7348221747553
 20
582.9477845424512
 30
0.0
 10
819.6974495445753
 20
582.930236307331
 30
0.0
 10
819.6227261438347
 20
582.8951501012261
 30
0.0
 10
819.5218247074262
 20
582.8182213812014
 30
0.0
 10
819.4320820729755
 20
582.7260212501097
 30
0.0
 10
819.3628503485381
 20
582.614464233963
 30
0.0
 10
819.312023322049
 20
582.4925687591066
 30
0.0
 10
819.2838012281181
 20
582.3623518522273
 30
0.0
 10
819.2857131767136
 20
582.2520411446254
 30
0.0
 10
819.2990065517579
 20
582.1661975476155
 30
0.0
 10
819.3111145513417
 20
582.1250313867532
 30
0.0
 10
819.3171690428198
 20
582.1044466346306
 30
0.0
  0
SPLINE
  5
161
330
1F
100
AcDbEntity
  8
0
  6
SLD-Solid
 62
   142
420
    32960
370
     0
100
AcDbSpline
210
0.0
220
0.0
230
1.0
 70
     8
 71
     3
 72
    17
 73
    13
 74
     0
 42
0.00000001
 43
0.00000001
 40
0.0
 40
0.0
 40
0.0
 40
0.0
 40
0.0625881928241839
 40
0.1251529137077484
 40
0.2501008805885744
 40
0.3750040730280392
 40
0.5000096249503964
 40
0.6250016255042329
 40
0.7499345076396056
 40
0.8748676060176388
 40
0.9374272079981422
 40
1.0
 40
1.0
 40
1.0
 40
1.0
 10
820.5592884938924
 20
582.5899468557917
 30
0.0
 10
820.5518710784517
 20
582.611037848068
 30
0.0
 10
820.537039029263
 20
582.6532119230376
 30
0.0
 10
820.4985020571867
 20
582.7328946267974
 30
0.0
 10
820.4354113473571
 20
582.8224545117521
 30
0.0
 10
820.3389332905904
 20
582.9076590850227
 30
0.0
 10
820.227816013419
 20
582.9684709288485
 30
0.0
 10
820.1073753599644
 20
583.0058320591079
 30
0.0
 10
819.9811932564622
 20
583.0122999382115
 30
0.0
 10
819.8764246037339
 20
582.9961514269916
 30
0.0
 10
819.7946636664857
 20
582.9717790383664
 30
0.0
 10
819.7547707403503
 20
582.9557832697865
 30
0.0
 10
819.7348221747553
 20
582.9477845424512
 30
0.0
  0
SPLINE
  5
162
330
1F
100
AcDbEntity
  8
0
  6
SLD-Solid
 62
   142
420
    32960
370
     0
100
AcDbSpline
210
0.0
220
0.0
230
1.0
 70
     8
 71
     3
 72
    13
 73
     9
 74
     0
 42
0.00000001
 43
0.00000001
 40
0.0
 40
0.0
 40
0.0
 40
0.0
 40
0.1252129687240263
 40
0.2503508891029583
 40
0.5000341053572215
 40
0.7496609058299256
 40
0.8747812225092853
 40
1.0
 40
1.0
 40
1.0
 40
1.0
 10
820.3832874338492
 20
581.8372718999302
 30
0.0
 10
820.4044821138707
 20
581.8630916119909
 30
0.0
 10
820.4468587705519
 20
581.9147155606655
 30
0.0
 10
820.5184082708446
 20
582.0291852498815
 30
0.0
 10
820.5814162212506
 20
582.1890138885881
 30
0.0
 10
820.6002154326927
 20
582.360111140988
 30
0.0
 10
820.5856783523411
 20
582.4939772252735
 30
0.0
 10
820.5680886986635
 20
582.5579439449218
 30
0.0
 10
820.5592904127335
 20
582.5899398841137
 30
0.0
  0
SPLINE
  5
163
330
1F
100
AcDbEntity
  8
0
  6
SLD-Solid
 62
   142
420
    32960
370
     0
100
AcDbSpline
210
0.0
220
0.0
230
1.0
 70
     8
 71
     3
 72
     9
 73
     5
 74
     0
 42
0.00000001
 43
0.00000001
 40
0.0
 40
0.0
 40
0.0
 40
0.0
 40
0.5000084574257257
 40
1.0
 40
1.0
 40
1.0
 40
1.0
 10
820.6338509397231
 20
581.0169150878083
 30
0.0
 10
820.5927578706139
 20
581.1534384851805
 30
0.0
 10
820.5105731225383
 20
581.4264806614563
 30
0.0
 10
820.4257155182943
 20
581.7003430312192
 30
0.0
 10
820.3832874338492
 20
581.8372718999302
 30
0.0
  0
SPLINE
  5
164
330
1F
100
AcDbEntity
  8
0
  6
SLD-Solid
 62
   142
420
    32960
370
     0
100
AcDbSpline
210
0.0
220
0.0
230
1.0
 70
     8
 71
     3
 72
    17
 73
    13
 74
     0
 42
0.00000001
 43
0.00000001
 40
0.0
 40
0.0
 40
0.0
 40
0.0
 40
0.0625702169189361
 40
0.1251279424568669
 40
0.2501349728727923
 40
0.3750873360729476
 40
0.5000457796182064
 40
0.6249919778469143
 40
0.7499544397767023
 40
0.8749053120345455
 40
0.9374472680349499
 40
1.0
 40
1.0
 40
1.0
 40
1.0
 10
821.2405761344348
 20
582.8643055029554
 30
0.0
 10
821.2527815569915
 20
582.8232654658564
 30
0.0
 10
821.277189965441
 20
582.7411935848014
 30
0.0
 10
821.3117553310996
 20
582.5722842576238
 30
0.0
 10
821.3339271099642
 20
582.3555387337382
 30
0.0
 10
821.3133951842839
 20
582.0920267061392
 30
0.0
 10
821.2514278634042
 20
581.8342289651159
 30
0.0
 10
821.1488142308085
 20
581.5897098167924
 30
0.0
 10
821.0070311297959
 20
581.3679466162232
 30
0.0
 10
820.8621109454102
 20
581.2072645664183
 30
0.0
 10
820.73469104796
 20
581.0938776646069
 30
0.0
 10
820.6674662394389
 20
581.0425707533091
 30
0.0
 10
820.6338509397231
 20
581.0169150878083
 30
0.0
  0
SPLINE
  5
165
330
1F
100
AcDbEntity
  8
0
  6
SLD-Solid
 62
   142
420
    32960
370
     0
100
AcDbSpline
210
0.0
220
0.0
230
1.0
 70
     8
 71
     3
 72
    17
 73
    13
 74
     0
 42
0.00000001
 43
0.00000001
 40
0.0
 40
0.0
 40
0.0
 40
0.0
 40
0.0625643078841592
 40
0.125108284799432
 40
0.2500544378946245
 40
0.3722205946401612
 40
0.49997753676501
 40
0.6249324855517977
 40
0.7498976924322655
 40
0.8748587485724367
 40
0.937418588252059
 40
1.0
 40
1.0
 40
1.0
 40
1.0
 10
819.4481635910671
 20
583.7067988264134
 30
0.0
 10
819.4918444725685
 20
583.7241671880894
 30
0.0
 10
819.5791920409823
 20
583.7588982673983
 30
0.0
 10
819.7588299158384
 20
583.8096958467997
 30
0.0
 10
819.9878249924767
 20
583.836666112693
 30
0.0
 10
820.263254340923
 20
583.8051597035486
 30
0.0
 10
820.5249979370705
 20
583.7132754102413
 30
0.0
 10
820.7667795138477
 20
583.5698971944236
 30
0.0
 10
820.975016156127
 20
583.3778237306717
 30
0.0
 10
821.1088375973536
 20
583.1777908384876
 30
0.0
 10
821.1925199424695
 20
583.0029698217749
 30
0.0
 10
821.2245555629943
 20
582.9105322540785
 30
0.0
 10
821.2405761344348
 20
582.8643055029554
 30
0.0
  0
SPLINE
  5
166
330
1F
100
AcDbEntity
  8
0
  6
SLD-Solid
 62
   142
420
    32960
370
     0
100
AcDbSpline
210
0.0
220
0.0
230
1.0
 70
     8
 71
     3
 72
    19
 73
    15
 74
     0
 42
0.00000001
 43
0.00000001
 40
0.0
 40
0.0
 40
0.0
 40
0.0
 40
0.0625636241951715
 40
0.1251094395617699
 40
0.187654263927591
 40
0.2501954071452574
 40
0.3216525366446957
 40
0.3931172035823569
 40
0.5002367421285085
 40
0.6251150582598598
 40
0.7499809907806657
 40
0.8749164961190528
 40
0.9374501041531805
 40
1.0
 40
1.0
 40
1.0
 40
1.0
 10
818.6166636562218
 20
581.8533477199785
 30
0.0
 10
818.6032737635467
 20
581.8978078387239
 30
0.0
 10
818.5764977896492
 20
581.9867154205763
 30
0.0
 10
818.5511231258358
 20
582.1253724138653
 30
0.0
 10
818.5357215230079
 20
582.2662962969866
 30
0.0
 10
818.5366663473377
 20
582.4158268142148
 30
0.0
 10
818.5511654803856
 20
582.5720507350214
 30
0.0
 10
818.5932135404162
 20
582.7585206014592
 30
0.0
 10
818.6719692170695
 20
582.9764077833272
 30
0.0
 10
818.8060026945753
 20
583.2115557379259
 30
0.0
 10
818.98993181316
 20
583.4219074738604
 30
0.0
 10
819.1708946772679
 20
583.5613712649531
 30
0.0
 10
819.326791768796
 20
583.6506716024617
 30
0.0
 10
819.4077028050194
 20
583.6880881276923
 30
0.0
 10
819.4481635910671
 20
583.7067988264134
 30
0.0
  0
SPLINE
  5
167
330
1F
100
AcDbEntity
  8
0
  6
SLD-Solid
 62
   142
420
    32960
370
     0
100
AcDbSpline
210
0.0
220
0.0
230
1.0
 70
     8
 71
     3
 72
     9
 73
     5
 74
     0
 42
0.00000001
 43
0.00000001
 40
0.0
 40
0.0
 40
0.0
 40
0.0
 40
0.5000907651097003
 40
1.0
 40
1.0
 40
1.0
 40
1.0
 10
818.7378212910868
 20
581.6019796921988
 30
0.0
 10
818.7136555556013
 20
581.6413681881921
 30
0.0
 10
818.6653328566609
 20
581.7201308823695
 30
0.0
 10
818.6328847595981
 20
581.8089474817411
 30
0.0
 10
818.6166636562218
 20
581.8533477199786
 30
0.0
  0
LINE
  5
168
330
1F
100
AcDbEntity
  8
0
  6
SLD-Solid
 62
   142
420
    32960
370
     0
100
AcDbLine
 10
817.9869454422
 20
581.4704385602
 30
0.0
 11
818.7378208943
 21
581.6019793869
 31
0.0
  0
SPLINE
  5
169
330
1F
100
AcDbEntity
  8
0
  6
SLD-Solid
 62
   142
420
    32960
370
     0
100
AcDbSpline
210
0.0
220
0.0
230
1.0
 70
     8
 71
     3
 72
     9
 73
     5
 74
     0
 42
0.00000001
 43
0.00000001
 40
0.0
 40
0.0
 40
0.0
 40
0.0
 40
0.5000030761515485
 40
1.0
 40
1.0
 40
1.0
 40
1.0
 10
817.5423757430667
 20
582.8201993236581
 30
0.0
 10
817.6181360701538
 20
582.594911788576
 30
0.0
 10
817.7696557921328
 20
582.1443394904695
 30
0.0
 10
817.9145158559446
 20
581.6950712822565
 30
0.0
 10
817.9869454422391
 20
581.4704385601669
 30
0.0
  0
LINE
  5
16A
330
1F
100
AcDbEntity
  8
0
  6
SLD-Solid
 62
   142
420
    32960
370
     0
100
AcDbLine
 10
816.8718602583
 20
582.5309926923
 30
0.0
 11
817.5423757431
 21
582.8201993237
 31
0.0
  0
SPLINE
  5
16B
330
1F
100
AcDbEntity
  8
0
  6
SLD-Solid
 62
   142
420
    32960
370
     0
100
AcDbSpline
210
0.0
220
0.0
230
1.0
 70
     8
 71
     3
 72
    11
 73
     7
 74
     0
 42
0.00000001
 43
0.00000001
 40
0.0
 40
0.0
 40
0.0
 40
0.0
 40
0.2500092344260016
 40
0.4999993581481756
 40
0.7499898028806463
 40
1.0
 40
1.0
 40
1.0
 40
1.0
 10
817.5023781972343
 20
580.5943514250083
 30
0.0
 10
817.451800631408
 20
580.7552927511961
 30
0.0
 10
817.3506493659041
 20
581.0771631012183
 30
0.0
 10
817.1944620749636
 20
581.5610885336106
 30
0.0
 10
817.0353370729455
 20
582.0456477428404
 30
0.0
 10
816.9263539649767
 20
582.3692067817901
 30
0.0
 10
816.8718602583186
 20
582.5309926923203
 30
0.0
  0
LINE
  5
16C
330
1F
100
AcDbEntity
  8
0
  6
SLD-Solid
 62
   142
420
    32960
370
     0
100
AcDbLine
 10
776.3627523472
 20
648.5020832052
 30
0.0
 11
776.6127523472
 21
648.5020832052
 31
0.0
  0
LINE
  5
16D
330
1F
100
AcDbEntity
  8
0
  6
SLD-Solid
 62
   142
420
    32960
370
     0
100
AcDbLine
 10
69.8127524511
 20
647.6520832075
 30
0.0
 11
69.312752451
 21
647.6520832075
 31
0.0
  0
LINE
  5
16E
330
1F
100
AcDbEntity
  8
0
  6
SLD-Solid
 62
     7
370
    15
100
AcDbLine
 10
69.312752451
 20
647.6520832075
 30
0.0
 11
69.312752451
 21
683.0520832075
 31
0.0
  0
LINE
  5
16F
330
1F
100
AcDbEntity
  8
0
  6
SLD-Solid
 62
   142
420
    32960
370
     0
100
AcDbLine
 10
69.8127524511
 20
731.8488524651
 30
0.0
 11
69.3128721767
 21
731.8488524651
 31
0.0
  0
ARC
  5
170
330
1F
100
AcDbEntity
  8
0
  6
SLD-Solid
 62
   142
420
    32960
370
     0
100
AcDbCircle
 10
70.3127524511
 20
647.6520832075
 30
0.0
 40
0.5
100
AcDbArc
 50
179.9999999878
 51
270.0
  0
ARC
  5
171
330
1F
100
AcDbEntity
  8
0
  6
SLD-Solid
 62
   142
420
    32960
370
     0
100
AcDbCircle
 10
171.7127524511
 20
647.6520832075
 30
0.0
 40
0.5
100
AcDbArc
 50
270.0
 51
0.0000000122
  0
LINE
  5
172
330
1F
100
AcDbEntity
  8
0
  6
SLD-Solid
 62
   142
420
    32960
370
     0
100
AcDbLine
 10
172.2127524511
 20
647.6520832075
 30
0.0
 11
172.2127524511
 21
661.8020832075
 31
0.0
  0
ARC
  5
173
330
1F
100
AcDbEntity
  8
0
  6
SLD-Solid
 62
   142
420
    32960
370
     0
100
AcDbCircle
 10
171.4627524511
 20
661.8020832075
 30
0.0
 40
0.75
100
AcDbArc
 50
0.0000000122
 51
90.0
  0
ARC
  5
174
330
1F
100
AcDbEntity
  8
0
  6
SLD-Solid
 62
   142
420
    32960
370
     0
100
AcDbCircle
 10
149.2627524511
 20
665.1020832075
 30
0.0
 40
2.549999999999983
100
AcDbArc
 50
179.9999999878
 51
270.0
  0
LINE
  5
175
330
1F
100
AcDbEntity
  8
0
  6
SLD-Solid
 62
   142
420
    32960
370
     0
100
AcDbLine
 10
146.7127524511
 20
665.1020832075
 30
0.0
 11
146.7127524511
 21
681.8020832075
 31
0.0
  0
LINE
  5
176
330
1F
100
AcDbEntity
  8
0
  6
SLD-Solid
 62
   142
420
    32960
370
     0
100
AcDbLine
 10
145.9627524511
 20
682.5520832075
 30
0.0
 11
124.7627524511
 21
682.5520832075
 31
0.0
  0
ARC
  5
177
330
1F
100
AcDbEntity
  8
0
  6
SLD-Solid
 62
   142
420
    32960
370
     0
100
AcDbCircle
 10
124.7627524511
 20
685.1020832075
 30
0.0
 40
2.550000000000068
100
AcDbArc
 50
179.9999999878
 51
270.0
  0
LINE
  5
178
330
1F
100
AcDbEntity
  8
0
  6
SLD-Solid
 62
   142
420
    32960
370
     0
100
AcDbLine
 10
104.0538190561
 20
723.6514053499
 30
0.0
 11
70.7568667349
 21
732.5732968348
 31
0.0
  0
ARC
  5
179
330
1F
100
AcDbEntity
  8
0
  6
SLD-Solid
 62
   142
420
    32960
370
     0
100
AcDbCircle
 10
70.5627524511
 20
731.8488524651
 30
0.0
 40
0.7499999999996447
100
AcDbArc
 50
75.0
 51
180.0000000122
  0
LINE
  5
17A
330
1F
100
AcDbEntity
  8
0
  6
SLD-Solid
 62
     7
370
    15
100
AcDbLine
 10
171.712752451
 20
646.6520832075
 30
0.0
 11
70.312752451
 21
646.6520832075
 31
0.0
  0
LINE
  5
17B
330
1F
100
AcDbEntity
  8
0
  6
SLD-Solid
 62
   142
420
    32960
370
     0
100
AcDbLine
 10
171.712752451
 20
646.6520832075
 30
0.0
 11
171.7127524511
 21
647.1520832075
 31
0.0
  0
LINE
  5
17C
330
1F
100
AcDbEntity
  8
0
  6
SLD-Solid
 62
   142
420
    32960
370
     0
100
AcDbLine
 10
70.3127524511
 20
647.1520832075
 30
0.0
 11
70.312752451
 21
646.6520832075
 31
0.0
  0
LINE
  5
17D
330
1F
100
AcDbEntity
  8
0
  6
SLD-Solid
 62
   142
420
    32960
370
     0
100
AcDbLine
 10
104.0538190561
 20
723.6514053499
 30
0.0
 11
104.1789000457
 21
724.1182139587
 31
0.0
  0
LINE
  5
17E
330
1F
100
AcDbEntity
  8
0
  6
SLD-Solid
 62
   142
420
    32960
370
     0
100
AcDbLine
 10
122.2127524511
 20
685.1020832075
 30
0.0
 11
122.712752451
 21
685.1020832075
 31
0.0
  0
LINE
  5
17F
330
1F
100
AcDbEntity
  8
0
  6
SLD-Solid
 62
   142
420
    32960
370
     0
100
AcDbLine
 10
122.712752451
 20
699.9862226058
 30
0.0
 11
122.712752451
 21
699.968908508
 31
0.0
  0
LINE
  5
180
330
1F
100
AcDbEntity
  8
0
  6
SLD-Solid
 62
   142
420
    32960
370
     0
100
AcDbLine
 10
145.962752451
 20
683.0520832075
 30
0.0
 11
145.9627524511
 21
682.5520832075
 31
0.0
  0
LINE
  5
181
330
1F
100
AcDbEntity
  8
0
  6
SLD-Solid
 62
   142
420
    32960
370
     0
100
AcDbLine
 10
147.212752451
 20
681.8020832075
 30
0.0
 11
146.7127524511
 21
681.8020832075
 31
0.0
  0
LINE
  5
182
330
1F
100
AcDbEntity
  8
0
  6
SLD-Solid
 62
   142
420
    32960
370
     0
100
AcDbLine
 10
149.262752451
 20
663.0520832075
 30
0.0
 11
149.2627524511
 21
662.5520832075
 31
0.0
  0
LINE
  5
183
330
1F
100
AcDbEntity
  8
0
  6
SLD-Solid
 62
   142
420
    32960
370
     0
100
AcDbLine
 10
171.462752451
 20
663.0520832075
 30
0.0
 11
171.4627524511
 21
662.5520832075
 31
0.0
  0
LINE
  5
184
330
1F
100
AcDbEntity
  8
0
  6
SLD-Solid
 62
   142
420
    32960
370
     0
100
AcDbLine
 10
827.5220535605
 20
545.9861586263
 30
0.0
 11
828.2061993707
 21
545.7389989515
 31
0.0
  0
LINE
  5
185
330
1F
100
AcDbEntity
  8
0
  6
SLD-Solid
 62
     7
370
    15
100
AcDbLine
 10
685.5127523637
 20
671.8520832052
 30
0.0
 11
180.5127523637
 21
671.8520832052
 31
0.0
  0
LINE
  5
186
330
1F
100
AcDbEntity
  8
0
  6
SLD-Solid
 62
   142
420
    32960
370
     0
100
AcDbLine
 10
690.5127523637
 20
648.1020832052
 30
0.0
 11
690.5127523637
 21
666.8520832052
 31
0.0
  0
ARC
  5
187
330
1F
100
AcDbEntity
  8
0
  6
SLD-Solid
 62
   142
420
    32960
370
     0
100
AcDbCircle
 10
685.5127523637
 20
666.8520832052
 30
0.0
 40
5.0
100
AcDbArc
 50
0.0
 51
90.0
  0
ARC
  5
188
330
1F
100
AcDbEntity
  8
0
  6
SLD-Solid
 62
   142
420
    32960
370
     0
100
AcDbCircle
 10
180.5127523637
 20
666.8520832052
 30
0.0
 40
5.0
100
AcDbArc
 50
90.0
 51
180.0
  0
LINE
  5
189
330
1F
100
AcDbEntity
  8
0
  6
SLD-Solid
 62
   142
420
    32960
370
     0
100
AcDbLine
 10
175.5127523637
 20
666.8520832052
 30
0.0
 11
175.5127523637
 21
648.1020832052
 31
0.0
  0
LINE
  5
18A
330
1F
100
AcDbEntity
  8
0
  6
SLD-Solid
 62
   142
420
    32960
370
     0
100
AcDbLine
 10
690.5127523637
 20
648.1020832052
 30
0.0
 11
690.5127523637
 21
646.3520832013
 31
0.0
  0
LINE
  5
18B
330
1F
100
AcDbEntity
  8
0
  6
SLD-Solid
 62
   142
420
    32960
370
     0
100
AcDbLine
 10
175.5127523637
 20
646.3520832013
 30
0.0
 11
175.5127523637
 21
648.1020832052
 31
0.0
  0
LINE
  5
18C
330
1F
100
AcDbEntity
  8
0
  6
SLD-Solid
 62
     7
370
    15
100
AcDbLine
 10
832.6286897316
 20
-32.1479167958
 30
0.0
 11
834.0127523447
 21
-32.1479167958
 31
0.0
  0
LINE
  5
18D
330
1F
100
AcDbEntity
  8
0
  6
SLD-Solid
 62
     7
370
    15
100
AcDbLine
 10
817.0127523447
 20
-32.1479167958
 30
0.0
 11
832.6286897316
 21
-32.1479167958
 31
0.0
  0
LINE
  5
18E
330
1F
100
AcDbEntity
  8
0
  6
SLD-Solid
 62
   142
420
    32960
370
     0
100
AcDbLine
 10
832.6286897316
 20
-30.6479167958
 30
0.0
 11
834.0127523447
 21
-30.6479167958
 31
0.0
  0
LINE
  5
18F
330
1F
100
AcDbEntity
  8
0
  6
SLD-Solid
 62
   142
420
    32960
370
     0
100
AcDbLine
 10
817.0127523447
 20
-30.6479167958
 30
0.0
 11
832.6286897316
 21
-30.6479167958
 31
0.0
  0
LINE
  5
190
330
1F
100
AcDbEntity
  8
0
  6
SLD-Solid
 62
   142
420
    32960
370
     0
100
AcDbLine
 10
832.2101051794
 20
-32.6479167958
 30
0.0
 11
833.5127523447
 21
-32.6479167958
 31
0.0
  0
LINE
  5
191
330
1F
100
AcDbEntity
  8
0
  6
SLD-Solid
 62
   142
420
    32960
370
     0
100
AcDbLine
 10
825.5127523447
 20
-32.6479167958
 30
0.0
 11
832.2101051794
 21
-32.6479167958
 31
0.0
  0
SPLINE
  5
192
330
1F
100
AcDbEntity
  8
0
  6
SLD-Solid
 62
   142
420
    32960
370
     0
100
AcDbSpline
210
0.0
220
0.0
230
1.0
 70
     8
 71
     3
 72
    12
 73
     8
 74
     0
 42
0.00000001
 43
0.00000001
 40
0.0
 40
0.0
 40
0.0
 40
0.0
 40
0.2000005138430926
 40
0.399959125628953
 40
0.6000300048835201
 40
0.8002600122393314
 40
1.0
 40
1.0
 40
1.0
 40
1.0
 10
826.0262017548104
 20
563.6535830493846
 30
0.0
 10
825.9796675345918
 20
563.6204345822259
 30
0.0
 10
825.8866088435275
 20
563.5541445928359
 30
0.0
 10
825.7502163484376
 20
563.4908531430762
 30
0.0
 10
825.633181058058
 20
563.4634572960775
 30
0.0
 10
825.527155705652
 20
563.4557558060251
 30
0.0
 10
825.4863302889465
 20
563.4859317034209
 30
0.0
 10
825.4659425890377
 20
563.5010011672562
 30
0.0
  0
SPLINE
  5
193
330
1F
100
AcDbEntity
  8
0
  6
SLD-Solid
 62
   142
420
    32960
370
     0
100
AcDbSpline
210
0.0
220
0.0
230
1.0
 70
     8
 71
     3
 72
    13
 73
     9
 74
     0
 42
0.00000001
 43
0.00000001
 40
0.0
 40
0.0
 40
0.0
 40
0.0
 40
0.0804542207481069
 40
0.1671527207457322
 40
0.3340543940967032
 40
0.6661425764600095
 40
0.8329487969413922
 40
1.0
 40
1.0
 40
1.0
 40
1.0
 10
826.45746827226
 20
564.2070469440308
 30
0.0
 10
826.4536582262442
 20
564.1935598690175
 30
0.0
 10
826.4457424257829
 20
564.1655389490155
 30
0.0
 10
826.4207636534397
 20
564.1054678213039
 30
0.0
 10
826.3608723143685
 20
563.9946538495509
 30
0.0
 10
826.2573979690793
 20
563.8603892355982
 30
0.0
 10
826.1300322870331
 20
563.7357821096995
 30
0.0
 10
826.0608288592382
 20
563.6809961366957
 30
0.0
 10
826.0262017548104
 20
563.6535830493846
 30
0.0
  0
LINE
  5
194
330
1F
100
AcDbEntity
  8
0
  6
SLD-Solid
 62
   142
420
    32960
370
     0
100
AcDbLine
 10
826.1200556484
 20
563.3007680477
 30
0.0
 11
826.2956933577
 21
563.445273935
 31
0.0
  0
SPLINE
  5
195
330
1F
100
AcDbEntity
  8
0
  6
SLD-Solid
 62
   142
420
    32960
370
     0
100
AcDbSpline
210
0.0
220
0.0
230
1.0
 70
     8
 71
     3
 72
    18
 73
    14
 74
     0
 42
0.00000001
 43
0.00000001
 40
0.0
 40
0.0
 40
0.0
 40
0.0
 40
0.0625542106359236
 40
0.1250960143830436
 40
0.2500790395065265
 40
0.3750629374711875
 40
0.4375909403369528
 40
0.5001240846706869
 40
0.6250810352524118
 40
0.7499893353082396
 40
0.8749357891961532
 40
0.9374622371758026
 40
1.0
 40
1.0
 40
1.0
 40
1.0
 10
825.1336318941069
 20
562.990092502827
 30
0.0
 10
825.1447352573551
 20
562.9825317723815
 30
0.0
 10
825.1669397816306
 20
562.9674118110722
 30
0.0
 10
825.2185528325293
 20
562.9449745749779
 30
0.0
 10
825.2949424972746
 20
562.930518639346
 30
0.0
 10
825.3850166091104
 20
562.9335148381739
 30
0.0
 10
825.4667430575839
 20
562.9503780340511
 30
0.0
 10
825.55232062273
 20
562.9736704649115
 30
0.0
 10
825.6684475948375
 20
563.0193637260867
 30
0.0
 10
825.81563489066
 20
563.0935476290706
 30
0.0
 10
825.9427477628462
 20
563.1735838012594
 30
0.0
 10
826.0442755786892
 20
563.2443218371848
 30
0.0
 10
826.094794101673
 20
563.28195150939
 30
0.0
 10
826.1200556484281
 20
563.3007680477139
 30
0.0
  0
SPLINE
  5
196
330
1F
100
AcDbEntity
  8
0
  6
SLD-Solid
 62
   142
420
    32960
370
     0
100
AcDbSpline
210
0.0
220
0.0
230
1.0
 70
     8
 71
     3
 72
    14
 73
    10
 74
     0
 42
0.00000001
 43
0.00000001
 40
0.0
 40
0.0
 40
0.0
 40
0.0
 40
0.1250949725646029
 40
0.250108163157827
 40
0.375941985169534
 40
0.5001719986116573
 40
0.7497414360348191
 40
0.8748328309137657
 40
1.0
 40
1.0
 40
1.0
 40
1.0
 10
824.4657220746902
 20
562.1570579541366
 30
0.0
 10
824.5048832444421
 20
562.1876863726267
 30
0.0
 10
824.5831799819763
 20
562.2489231860009
 30
0.0
 10
824.694674683647
 20
562.3517484966693
 30
0.0
 10
824.7984886328587
 20
562.4586134202752
 30
0.0
 10
824.922353080984
 20
562.6047919839577
 30
0.0
 10
825.0226862735235
 20
562.7518585363423
 30
0.0
 10
825.0936885647656
 20
562.8906299196716
 30
0.0
 10
825.120314516113
 20
562.9569313748483
 30
0.0
 10
825.1336315227385
 20
562.9900921399357
 30
0.0
  0
SPLINE
  5
197
330
1F
100
AcDbEntity
  8
0
  6
SLD-Solid
 62
   142
420
    32960
370
     0
100
AcDbSpline
210
0.0
220
0.0
230
1.0
 70
     8
 71
     3
 72
    13
 73
     9
 74
     0
 42
0.00000001
 43
0.00000001
 40
0.0
 40
0.0
 40
0.0
 40
0.0
 40
0.1992731848944166
 40
0.4012291661481082
 40
0.5995984239097043
 40
0.7996063113390132
 40
0.8997892305292406
 40
1.0
 40
1.0
 40
1.0
 40
1.0
 10
823.6297422416196
 20
561.8347449294537
 30
0.0
 10
823.6674742834356
 20
561.8253515366116
 30
0.0
 10
823.743446350038
 20
561.8064382885533
 30
0.0
 10
823.9072442709696
 20
561.8479763571656
 30
0.0
 10
824.0825435908548
 20
561.9139636610565
 30
0.0
 10
824.2412532620325
 20
562.0018450095293
 30
0.0
 10
824.369833126567
 20
562.085559493697
 30
0.0
 10
824.4337561306892
 20
562.1332229259367
 30
0.0
 10
824.4657220746903
 20
562.1570579541367
 30
0.0
  0
LINE
  5
198
330
1F
100
AcDbEntity
  8
0
  6
SLD-Solid
 62
     7
370
    15
100
AcDbLine
 10
105.4108857558
 20
-38.5856215673
 30
0.0
 11
105.4108857558
 21
-36.5856215673
 31
0.0
  0
LINE
  5
199
330
1F
100
AcDbEntity
  8
0
  6
SLD-Solid
 62
     7
370
    15
100
AcDbLine
 10
175.4108857558
 20
-38.5856215673
 30
0.0
 11
175.4108857558
 21
-36.5856215673
 31
0.0
  0
LINE
  5
19A
330
1F
100
AcDbEntity
  8
0
  6
SLD-Solid
 62
     7
370
    15
100
AcDbLine
 10
105.4108857558
 20
-38.5856215673
 30
0.0
 11
175.4108857558
 21
-38.5856215673
 31
0.0
  0
LINE
  5
19B
330
1F
100
AcDbEntity
  8
0
  6
SLD-Solid
 62
   142
420
    32960
370
     0
100
AcDbLine
 10
105.4108857558
 20
-36.5856215673
 30
0.0
 11
175.4108857558
 21
-36.5856215673
 31
0.0
  0
LINE
  5
19C
330
1F
100
AcDbEntity
  8
0
  6
SLD-Solid
 62
     7
370
    15
100
AcDbLine
 10
171.3705359761
 20
-132.5856215673
 30
0.0
 11
109.4512355354
 21
-132.5856215673
 31
0.0
  0
LINE
  5
19D
330
1F
100
AcDbEntity
  8
0
  6
SLD-Solid
 62
   142
420
    32960
370
     0
100
AcDbLine
 10
714.0127523575
 20
666.6020832052
 30
0.0
 11
719.2227523472
 21
666.6020832052
 31
0.0
  0
LINE
  5
19E
330
1F
100
AcDbEntity
  8
0
  6
SLD-Solid
 62
   142
420
    32960
370
     0
100
AcDbLine
 10
714.0127523575
 20
664.6020832052
 30
0.0
 11
717.9083962725
 21
664.6020832052
 31
0.0
  0
LINE
  5
19F
330
1F
100
AcDbEntity
  8
0
  6
SLD-Solid
 62
   142
420
    32960
370
     0
100
AcDbLine
 10
719.161189339
 20
664.6020832052
 30
0.0
 11
719.1714034227
 21
664.6020832052
 31
0.0
  0
LINE
  5
1A0
330
1F
100
AcDbEntity
  8
0
  6
SLD-Solid
 62
     7
370
    15
100
AcDbLine
 10
833.2921375863
 20
499.8361234919
 30
0.0
 11
837.9906006902
 21
501.5462242085
 31
0.0
  0
LINE
  5
1A1
330
1F
100
AcDbEntity
  8
0
  6
SLD-Solid
 62
     7
370
    15
100
AcDbLine
 10
837.9906006902
 20
501.5462242085
 30
0.0
 11
838.6746409769
 21
499.6668389669
 31
0.0
  0
LINE
  5
1A2
330
1F
100
AcDbEntity
  8
0
  6
SLD-Solid
 62
     7
370
    15
100
AcDbLine
 10
838.6746409769
 20
499.6668389669
 30
0.0
 11
833.976177873
 21
497.9567382503
 31
0.0
  0
LINE
  5
1A3
330
1F
100
AcDbEntity
  8
0
  6
SLD-Solid
 62
   142
420
    32960
370
     0
100
AcDbLine
 10
833.976177873
 20
497.9567382503
 30
0.0
 11
833.5127523447
 21
499.2299894247
 31
0.0
  0
LINE
  5
1A4
330
1F
100
AcDbEntity
  8
0
  6
SLD-Solid
 62
   142
420
    32960
370
     0
100
AcDbLine
 10
833.4683138432
 20
499.3520832042
 30
0.0
 11
833.2921375863
 21
499.8361234919
 31
0.0
  0
LINE
  5
1A5
330
1F
100
AcDbEntity
  8
0
  6
SLD-Solid
 62
   142
420
    32960
370
     0
100
AcDbLine
 10
833.2921375863
 20
499.8361234919
 30
0.0
 11
831.962247826
 21
499.3520832042
 31
0.0
  0
LINE
  5
1A6
330
1F
100
AcDbEntity
  8
0
  6
SLD-Solid
 62
   142
420
    32960
370
     0
100
AcDbLine
 10
833.5127523447
 20
497.7880651522
 30
0.0
 11
833.976177873
 21
497.9567382503
 31
0.0
  0
LINE
  5
1A7
330
1F
100
AcDbEntity
  8
0
  6
SLD-Solid
 62
   142
420
    32960
370
     0
100
AcDbLine
 10
69.7834630229
 20
645.8520832042
 30
0.0
 11
70.46090997
 21
645.8520832042
 31
0.0
  0
LINE
  5
1A8
330
1F
100
AcDbEntity
  8
0
  6
SLD-Solid
 62
   142
420
    32960
370
     0
100
AcDbLine
 10
774.9639287881
 20
645.8520832042
 30
0.0
 11
775.6420416666
 21
645.8520832042
 31
0.0
  0
LINE
  5
1A9
330
1F
100
AcDbEntity
  8
0
  6
SLD-Solid
 62
   142
420
    32960
370
     0
100
AcDbLine
 10
69.7834630229
 20
646.6520832042
 30
0.0
 11
69.7834630229
 21
645.8520832042
 31
0.0
  0
LINE
  5
1AA
330
1F
100
AcDbEntity
  8
0
  6
SLD-Solid
 62
     7
370
    15
100
AcDbLine
 10
782.4127523447
 20
491.8020832042
 30
0.0
 11
782.4127523447
 21
45.3520832042
 31
0.0
  0
LINE
  5
1AB
330
1F
100
AcDbEntity
  8
0
  6
SLD-Solid
 62
   142
420
    32960
370
     0
100
AcDbLine
 10
784.4627523447
 20
491.8020832042
 30
0.0
 11
784.4627523447
 21
490.8580312522
 31
0.0
  0
LINE
  5
1AC
330
1F
100
AcDbEntity
  8
0
  6
SLD-Solid
 62
   142
420
    32960
370
     0
100
AcDbLine
 10
782.4127523447
 20
491.8020832042
 30
0.0
 11
784.4627523447
 21
491.8020832042
 31
0.0
  0
LINE
  5
1AD
330
1F
100
AcDbEntity
  8
0
  6
SLD-Solid
 62
   142
420
    32960
370
     0
100
AcDbLine
 10
783.7127523447
 20
45.3520832042
 30
0.0
 11
782.4127523447
 21
45.3520832042
 31
0.0
  0
SPLINE
  5
1AE
330
1F
100
AcDbEntity
  8
0
  6
SLD-Solid
 62
   142
420
    32960
370
     0
100
AcDbSpline
210
0.0
220
0.0
230
1.0
 70
     8
 71
     3
 72
    13
 73
     9
 74
     0
 42
0.00000001
 43
0.00000001
 40
0.0
 40
0.0
 40
0.0
 40
0.0
 40
0.1254031087735535
 40
0.2506359213588671
 40
0.5000145471522139
 40
0.7494681278465785
 40
0.87462421366752
 40
0.9999999999999999
 40
0.9999999999999999
 40
0.9999999999999999
 40
0.9999999999999999
 10
812.1648062006154
 20
606.5721443605294
 30
0.0
 10
812.2009506692731
 20
606.5761214201241
 30
0.0
 10
812.2731905227556
 20
606.5840701385056
 30
0.0
 10
812.4073482916507
 20
606.6219078243005
 30
0.0
 10
812.5396663714146
 20
606.7124983981247
 30
0.0
 10
812.6199357878911
 20
606.8356280564363
 30
0.0
 10
812.63399097723
 20
606.9488539807346
 30
0.0
 10
812.6198714697443
 20
607.0066081007743
 30
0.0
 10
812.6128055250468
 20
607.0355104841387
 30
0.0
  0
SPLINE
  5
1AF
330
1F
100
AcDbEntity
  8
0
  6
SLD-Solid
 62
   142
420
    32960
370
     0
100
AcDbSpline
210
0.0
220
0.0
230
1.0
 70
     8
 71
     3
 72
    13
 73
     9
 74
     0
 42
0.00000001
 43
0.00000001
 40
0.0
 40
0.0
 40
0.0
 40
0.0
 40
0.1254430846230237
 40
0.250662962067823
 40
0.4999171420598916
 40
0.7492849684471131
 40
0.8745639970614077
 40
1.0
 40
1.0
 40
1.0
 40
1.0
 10
811.4588419654162
 20
606.9537034322449
 30
0.0
 10
811.4699950466469
 20
606.9252580665224
 30
0.0
 10
811.4922813638709
 20
606.8684179493446
 30
0.0
 10
811.5709625336763
 20
606.7611777830456
 30
0.0
 10
811.7212192607078
 20
606.6518265524089
 30
0.0
 10
811.9037843010557
 20
606.5866651296902
 30
0.0
 10
812.0543987985458
 20
606.5682755290666
 30
0.0
 10
812.1279883749535
 20
606.5708542118649
 30
0.0
 10
812.1648062006154
 20
606.5721443605294
 30
0.0
  0
SPLINE
  5
1B0
330
1F
100
AcDbEntity
  8
0
  6
SLD-Solid
 62
   142
420
    32960
370
     0
100
AcDbSpline
210
0.0
220
0.0
230
1.0
 70
     8
 71
     3
 72
    13
 73
     9
 74
     0
 42
0.00000001
 43
0.00000001
 40
0.0
 40
0.0
 40
0.0
 40
0.0
 40
0.125426493754461
 40
0.2506940358654043
 40
0.4999552364688016
 40
0.749272225612862
 40
0.8745345344691398
 40
0.9999999999999999
 40
0.9999999999999999
 40
0.9999999999999999
 40
0.9999999999999999
 10
811.8919816907379
 20
607.4228678305221
 30
0.0
 10
811.8552169064473
 20
607.4192347185348
 30
0.0
 10
811.7817339294807
 20
607.411973098764
 30
0.0
 10
811.6481137138619
 20
607.3718628926766
 30
0.0
 10
811.512692984419
 20
607.2838516100052
 30
0.0
 10
811.4426896510092
 20
607.1556074561714
 30
0.0
 10
811.4372263272401
 20
607.0411739480419
 30
0.0
 10
811.45163286164
 20
606.9828760164918
 30
0.0
 10
811.4588419654162
 20
606.9537034322449
 30
0.0
  0
SPLINE
  5
1B1
330
1F
100
AcDbEntity
  8
0
  6
SLD-Solid
 62
   142
420
    32960
370
     0
100
AcDbSpline
210
0.0
220
0.0
230
1.0
 70
     8
 71
     3
 72
    13
 73
     9
 74
     0
 42
0.00000001
 43
0.00000001
 40
0.0
 40
0.0
 40
0.0
 40
0.0
 40
0.1254186250860002
 40
0.250654810781393
 40
0.4999888138654949
 40
0.7492939533273236
 40
0.8745662032988707
 40
1.0
 40
1.0
 40
1.0
 40
1.0
 10
812.6128055250468
 20
607.0355104841387
 30
0.0
 10
812.6017325975452
 20
607.0645794937623
 30
0.0
 10
812.5796028497039
 20
607.1226752279624
 30
0.0
 10
812.49663185801
 20
607.2303244495852
 30
0.0
 10
812.3456380545836
 20
607.3413283699567
 30
0.0
 10
812.158967957707
 20
607.4076706948732
 30
0.0
 10
812.0049025853613
 20
607.4265719245565
 30
0.0
 10
811.9296381549201
 20
607.4241030588189
 30
0.0
 10
811.8919816907379
 20
607.4228678305221
 30
0.0
  0
SPLINE
  5
1B2
330
1F
100
AcDbEntity
  8
0
  6
SLD-Solid
 62
   142
420
    32960
370
     0
100
AcDbSpline
210
0.0
220
0.0
230
1.0
 70
     8
 71
     3
 72
     9
 73
     5
 74
     0
 42
0.00000001
 43
0.00000001
 40
0.0
 40
0.0
 40
0.0
 40
0.0
 40
0.4969069419346176
 40
1.0
 40
1.0
 40
1.0
 40
1.0
 10
811.2882485079382
 20
606.1362296178763
 30
0.0
 10
810.8891296499683
 20
606.2571245444636
 30
0.0
 10
810.085923205687
 20
606.5004194481669
 30
0.0
 10
809.2808770552606
 20
606.7370519247777
 30
0.0
 10
808.8758639255589
 20
606.8561000810732
 30
0.0
  0
SPLINE
  5
1B3
330
1F
100
AcDbEntity
  8
0
  6
SLD-Solid
 62
   142
420
    32960
370
     0
100
AcDbSpline
210
0.0
220
0.0
230
1.0
 70
     8
 71
     3
 72
    13
 73
     9
 74
     0
 42
0.00000001
 43
0.00000001
 40
0.0
 40
0.0
 40
0.0
 40
0.0
 40
0.1249899061224438
 40
0.2499644126772869
 40
0.3724809068367215
 40
0.4999240967755262
 40
0.7137358362876691
 40
1.0
 40
1.0
 40
1.0
 40
1.0
 10
812.3792109233495
 20
605.9358789409475
 30
0.0
 10
812.3340920283605
 20
605.9339719317622
 30
0.0
 10
812.2438597973231
 20
605.9301581483476
 30
0.0
 10
812.1066716915673
 20
605.9386280023574
 30
0.0
 10
811.9683862554685
 20
605.9564260748962
 30
0.0
 10
811.7981697996986
 20
605.99065420999
 30
0.0
 10
811.5706347979152
 20
606.0512834738943
 30
0.0
 10
811.3910521557759
 20
606.1053046905625
 30
0.0
 10
811.2882516118231
 20
606.136228672927
 30
0.0
  0
SPLINE
  5
1B4
330
1F
100
AcDbEntity
  8
0
  6
SLD-Solid
 62
   142
420
    32960
370
     0
100
AcDbSpline
210
0.0
220
0.0
230
1.0
 70
     8
 71
     3
 72
    16
 73
    12
 74
     0
 42
0.00000001
 43
0.00000001
 40
0.0
 40
0.0
 40
0.0
 40
0.0
 40
0.0626507922522511
 40
0.1252806213229625
 40
0.2503657415436865
 40
0.3754569779319783
 40
0.5005519515655966
 40
0.749712007589714
 40
0.8747729394597336
 40
0.9373750112929176
 40
1.0
 40
1.0
 40
1.0
 40
1.0
 10
813.3674629690357
 20
607.0991600830463
 30
0.0
 10
813.3771050176532
 20
607.0648849774259
 30
0.0
 10
813.3963858886235
 20
606.9963462347588
 30
0.0
 10
813.4186168631583
 20
606.858383111666
 30
0.0
 10
813.4104523803414
 20
606.687250232775
 30
0.0
 10
813.3453863837672
 20
606.4928279975585
 30
0.0
 10
813.1838284569878
 20
606.2643744402121
 30
0.0
 10
812.9450015541653
 20
606.0757493282679
 30
0.0
 10
812.6751908240866
 20
605.9812110637217
 30
0.0
 10
812.5092109721238
 20
605.9475429527165
 30
0.0
 10
812.4225495593613
 20
605.9397674191846
 30
0.0
 10
812.3792109233495
 20
605.9358789409475
 30
0.0
  0
SPLINE
  5
1B5
330
1F
100
AcDbEntity
  8
0
  6
SLD-Solid
 62
   142
420
    32960
370
     0
100
AcDbSpline
210
0.0
220
0.0
230
1.0
 70
     8
 71
     3
 72
    17
 73
    13
 74
     0
 42
0.00000001
 43
0.00000001
 40
0.0
 40
0.0
 40
0.0
 40
0.0
 40
0.0625676359347564
 40
0.125115434420028
 40
0.2500603063877597
 40
0.3723532437666285
 40
0.4999350074274551
 40
0.6249101580537944
 40
0.7498785838256201
 40
0.8748454675625926
 40
0.9374147209788215
 40
1.0
 40
1.0
 40
1.0
 40
1.0
 10
811.7012894318348
 20
608.0272746554286
 30
0.0
 10
811.7450987199318
 20
608.0295788609519
 30
0.0
 10
811.8327034061242
 20
608.0341865414359
 30
0.0
 10
812.0116455146203
 20
608.0276562404478
 30
0.0
 10
812.2358336680361
 20
607.9971166378208
 30
0.0
 10
812.4993715027051
 20
607.9188393608297
 30
0.0
 10
812.7436288612005
 20
607.8043744500867
 30
0.0
 10
812.964628061107
 20
607.661221920915
 30
0.0
 10
813.1504734450756
 20
607.4931805187147
 30
0.0
 10
813.2640739158924
 20
607.3340813340271
 30
0.0
 10
813.3308561581119
 20
607.201154240043
 30
0.0
 10
813.3552580361528
 20
607.1331655570015
 30
0.0
 10
813.3674605374613
 20
607.0991668626228
 30
0.0
  0
SPLINE
  5
1B6
330
1F
100
AcDbEntity
  8
0
  6
SLD-Solid
 62
   142
420
    32960
370
     0
100
AcDbSpline
210
0.0
220
0.0
230
1.0
 70
     8
 71
     3
 72
    17
 73
    13
 74
     0
 42
0.00000001
 43
0.00000001
 40
0.0
 40
0.0
 40
0.0
 40
0.0
 40
0.0625898720844973
 40
0.1251584348691588
 40
0.2500880473126083
 40
0.372205820542178
 40
0.500014236603771
 40
0.6261797773091026
 40
0.7499077458238218
 40
0.8748707082028987
 40
0.9374264529672262
 40
0.9999999999999999
 40
0.9999999999999999
 40
0.9999999999999999
 40
0.9999999999999999
 10
810.6802832559441
 20
606.9365612332825
 30
0.0
 10
810.670643240019
 20
606.9707038403084
 30
0.0
 10
810.6513664902012
 20
607.0389774301942
 30
0.0
 10
810.6313691036098
 20
607.1750414613612
 30
0.0
 10
810.6433792807223
 20
607.3400877285874
 30
0.0
 10
810.7143321379416
 20
607.5247775251238
 30
0.0
 10
810.8373208795063
 20
607.6879152004224
 30
0.0
 10
811.0021805593188
 20
607.8270833100541
 30
0.0
 10
811.2074180845341
 20
607.9316444538755
 30
0.0
 10
811.4036884517179
 20
607.9884150823981
 30
0.0
 10
811.5715011944995
 20
608.0157532686908
 30
0.0
 10
811.6580225828951
 20
608.0234338289425
 30
0.0
 10
811.7012894318348
 20
608.0272746554286
 30
0.0
  0
SPLINE
  5
1B7
330
1F
100
AcDbEntity
  8
0
  6
SLD-Solid
 62
   142
420
    32960
370
     0
100
AcDbSpline
210
0.0
220
0.0
230
1.0
 70
     8
 71
     3
 72
     9
 73
     5
 74
     0
 42
0.00000001
 43
0.00000001
 40
0.0
 40
0.0
 40
0.0
 40
0.0
 40
0.5021063700103087
 40
1.0
 40
1.0
 40
1.0
 40
1.0
 10
809.046514563437
 20
607.4124251858127
 30
0.0
 10
809.320153058779
 20
607.333543420202
 30
0.0
 10
809.865134185659
 20
607.1764417176101
 30
0.0
 10
810.4093307403639
 20
607.0162964956696
 30
0.0
 10
810.6802827384137
 20
606.9365612097921
 30
0.0
  0
SPLINE
  5
1B8
330
1F
100
AcDbEntity
  8
0
  6
SLD-Solid
 62
   142
420
    32960
370
     0
100
AcDbSpline
210
0.0
220
0.0
230
1.0
 70
     8
 71
     3
 72
     9
 73
     5
 74
     0
 42
0.00000001
 43
0.00000001
 40
0.0
 40
0.0
 40
0.0
 40
0.0
 40
0.5002973359052891
 40
1.0
 40
1.0
 40
1.0
 40
1.0
 10
808.8758634641193
 20
606.8561002160362
 30
0.0
 10
808.9044894808852
 20
606.9495271019395
 30
0.0
 10
808.9617074884809
 20
607.1362698231137
 30
0.0
 10
809.0182567478683
 20
607.3204098992172
 30
0.0
 10
809.046514563437
 20
607.4124251858127
 30
0.0
  0
SPLINE
  5
1B9
330
1F
100
AcDbEntity
  8
0
  6
SLD-Solid
 62
   142
420
    32960
370
     0
100
AcDbSpline
210
0.0
220
0.0
230
1.0
 70
     8
 71
     3
 72
    22
 73
    18
 74
     0
 42
0.00000001
 43
0.00000001
 40
0.0
 40
0.0
 40
0.0
 40
0.0
 40
0.125
 40
0.125
 40
0.25
 40
0.25
 40
0.375
 40
0.375
 40
0.5
 40
0.5
 40
0.625
 40
0.625
 40
0.75
 40
0.75
 40
0.875
 40
0.875
 40
1.0
 40
1.0
 40
1.0
 40
1.0
 10
69.78346302286032
 20
646.6520832042336
 30
0.0
 10
69.83303682565617
 20
646.6520832042336
 30
0.0
 10
69.88183963201178
 20
646.6387874716515
 30
0.0
 10
69.97958854614266
 20
646.5867691951395
 30
0.0
 10
70.02892215616374
 20
646.5476133666634
 30
0.0
 10
70.12759241843364
 20
646.4445177773159
 30
0.0
 10
70.17630606137365
 20
646.3814562466051
 30
0.0
 10
70.2741474262722
 20
646.2331602939363
 30
0.0
 10
70.32379399736183
 20
646.1468461751717
 30
0.0
 10
70.4220898107804
 20
645.9570981419361
 30
0.0
 10
70.47076006167885
 20
645.8539050697573
 30
0.0
 10
70.56878857057008
 20
645.6314790949731
 30
0.0
 10
70.61853491812236
 20
645.5111675946391
 30
0.0
 10
70.7165539772428
 20
645.2639460301295
 30
0.0
 10
70.76522541875401
 20
645.1362058485589
 30
0.0
 10
70.86353653790833
 20
644.8729729076639
 30
0.0
 10
70.91317853998675
 20
644.7374479662024
 30
0.0
 10
70.9627523447417
 20
644.6020832042336
 30
0.0
  0
LINE
  5
1BA
330
1F
100
AcDbEntity
  8
0
  6
SLD-Solid
 62
   142
420
    32960
370
     0
100
AcDbLine
 10
693.7227523472
 20
646.6520832042
 30
0.0
 11
690.5127523637
 21
646.6520832042
 31
0.0
  0
LINE
  5
1BB
330
1F
100
AcDbEntity
  8
0
  6
SLD-Solid
 62
   142
420
    32960
370
     0
100
AcDbLine
 10
175.5127523637
 20
646.6520832042
 30
0.0
 11
171.7127522598
 21
646.6520832042
 31
0.0
  0
LINE
  5
1BC
330
1F
100
AcDbEntity
  8
0
  6
SLD-Solid
 62
   142
420
    32960
370
     0
100
AcDbLine
 10
70.3127522598
 20
646.6520832042
 30
0.0
 11
69.7834630229
 21
646.6520832042
 31
0.0
  0
SPLINE
  5
1BD
330
1F
100
AcDbEntity
  8
0
  6
SLD-Solid
 62
   142
420
    32960
370
     0
100
AcDbSpline
210
0.0
220
0.0
230
1.0
 70
     8
 71
     3
 72
    11
 73
     7
 74
     0
 42
0.00000001
 43
0.00000001
 40
0.0
 40
0.0
 40
0.0
 40
0.0
 40
0.3237812539112843
 40
0.6475625078225696
 40
0.9713437617338548
 40
0.9999999999999999
 40
0.9999999999999999
 40
0.9999999999999999
 40
0.9999999999999999
 10
774.4627523447414
 20
644.602083204236
 30
0.0
 10
774.5610264548983
 20
644.8720579098386
 30
0.0
 10
774.7575746752118
 20
645.4120073210437
 30
0.0
 10
775.0523970056818
 20
646.0693929550964
 30
0.0
 10
775.2576429695555
 20
646.4529402985845
 30
0.0
 10
775.3646148232722
 20
646.5055680748555
 30
0.0
 10
775.373312566832
 20
646.5098471715174
 30
0.0
  0
LINE
  5
1BE
330
1F
100
AcDbEntity
  8
0
  6
SLD-Solid
 62
     7
370
    15
100
AcDbLine
 10
68.9127523447
 20
645.7813725261
 30
0.0
 11
68.9127523447
 21
-35.5772061176
 31
0.0
  0
SPLINE
  5
1BF
330
1F
100
AcDbEntity
  8
0
  6
SLD-Solid
 62
   142
420
    32960
370
     0
100
AcDbSpline
210
0.0
220
0.0
230
1.0
 70
     8
 71
     3
 72
    14
 73
    10
 74
     0
 42
0.00000001
 43
0.00000001
 40
0.0
 40
0.0
 40
0.0
 40
0.0
 40
0.25
 40
0.25
 40
0.5
 40
0.5
 40
0.75
 40
0.75
 40
1.0
 40
1.0
 40
1.0
 40
1.0
 10
70.9627523447418
 20
644.6020832042338
 30
0.0
 10
70.69440797224757
 20
644.7003573143908
 30
0.0
 10
70.42616918180494
 20
644.7986314245475
 30
0.0
 10
69.93033343498095
 20
644.9951796448607
 30
0.0
 10
69.70293156879242
 20
645.0934537550178
 30
0.0
 10
69.32343531782448
 20
645.2900019753314
 30
0.0
 10
69.17149024861452
 20
645.3882760854881
 30
0.0
 10
68.9661083575706
 20
645.5848243058017
 30
0.0
 10
68.91275234474065
 20
645.6830984159584
 30
0.0
 10
68.91275234474075
 20
645.7813725261151
 30
0.0
  0
SPLINE
  5
1C0
330
1F
100
AcDbEntity
  8
0
  6
SLD-Solid
 62
   142
420
    32960
370
     0
100
AcDbSpline
210
0.0
220
0.0
230
1.0
 70
     8
 71
     3
 72
    14
 73
    10
 74
     0
 42
0.00000001
 43
0.00000001
 40
0.0
 40
0.0
 40
0.0
 40
0.0
 40
0.25
 40
0.25
 40
0.5
 40
0.5
 40
0.75
 40
0.75
 40
1.0
 40
1.0
 40
1.0
 40
1.0
 10
68.91275234474304
 20
-35.57720611764748
 30
0.0
 10
68.91275234474293
 20
-35.47893200749069
 30
0.0
 10
68.96610835757284
 20
-35.38065789733407
 30
0.0
 10
69.17149024861673
 20
-35.18410967702052
 30
0.0
 10
69.32343531782669
 20
-35.08583556686368
 30
0.0
 10
69.70293156879443
 20
-34.88928734655017
 30
0.0
 10
69.93033343498284
 20
-34.79101323639328
 30
0.0
 10
70.42616918180683
 20
-34.59446501607971
 30
0.0
 10
70.6944079722493
 20
-34.49619090592309
 30
0.0
 10
70.96275234474348
 20
-34.39791679576631
 30
0.0
  0
LINE
  5
1C1
330
1F
100
AcDbEntity
  8
0
  6
SLD-Solid
 62
     7
370
    15
100
AcDbLine
 10
776.5127523447
 20
-35.5772061176
 30
0.0
 11
776.5127523447
 21
645.7813725261
 31
0.0
  0
SPLINE
  5
1C2
330
1F
100
AcDbEntity
  8
0
  6
SLD-Solid
 62
   142
420
    32960
370
     0
100
AcDbSpline
210
0.0
220
0.0
230
1.0
 70
     8
 71
     3
 72
    22
 73
    18
 74
     0
 42
0.00000001
 43
0.00000001
 40
0.0
 40
0.0
 40
0.0
 40
0.0
 40
0.125
 40
0.125
 40
0.25
 40
0.25
 40
0.375
 40
0.375
 40
0.5
 40
0.5
 40
0.625
 40
0.625
 40
0.75
 40
0.75
 40
0.875
 40
0.875
 40
1.0
 40
1.0
 40
1.0
 40
1.0
 10
774.462752344743
 20
-34.39791679576371
 30
0.0
 10
774.5981171031315
 20
-34.44749059920732
 30
0.0
 10
774.7313556482471
 20
-34.49629340440325
 30
0.0
 10
774.9931611570529
 20
-34.59404231277335
 30
0.0
 10
775.1227219892496
 20
-34.64337591201866
 30
0.0
 10
775.3716431108625
 20
-34.74204618634319
 30
0.0
 10
775.4894837152955
 20
-34.79075983157842
 30
0.0
 10
775.7117252206524
 20
-34.88860119420612
 30
0.0
 10
775.8170851782975
 20
-34.93824776073623
 30
0.0
 10
776.0069170484405
 20
-35.03654358364544
 30
0.0
 10
776.0916648960467
 20
-35.08521383570307
 30
0.0
 10
776.2406044644879
 20
-35.18324233997561
 30
0.0
 10
776.3050265858143
 20
-35.23298868833613
 30
0.0
 10
776.4075778985801
 20
-35.331007754476
 30
0.0
 10
776.4464938856283
 20
-35.37967919602492
 30
0.0
 10
776.4992042230211
 20
-35.47799030818855
 30
0.0
 10
776.5127523447433
 20
-35.52763231224259
 30
0.0
 10
776.5127523447431
 20
-35.57720611764509
 30
0.0
  0
SPLINE
  5
1C3
330
1F
100
AcDbEntity
  8
0
  6
SLD-Solid
 62
   142
420
    32960
370
     0
100
AcDbSpline
210
0.0
220
0.0
230
1.0
 70
     8
 71
     3
 72
    22
 73
    18
 74
     0
 42
0.00000001
 43
0.00000001
 40
0.0
 40
0.0
 40
0.0
 40
0.0
 40
0.125
 40
0.125
 40
0.25
 40
0.25
 40
0.375
 40
0.375
 40
0.5
 40
0.5
 40
0.625
 40
0.625
 40
0.75
 40
0.75
 40
0.875
 40
0.875
 40
1.0
 40
1.0
 40
1.0
 40
1.0
 10
776.5127523447409
 20
645.7813725261175
 30
0.0
 10
776.5127523447409
 20
645.7317987233215
 30
0.0
 10
776.4994566121591
 20
645.6829959169662
 30
0.0
 10
776.447438335647
 20
645.5852470028353
 30
0.0
 10
776.4082825071711
 20
645.5359133928139
 30
0.0
 10
776.3051869178236
 20
645.4372431305443
 30
0.0
 10
776.2421253871123
 20
645.3885294876042
 30
0.0
 10
776.0938294344433
 20
645.2906881227059
 30
0.0
 10
776.0075153156794
 20
645.2410415516163
 30
0.0
 10
775.8177672824438
 20
645.142745738198
 30
0.0
 10
775.7145742102647
 20
645.094075487299
 30
0.0
 10
775.4921482354806
 20
644.9960469784078
 30
0.0
 10
775.3718367351465
 20
644.9463006308555
 30
0.0
 10
775.1246151706368
 20
644.8482815717354
 30
0.0
 10
774.9968749890663
 20
644.7996101302238
 30
0.0
 10
774.7336420481712
 20
644.7012990110694
 30
0.0
 10
774.59811710671
 20
644.6516570089909
 30
0.0
 10
774.4627523447409
 20
644.602083204236
 30
0.0
  0
LINE
  5
1C4
330
1F
100
AcDbEntity
  8
0
  6
SLD-Solid
 62
     7
370
    15
100
AcDbLine
 10
69.7834630229
 20
-36.4479167958
 30
0.0
 11
775.6420416666
 21
-36.4479167958
 31
0.0
  0
SPLINE
  5
1C5
330
1F
100
AcDbEntity
  8
0
  6
SLD-Solid
 62
   142
420
    32960
370
     0
100
AcDbSpline
210
0.0
220
0.0
230
1.0
 70
     8
 71
     3
 72
    22
 73
    18
 74
     0
 42
0.00000001
 43
0.00000001
 40
0.0
 40
0.0
 40
0.0
 40
0.0
 40
0.1250000000000002
 40
0.1250000000000002
 40
0.2500000000000002
 40
0.2500000000000002
 40
0.3750000000000002
 40
0.3750000000000002
 40
0.5000000000000001
 40
0.5000000000000001
 40
0.6250000000000001
 40
0.6250000000000001
 40
0.7500000000000001
 40
0.7500000000000001
 40
0.875
 40
0.875
 40
1.0
 40
1.0
 40
1.0
 40
1.0
 10
70.96275234474398
 20
-34.39791679576637
 30
0.0
 10
70.91317854130035
 20
-34.5332815541548
 30
0.0
 10
70.86437573610455
 20
-34.66652009927029
 30
0.0
 10
70.76662682773444
 20
-34.92832560807629
 30
0.0
 10
70.71729322848891
 20
-35.05788644027302
 30
0.0
 10
70.61862295416438
 20
-35.30680756188598
 30
0.0
 10
70.56990930892925
 20
-35.4246481663188
 30
0.0
 10
70.47206794630162
 20
-35.64688967167562
 30
0.0
 10
70.4224213797715
 20
-35.75224962932055
 30
0.0
 10
70.32412555686224
 20
-35.94208149946343
 30
0.0
 10
70.27545530480472
 20
-36.02682934706986
 30
0.0
 10
70.17742680053202
 20
-36.175768915511
 30
0.0
 10
70.1276804521716
 20
-36.24019103683729
 30
0.0
 10
70.02966138603173
 20
-36.34274234960311
 30
0.0
 10
69.98098994448276
 20
-36.38165833665141
 30
0.0
 10
69.88267883231913
 20
-36.43436867404409
 30
0.0
 10
69.83303682826514
 20
-36.44791679576631
 30
0.0
 10
69.78346302286259
 20
-36.44791679576625
 30
0.0
  0
SPLINE
  5
1C6
330
1F
100
AcDbEntity
  8
0
  6
SLD-Solid
 62
   142
420
    32960
370
     0
100
AcDbSpline
210
0.0
220
0.0
230
1.0
 70
     8
 71
     3
 72
    14
 73
    10
 74
     0
 42
0.00000001
 43
0.00000001
 40
0.0
 40
0.0
 40
0.0
 40
0.0
 40
0.25
 40
0.25
 40
0.5
 40
0.5
 40
0.75
 40
0.75
 40
1.0
 40
1.0
 40
1.0
 40
1.0
 10
775.6420416666248
 20
-36.44791679576381
 30
0.0
 10
775.543767556468
 20
-36.44791679576381
 30
0.0
 10
775.4454934463113
 20
-36.39456078293385
 30
0.0
 10
775.2489452259977
 20
-36.18917889189005
 30
0.0
 10
775.1506711158409
 20
-36.03723382268009
 30
0.0
 10
774.9541228955272
 20
-35.65773757171242
 30
0.0
 10
774.8558487853704
 20
-35.43033570552417
 30
0.0
 10
774.6593005650568
 20
-34.93449995870035
 30
0.0
 10
774.5610264549
 20
-34.66626116825794
 30
0.0
 10
774.4627523447432
 20
-34.39791679576382
 30
0.0
  0
LINE
  5
1C7
330
1F
100
AcDbEntity
  8
0
  6
SLD-Solid
 62
   142
420
    32960
370
     0
100
AcDbLine
 10
69.7127523447
 20
-35.5772061176
 30
0.0
 11
69.7127523447
 21
-34.8990932391
 31
0.0
  0
LINE
  5
1C8
330
1F
100
AcDbEntity
  8
0
  6
SLD-Solid
 62
   142
420
    32960
370
     0
100
AcDbLine
 10
69.7127523447
 20
645.1032596476
 30
0.0
 11
69.7127523447
 21
645.7813725261
 31
0.0
  0
LINE
  5
1C9
330
1F
100
AcDbEntity
  8
0
  6
SLD-Solid
 62
   142
420
    32960
370
     0
100
AcDbLine
 10
69.7127523447
 20
-35.5772061176
 30
0.0
 11
68.9127523447
 21
-35.5772061176
 31
0.0
  0
LINE
  5
1CA
330
1F
100
AcDbEntity
  8
0
  6
SLD-Solid
 62
   142
420
    32960
370
     0
100
AcDbLine
 10
775.7127523447
 20
645.7813725261
 30
0.0
 11
775.7127523447
 21
645.1039255789
 31
0.0
  0
LINE
  5
1CB
330
1F
100
AcDbEntity
  8
0
  6
SLD-Solid
 62
   142
420
    32960
370
     0
100
AcDbLine
 10
775.7127523447
 20
-34.8947009256
 30
0.0
 11
775.7127523447
 21
-35.5772061176
 31
0.0
  0
LINE
  5
1CC
330
1F
100
AcDbEntity
  8
0
  6
SLD-Solid
 62
   142
420
    32960
370
     0
100
AcDbLine
 10
775.7127523447
 20
-35.5772061176
 30
0.0
 11
776.5127523447
 21
-35.5772061176
 31
0.0
  0
LINE
  5
1CD
330
1F
100
AcDbEntity
  8
0
  6
SLD-Solid
 62
   142
420
    32960
370
     0
100
AcDbLine
 10
69.7834630229
 20
-35.6479167958
 30
0.0
 11
70.4659682149
 21
-35.6479167958
 31
0.0
  0
LINE
  5
1CE
330
1F
100
AcDbEntity
  8
0
  6
SLD-Solid
 62
   142
420
    32960
370
     0
100
AcDbLine
 10
774.9639287881
 20
-35.6479167958
 30
0.0
 11
775.6420416666
 21
-35.6479167958
 31
0.0
  0
LINE
  5
1CF
330
1F
100
AcDbEntity
  8
0
  6
SLD-Solid
 62
   142
420
    32960
370
     0
100
AcDbLine
 10
775.6420416666
 20
-36.4479167958
 30
0.0
 11
775.6420416666
 21
-35.6479167958
 31
0.0
  0
LINE
  5
1D0
330
1F
100
AcDbEntity
  8
0
  6
SLD-Solid
 62
   142
420
    32960
370
     0
100
AcDbLine
 10
69.7834630229
 20
-36.4479167958
 30
0.0
 11
69.7834630229
 21
-35.6479167958
 31
0.0
  0
LINE
  5
1D1
330
1F
100
AcDbEntity
  8
0
  6
SLD-Solid
 62
   142
420
    32960
370
     0
100
AcDbLine
 10
829.4127523447
 20
499.8520832042
 30
0.0
 11
821.6175503936
 21
499.8520832042
 31
0.0
  0
LINE
  5
1D2
330
1F
100
AcDbEntity
  8
0
  6
SLD-Solid
 62
   142
420
    32960
370
     0
100
AcDbLine
 10
779.0127523447
 20
502.3520832042
 30
0.0
 11
779.0127523447
 21
506.5644086745
 31
0.0
  0
LINE
  5
1D3
330
1F
100
AcDbEntity
  8
0
  6
SLD-Solid
 62
   142
420
    32960
370
     0
100
AcDbLine
 10
779.0127523447
 20
504.6020832042
 30
0.0
 11
779.0127523447
 21
507.4020832042
 31
0.0
  0
LINE
  5
1D4
330
1F
100
AcDbEntity
  8
0
  6
SLD-Solid
 62
   142
420
    32960
370
     0
100
AcDbLine
 10
779.0127523447
 20
504.6020832042
 30
0.0
 11
779.0127523447
 21
507.4020832042
 31
0.0
  0
LINE
  5
1D5
330
1F
100
AcDbEntity
  8
0
  6
SLD-Solid
 62
   142
420
    32960
370
     0
100
AcDbLine
 10
779.0127523447
 20
504.6020832042
 30
0.0
 11
779.0127523447
 21
507.4020832042
 31
0.0
  0
LINE
  5
1D6
330
1F
100
AcDbEntity
  8
0
  6
SLD-Solid
 62
   142
420
    32960
370
     0
100
AcDbLine
 10
801.7623134973
 20
618.3323648053
 30
0.0
 11
801.7601448905
 21
618.3390390908
 31
0.0
  0
LINE
  5
1D7
330
1F
100
AcDbEntity
  8
0
  6
SLD-Solid
 62
   142
420
    32960
370
     0
100
AcDbLine
 10
821.8462495248
 20
556.5203655316
 30
0.0
 11
801.7623134973
 21
618.3323648053
 31
0.0
  0
LINE
  5
1D8
330
1F
100
AcDbEntity
  8
0
  6
SLD-Solid
 62
     7
370
    15
100
AcDbLine
 10
814.0933569471
 20
612.7419951585
 30
0.0
 11
812.5067780309
 21
617.6249829694
 31
0.0
  0
SPLINE
  5
1D9
330
1F
100
AcDbEntity
  8
0
  6
SLD-Solid
 62
   142
420
    32960
370
     0
100
AcDbSpline
210
0.0
220
0.0
230
1.0
 70
     8
 71
     3
 72
    10
 73
     6
 74
     0
 42
0.00000001
 43
0.00000001
 40
0.0
 40
0.0
 40
0.0
 40
0.0
 40
0.5
 40
0.5
 40
1.0
 40
1.0
 40
1.0
 40
1.0
 10
813.8493368138642
 20
611.4587894028117
 30
0.0
 10
813.7713506599217
 20
611.6988061049284
 30
0.0
 10
813.7497233790428
 20
611.9279525160144
 30
0.0
 10
813.8302795160898
 20
612.365224871237
 30
0.0
 10
813.9312021914513
 20
612.5639182153113
 30
0.0
 10
814.0933569471298
 20
612.7419951585291
 30
0.0
  0
SPLINE
  5
1DA
330
1F
100
AcDbEntity
  8
0
  6
SLD-Solid
 62
   142
420
    32960
370
     0
100
AcDbSpline
210
0.0
220
0.0
230
1.0
 70
     8
 71
     3
 72
    10
 73
     6
 74
     0
 42
0.00000001
 43
0.00000001
 40
0.0
 40
0.0
 40
0.0
 40
0.0
 40
0.5
 40
0.5
 40
1.0
 40
1.0
 40
1.0
 40
1.0
 10
828.7374626713406
 20
567.6720720544726
 30
0.0
 10
828.5057069680138
 20
567.7082048020044
 30
0.0
 10
828.3114970728232
 20
567.7966199986267
 30
0.0
 10
827.9978592030525
 20
568.0766994550233
 30
0.0
 10
827.8848129276903
 20
568.2620356308732
 30
0.0
 10
827.8108406433972
 20
568.4896989124494
 30
0.0
  0
LINE
  5
1DB
330
1F
100
AcDbEntity
  8
0
  6
SLD-Solid
 62
     7
370
    15
100
AcDbLine
 10
830.1207467103
 20
563.4147615406
 30
0.0
 11
828.7374626713
 21
567.6720720545
 31
0.0
  0
SPLINE
  5
1DC
330
1F
100
AcDbEntity
  8
0
  6
SLD-Solid
 62
   142
420
    32960
370
     0
100
AcDbSpline
210
0.0
220
0.0
230
1.0
 70
     8
 71
     3
 72
     9
 73
     5
 74
     0
 42
0.00000001
 43
0.00000001
 40
0.0
 40
0.0
 40
0.0
 40
0.0
 40
0.4997022537552376
 40
1.0
 40
1.0
 40
1.0
 40
1.0
 10
809.0448149283451
 20
607.4056376700053
 30
0.0
 10
809.016548438015
 20
607.3136487419631
 30
0.0
 10
808.9599817723297
 20
607.1295612631677
 30
0.0
 10
808.9027467579303
 20
606.9428718582087
 30
0.0
 10
808.8741122092202
 20
606.8494715696598
 30
0.0
  0
SPLINE
  5
1DD
330
1F
100
AcDbEntity
  8
0
  6
SLD-Solid
 62
   142
420
    32960
370
     0
100
AcDbSpline
210
0.0
220
0.0
230
1.0
 70
     8
 71
     3
 72
     9
 73
     5
 74
     0
 42
0.00000001
 43
0.00000001
 40
0.0
 40
0.0
 40
0.0
 40
0.0
 40
0.5030935291777917
 40
1.0
 40
1.0
 40
1.0
 40
1.0
 10
808.8741122092202
 20
606.8494715696598
 30
0.0
 10
809.2791114099265
 20
606.7304663756518
 30
0.0
 10
810.0841291197906
 20
606.4939195168548
 30
0.0
 10
810.8873087575679
 20
606.2507156413351
 30
0.0
 10
811.2864139168119
 20
606.1298660618604
 30
0.0
  0
SPLINE
  5
1DE
330
1F
100
AcDbEntity
  8
0
  6
SLD-Solid
 62
   142
420
    32960
370
     0
100
AcDbSpline
210
0.0
220
0.0
230
1.0
 70
     8
 71
     3
 72
    13
 73
     9
 74
     0
 42
0.00000001
 43
0.00000001
 40
0.0
 40
0.0
 40
0.0
 40
0.0
 40
0.2862474508623465
 40
0.5000653653801114
 40
0.6274835430651908
 40
0.7500272884545203
 40
0.875005463089781
 40
1.0
 40
1.0
 40
1.0
 40
1.0
 10
811.2864139168119
 20
606.1298660618603
 30
0.0
 10
811.3892076667877
 20
606.098955534526
 30
0.0
 10
811.5687851407023
 20
606.0449558077199
 30
0.0
 10
811.7963028024952
 20
605.9843498265474
 30
0.0
 10
811.9665174108777
 20
605.9501365370841
 30
0.0
 10
812.1047997113374
 20
605.9323451988101
 30
0.0
 10
812.2419948058674
 20
605.9238812896068
 30
0.0
 10
812.3322261727872
 20
605.9276962096546
 30
0.0
 10
812.3773448093501
 20
605.9296037945335
 30
0.0
  0
SPLINE
  5
1DF
330
1F
100
AcDbEntity
  8
0
  6
SLD-Solid
 62
   142
420
    32960
370
     0
100
AcDbSpline
210
0.0
220
0.0
230
1.0
 70
     8
 71
     3
 72
    16
 73
    12
 74
     0
 42
0.00000001
 43
0.00000001
 40
0.0
 40
0.0
 40
0.0
 40
0.0
 40
0.0626347164105453
 40
0.1252462045551186
 40
0.2503234762037724
 40
0.4994982808584352
 40
0.6245902168365725
 40
0.7496705979365103
 40
0.8747389694974212
 40
0.9373591468078238
 40
1.0
 40
1.0
 40
1.0
 40
1.0
 10
812.3773448093501
 20
605.9296037945335
 30
0.0
 10
812.4206834285486
 20
605.9334922188413
 30
0.0
 10
812.5073445946931
 20
605.9412676254234
 30
0.0
 10
812.6733247504744
 20
605.9749295400097
 30
0.0
 10
812.9431316359878
 20
606.0694411035067
 30
0.0
 10
813.1819790067152
 20
606.2580098147373
 30
0.0
 10
813.3435642471047
 20
606.4864023112378
 30
0.0
 10
813.4086514062948
 20
606.6807675659419
 30
0.0
 10
813.416833849389
 20
606.8518512640385
 30
0.0
 10
813.39461665548
 20
606.9897728758039
 30
0.0
 10
813.3753427224093
 20
607.058290302045
 30
0.0
 10
813.3657041651734
 20
607.0925546699898
 30
0.0
  0
SPLINE
  5
1E0
330
1F
100
AcDbEntity
  8
0
  6
SLD-Solid
 62
   142
420
    32960
370
     0
100
AcDbSpline
210
0.0
220
0.0
230
1.0
 70
     8
 71
     3
 72
    17
 73
    13
 74
     0
 42
0.00000001
 43
0.00000001
 40
0.0
 40
0.0
 40
0.0
 40
0.0
 40
0.0625792467947568
 40
0.1251386172826812
 40
0.2500882291406245
 40
0.3750454651189994
 40
0.5000166197722157
 40
0.6275888092704821
 40
0.7499048935735478
 40
0.8748659115759168
 40
0.9374228974929506
 40
1.0
 40
1.0
 40
1.0
 40
1.0
 10
813.3657041651734
 20
607.0925546699898
 30
0.0
 10
813.3535044136573
 20
607.1265449321766
 30
0.0
 10
813.3291087854886
 20
607.1945146606247
 30
0.0
 10
813.2623385878304
 20
607.3274028769938
 30
0.0
 10
813.1487516049913
 20
607.486453800305
 30
0.0
 10
812.9629221616125
 20
607.6544394661929
 30
0.0
 10
812.7419457439066
 20
607.7975388203791
 30
0.0
 10
812.4977005002669
 20
607.9119617799071
 30
0.0
 10
812.2341751655795
 20
607.9902136431483
 30
0.0
 10
812.009986064375
 20
608.0207393386269
 30
0.0
 10
811.8310472049666
 20
608.0272644814241
 30
0.0
 10
811.7434428230489
 20
608.0226566450514
 30
0.0
 10
811.699633590438
 20
608.0203523564866
 30
0.0
  0
SPLINE
  5
1E1
330
1F
100
AcDbEntity
  8
0
  6
SLD-Solid
 62
   142
420
    32960
370
     0
100
AcDbSpline
210
0.0
220
0.0
230
1.0
 70
     8
 71
     3
 72
    17
 73
    13
 74
     0
 42
0.00000001
 43
0.00000001
 40
0.0
 40
0.0
 40
0.0
 40
0.0
 40
0.0625828327880219
 40
0.1251475851228491
 40
0.2501263684710773
 40
0.3738523636076076
 40
0.500034351733642
 40
0.6278306699013643
 40
0.7499469008274811
 40
0.8748604327671069
 40
0.9374196577040425
 40
1.0
 40
1.0
 40
1.0
 40
1.0
 10
811.699633590438
 20
608.0203523564866
 30
0.0
 10
811.6563666454026
 20
608.0165119295372
 30
0.0
 10
811.569845255341
 20
608.0088321851543
 30
0.0
 10
811.4020321167854
 20
607.9814996547148
 30
0.0
 10
811.205768862507
 20
607.9247457558836
 30
0.0
 10
811.0005185568426
 20
607.8202185596192
 30
0.0
 10
810.8356495215721
 20
607.6810920943994
 30
0.0
 10
810.7126379101062
 20
607.5179977253318
 30
0.0
 10
810.641663969647
 20
607.333361343548
 30
0.0
 10
810.629636425025
 20
607.1683566425565
 30
0.0
 10
810.6496206885871
 20
607.0323320254477
 30
0.0
 10
810.6688907897262
 20
606.9640788599319
 30
0.0
 10
810.678527466215
 20
606.9299465182977
 30
0.0
  0
SPLINE
  5
1E2
330
1F
100
AcDbEntity
  8
0
  6
SLD-Solid
 62
   142
420
    32960
370
     0
100
AcDbSpline
210
0.0
220
0.0
230
1.0
 70
     8
 71
     3
 72
     9
 73
     5
 74
     0
 42
0.00000001
 43
0.00000001
 40
0.0
 40
0.0
 40
0.0
 40
0.0
 40
0.4978933901263207
 40
1.0
 40
1.0
 40
1.0
 40
1.0
 10
810.678527466215
 20
606.9299465182978
 30
0.0
 10
810.4075846364367
 20
607.0096524293255
 30
0.0
 10
809.8634062336876
 20
607.1697387301448
 30
0.0
 10
809.3184440452773
 20
607.3267841344524
 30
0.0
 10
809.0448149283451
 20
607.4056376700053
 30
0.0
  0
LINE
  5
1E3
330
1F
100
AcDbEntity
  8
0
  6
SLD-Solid
 62
   142
420
    32960
370
     0
100
AcDbLine
 10
809.1379824967
 20
607.0500540701
 30
0.0
 11
810.2332192118
 21
607.1123100367
 31
0.0
  0
LINE
  5
1E4
330
1F
100
AcDbEntity
  8
0
  6
SLD-Solid
 62
   142
420
    32960
370
     0
100
AcDbLine
 10
811.3733732734
 20
607.1771192166
 30
0.0
 11
812.4641138754
 21
607.2391196131
 31
0.0
  0
SPLINE
  5
1E5
330
1F
100
AcDbEntity
  8
0
  6
SLD-Solid
 62
   142
420
    32960
370
     0
100
AcDbSpline
210
0.0
220
0.0
230
1.0
 70
     8
 71
     3
 72
    19
 73
    15
 74
     0
 42
0.00000001
 43
0.00000001
 40
0.0
 40
0.0
 40
0.0
 40
0.0
 40
0.1252636569322617
 40
0.2504606304605667
 40
0.3754117004534032
 40
0.5012496476206992
 40
0.5377354893582947
 40
0.5727333229857144
 40
0.6271094136918994
 40
0.750732042227929
 40
0.8205725051889224
 40
0.8746429677350781
 40
0.9790193147360899
 40
0.9999999999999999
 40
0.9999999999999999
 40
0.9999999999999999
 40
0.9999999999999999
 10
807.5166065011335
 20
617.9441856293658
 30
0.0
 10
807.3827027531786
 20
617.9532062272334
 30
0.0
 10
807.1149665401766
 20
617.9712426209037
 30
0.0
 10
806.7155941148951
 20
617.9989943801484
 30
0.0
 10
806.3209354920966
 20
618.027305707655
 30
0.0
 10
806.0344940775732
 20
618.0488612363923
 30
0.0
 10
805.850869077287
 20
618.0628610856627
 30
0.0
 10
805.7393173841918
 20
618.0714347158366
 30
0.0
 10
805.5613178759775
 20
618.0851059294193
 30
0.0
 10
805.393116250745
 20
618.0978539912237
 30
0.0
 10
805.2824870118835
 20
618.1049181667389
 30
0.0
 10
805.2135500925017
 20
618.1078848794239
 30
0.0
 10
805.1916056293328
 20
618.1066389539583
 30
0.0
 10
805.1917495516208
 20
618.1038475039791
 30
0.0
 10
805.1917736395252
 20
618.1033803061492
 30
0.0
  0
SPLINE
  5
1E6
330
1F
100
AcDbEntity
  8
0
  6
SLD-Solid
 62
   142
420
    32960
370
     0
100
AcDbSpline
210
0.0
220
0.0
230
1.0
 70
     8
 71
     3
 72
    13
 73
     9
 74
     0
 42
0.00000001
 43
0.00000001
 40
0.0
 40
0.0
 40
0.0
 40
0.0
 40
0.1251938662590081
 40
0.2503283849861608
 40
0.5000192369710228
 40
0.7496882904451618
 40
0.8748125585586507
 40
1.0
 40
1.0
 40
1.0
 40
1.0
 10
805.1917736395252
 20
618.1033803061492
 30
0.0
 10
805.1942515455397
 20
618.1018994282019
 30
0.0
 10
805.1992061829291
 20
618.0989383743099
 30
0.0
 10
805.236146965089
 20
618.0898015284697
 30
0.0
 10
805.3356588963811
 20
618.0731293792423
 30
0.0
 10
805.5044101793618
 20
618.050896992588
 30
0.0
 10
805.6709940440973
 20
618.03153459673
 30
0.0
 10
805.7642664299714
 20
618.0215338555613
 30
0.0
 10
805.8109143928871
 20
618.0165322229903
 30
0.0
  0
SPLINE
  5
1E7
330
1F
100
AcDbEntity
  8
0
  6
SLD-Solid
 62
   142
420
    32960
370
     0
100
AcDbSpline
210
0.0
220
0.0
230
1.0
 70
     8
 71
     3
 72
    14
 73
    10
 74
     0
 42
0.00000001
 43
0.00000001
 40
0.0
 40
0.0
 40
0.0
 40
0.0
 40
0.0625271511718764
 40
0.1250385665834659
 40
0.2500185759795634
 40
0.4998671003519353
 40
0.7498915699466326
 40
0.8749419633117685
 40
1.0
 40
1.0
 40
1.0
 40
1.0
 10
805.8109143928871
 20
618.0165322229903
 30
0.0
 10
805.8436479008349
 20
618.0131846895144
 30
0.0
 10
805.9091066789227
 20
618.0064904650122
 30
0.0
 10
806.0453323770151
 20
617.9930880034527
 30
0.0
 10
806.2978793264042
 20
617.9702789685514
 30
0.0
 10
806.6742538301419
 20
617.9394406266301
 30
0.0
 10
807.0574137732129
 20
617.9110930296388
 30
0.0
 10
807.3649884068717
 20
617.8896774604277
 30
0.0
 10
807.5188883425859
 20
617.8793247610973
 30
0.0
 10
807.5958406620367
 20
617.8741482532425
 30
0.0
  0
SPLINE
  5
1E8
330
1F
100
AcDbEntity
  8
0
  6
SLD-Solid
 62
   142
420
    32960
370
     0
100
AcDbSpline
210
0.0
220
0.0
230
1.0
 70
     8
 71
     3
 72
    18
 73
    14
 74
     0
 42
0.00000001
 43
0.00000001
 40
0.0
 40
0.0
 40
0.0
 40
0.0
 40
0.1251615752902384
 40
0.2503026028558644
 40
0.3753841869036775
 40
0.5003399629435827
 40
0.6302195788122491
 40
0.749810864591351
 40
0.8125874632032627
 40
0.8748654797413419
 40
0.9374191148115234
 40
0.9687073650343891
 40
0.9999999999999999
 40
0.9999999999999999
 40
0.9999999999999999
 40
0.9999999999999999
 10
807.5958406620367
 20
617.8741482532425
 30
0.0
 10
807.7280407550179
 20
617.8654934318336
 30
0.0
 10
807.9924192377453
 20
617.8481852098741
 30
0.0
 10
808.3872911590882
 20
617.8244740225509
 30
0.0
 10
808.7765931903728
 20
617.8038682877165
 30
0.0
 10
809.1497654499153
 20
617.788747901527
 30
0.0
 10
809.478797864934
 20
617.7800667502446
 30
0.0
 10
809.6858326084891
 20
617.7794215178965
 30
0.0
 10
809.7937180328656
 20
617.7820086045173
 30
0.0
 10
809.8483117456669
 20
617.7851815637309
 30
0.0
 10
809.871012230018
 20
617.7884744108806
 30
0.0
 10
809.8800014515804
 20
617.7911548334991
 30
0.0
 10
809.8799044128432
 20
617.792542271357
 30
0.0
 10
809.8798558900752
 20
617.7932360388913
 30
0.0
  0
SPLINE
  5
1E9
330
1F
100
AcDbEntity
  8
0
  6
SLD-Solid
 62
   142
420
    32960
370
     0
100
AcDbSpline
210
0.0
220
0.0
230
1.0
 70
     8
 71
     3
 72
    21
 73
    17
 74
     0
 42
0.00000001
 43
0.00000001
 40
0.0
 40
0.0
 40
0.0
 40
0.0
 40
0.0058710092808719
 40
0.0679694924427253
 40
0.1298970787197983
 40
0.1923195363555949
 40
0.2542898596691077
 40
0.3251818438344687
 40
0.3959557723149425
 40
0.4494641890342369
 40
0.5029207417835919
 40
0.6268212425505322
 40
0.7513131241816219
 40
0.8757012581326349
 40
0.9377771560630571
 40
0.9999999999999999
 40
0.9999999999999999
 40
0.9999999999999999
 40
0.9999999999999999
 10
809.8798558900752
 20
617.7932360388913
 30
0.0
 10
809.879672177823
 20
617.7933717911316
 30
0.0
 10
809.8775453154843
 20
617.794943413731
 30
0.0
 10
809.8692751908396
 20
617.7977268286652
 30
0.0
 10
809.8339995054715
 20
617.802024114452
 30
0.0
 10
809.7709069955982
 20
617.8069322281467
 30
0.0
 10
809.6749814996612
 20
617.8129250284671
 30
0.0
 10
809.5402998835506
 20
617.820523493063
 30
0.0
 10
809.3816983917462
 20
617.8293009229068
 30
0.0
 10
809.2240020827999
 20
617.8380425647217
 30
0.0
 10
809.0055097453265
 20
617.850390442578
 30
0.0
 10
808.7020226816973
 20
617.867973305484
 30
0.0
 10
808.309904645478
 20
617.8922568946742
 30
0.0
 10
807.9797467410239
 20
617.913515984821
 30
0.0
 10
807.7151166719647
 20
617.9309318244776
 30
0.0
 10
807.582828688374
 20
617.939764213852
 30
0.0
 10
807.5166065011335
 20
617.9441856293658
 30
0.0
  0
SPLINE
  5
1EA
330
1F
100
AcDbEntity
  8
0
  6
SLD-Solid
 62
   142
420
    32960
370
     0
100
AcDbSpline
210
0.0
220
0.0
230
1.0
 70
     8
 71
     3
 72
    11
 73
     7
 74
     0
 42
0.00000001
 43
0.00000001
 40
0.0
 40
0.0
 40
0.0
 40
0.0
 40
0.2500102014516198
 40
0.5000006436975609
 40
0.7499907640102923
 40
1.0
 40
1.0
 40
1.0
 40
1.0
 10
816.8677554297498
 20
582.5316076008809
 30
0.0
 10
816.9222332647199
 20
582.3698700032711
 30
0.0
 10
817.0311846290812
 20
582.0464075907557
 30
0.0
 10
817.1902625833719
 20
581.5619927784047
 30
0.0
 10
817.346403215965
 20
581.078211346851
 30
0.0
 10
817.4475237771182
 20
580.7564365653791
 30
0.0
 10
817.4980859906855
 20
580.5955430236926
 30
0.0
  0
SPLINE
  5
1EB
330
1F
100
AcDbEntity
  8
0
  6
SLD-Solid
 62
   142
420
    32960
370
     0
100
AcDbSpline
210
0.0
220
0.0
230
1.0
 70
     8
 71
     3
 72
     9
 73
     5
 74
     0
 42
0.00000001
 43
0.00000001
 40
0.0
 40
0.0
 40
0.0
 40
0.0
 40
0.5036675688378597
 40
1.0
 40
1.0
 40
1.0
 40
1.0
 10
817.4980859906855
 20
580.5955430236926
 30
0.0
 10
817.8805979536187
 20
580.6659371313747
 30
0.0
 10
818.6400511854712
 20
580.8057001656408
 30
0.0
 10
819.3984144292599
 20
580.9457871671473
 30
0.0
 10
819.7748147017535
 20
581.0153168891792
 30
0.0
  0
SPLINE
  5
1EC
330
1F
100
AcDbEntity
  8
0
  6
SLD-Solid
 62
   142
420
    32960
370
     0
100
AcDbSpline
210
0.0
220
0.0
230
1.0
 70
     8
 71
     3
 72
     9
 73
     5
 74
     0
 42
0.00000001
 43
0.00000001
 40
0.0
 40
0.0
 40
0.0
 40
0.0
 40
0.5001021414441718
 40
0.9999999999999999
 40
0.9999999999999999
 40
0.9999999999999999
 40
0.9999999999999999
 10
819.7748147017535
 20
581.0153168891793
 30
0.0
 10
819.7645115505725
 20
581.1309324699728
 30
0.0
 10
819.7439094568651
 20
581.3621164046376
 30
0.0
 10
819.7217340458358
 20
581.593758314358
 30
0.0
 10
819.7106486053495
 20
581.7095556089789
 30
0.0
  0
SPLINE
  5
1ED
330
1F
100
AcDbEntity
  8
0
  6
SLD-Solid
 62
   142
420
    32960
370
     0
100
AcDbSpline
210
0.0
220
0.0
230
1.0
 70
     8
 71
     3
 72
    12
 73
     8
 74
     0
 42
0.00000001
 43
0.00000001
 40
0.0
 40
0.0
 40
0.0
 40
0.0
 40
0.2501215802571692
 40
0.5001385013493737
 40
0.7498605984542305
 40
0.8748990456784621
 40
1.0
 40
1.0
 40
1.0
 40
1.0
 10
819.7106486053495
 20
581.7095556089789
 30
0.0
 10
819.6681061855245
 20
581.7295474091845
 30
0.0
 10
819.583039147034
 20
581.7695226443636
 30
0.0
 10
819.4685287820848
 20
581.8559700051154
 30
0.0
 10
819.3886416928842
 20
581.9482475946322
 30
0.0
 10
819.339157615654
 20
582.0343832163497
 30
0.0
 10
819.3216805981392
 20
582.081752757213
 30
0.0
 10
819.3129399057242
 20
582.1054434462094
 30
0.0
  0
SPLINE
  5
1EE
330
1F
100
AcDbEntity
  8
0
  6
SLD-Solid
 62
   142
420
    32960
370
     0
100
AcDbSpline
210
0.0
220
0.0
230
1.0
 70
     8
 71
     3
 72
    16
 73
    12
 74
     0
 42
0.00000001
 43
0.00000001
 40
0.0
 40
0.0
 40
0.0
 40
0.0
 40
0.0625768915256294
 40
0.1251365117524376
 40
0.2500258664706999
 40
0.3749336302797202
 40
0.4998800117691822
 40
0.6248549835765883
 40
0.749869466672533
 40
0.8748972018542536
 40
1.0
 40
1.0
 40
1.0
 40
1.0
 10
819.3129399057242
 20
582.1054434462094
 30
0.0
 10
819.3068866063297
 20
582.1260244455422
 30
0.0
 10
819.2947816782591
 20
582.1671807638267
 30
0.0
 10
819.2814957052846
 20
582.2530032774139
 30
0.0
 10
819.2795939765749
 20
582.3632868094038
 30
0.0
 10
819.3078273350447
 20
582.4934719869512
 30
0.0
 10
819.3586635066534
 20
582.6153399557898
 30
0.0
 10
819.4279030072695
 20
582.726874417324
 30
0.0
 10
819.5176496271552
 20
582.8190584240201
 30
0.0
 10
819.6185533485141
 20
582.8959771911357
 30
0.0
 10
819.6932762935621
 20
582.9310621317022
 30
0.0
 10
819.7306489780835
 20
582.9486098663963
 30
0.0
  0
SPLINE
  5
1EF
330
1F
100
AcDbEntity
  8
0
  6
SLD-Solid
 62
   142
420
    32960
370
     0
100
AcDbSpline
210
0.0
220
0.0
230
1.0
 70
     8
 71
     3
 72
    17
 73
    13
 74
     0
 42
0.00000001
 43
0.00000001
 40
0.0
 40
0.0
 40
0.0
 40
0.0
 40
0.0625820088414693
 40
0.1251506259511
 40
0.2501000092855598
 40
0.3750446097038949
 40
0.5000411091553013
 40
0.6250436569436121
 40
0.7499362197475363
 40
0.8748672129464626
 40
0.9374220428777905
 40
1.0
 40
1.0
 40
1.0
 40
1.0
 10
819.7306489780835
 20
582.9486098663963
 30
0.0
 10
819.7505974884353
 20
582.9566087297158
 30
0.0
 10
819.7904902404188
 20
582.9726047447028
 30
0.0
 10
819.8722496882618
 20
582.996979842181
 30
0.0
 10
819.9770141746811
 20
583.0131360914637
 30
0.0
 10
820.1031895190001
 20
583.0066855233594
 30
0.0
 10
820.2236225278187
 20
582.9693495281128
 30
0.0
 10
820.3347303875668
 20
582.9085680984826
 30
0.0
 10
820.4311982253755
 20
582.8233985023111
 30
0.0
 10
820.4942802416484
 20
582.7338690247096
 30
0.0
 10
820.5328091050607
 20
582.6542118041563
 30
0.0
 10
820.5476368940064
 20
582.6120508654956
 30
0.0
 10
820.5550521587242
 20
582.5909665000479
 30
0.0
  0
SPLINE
  5
1F0
330
1F
100
AcDbEntity
  8
0
  6
SLD-Solid
 62
   142
420
    32960
370
     0
100
AcDbSpline
210
0.0
220
0.0
230
1.0
 70
     8
 71
     3
 72
    13
 73
     9
 74
     0
 42
0.00000001
 43
0.00000001
 40
0.0
 40
0.0
 40
0.0
 40
0.0
 40
0.1252132507905707
 40
0.2503205428080892
 40
0.4999327495223533
 40
0.7496225238635035
 40
0.8747717100022555
 40
1.0
 40
1.0
 40
1.0
 40
1.0
 10
820.5550521587242
 20
582.5909665000479
 30
0.0
 10
820.5638480233023
 20
582.5589779909533
 30
0.0
 10
820.5814323091647
 20
582.4950280422887
 30
0.0
 10
820.5959574349372
 20
582.3611947386279
 30
0.0
 10
820.5771413715823
 20
582.1901367268573
 30
0.0
 10
820.5141213925086
 20
582.0303482957733
 30
0.0
 10
820.4425660916146
 20
581.9159040644388
 30
0.0
 10
820.4001874742155
 20
581.8642901632971
 30
0.0
 10
820.3789914709996
 20
581.8384750593198
 30
0.0
  0
SPLINE
  5
1F1
330
1F
100
AcDbEntity
  8
0
  6
SLD-Solid
 62
   142
420
    32960
370
     0
100
AcDbSpline
210
0.0
220
0.0
230
1.0
 70
     8
 71
     3
 72
     9
 73
     5
 74
     0
 42
0.00000001
 43
0.00000001
 40
0.0
 40
0.0
 40
0.0
 40
0.0
 40
0.4999915155784539
 40
1.0
 40
1.0
 40
1.0
 40
1.0
 10
820.3789914709997
 20
581.8384750593199
 30
0.0
 10
820.4214057339432
 20
581.7015883581955
 30
0.0
 10
820.5062356992964
 20
581.4278103102504
 30
0.0
 10
820.5883934057551
 20
581.154852101579
 30
0.0
 10
820.6294729560452
 20
581.0183706813508
 30
0.0
  0
SPLINE
  5
1F2
330
1F
100
AcDbEntity
  8
0
  6
SLD-Solid
 62
   142
420
    32960
370
     0
100
AcDbSpline
210
0.0
220
0.0
230
1.0
 70
     8
 71
     3
 72
    17
 73
    13
 74
     0
 42
0.00000001
 43
0.00000001
 40
0.0
 40
0.0
 40
0.0
 40
0.0
 40
0.0625627776868514
 40
0.1251141196029098
 40
0.2500805960564231
 40
0.3750527100507386
 40
0.5000013317453624
 40
0.6249551927359924
 40
0.749896943906304
 40
0.8748889489927714
 40
0.9374383434517218
 40
1.0
 40
1.0
 40
1.0
 40
1.0
 10
820.6294729560452
 20
581.0183706813508
 30
0.0
 10
820.66308908429
 20
581.0440235436632
 30
0.0
 10
820.7303151961303
 20
581.0953245792341
 30
0.0
 10
820.8577386164616
 20
581.2086954040458
 30
0.0
 10
821.0026650474524
 20
581.3693486772067
 30
0.0
 10
821.1444622912765
 20
581.5910672333514
 30
0.0
 10
821.2470948141844
 20
581.8355321083087
 30
0.0
 10
821.3090838889228
 20
582.0932676897215
 30
0.0
 10
821.3296396373463
 20
582.3567115083407
 30
0.0
 10
821.3074882137785
 20
582.573398187425
 30
0.0
 10
821.2729391296878
 20
582.7422578048661
 30
0.0
 10
821.2485389762278
 20
582.8243043188252
 30
0.0
 10
821.2363377037726
 20
582.8653315964793
 30
0.0
  0
SPLINE
  5
1F3
330
1F
100
AcDbEntity
  8
0
  6
SLD-Solid
 62
   142
420
    32960
370
     0
100
AcDbSpline
210
0.0
220
0.0
230
1.0
 70
     8
 71
     3
 72
    17
 73
    13
 74
     0
 42
0.00000001
 43
0.00000001
 40
0.0
 40
0.0
 40
0.0
 40
0.0
 40
0.0625713784685121
 40
0.1251215088470803
 40
0.2500656599897375
 40
0.3750200963255806
 40
0.4999716825898509
 40
0.6277208470488573
 40
0.7499098671822783
 40
0.874872688032993
 40
0.9374260668416257
 40
1.0
 40
1.0
 40
1.0
 40
1.0
 10
821.2363377037726
 20
582.8653315964793
 30
0.0
 10
821.2203218828995
 20
582.911543706809
 30
0.0
 10
821.1882956798318
 20
583.0039522346848
 30
0.0
 10
821.1046314298683
 20
583.1787166391587
 30
0.0
 10
820.9708295096902
 20
583.3786820607405
 30
0.0
 10
820.7626157891943
 20
583.5706771208825
 30
0.0
 10
820.5208632885965
 20
583.7139827274539
 30
0.0
 10
820.259137707275
 20
583.805808241035
 30
0.0
 10
819.9837239602614
 20
583.8372797613019
 30
0.0
 10
819.7547303275878
 20
583.8102885446818
 30
0.0
 10
819.5750961077067
 20
583.7594850625487
 30
0.0
 10
819.4877488637637
 20
583.7247536537327
 30
0.0
 10
819.4440680676362
 20
583.707385096704
 30
0.0
  0
SPLINE
  5
1F4
330
1F
100
AcDbEntity
  8
0
  6
SLD-Solid
 62
   142
420
    32960
370
     0
100
AcDbSpline
210
0.0
220
0.0
230
1.0
 70
     8
 71
     3
 72
    19
 73
    15
 74
     0
 42
0.00000001
 43
0.00000001
 40
0.0
 40
0.0
 40
0.0
 40
0.0
 40
0.0625583465051357
 40
0.1251001633860465
 40
0.2500501157123891
 40
0.3749255740713318
 40
0.4998063905395556
 40
0.5999962464121511
 40
0.6748725249125508
 40
0.7498430831687766
 40
0.8123758319883008
 40
0.874911136246458
 40
0.937446817025729
 40
1.0
 40
1.0
 40
1.0
 40
1.0
 10
819.4440680676362
 20
583.707385096704
 30
0.0
 10
819.4036071347548
 20
583.688674930268
 30
0.0
 10
819.3226959598758
 20
583.6512595411327
 30
0.0
 10
819.1667978154588
 20
583.561966912095
 30
0.0
 10
818.9858323814336
 20
583.4225212135781
 30
0.0
 10
818.8018904518035
 20
583.2122174478651
 30
0.0
 10
818.6704471327537
 20
582.9816494275926
 30
0.0
 10
818.591528585624
 20
582.7669438028383
 30
0.0
 10
818.5479944635425
 20
582.5808028632174
 30
0.0
 10
818.5324831381755
 20
582.4193364821365
 30
0.0
 10
818.5315398249157
 20
582.267168633876
 30
0.0
 10
818.5469206632048
 20
582.1262828564011
 30
0.0
 10
818.5722845143222
 20
581.9876654817261
 30
0.0
 10
818.5990516042202
 20
581.8987843116045
 30
0.0
 10
818.6124370217692
 20
581.8543375085019
 30
0.0
  0
SPLINE
  5
1F5
330
1F
100
AcDbEntity
  8
0
  6
SLD-Solid
 62
   142
420
    32960
370
     0
100
AcDbSpline
210
0.0
220
0.0
230
1.0
 70
     8
 71
     3
 72
     9
 73
     5
 74
     0
 42
0.00000001
 43
0.00000001
 40
0.0
 40
0.0
 40
0.0
 40
0.0
 40
0.499905991303642
 40
1.0
 40
1.0
 40
1.0
 40
1.0
 10
818.6124370217692
 20
581.8543375085019
 30
0.0
 10
818.6286537534572
 20
581.8099508385421
 30
0.0
 10
818.6610933160355
 20
581.7211608045519
 30
0.0
 10
818.7094070869412
 20
581.6424252876872
 30
0.0
 10
818.7335685143089
 20
581.6030501274316
 30
0.0
  0
LINE
  5
1F6
330
1F
100
AcDbEntity
  8
0
  6
SLD-Solid
 62
   142
420
    32960
370
     0
100
AcDbLine
 10
817.9827095088
 20
581.4714569679
 30
0.0
 11
818.7335685143
 21
581.6030501274
 31
0.0
  0
SPLINE
  5
1F7
330
1F
100
AcDbEntity
  8
0
  6
SLD-Solid
 62
   142
420
    32960
370
     0
100
AcDbSpline
210
0.0
220
0.0
230
1.0
 70
     8
 71
     3
 72
     9
 73
     5
 74
     0
 42
0.00000001
 43
0.00000001
 40
0.0
 40
0.0
 40
0.0
 40
0.0
 40
0.4999969146687007
 40
1.0
 40
1.0
 40
1.0
 40
1.0
 10
817.9827095088259
 20
581.4714569679487
 30
0.0
 10
817.91030164922
 20
581.6960221639207
 30
0.0
 10
817.7654850363936
 20
582.1451553273139
 30
0.0
 10
817.6140098734498
 20
582.59559180336
 30
0.0
 10
817.5382718246271
 20
582.8208114311287
 30
0.0
  0
LINE
  5
1F8
330
1F
100
AcDbEntity
  8
0
  6
SLD-Solid
 62
   142
420
    32960
370
     0
100
AcDbLine
 10
816.8677554297
 20
582.5316076009
 30
0.0
 11
817.5382718246
 21
582.8208114311
 31
0.0
  0
SPLINE
  5
1F9
330
1F
100
AcDbEntity
  8
0
  6
SLD-Solid
 62
   142
420
    32960
370
     0
100
AcDbSpline
210
0.0
220
0.0
230
1.0
 70
     8
 71
     3
 72
    14
 73
    10
 74
     0
 42
0.00000001
 43
0.00000001
 40
0.0
 40
0.0
 40
0.0
 40
0.0
 40
0.1252564941086926
 40
0.2503266169910681
 40
0.4993053952796945
 40
0.6244264222680512
 40
0.7495559394220481
 40
0.8747483048325253
 40
1.0
 40
1.0
 40
1.0
 40
1.0
 10
826.0200900042178
 20
563.660374628818
 30
0.0
 10
826.0547156894398
 20
563.6877869592136
 30
0.0
 10
826.1239155397493
 20
563.742570832741
 30
0.0
 10
826.2513058064698
 20
563.8671770069695
 30
0.0
 10
826.3546188792222
 20
564.0013630286795
 30
0.0
 10
826.4231145969732
 20
564.127491820953
 30
0.0
 10
826.4550234895811
 20
564.2155970939548
 30
0.0
 10
826.4650637824717
 20
564.2929348412989
 30
0.0
 10
826.4567054820421
 20
564.3347837774468
 30
0.0
 10
826.452525341794
 20
564.3557132024902
 30
0.0
  0
SPLINE
  5
1FA
330
1F
100
AcDbEntity
  8
0
  6
SLD-Solid
 62
   142
420
    32960
370
     0
100
AcDbSpline
210
0.0
220
0.0
230
1.0
 70
     8
 71
     3
 72
    10
 73
     6
 74
     0
 42
0.00000001
 43
0.00000001
 40
0.0
 40
0.0
 40
0.0
 40
0.0
 40
0.3161664710762085
 40
0.6322240000689762
 40
1.0
 40
1.0
 40
1.0
 40
1.0
 10
826.1139097660164
 20
563.3076646740848
 30
0.0
 10
826.1526485672791
 20
563.3378155528973
 30
0.0
 10
826.2301128215017
 20
563.3981069213764
 30
0.0
 10
826.3506763841215
 20
563.5001141790773
 30
0.0
 10
826.4261059264362
 20
563.575767278526
 30
0.0
 10
826.4666730735206
 20
563.6164546580136
 30
0.0
  0
SPLINE
  5
1FB
330
1F
100
AcDbEntity
  8
0
  6
SLD-Solid
 62
   142
420
    32960
370
     0
100
AcDbSpline
210
0.0
220
0.0
230
1.0
 70
     8
 71
     3
 72
    18
 73
    14
 74
     0
 42
0.00000001
 43
0.00000001
 40
0.0
 40
0.0
 40
0.0
 40
0.0
 40
0.0625457692087412
 40
0.1250799684438483
 40
0.2500402054669104
 40
0.374957969424686
 40
0.4999189686768477
 40
0.5624516703922395
 40
0.6249777403764523
 40
0.7499527049293674
 40
0.874921648455106
 40
0.9374548383200092
 40
1.0
 40
1.0
 40
1.0
 40
1.0
 10
826.1139097660164
 20
563.3076646740848
 30
0.0
 10
826.088648312691
 20
563.2888479179986
 30
0.0
 10
826.0381300790078
 20
563.2512178866272
 30
0.0
 10
825.9366035845036
 20
563.180478164101
 30
0.0
 10
825.8094941605426
 20
563.1004382490155
 30
0.0
 10
825.6623104952992
 20
563.0262442031783
 30
0.0
 10
825.5461860922661
 20
562.980539179402
 30
0.0
 10
825.4606106144131
 20
562.9572356815358
 30
0.0
 10
825.378889108745
 20
562.9403612088829
 30
0.0
 10
825.2888203380389
 20
562.9373481204346
 30
0.0
 10
825.2124353379043
 20
562.9517859879606
 30
0.0
 10
825.1608265964676
 20
562.9742081873572
 30
0.0
 10
825.1386243807364
 20
562.9893204441473
 30
0.0
 10
825.1275222103336
 20
562.9968772957735
 30
0.0
  0
SPLINE
  5
1FC
330
1F
100
AcDbEntity
  8
0
  6
SLD-Solid
 62
   142
420
    32960
370
     0
100
AcDbSpline
210
0.0
220
0.0
230
1.0
 70
     8
 71
     3
 72
    14
 73
    10
 74
     0
 42
0.00000001
 43
0.00000001
 40
0.0
 40
0.0
 40
0.0
 40
0.0
 40
0.1251521262462983
 40
0.2502315232111213
 40
0.4997926956395775
 40
0.6240049389517507
 40
0.7498681272111303
 40
0.8748924578462156
 40
1.0
 40
1.0
 40
1.0
 40
1.0
 10
825.1275222103336
 20
562.9968772957735
 30
0.0
 10
825.1142032561361
 20
562.9637217441392
 30
0.0
 10
825.0875730877449
 20
562.897429908457
 30
0.0
 10
825.0165617205633
 20
562.7586749645734
 30
0.0
 10
824.9162266935494
 20
562.6116311614683
 30
0.0
 10
824.7923605646185
 20
562.4654685129665
 30
0.0
 10
824.6885469911325
 20
562.358609622546
 30
0.0
 10
824.577045096228
 20
562.2557832521619
 30
0.0
 10
824.498748971145
 20
562.1945469368367
 30
0.0
 10
824.4595878851943
 20
562.1639185934134
 30
0.0
  0
SPLINE
  5
1FD
330
1F
100
AcDbEntity
  8
0
  6
SLD-Solid
 62
   142
420
    32960
370
     0
100
AcDbSpline
210
0.0
220
0.0
230
1.0
 70
     8
 71
     3
 72
    12
 73
     8
 74
     0
 42
0.00000001
 43
0.00000001
 40
0.0
 40
0.0
 40
0.0
 40
0.0
 40
0.2899673320144959
 40
0.4691117836455184
 40
0.6450847707257837
 40
0.8225208941850543
 40
0.9999999999999999
 40
0.9999999999999999
 40
0.9999999999999999
 40
0.9999999999999999
 10
823.5458176914128
 20
561.8521809559229
 30
0.0
 10
823.6067016234263
 20
561.8353986305542
 30
0.0
 10
823.7052002016759
 20
561.8082480321308
 30
0.0
 10
823.9005667043349
 20
561.8539122678333
 30
0.0
 10
824.0765289277516
 20
561.9214211904501
 30
0.0
 10
824.2670344707606
 20
562.0247576929985
 30
0.0
 10
824.3953982318435
 20
562.1175278816004
 30
0.0
 10
824.4595878851943
 20
562.1639185934134
 30
0.0
  0
SPLINE
  5
1FE
330
1F
100
AcDbEntity
  8
0
  6
SLD-Solid
 62
   142
420
    32960
370
     0
100
AcDbSpline
210
0.0
220
0.0
230
1.0
 70
     8
 71
     3
 72
     8
 73
     4
 74
     0
 42
0.00000001
 43
0.00000001
 40
0.0
 40
0.0
 40
0.0
 40
0.0
 40
1.0
 40
1.0
 40
1.0
 40
1.0
 10
826.3014847949171
 20
564.1242595963994
 30
0.0
 10
826.2811728377679
 20
564.18014846182
 30
0.0
 10
826.2606137052704
 20
564.2367980547413
 30
0.0
 10
826.2398090229042
 20
564.2942033724511
 30
0.0
  0
SPLINE
  5
1FF
330
1F
100
AcDbEntity
  8
0
  6
SLD-Solid
 62
   142
420
    32960
370
     0
100
AcDbSpline
210
0.0
220
0.0
230
1.0
 70
     8
 71
     3
 72
     8
 73
     4
 74
     0
 42
0.00000001
 43
0.00000001
 40
0.0
 40
0.0
 40
0.0
 40
0.0
 40
1.0
 40
1.0
 40
1.0
 40
1.0
 10
826.2398090229042
 20
564.2942033724511
 30
0.0
 10
826.0354340644644
 20
564.1343510123793
 30
0.0
 10
825.8310662085075
 20
563.9744767931127
 30
0.0
 10
825.6267054433923
 20
563.8145807504796
 30
0.0
  0
SPLINE
  5
200
330
1F
100
AcDbEntity
  8
0
  6
SLD-Solid
 62
   142
420
    32960
370
     0
100
AcDbSpline
210
0.0
220
0.0
230
1.0
 70
     8
 71
     3
 72
     8
 73
     4
 74
     0
 42
0.00000001
 43
0.00000001
 40
0.0
 40
0.0
 40
0.0
 40
0.0
 40
1.0
 40
1.0
 40
1.0
 40
1.0
 10
825.6267054433923
 20
563.8145807504796
 30
0.0
 10
825.6474722994111
 20
563.7572217425583
 30
0.0
 10
825.66799593646
 20
563.7006112856571
 30
0.0
 10
825.6882747613283
 20
563.6447542831738
 30
0.0
  0
SPLINE
  5
201
330
1F
100
AcDbEntity
  8
0
  6
SLD-Solid
 62
   142
420
    32960
370
     0
100
AcDbSpline
210
0.0
220
0.0
230
1.0
 70
     8
 71
     3
 72
     8
 73
     4
 74
     0
 42
0.00000001
 43
0.00000001
 40
0.0
 40
0.0
 40
0.0
 40
0.0
 40
1.0
 40
1.0
 40
1.0
 40
1.0
 10
825.6882747613283
 20
563.6447542831738
 30
0.0
 10
824.9398096614957
 20
563.0601519878181
 30
0.0
 10
824.1914093516464
 20
562.4753502893973
 30
0.0
 10
823.4430735599374
 20
561.8903500245581
 30
0.0
  0
SPLINE
  5
202
330
1F
100
AcDbEntity
  8
0
  6
SLD-Solid
 62
   142
420
    32960
370
     0
100
AcDbSpline
210
0.0
220
0.0
230
1.0
 70
     8
 71
     3
 72
     9
 73
     5
 74
     0
 42
0.00000001
 43
0.00000001
 40
0.0
 40
0.0
 40
0.0
 40
0.0
 40
0.5000039696612603
 40
1.0
 40
1.0
 40
1.0
 40
1.0
 10
823.4430735599374
 20
561.8903500245581
 30
0.0
 10
823.4641584640157
 20
561.831085835709
 30
0.0
 10
823.5063279373751
 20
561.7125583990388
 30
0.0
 10
823.5451984676777
 20
561.5976978708683
 30
0.0
 10
823.5646335785261
 20
561.5402680627404
 30
0.0
  0
SPLINE
  5
203
330
1F
100
AcDbEntity
  8
0
  6
SLD-Solid
 62
   142
420
    32960
370
     0
100
AcDbSpline
210
0.0
220
0.0
230
1.0
 70
     8
 71
     3
 72
    11
 73
     7
 74
     0
 42
0.00000001
 43
0.00000001
 40
0.0
 40
0.0
 40
0.0
 40
0.0
 40
0.2528456380631501
 40
0.503792020548205
 40
0.7528423195117063
 40
1.0
 40
1.0
 40
1.0
 40
1.0
 10
823.5646335785261
 20
561.5402680627404
 30
0.0
 10
823.7754754575966
 20
561.6228660859332
 30
0.0
 10
824.19557547232
 20
561.787441695448
 30
0.0
 10
824.8177219033907
 20
562.039692139287
 30
0.0
 10
825.4313469582431
 20
562.2943514703479
 30
0.0
 10
825.8349679465916
 20
562.4679128950893
 30
0.0
 10
826.0360087024997
 20
562.5543626116146
 30
0.0
  0
SPLINE
  5
204
330
1F
100
AcDbEntity
  8
0
  6
SLD-Solid
 62
   142
420
    32960
370
     0
100
AcDbSpline
210
0.0
220
0.0
230
1.0
 70
     8
 71
     3
 72
     8
 73
     4
 74
     0
 42
0.00000001
 43
0.00000001
 40
0.0
 40
0.0
 40
0.0
 40
0.0
 40
1.0
 40
1.0
 40
1.0
 40
1.0
 10
826.0360087024997
 20
562.5543626116146
 30
0.0
 10
826.2403926557993
 20
562.7142093958074
 30
0.0
 10
826.4447707278819
 20
562.8740742805259
 30
0.0
 10
826.6491429291589
 20
563.0339572337253
 30
0.0
  0
SPLINE
  5
205
330
1F
100
AcDbEntity
  8
0
  6
SLD-Solid
 62
   142
420
    32960
370
     0
100
AcDbSpline
210
0.0
220
0.0
230
1.0
 70
     8
 71
     3
 72
    11
 73
     7
 74
     0
 42
0.00000001
 43
0.00000001
 40
0.0
 40
0.0
 40
0.0
 40
0.0
 40
0.2500151131446822
 40
0.5000078356072597
 40
0.749996639290192
 40
1.0
 40
1.0
 40
1.0
 40
1.0
 10
826.6491429291589
 20
563.0339572337253
 30
0.0
 10
826.6327653988657
 20
563.0932462809479
 30
0.0
 10
826.6000118050067
 20
563.2118190656251
 30
0.0
 10
826.5449737835173
 20
563.3963830737023
 30
0.0
 10
826.4860096005207
 20
563.5853760901197
 30
0.0
 10
826.4427874636311
 20
563.7157603152366
 30
0.0
 10
826.4211757659905
 20
563.7809543258315
 30
0.0
  0
LINE
  5
206
330
1F
100
AcDbEntity
  8
0
  6
SLD-Solid
 62
   142
420
    32960
370
     0
100
AcDbLine
 10
827.1375539753
 20
564.3404180482
 30
0.0
 11
826.4211835798
 21
563.7809604285
 31
0.0
  0
SPLINE
  5
207
330
1F
100
AcDbEntity
  8
0
  6
SLD-Solid
 62
   142
420
    32960
370
     0
100
AcDbSpline
210
0.0
220
0.0
230
1.0
 70
     8
 71
     3
 72
     9
 73
     5
 74
     0
 42
0.00000001
 43
0.00000001
 40
0.0
 40
0.0
 40
0.0
 40
0.0
 40
0.4999955739391586
 40
1.0
 40
1.0
 40
1.0
 40
1.0
 10
827.1375539752921
 20
564.3404180482174
 30
0.0
 10
827.1184175228079
 20
564.3967332054299
 30
0.0
 10
827.08014427904
 20
564.5093645168812
 30
0.0
 10
827.0385305744803
 20
564.6257065300209
 30
0.0
 10
827.0177235380156
 20
564.6838780515277
 30
0.0
  0
SPLINE
  5
208
330
1F
100
AcDbEntity
  8
0
  6
SLD-Solid
 62
   142
420
    32960
370
     0
100
AcDbSpline
210
0.0
220
0.0
230
1.0
 70
     8
 71
     3
 72
     8
 73
     4
 74
     0
 42
0.00000001
 43
0.00000001
 40
0.0
 40
0.0
 40
0.0
 40
0.0
 40
1.0
 40
1.0
 40
1.0
 40
1.0
 10
827.0177157256644
 20
564.6838719474711
 30
0.0
 10
826.7789651047991
 20
564.4973559709824
 30
0.0
 10
826.5402214645098
 20
564.3108185104893
 30
0.0
 10
826.3014847949171
 20
564.1242595963994
 30
0.0
  0
LINE
  5
209
330
1F
100
AcDbEntity
  8
0
  6
SLD-Solid
 62
     7
370
    15
100
AcDbLine
 10
814.6689238671
 20
610.9705823245
 30
0.0
 11
828.1795657852
 21
569.3891021164
 31
0.0
  0
ARC
  5
20A
330
1F
100
AcDbEntity
  8
0
  6
SLD-Solid
 62
   142
420
    32960
370
     0
100
AcDbCircle
 10
813.927440726
 20
610.657855523
 30
0.0
 40
0.8047330618634655
100
AcDbArc
 50
22.86799746
 51
95.5696482875
  0
ARC
  5
20B
330
1F
100
AcDbEntity
  8
0
  6
SLD-Solid
 62
   142
420
    32960
370
     0
100
AcDbCircle
 10
827.3797030217
 20
569.1917349455
 30
0.0
 40
0.8238532882977503
100
AcDbArc
 50
301.5551106294
 51
13.860922028
  0
SPLINE
  5
20C
330
1F
100
AcDbEntity
  8
0
  6
SLD-Solid
 62
   142
420
    32960
370
     0
100
AcDbSpline
210
0.0
220
0.0
230
1.0
 70
     8
 71
     3
 72
    10
 73
     6
 74
     0
 42
0.00000001
 43
0.00000001
 40
0.0
 40
0.0
 40
0.0
 40
0.0
 40
0.5
 40
0.5
 40
1.0
 40
1.0
 40
1.0
 40
1.0
 10
828.1795657851958
 20
569.3891021164017
 30
0.0
 10
828.2390556750438
 20
569.206011061788
 30
0.0
 10
828.3245813849494
 20
569.0571237733463
 30
0.0
 10
828.5577893086665
 20
568.8362068946057
 30
0.0
 10
828.7004487923626
 20
568.7699630438311
 30
0.0
 10
828.8679516326005
 20
568.7484138122111
 30
0.0
  0
SPLINE
  5
20D
330
1F
100
AcDbEntity
  8
0
  6
SLD-Solid
 62
   142
420
    32960
370
     0
100
AcDbSpline
210
0.0
220
0.0
230
1.0
 70
     8
 71
     3
 72
    14
 73
    10
 74
     0
 42
0.00000001
 43
0.00000001
 40
0.0
 40
0.0
 40
0.0
 40
0.0
 40
0.25
 40
0.25
 40
0.5
 40
0.5
 40
0.75
 40
0.75
 40
1.0
 40
1.0
 40
1.0
 40
1.0
 10
828.8679516326005
 20
568.7484138122109
 30
0.0
 10
829.0216728717113
 20
568.736812847797
 30
0.0
 10
829.1898170266554
 20
568.7661623051608
 30
0.0
 10
829.551882395097
 20
568.8953517319483
 30
0.0
 10
829.7378686902746
 20
568.9923368045687
 30
0.0
 10
830.1147259960088
 20
569.2344413702668
 30
0.0
 10
830.3087399575926
 20
569.382378413684
 30
0.0
 10
830.6862304513322
 20
569.708813720623
 30
0.0
 10
830.8715003046174
 20
569.8881310552342
 30
0.0
 10
831.0535242962704
 20
570.082739732036
 30
0.0
  0
SPLINE
  5
20E
330
1F
100
AcDbEntity
  8
0
  6
SLD-Solid
 62
   142
420
    32960
370
     0
100
AcDbSpline
210
0.0
220
0.0
230
1.0
 70
     8
 71
     3
 72
    14
 73
    10
 74
     0
 42
0.00000001
 43
0.00000001
 40
0.0
 40
0.0
 40
0.0
 40
0.0
 40
0.25
 40
0.25
 40
0.5
 40
0.5
 40
0.75
 40
0.75
 40
1.0
 40
1.0
 40
1.0
 40
1.0
 10
817.3617686450059
 20
612.2216306949582
 30
0.0
 10
817.1009956473514
 20
612.2699156113572
 30
0.0
 10
816.8468713039347
 20
612.3030322027754
 30
0.0
 10
816.3525248405841
 20
612.337270689386
 30
0.0
 10
816.1103839220243
 20
612.337931125892
 30
0.0
 10
815.6671956846425
 20
612.3007551764332
 30
0.0
 10
815.4614224671224
 20
612.2630843084896
 30
0.0
 10
815.0989006877154
 20
612.1402955288844
 30
0.0
 10
814.9472982020451
 20
612.0570918910911
 30
0.0
 10
814.8316392802172
 20
611.9477412617899
 30
0.0
  0
SPLINE
  5
20F
330
1F
100
AcDbEntity
  8
0
  6
SLD-Solid
 62
   142
420
    32960
370
     0
100
AcDbSpline
210
0.0
220
0.0
230
1.0
 70
     8
 71
     3
 72
    10
 73
     6
 74
     0
 42
0.00000001
 43
0.00000001
 40
0.0
 40
0.0
 40
0.0
 40
0.0
 40
0.5
 40
0.5
 40
1.0
 40
1.0
 40
1.0
 40
1.0
 10
814.8316392802172
 20
611.9477412617899
 30
0.0
 10
814.7117737708504
 20
611.822677864432
 30
0.0
 10
814.6383413563066
 20
611.6758627041513
 30
0.0
 10
814.5855621309657
 20
611.3414771482651
 30
0.0
 10
814.6067371483412
 20
611.1619733649493
 30
0.0
 10
814.6689238670646
 20
610.9705823245032
 30
0.0
  0
LINE
  5
210
330
1F
100
AcDbEntity
  8
0
  6
SLD-Solid
 62
     7
370
    15
100
AcDbLine
 10
832.2250386141
 20
615.3898877497
 30
0.0
 11
833.6948526679
 21
615.2280540387
 31
0.0
  0
SPLINE
  5
211
330
1F
100
AcDbEntity
  8
0
  6
SLD-Solid
 62
   142
420
    32960
370
     0
100
AcDbSpline
210
0.0
220
0.0
230
1.0
 70
     8
 71
     3
 72
    17
 73
    13
 74
     0
 42
0.00000001
 43
0.00000001
 40
0.0000000000000001
 40
0.0000000000000001
 40
0.0000000000000001
 40
0.0000000000000001
 40
0.0000166887075714
 40
0.0000166887075714
 40
0.0000166887075714
 40
0.0000336582619934
 40
0.0000336582619934
 40
0.0000336582619934
 40
0.000042662138224
 40
0.000042662138224
 40
0.000042662138224
 40
0.0000451385286556
 40
0.0000451385286556
 40
0.0000451385286556
 40
0.0000451385286556
 10
814.0933569471298
 20
612.7419951585291
 30
0.0
 10
814.0943412275107
 20
612.7389658550047
 30
0.0
 10
814.0956533154402
 20
612.7359051638956
 30
0.0
 10
814.0975418044418
 20
612.7328814400282
 30
0.0
 10
814.0994475537744
 20
612.7298300800592
 30
0.0
 10
814.1019966352201
 20
612.7267303368188
 30
0.0
 10
814.1055980882747
 20
612.7239765950768
 30
0.0
 10
814.1075249206601
 20
612.72250330119
 30
0.0
 10
814.1098073838989
 20
612.7211090016636
 30
0.0
 10
814.1123561484707
 20
612.7199465760311
 30
0.0
 10
814.1130666477676
 20
612.719622535669
 30
0.0
 10
814.1137998562212
 20
612.7193146918972
 30
0.0
 10
814.1145502985734
 20
612.7190259165571
 30
0.0
  0
SPLINE
  5
212
330
1F
100
AcDbEntity
  8
0
  6
SLD-Solid
 62
   142
420
    32960
370
     0
100
AcDbSpline
210
0.0
220
0.0
230
1.0
 70
     8
 71
     3
 72
    16
 73
    12
 74
     0
 42
0.00000001
 43
0.00000001
 40
0.0
 40
0.0
 40
0.0
 40
0.0
 40
0.2499999999999755
 40
0.2499999999999755
 40
0.3749999999999751
 40
0.3749999999999751
 40
0.4999999999999747
 40
0.4999999999999747
 40
0.7499999999999873
 40
0.7499999999999873
 40
1.0
 40
1.0
 40
1.0
 40
1.0
 10
814.1145502985734
 20
612.7190259165571
 30
0.0
 10
814.2574209627469
 20
612.8713149946612
 30
0.0
 10
814.442997907062
 20
612.9989462886288
 30
0.0
 10
814.7818307583278
 20
613.1586059409711
 30
0.0
 10
814.9048249432243
 20
613.2061754180613
 30
0.0
 10
815.1626857916197
 20
613.2883524232279
 30
0.0
 10
815.2984709913078
 20
613.323419556285
 30
0.0
 10
815.7255508110317
 20
613.411956539678
 30
0.0
 10
816.0412264174522
 20
613.4489259782517
 30
0.0
 10
816.6921237726727
 20
613.4784300086229
 30
0.0
 10
817.0290804973723
 20
613.4719976587578
 30
0.0
 10
817.3774324341605
 20
613.444913326746
 30
0.0
  0
SPLINE
  5
213
330
1F
100
AcDbEntity
  8
0
  6
SLD-Solid
 62
   142
420
    32960
370
     0
100
AcDbSpline
210
0.0
220
0.0
230
1.0
 70
     8
 71
     3
 72
    10
 73
     6
 74
     0
 42
0.00000001
 43
0.00000001
 40
0.0
 40
0.0
 40
0.0
 40
0.0
 40
0.5
 40
0.5
 40
1.0
 40
1.0
 40
1.0
 40
1.0
 10
817.3774324341605
 20
613.444913326746
 30
0.0
 10
820.2760965797859
 20
613.219542447989
 30
0.0
 10
823.1778341708083
 20
612.9746871018967
 30
0.0
 10
828.9868465553275
 20
612.4367423093325
 30
0.0
 10
831.8941572940306
 20
612.1440986415139
 30
0.0
 10
834.8034382740171
 20
611.816178369104
 30
0.0
  0
SPLINE
  5
214
330
1F
100
AcDbEntity
  8
0
  6
SLD-Solid
 62
   142
420
    32960
370
     0
100
AcDbSpline
210
0.0
220
0.0
230
1.0
 70
     8
 71
     3
 72
     8
 73
     4
 74
     0
 42
0.00000001
 43
0.00000001
 40
0.0
 40
0.0
 40
0.0
 40
0.0
 40
1.0
 40
1.0
 40
1.0
 40
1.0
 10
813.2397747856273
 20
617.5332122168099
 30
0.0
 10
819.5696836185211
 20
616.8314776459902
 30
0.0
 10
825.8986809422606
 20
616.1219568360874
 30
0.0
 10
832.2250386141491
 20
615.3898877497262
 30
0.0
  0
SPLINE
  5
215
330
1F
100
AcDbEntity
  8
0
  6
SLD-Solid
 62
   142
420
    32960
370
     0
100
AcDbSpline
210
0.0
220
0.0
230
1.0
 70
     8
 71
     3
 72
    10
 73
     6
 74
     0
 42
0.00000001
 43
0.00000001
 40
0.0
 40
0.0
 40
0.0
 40
0.0
 40
0.5
 40
0.5
 40
1.0
 40
1.0
 40
1.0
 40
1.0
 10
813.2397747856273
 20
617.5332122168098
 30
0.0
 10
813.1769466881094
 20
617.5401773484114
 30
0.0
 10
813.1169909814157
 20
617.5475256211952
 30
0.0
 10
813.0312252901168
 20
617.5591749249804
 30
0.0
 10
813.0062184386364
 20
617.5633358088793
 30
0.0
 10
813.0058153482009
 20
617.5646187863392
 30
0.0
  0
ELLIPSE
  5
216
330
1F
100
AcDbEntity
  8
0
  6
SLD-Solid
 62
   142
420
    32960
370
     0
100
AcDbEllipse
 10
808.7827744736
 20
578.8956268195
 30
0.0
 11
4.218560212308603
 21
38.67538777746302
 31
0.0
210
0.0
220
0.0
230
1.0
 40
0.0076158082
 41
6.265810452741898
 42
6.266711007501832
  0
SPLINE
  5
217
330
1F
100
AcDbEntity
  8
0
  6
SLD-Solid
 62
   142
420
    32960
370
     0
100
AcDbSpline
210
0.0
220
0.0
230
1.0
 70
     8
 71
     3
 72
    10
 73
     6
 74
     0
 42
0.00000001
 43
0.00000001
 40
0.0
 40
0.0
 40
0.0
 40
0.0
 40
0.5
 40
0.5
 40
1.0
 40
1.0
 40
1.0
 40
1.0
 10
813.0056144270438
 20
617.5652371580766
 30
0.0
 10
813.0052044066532
 20
617.5664566784178
 30
0.0
 10
813.0293463813357
 20
617.5647523578333
 30
0.0
 10
813.1138870036916
 20
617.5567230207621
 30
0.0
 10
813.1735942233919
 20
617.5504951888059
 30
0.0
 10
813.2363698439635
 20
617.5436915497136
 30
0.0
  0
SPLINE
  5
218
330
1F
100
AcDbEntity
  8
0
  6
SLD-Solid
 62
   142
420
    32960
370
     0
100
AcDbSpline
210
0.0
220
0.0
230
1.0
 70
     8
 71
     3
 72
     8
 73
     4
 74
     0
 42
0.00000001
 43
0.00000001
 40
0.0
 40
0.0
 40
0.0
 40
0.0
 40
1.0
 40
1.0
 40
1.0
 40
1.0
 10
813.2363698439635
 20
617.5436915497136
 30
0.0
 10
819.5609921492788
 20
616.858227237791
 30
0.0
 10
825.8847029959413
 20
616.1649765313576
 30
0.0
 10
832.205774337001
 20
615.4491770983599
 30
0.0
  0
SPLINE
  5
219
330
1F
100
AcDbEntity
  8
0
  6
SLD-Solid
 62
     7
370
    15
100
AcDbSpline
210
0.0
220
0.0
230
1.0
 70
     8
 71
     3
 72
    17
 73
    13
 74
     0
 42
0.00000001
 43
0.00000001
 40
0.0
 40
0.0
 40
0.0
 40
0.0
 40
0.0000166887075715
 40
0.0000166887075715
 40
0.0000166887075715
 40
0.0000336582619936
 40
0.0000336582619936
 40
0.0000336582619936
 40
0.0000426621382241
 40
0.0000426621382241
 40
0.0000426621382241
 40
0.0000451385286555
 40
0.0000451385286555
 40
0.0000451385286555
 40
0.0000451385286555
 10
828.534167794074
 20
568.2977493514273
 30
0.0
 10
828.5331835136932
 20
568.3007786549516
 30
0.0
 10
828.5324459860303
 20
568.3040260320081
 30
0.0
 10
828.5321965054302
 20
568.3075823019875
 30
0.0
 10
828.5319447446379
 20
568.3111710754106
 30
0.0
 10
828.5321850114849
 20
568.315177132851
 30
0.0
 10
828.5334800394262
 20
568.3195218377107
 30
0.0
 10
828.5341728991523
 20
568.3218463211626
 30
0.0
 10
828.5351999020028
 20
568.3243159314054
 30
0.0
 10
828.5365786392123
 20
568.3267544797237
 30
0.0
 10
828.536962979072
 20
568.327434254892
 30
0.0
 10
828.5373752111424
 20
568.3281142748508
 30
0.0
 10
828.5378125938723
 20
568.3287889979558
 30
0.0
  0
SPLINE
  5
21A
330
1F
100
AcDbEntity
  8
0
  6
SLD-Solid
 62
   142
420
    32960
370
     0
100
AcDbSpline
210
0.0
220
0.0
230
1.0
 70
     8
 71
     3
 72
    16
 73
    12
 74
     0
 42
0.00000001
 43
0.00000001
 40
0.0
 40
0.0
 40
0.0
 40
0.0
 40
0.2500000000000147
 40
0.2500000000000147
 40
0.5000000000000294
 40
0.5000000000000294
 40
0.6250000000000218
 40
0.6250000000000218
 40
0.7500000000000141
 40
0.7500000000000141
 40
1.0
 40
1.0
 40
1.0
 40
1.0
 10
831.7791627415154
 20
569.1209450529625
 30
0.0
 10
831.5140001311686
 20
568.8919989645175
 30
0.0
 10
831.2463616667156
 20
568.6850916459957
 30
0.0
 10
830.7056984983739
 20
568.3163216734332
 30
0.0
 10
830.4306935710562
 20
568.1541807553401
 30
0.0
 10
830.0368427535816
 20
567.9633754187674
 30
0.0
 10
829.9077078973047
 20
567.9078406332771
 30
0.0
 10
829.6536465629761
 20
567.8139699262175
 30
0.0
 10
829.52772050248
 20
567.7754238343942
 30
0.0
 10
829.16457818832
 20
567.6905810157972
 30
0.0
 10
828.942888124352
 20
567.6740944756632
 30
0.0
 10
828.7415046401361
 20
567.7018893405163
 30
0.0
  0
SPLINE
  5
21B
330
1F
100
AcDbEntity
  8
0
  6
SLD-Solid
 62
   142
420
    32960
370
     0
100
AcDbSpline
210
0.0
220
0.0
230
1.0
 70
     8
 71
     3
 72
    14
 73
    10
 74
     0
 42
0.00000001
 43
0.00000001
 40
0.0
 40
0.0
 40
0.0
 40
0.0
 40
0.0000095361705259
 40
0.0000095361705259
 40
0.0000095361705259
 40
0.0000219642949667
 40
0.0000219642949667
 40
0.0000219642949667
 40
0.0000450544384128
 40
0.0000450544384128
 40
0.0000450544384128
 40
0.0000450544384128
 10
828.7415046401361
 20
567.7018893405162
 30
0.0
 10
828.7398321675566
 20
567.6993642386087
 30
0.0
 10
828.738522614134
 20
567.6967624644335
 30
0.0
 10
828.7376186569728
 20
567.6943289670462
 30
0.0
 10
828.7364397723928
 20
567.6911553514498
 30
0.0
 10
828.7358753380591
 20
567.6881579664376
 30
0.0
 10
828.7356870045319
 20
567.685428600584
 30
0.0
 10
828.7353379038041
 20
567.6803693654007
 30
0.0
 10
828.7361851194509
 20
567.6760039548897
 30
0.0
 10
828.73746267134
 20
567.6720720544723
 30
0.0
  0
SPLINE
  5
21C
330
1F
100
AcDbEntity
  8
0
  6
SLD-Solid
 62
   142
420
    32960
370
     0
100
AcDbSpline
210
0.0
220
0.0
230
1.0
 70
     8
 71
     3
 72
    16
 73
    12
 74
     0
 42
0.00000001
 43
0.00000001
 40
0.0
 40
0.0
 40
0.0
 40
0.0
 40
0.2500000000000434
 40
0.2500000000000434
 40
0.3750000000000462
 40
0.3750000000000462
 40
0.5000000000000491
 40
0.5000000000000491
 40
0.7500000000000245
 40
0.7500000000000245
 40
1.0
 40
1.0
 40
1.0
 40
1.0
 10
828.5378125938723
 20
568.3287889979559
 30
0.0
 10
828.7429106633814
 20
568.2895618150986
 30
0.0
 10
828.9680653574212
 20
568.2953853202986
 30
0.0
 10
829.3360324813813
 20
568.3653789012036
 30
0.0
 10
829.4634975042644
 20
568.3991885538239
 30
0.0
 10
829.7204137445149
 20
568.4842727639278
 30
0.0
 10
829.8508782222982
 20
568.5357153951971
 30
0.0
 10
830.2484337875304
 20
568.715118690587
 30
0.0
 10
830.525550808613
 20
568.8707592524709
 30
0.0
 10
831.0694798645158
 20
569.2294778566528
 30
0.0
 10
831.3383027407781
 20
569.4327399304467
 30
0.0
 10
831.6042056067386
 20
569.659407746377
 30
0.0
  0
SPLINE
  5
21D
330
1F
100
AcDbEntity
  8
0
  6
SLD-Solid
 62
   142
420
    32960
370
     0
100
AcDbSpline
210
0.0
220
0.0
230
1.0
 70
     8
 71
     3
 72
    10
 73
     6
 74
     0
 42
0.00000001
 43
0.00000001
 40
0.0
 40
0.0
 40
0.0
 40
0.0
 40
0.5
 40
0.5
 40
1.0
 40
1.0
 40
1.0
 40
1.0
 10
834.7422123278889
 20
610.7331216377524
 30
0.0
 10
831.8406839212373
 20
611.0324671294682
 30
0.0
 10
828.9410351900261
 20
611.3002267688986
 30
0.0
 10
823.1471911565693
 20
611.7922140351815
 30
0.0
 10
820.2529631474455
 20
612.0160625023673
 30
0.0
 10
817.3617686450059
 20
612.2216306949582
 30
0.0
  0
ARC
  5
21E
330
1F
100
AcDbEntity
  8
0
  6
SLD-Solid
 62
   142
420
    32960
370
     0
100
AcDbCircle
 10
828.0247566891
 20
567.0430158076
 30
0.0
 40
4.291078507214464
100
AcDbArc
 50
28.9629566445
 51
45.1034441684
  0
LINE
  5
21F
330
1F
100
AcDbEntity
  8
0
  6
SLD-Solid
 62
     7
370
    15
100
AcDbLine
 10
835.5935490194
 20
611.2925675216
 30
0.0
 11
845.2128175719
 21
581.6875030579
 31
0.0
  0
ARC
  5
220
330
1F
100
AcDbEntity
  8
0
  6
SLD-Solid
 62
   142
420
    32960
370
     0
100
AcDbCircle
 10
834.6119728531
 20
611.8587972237
 30
0.0
 40
1.133184824140274
100
AcDbArc
 50
276.5997170055
 51
330.0211740747
  0
LINE
  5
221
330
1F
100
AcDbEntity
  8
0
  6
SLD-Solid
 62
     7
370
    15
100
AcDbLine
 10
834.5382220101
 20
614.5405300845
 30
0.0
 11
835.5935490194
 21
611.2925675216
 31
0.0
  0
SPLINE
  5
222
330
1F
100
AcDbEntity
  8
0
  6
SLD-Solid
 62
     7
370
    15
100
AcDbSpline
210
0.0
220
0.0
230
1.0
 70
     8
 71
     3
 72
    10
 73
     6
 74
     0
 42
0.00000001
 43
0.00000001
 40
0.0
 40
0.0
 40
0.0
 40
0.0
 40
0.5
 40
0.5
 40
1.0
 40
1.0
 40
1.0
 40
1.0
 10
833.6948526678826
 20
615.2280540386536
 30
0.0
 10
833.8870531968595
 20
615.2068855332276
 30
0.0
 10
834.0691328738648
 20
615.1297830378558
 30
0.0
 10
834.365372143973
 20
614.8884786875395
 30
0.0
 10
834.4784847115687
 20
614.724382584697
 30
0.0
 10
834.5382220100843
 20
614.5405300845003
 30
0.0
  0
ARC
  5
223
330
1F
100
AcDbEntity
  8
0
  6
SLD-Solid
 62
   142
420
    32960
370
     0
100
AcDbCircle
 10
834.8248992044
 20
610.9906317916
 30
0.0
 40
0.8258254798907109
100
AcDbArc
 50
21.4455510847
 51
91.4891271905
  0
LINE
  5
224
330
1F
100
AcDbEntity
  8
0
  6
SLD-Solid
 62
     7
370
    15
100
AcDbLine
 10
845.2128175719
 20
581.6875030579
 30
0.0
 11
846.160918145
 21
578.7695495324
 31
0.0
  0
LINE
  5
225
330
1F
100
AcDbEntity
  8
0
  6
SLD-Solid
 62
     7
370
    15
100
AcDbLine
 10
833.8162442404
 20
611.9084472141
 30
0.0
 11
834.1825571348
 21
610.7810520496
 31
0.0
  0
LINE
  5
226
330
1F
100
AcDbEntity
  8
0
  6
SLD-Solid
 62
     7
370
    15
100
AcDbLine
 10
814.447958956
 20
611.6506423936
 30
0.0
 11
814.6689238671
 21
610.9705823245
 31
0.0
  0
SPLINE
  5
227
330
1F
100
AcDbEntity
  8
0
  6
SLD-Solid
 62
   142
420
    32960
370
     0
100
AcDbSpline
210
0.0
220
0.0
230
1.0
 70
     8
 71
     3
 72
    10
 73
     6
 74
     0
 42
0.00000001
 43
0.00000001
 40
0.0
 40
0.0
 40
0.0
 40
0.0
 40
0.5
 40
0.5
 40
1.0
 40
1.0
 40
1.0
 40
1.0
 10
814.447958956008
 20
611.6506423935548
 30
0.0
 10
814.38846906616
 20
611.8337334481683
 30
0.0
 10
814.37014706653
 20
612.0044565457383
 30
0.0
 10
814.4289645567336
 20
612.3202582332623
 30
0.0
 10
814.5054413449121
 20
612.4577037749283
 30
0.0
 10
814.6282876687263
 20
612.5735931687336
 30
0.0
  0
SPLINE
  5
228
330
1F
100
AcDbEntity
  8
0
  6
SLD-Solid
 62
   142
420
    32960
370
     0
100
AcDbSpline
210
0.0
220
0.0
230
1.0
 70
     8
 71
     3
 72
    14
 73
    10
 74
     0
 42
0.00000001
 43
0.00000001
 40
0.0
 40
0.0
 40
0.0
 40
0.0
 40
0.25
 40
0.25
 40
0.5
 40
0.5
 40
0.75
 40
0.75
 40
1.0
 40
1.0
 40
1.0
 40
1.0
 10
814.6282876687262
 20
612.5735931687339
 30
0.0
 10
814.7458318877683
 20
612.6733336234092
 30
0.0
 10
814.8991145448241
 20
612.7484220681615
 30
0.0
 10
815.2679672207859
 20
612.8567223103325
 30
0.0
 10
815.4754396896842
 20
612.887579739816
 30
0.0
 10
815.9226291477075
 20
612.9132241982797
 30
0.0
 10
816.1665449521631
 20
612.9075791614155
 30
0.0
 10
816.6638150360599
 20
612.8653707956387
 30
0.0
 10
816.9191015806779
 20
612.8291989120074
 30
0.0
 10
817.1807501935014
 20
612.7787482030791
 30
0.0
  0
ARC
  5
229
330
1F
100
AcDbEntity
  8
0
  6
SLD-Solid
 62
   142
420
    32960
370
     0
100
AcDbCircle
 10
811.017350455
 20
613.6022364818
 30
0.0
 40
6.218169286982596
100
AcDbArc
 50
352.3898147685
 51
358.0488264432
  0
SPLINE
  5
22A
330
1F
100
AcDbEntity
  8
0
  6
SLD-Solid
 62
   142
420
    32960
370
     0
100
AcDbSpline
210
0.0
220
0.0
230
1.0
 70
     8
 71
     3
 72
     9
 73
     5
 74
     0
 42
0.00000001
 43
0.00000001
 40
0.0
 40
0.0
 40
0.0
 40
0.0
 40
0.6400491029304483
 40
1.0
 40
1.0
 40
1.0
 40
1.0
 10
828.5378125938723
 20
568.3287889979558
 30
0.0
 10
828.5929608829716
 20
568.4252465740178
 30
0.0
 10
828.6791234740083
 20
568.5759499741483
 30
0.0
 10
828.6990206737845
 20
568.7515518374618
 30
0.0
 10
828.706182688693
 20
568.8147598856885
 30
0.0
  0
ARC
  5
22B
330
1F
100
AcDbEntity
  8
0
  6
SLD-Solid
 62
   142
420
    32960
370
     0
100
AcDbCircle
 10
813.6848468748
 20
611.3401682526
 30
0.0
 40
0.8238532882981602
100
AcDbArc
 50
22.139077972
 51
94.4448893706
  0
SPLINE
  5
22C
330
1F
100
AcDbEntity
  8
0
  6
SLD-Solid
 62
   142
420
    32960
370
     0
100
AcDbSpline
210
0.0
220
0.0
230
1.0
 70
     8
 71
     3
 72
     9
 73
     5
 74
     0
 42
0.00000001
 43
0.00000001
 40
0.0
 40
0.0
 40
0.0
 40
0.0
 40
0.5012934855074266
 40
0.9999999999999999
 40
0.9999999999999999
 40
0.9999999999999999
 40
0.9999999999999999
 10
804.3954393581869
 20
618.1639379105933
 30
0.0
 10
804.325284011647
 20
618.1736190334717
 30
0.0
 10
804.1853353616682
 20
618.192931318906
 30
0.0
 10
804.3255586695628
 20
618.1735834993494
 30
0.0
 10
804.3954889466936
 20
618.1639346156954
 30
0.0
  0
SPLINE
  5
22D
330
1F
100
AcDbEntity
  8
0
  6
SLD-Solid
 62
   142
420
    32960
370
     0
100
AcDbSpline
210
0.0
220
0.0
230
1.0
 70
     8
 71
     3
 72
     9
 73
     5
 74
     0
 42
0.00000001
 43
0.00000001
 40
0.0
 40
0.0
 40
0.0
 40
0.0
 40
0.0001142392846183
 40
1.0
 40
1.0
 40
1.0
 40
1.0
 10
806.7454108816719
 20
617.9229678806291
 30
0.0
 10
806.7454472086008
 20
617.9229649046918
 30
0.0
 10
807.0634370239691
 20
617.896914869381
 30
0.0
 10
807.3821937759805
 20
617.8846936227684
 30
0.0
 10
807.7009141134486
 20
617.8724737723021
 30
0.0
  0
LINE
  5
22E
330
1F
100
AcDbEntity
  8
0
  6
SLD-Solid
 62
   142
420
    32960
370
     0
100
AcDbLine
 10
70.3127522598
 20
646.6520832075
 30
0.0
 11
70.3127522598
 21
646.9020832075
 31
0.0
  0
LINE
  5
22F
330
1F
100
AcDbEntity
  8
0
  6
SLD-Solid
 62
   142
420
    32960
370
     0
100
AcDbLine
 10
70.8862760662
 20
733.056259748
 30
0.0
 11
70.8215713049
 21
732.8147782914
 31
0.0
  0
LINE
  5
230
330
1F
100
AcDbEntity
  8
0
  6
SLD-Solid
 62
   142
420
    32960
370
     0
100
AcDbLine
 10
149.2627522598
 20
662.8020832075
 30
0.0
 11
149.2627522598
 21
663.0520832075
 31
0.0
  0
LINE
  5
231
330
1F
100
AcDbEntity
  8
0
  6
SLD-Solid
 62
   142
420
    32960
370
     0
100
AcDbLine
 10
172.4615014778
 20
661.8520832021
 30
0.0
 11
172.4627522598
 21
661.8020832075
 31
0.0
  0
LINE
  5
232
330
1F
100
AcDbEntity
  8
0
  6
SLD-Solid
 62
   142
420
    32960
370
     0
100
AcDbLine
 10
172.4627522598
 20
661.8020832075
 30
0.0
 11
172.4627522598
 21
647.6520832075
 31
0.0
  0
ARC
  5
233
330
1F
100
AcDbEntity
  8
0
  6
SLD-Solid
 62
   142
420
    32960
370
     0
100
AcDbCircle
 10
171.7127522598
 20
647.6520832075
 30
0.0
 40
0.7500000000000284
100
AcDbArc
 50
270.0
 51
0.0000000122
  0
ARC
  5
234
330
1F
100
AcDbEntity
  8
0
  6
SLD-Solid
 62
   142
420
    32960
370
     0
100
AcDbCircle
 10
70.3127522598
 20
647.6520832075
 30
0.0
 40
0.75
100
AcDbArc
 50
179.9999999878
 51
270.0
  0
ARC
  5
235
330
1F
100
AcDbEntity
  8
0
  6
SLD-Solid
 62
   142
420
    32960
370
     0
100
AcDbCircle
 10
70.5627522598
 20
731.8488524651
 30
0.0
 40
1.000000000000034
100
AcDbArc
 50
75.0
 51
179.9999999878
  0
ARC
  5
236
330
1F
100
AcDbEntity
  8
0
  6
SLD-Solid
 62
   142
420
    32960
370
     0
100
AcDbCircle
 10
124.7627522598
 20
685.1020832075
 30
0.0
 40
2.299999999999969
100
AcDbArc
 50
179.9999999878
 51
270.0
  0
LINE
  5
237
330
1F
100
AcDbEntity
  8
0
  6
SLD-Solid
 62
   142
420
    32960
370
     0
100
AcDbLine
 10
124.7627522598
 20
682.8020832075
 30
0.0
 11
145.9627522598
 21
682.8020832075
 31
0.0
  0
LINE
  5
238
330
1F
100
AcDbEntity
  8
0
  6
SLD-Solid
 62
   142
420
    32960
370
     0
100
AcDbLine
 10
146.9627522598
 20
681.8020832075
 30
0.0
 11
146.9627522598
 21
665.1020832075
 31
0.0
  0
ARC
  5
239
330
1F
100
AcDbEntity
  8
0
  6
SLD-Solid
 62
   142
420
    32960
370
     0
100
AcDbCircle
 10
149.2627522598
 20
665.1020832075
 30
0.0
 40
2.299999999999983
100
AcDbArc
 50
180.0000000122
 51
270.0
  0
LINE
  5
23A
330
1F
100
AcDbEntity
  8
0
  6
SLD-Solid
 62
   142
420
    32960
370
     0
100
AcDbLine
 10
-1.6331816622
 20
651.8520832042
 30
0.0
 11
-2.0872476553
 21
651.8520832042
 31
0.0
  0
LINE
  5
23B
330
1F
100
AcDbEntity
  8
0
  6
SLD-Solid
 62
     7
370
    15
100
AcDbLine
 10
833.4627523447
 20
-29.2772061176
 30
0.0
 11
785.5127523447
 21
-29.2772061176
 31
0.0
  0
SPLINE
  5
23C
330
1F
100
AcDbEntity
  8
0
  6
SLD-Solid
 62
   142
420
    32960
370
     0
100
AcDbSpline
210
0.0
220
0.0
230
1.0
 70
     8
 71
     3
 72
    27
 73
    23
 74
     0
 42
0.00000001
 43
0.00000001
 40
0.0
 40
0.0
 40
0.0
 40
0.0
 40
0.0429553442438639
 40
0.084724185032328
 40
0.1253154593338635
 40
0.1647389106646881
 40
0.2030051803196573
 40
0.2401259104775936
 40
0.2761138607699977
 40
0.3109830400692686
 40
0.3447488554066203
 40
0.3774282800564223
 40
0.4090400428910332
 40
0.439604841079793
 40
0.4691455780191728
 40
0.497687627958233
 40
0.5590715783691803
 40
0.6292936409266362
 40
0.7084438868552447
 40
0.7965843065510855
 40
0.893758972424822
 40
1.0
 40
1.0
 40
1.0
 40
1.0
 10
833.4627523447417
 20
-29.27720611764517
 30
0.0
 10
833.512281911756
 20
-29.27266718413246
 30
0.0
 10
833.6099729505352
 20
-29.26371469057093
 30
0.0
 10
833.7534650759652
 20
-29.24790336032795
 30
0.0
 10
833.8912973212349
 20
-29.23055959335507
 30
0.0
 10
834.0229680765515
 20
-29.21151356350343
 30
0.0
 10
834.1481120231599
 20
-29.19080882240521
 30
0.0
 10
834.2664671292023
 20
-29.16843414561065
 30
0.0
 10
834.3778711206511
 20
-29.14439233630928
 30
0.0
 10
834.4822500478687
 20
-29.11868247862881
 30
0.0
 10
834.5796089776599
 20
-29.09130483986422
 30
0.0
 10
834.6700217393923
 20
-29.06225828323217
 30
0.0
 10
834.753623205766
 20
-29.03154559503857
 30
0.0
 10
834.830594394531
 20
-28.99915547035975
 30
0.0
 10
834.9011747891443
 20
-28.96512610524737
 30
0.0
 10
834.9910047381167
 20
-28.91518485234268
 30
0.0
 10
835.1004423066795
 20
-28.84046026873405
 30
0.0
 10
835.2241449495297
 20
-28.73356594719445
 30
0.0
 10
835.3379811126151
 20
-28.6053716903687
 30
0.0
 10
835.4319612399487
 20
-28.4558826553597
 30
0.0
 10
835.4993329818045
 20
-28.28536589658626
 30
0.0
 10
835.5081482563721
 20
-28.16222925448769
 30
0.0
 10
835.5127523447417
 20
-28.0979167957639
 30
0.0
  0
SPLINE
  5
23D
330
1F
100
AcDbEntity
  8
0
  6
SLD-Solid
 62
   142
420
    32960
370
     0
100
AcDbSpline
210
0.0
220
0.0
230
1.0
 70
     8
 71
     3
 72
    29
 73
    25
 74
     0
 42
0.00000001
 43
0.00000001
 40
0.0
 40
0.0
 40
0.0
 40
0.0
 40
0.0500934119596589
 40
0.097951031642187
 40
0.143574139578621
 40
0.1869642294174346
 40
0.2281230533097321
 40
0.2670526802015306
 40
0.3037555716773091
 40
0.3382346820586739
 40
0.3704935926293952
 40
0.400536694840782
 40
0.4283694454006174
 40
0.4539987295328598
 40
0.4774333916779202
 40
0.4986850338261622
 40
0.5440434879115008
 40
0.5941879968404358
 40
0.6492240219550305
 40
0.7092308785169178
 40
0.7742693300887756
 40
0.8443866864020259
 40
0.9196202977430047
 40
1.0
 40
1.0
 40
1.0
 40
1.0
 10
835.5127523447416
 20
491.802083204236
 30
0.0
 10
835.5117164813819
 20
491.8320146173789
 30
0.0
 10
835.5096909877941
 20
491.8905415310224
 30
0.0
 10
835.4938025112401
 20
491.9754324561713
 30
0.0
 10
835.4700848526022
 20
492.0556439063926
 30
0.0
 10
835.4389719394211
 20
492.1311201764971
 30
0.0
 10
835.4019648328427
 20
492.2018756229398
 30
0.0
 10
835.3602224123606
 20
492.2679072795547
 30
0.0
 10
835.3149003086236
 20
492.3292166279336
 30
0.0
 10
835.2670590042544
 20
492.3858042380972
 30
0.0
 10
835.2176816833083
 20
492.4376712091725
 30
0.0
 10
835.167667701875
 20
492.4848187430592
 30
0.0
 10
835.1178341525359
 20
492.5272489596551
 30
0.0
 10
835.0689174550142
 20
492.5649630139869
 30
0.0
 10
835.0215754437027
 20
492.5979681015342
 30
0.0
 10
834.9577771865826
 20
492.6379108652694
 30
0.0
 10
834.8685408306143
 20
492.6836822821105
 30
0.0
 10
834.7427839365718
 20
492.7344293473323
 30
0.0
 10
834.5932261931986
 20
492.7825103306023
 30
0.0
 10
834.4181478793466
 20
492.8279228524797
 30
0.0
 10
834.2164686617587
 20
492.8706825629529
 30
0.0
 10
833.9880325217706
 20
492.9107007428481
 30
0.0
 10
833.7339833392972
 20
492.948329536483
 30
0.0
 10
833.5551341743743
 20
492.9701180164921
 30
0.0
 10
833.4627523447414
 20
492.9813725261176
 30
0.0
  0
LINE
  5
23E
330
1F
100
AcDbEntity
  8
0
  6
SLD-Solid
 62
     7
370
    15
100
AcDbLine
 10
835.5127523447
 20
491.8020832042
 30
0.0
 11
835.5127523447
 21
-28.0979167958
 31
0.0
  0
LINE
  5
23F
330
1F
100
AcDbEntity
  8
0
  6
SLD-Solid
 62
   142
420
    32960
370
     0
100
AcDbLine
 10
785.5127523447
 20
492.9813725261
 30
0.0
 11
785.5127523447
 21
-29.2772061176
 31
0.0
  0
LINE
  5
240
330
1F
100
AcDbEntity
  8
0
  6
SLD-Solid
 62
     7
370
    15
100
AcDbLine
 10
833.4627523447
 20
492.9813725261
 30
0.0
 11
785.5127523447
 21
492.9813725261
 31
0.0
  0
CIRCLE
  5
241
330
1F
100
AcDbEntity
  8
0
  6
SLD-Solid
 62
     7
370
    15
100
AcDbCircle
 10
805.5127523447
 20
231.8520832042
 30
0.0
 40
1.600000000000136
  0
CIRCLE
  5
242
330
1F
100
AcDbEntity
  8
0
  6
SLD-Solid
 62
     7
370
    15
100
AcDbCircle
 10
805.5127523447
 20
-0.1479167958
 30
0.0
 40
1.600000000000136
  0
CIRCLE
  5
243
330
1F
100
AcDbEntity
  8
0
  6
SLD-Solid
 62
     7
370
    15
100
AcDbCircle
 10
805.5127523447
 20
463.8520832042
 30
0.0
 40
1.600000000000023
  0
SPLINE
  5
244
330
1F
100
AcDbEntity
  8
0
  6
SLD-Solid
 62
   142
420
    32960
370
     0
100
AcDbSpline
210
0.0
220
0.0
230
1.0
 70
     8
 71
     3
 72
    22
 73
    18
 74
     0
 42
0.00000001
 43
0.00000001
 40
0.0
 40
0.0
 40
0.0
 40
0.0
 40
0.1249999999999998
 40
0.1249999999999998
 40
0.2499999999999995
 40
0.2499999999999995
 40
0.3749999999999996
 40
0.3749999999999996
 40
0.4999999999999997
 40
0.4999999999999997
 40
0.6249999999999998
 40
0.6249999999999998
 40
0.7499999999999998
 40
0.7499999999999998
 40
0.8749999999999999
 40
0.8749999999999999
 40
1.0
 40
1.0
 40
1.0
 40
1.0
 10
835.5127523447416
 20
-28.0979167957639
 30
0.0
 10
835.5127523447414
 20
-28.23328155415239
 30
0.0
 10
835.4994566118405
 20
-28.36652009926782
 30
0.0
 10
835.4474383395772
 20
-28.62832560807399
 30
0.0
 10
835.4082825231563
 20
-28.75788644027039
 30
0.0
 10
835.3051869248707
 20
-29.0068075618834
 30
0.0
 10
835.2421253906357
 20
-29.12464816631627
 30
0.0
 10
835.0938294425434
 20
-29.3468896716732
 30
0.0
 10
835.007515333468
 20
-29.4522496293182
 30
0.0
 10
834.8177672831234
 20
-29.64208149946113
 30
0.0
 10
834.7145742076038
 20
-29.72682934706739
 30
0.0
 10
834.4921482435357
 20
-29.87576891550853
 30
0.0
 10
834.3718367419874
 20
-29.94019103683488
 30
0.0
 10
834.1246151596606
 20
-30.04274234960069
 30
0.0
 10
833.9968749774031
 20
-30.08165833664894
 30
0.0
 10
833.7336420551646
 20
-30.13436867404168
 30
0.0
 10
833.598117108479
 20
-30.14791679576384
 30
0.0
 10
833.4627523447415
 20
-30.14791679576384
 30
0.0
  0
SPLINE
  5
245
330
1F
100
AcDbEntity
  8
0
  6
SLD-Solid
 62
     7
370
    15
100
AcDbSpline
210
0.0
220
0.0
230
1.0
 70
     8
 71
     3
 72
    22
 73
    18
 74
     0
 42
0.00000001
 43
0.00000001
 40
0.0
 40
0.0
 40
0.0
 40
0.0
 40
0.125
 40
0.125
 40
0.25
 40
0.25
 40
0.375
 40
0.375
 40
0.5
 40
0.5
 40
0.625
 40
0.625
 40
0.75
 40
0.75
 40
0.875
 40
0.875
 40
1.0
 40
1.0
 40
1.0
 40
1.0
 10
833.4627523447414
 20
493.8520832042361
 30
0.0
 10
833.5981171013611
 20
493.8520832042362
 30
0.0
 10
833.7313556497339
 20
493.8387874716542
 30
0.0
 10
833.9931611737342
 20
493.786769195142
 30
0.0
 10
834.1227220330103
 20
493.7476133666664
 30
0.0
 10
834.371643122706
 20
493.6445177773188
 30
0.0
 10
834.4894837218023
 20
493.5814562466076
 30
0.0
 10
834.7117252315596
 20
493.4331602939386
 30
0.0
 10
834.8170851973017
 20
493.3468461751749
 30
0.0
 10
835.006917047909
 20
493.1570981419391
 30
0.0
 10
835.0916648945179
 20
493.05390506976
 30
0.0
 10
835.2406044696245
 20
492.831479094976
 30
0.0
 10
835.3050265884918
 20
492.7111675946415
 30
0.0
 10
835.4075778941832
 20
492.4639460301319
 30
0.0
 10
835.4464938831318
 20
492.3362058485612
 30
0.0
 10
835.4992042245784
 20
492.072972907666
 30
0.0
 10
835.5127523447414
 20
491.9374479662053
 30
0.0
 10
835.5127523447414
 20
491.8020832042361
 30
0.0
  0
LINE
  5
246
330
1F
100
AcDbEntity
  8
0
  6
SLD-Solid
 62
     7
370
    15
100
AcDbLine
 10
833.4627523447
 20
493.0520832042
 30
0.0
 11
833.4627523447
 21
493.8520832042
 31
0.0
  0
SPLINE
  5
247
330
1F
100
AcDbEntity
  8
0
  6
SLD-Solid
 62
   142
420
    32960
370
     0
100
AcDbSpline
210
0.0
220
0.0
230
1.0
 70
     8
 71
     3
 72
     9
 73
     5
 74
     0
 42
0.00000001
 43
0.00000001
 40
0.0
 40
0.0
 40
0.0
 40
0.0
 40
0.8388186832603273
 40
1.0
 40
1.0
 40
1.0
 40
1.0
 10
833.4627523447414
 20
493.0520832042361
 30
0.0
 10
833.6328804272715
 20
493.0449031206159
 30
0.0
 10
833.8356990887119
 20
493.0363433641828
 30
0.0
 10
833.9947442389245
 20
492.9224412389428
 30
0.0
 10
834.0203793456569
 20
492.9040823444172
 30
0.0
  0
LINE
  5
248
330
1F
100
AcDbEntity
  8
0
  6
SLD-Solid
 62
     7
370
    15
100
AcDbLine
 10
833.4627523447
 20
493.8520832042
 30
0.0
 11
785.5127523447
 21
493.8520832042
 31
0.0
  0
LINE
  5
249
330
1F
100
AcDbEntity
  8
0
  6
SLD-Solid
 62
   142
420
    32960
370
     0
100
AcDbLine
 10
785.5127523447
 20
493.8520832042
 30
0.0
 11
785.5127523447
 21
493.0520832042
 31
0.0
  0
LINE
  5
24A
330
1F
100
AcDbEntity
  8
0
  6
SLD-Solid
 62
   142
420
    32960
370
     0
100
AcDbLine
 10
833.4627523447
 20
493.0520832042
 30
0.0
 11
785.5127523447
 21
493.0520832042
 31
0.0
  0
LINE
  5
24B
330
1F
100
AcDbEntity
  8
0
  6
SLD-Solid
 62
     7
370
    15
100
AcDbLine
 10
833.4627523447
 20
-30.1479167958
 30
0.0
 11
785.5127523447
 21
-30.1479167958
 31
0.0
  0
LINE
  5
24C
330
1F
100
AcDbEntity
  8
0
  6
SLD-Solid
 62
     7
370
    15
100
AcDbLine
 10
785.5127523447
 20
-30.1479167958
 30
0.0
 11
785.5127523447
 21
-29.3479167958
 31
0.0
  0
LINE
  5
24D
330
1F
100
AcDbEntity
  8
0
  6
SLD-Solid
 62
   142
420
    32960
370
     0
100
AcDbLine
 10
833.4627523447
 20
-29.3479167958
 30
0.0
 11
785.5127523447
 21
-29.3479167958
 31
0.0
  0
LINE
  5
24E
330
1F
100
AcDbEntity
  8
0
  6
SLD-Solid
 62
   142
420
    32960
370
     0
100
AcDbLine
 10
833.4627523447
 20
-29.3479167958
 30
0.0
 11
833.4627523447
 21
-30.1479167958
 31
0.0
  0
LINE
  5
24F
330
1F
100
AcDbEntity
  8
0
  6
SLD-Solid
 62
   142
420
    32960
370
     0
100
AcDbLine
 10
784.4627523447
 20
492.9813725261
 30
0.0
 11
784.4627523447
 21
491.8020832042
 31
0.0
  0
LINE
  5
250
330
1F
100
AcDbEntity
  8
0
  6
SLD-Solid
 62
   142
420
    32960
370
     0
100
AcDbLine
 10
785.5127523447
 20
492.9813725261
 30
0.0
 11
784.4627523447
 21
492.9813725261
 31
0.0
  0
LINE
  5
251
330
1F
100
AcDbEntity
  8
0
  6
SLD-Solid
 62
     7
370
    15
100
AcDbLine
 10
825.5127523447
 20
499.3520832042
 30
0.0
 11
833.5127523447
 21
499.3520832042
 31
0.0
  0
LINE
  5
252
330
1F
100
AcDbEntity
  8
0
  6
SLD-Solid
 62
     7
370
    15
100
AcDbLine
 10
782.0127523447
 20
499.3520832042
 30
0.0
 11
825.5127523447
 21
499.3520832042
 31
0.0
  0
LINE
  5
253
330
1F
100
AcDbEntity
  8
0
  6
SLD-Solid
 62
     7
370
    15
100
AcDbLine
 10
825.5127523447
 20
496.8520832042
 30
0.0
 11
833.5127523447
 21
496.8520832042
 31
0.0
  0
LINE
  5
254
330
1F
100
AcDbEntity
  8
0
  6
SLD-Solid
 62
     7
370
    15
100
AcDbLine
 10
782.0127523447
 20
496.8520832042
 30
0.0
 11
825.5127523447
 21
496.8520832042
 31
0.0
  0
LINE
  5
255
330
1F
100
AcDbEntity
  8
0
  6
SLD-Solid
 62
   142
420
    32960
370
     0
100
AcDbLine
 10
782.0127523447
 20
499.3520832042
 30
0.0
 11
782.0127523447
 21
496.8520832042
 31
0.0
  0
LINE
  5
256
330
1F
100
AcDbEntity
  8
0
  6
SLD-Solid
 62
   142
420
    32960
370
     0
100
AcDbLine
 10
61.1127523447
 20
578.2520832042
 30
0.0
 11
61.1127523447
 21
576.4520832042
 31
0.0
  0
LINE
  5
257
330
1F
100
AcDbEntity
  8
0
  6
SLD-Solid
 62
   142
420
    32960
370
     0
100
AcDbLine
 10
61.1127523447
 20
603.2520832042
 30
0.0
 11
61.1127523447
 21
598.4520832042
 31
0.0
  0
LINE
  5
258
330
1F
100
AcDbEntity
  8
0
  6
SLD-Solid
 62
   142
420
    32960
370
     0
100
AcDbLine
 10
61.1127523447
 20
640.6520832042
 30
0.0
 11
61.1127523447
 21
493.9020832042
 31
0.0
  0
LINE
  5
259
330
1F
100
AcDbEntity
  8
0
  6
SLD-Solid
 62
   142
420
    32960
370
     0
100
AcDbLine
 10
61.1127523447
 20
608.5520832042
 30
0.0
 11
61.1127523447
 21
583.1635263334
 31
0.0
  0
LINE
  5
25A
330
1F
100
AcDbEntity
  8
0
  6
SLD-Solid
 62
   142
420
    32960
370
     0
100
AcDbLine
 10
61.1127523447
 20
566.2020832042
 30
0.0
 11
61.1127523447
 21
553.5483818537
 31
0.0
  0
LINE
  5
25B
330
1F
100
AcDbEntity
  8
0
  6
SLD-Solid
 62
   142
420
    32960
370
     0
100
AcDbLine
 10
61.1127523447
 20
520.2020832042
 30
0.0
 11
61.1127523447
 21
507.5483818537
 31
0.0
  0
LINE
  5
25C
330
1F
100
AcDbEntity
  8
0
  6
SLD-Solid
 62
   142
420
    32960
370
     0
100
AcDbLine
 10
61.1127523447
 20
566.5520832042
 30
0.0
 11
61.1127523447
 21
541.1635263334
 31
0.0
  0
LINE
  5
25D
330
1F
100
AcDbEntity
  8
0
  6
SLD-Solid
 62
   142
420
    32960
370
     0
100
AcDbLine
 10
61.1127523447
 20
646.5520832042
 30
0.0
 11
61.1127523447
 21
621.1635263334
 31
0.0
  0
LINE
  5
25E
330
1F
100
AcDbEntity
  8
0
  6
SLD-Solid
 62
   142
420
    32960
370
     0
100
AcDbLine
 10
61.1127523447
 20
620.8520832042
 30
0.0
 11
61.1127523447
 21
612.8632680155
 31
0.0
  0
LINE
  5
25F
330
1F
100
AcDbEntity
  8
0
  6
SLD-Solid
 62
   142
420
    32960
370
     0
100
AcDbLine
 10
61.1127523447
 20
620.8520832042
 30
0.0
 11
61.1127523447
 21
612.8632680155
 31
0.0
  0
LINE
  5
260
330
1F
100
AcDbEntity
  8
0
  6
SLD-Solid
 62
   142
420
    32960
370
     0
100
AcDbLine
 10
61.1127523447
 20
639.0520832042
 30
0.0
 11
61.1127523447
 21
632.7006983946
 31
0.0
  0
LINE
  5
261
330
1F
100
AcDbEntity
  8
0
  6
SLD-Solid
 62
   142
420
    32960
370
     0
100
AcDbLine
 10
61.1127523447
 20
620.8520832042
 30
0.0
 11
61.1127523447
 21
612.8632680155
 31
0.0
  0
LINE
  5
262
330
1F
100
AcDbEntity
  8
0
  6
SLD-Solid
 62
   142
420
    32960
370
     0
100
AcDbLine
 10
61.1127523447
 20
620.8520832042
 30
0.0
 11
61.1127523447
 21
612.8632680155
 31
0.0
  0
LINE
  5
263
330
1F
100
AcDbEntity
  8
0
  6
SLD-Solid
 62
   142
420
    32960
370
     0
100
AcDbLine
 10
61.1127523447
 20
620.8520832042
 30
0.0
 11
61.1127523447
 21
612.8632680155
 31
0.0
  0
LINE
  5
264
330
1F
100
AcDbEntity
  8
0
  6
SLD-Solid
 62
   142
420
    32960
370
     0
100
AcDbLine
 10
61.1127523447
 20
639.0520832042
 30
0.0
 11
61.1127523447
 21
632.7006983946
 31
0.0
  0
LINE
  5
265
330
1F
100
AcDbEntity
  8
0
  6
SLD-Solid
 62
   142
420
    32960
370
     0
100
AcDbLine
 10
61.1127523447
 20
620.8520832042
 30
0.0
 11
61.1127523447
 21
612.8632680155
 31
0.0
  0
LINE
  5
266
330
1F
100
AcDbEntity
  8
0
  6
SLD-Solid
 62
   142
420
    32960
370
     0
100
AcDbLine
 10
61.1127523447
 20
639.0520832042
 30
0.0
 11
61.1127523447
 21
632.7006983946
 31
0.0
  0
LINE
  5
267
330
1F
100
AcDbEntity
  8
0
  6
SLD-Solid
 62
   142
420
    32960
370
     0
100
AcDbLine
 10
61.1127523447
 20
602.5020832042
 30
0.0
 11
61.1127523447
 21
599.2020832042
 31
0.0
  0
LINE
  5
268
330
1F
100
AcDbEntity
  8
0
  6
SLD-Solid
 62
   142
420
    32960
370
     0
100
AcDbLine
 10
61.1127523447
 20
584.2520832042
 30
0.0
 11
61.1127523447
 21
579.4520832042
 31
0.0
  0
LINE
  5
269
330
1F
100
AcDbEntity
  8
0
  6
SLD-Solid
 62
   142
420
    32960
370
     0
100
AcDbLine
 10
61.1127523447
 20
564.5020832042
 30
0.0
 11
61.1127523447
 21
561.2020832042
 31
0.0
  0
LINE
  5
26A
330
1F
100
AcDbEntity
  8
0
  6
SLD-Solid
 62
   142
420
    32960
370
     0
100
AcDbLine
 10
61.1127523447
 20
549.0520832042
 30
0.0
 11
61.1127523447
 21
542.7006983946
 31
0.0
  0
LINE
  5
26B
330
1F
100
AcDbEntity
  8
0
  6
SLD-Solid
 62
   142
420
    32960
370
     0
100
AcDbLine
 10
61.1127523447
 20
549.0520832042
 30
0.0
 11
61.1127523447
 21
542.7006983946
 31
0.0
  0
LINE
  5
26C
330
1F
100
AcDbEntity
  8
0
  6
SLD-Solid
 62
   142
420
    32960
370
     0
100
AcDbLine
 10
61.1127523447
 20
563.0520832042
 30
0.0
 11
61.1127523447
 21
556.7006983946
 31
0.0
  0
LINE
  5
26D
330
1F
100
AcDbEntity
  8
0
  6
SLD-Solid
 62
   142
420
    32960
370
     0
100
AcDbLine
 10
61.1127523447
 20
563.0520832042
 30
0.0
 11
61.1127523447
 21
556.7006983946
 31
0.0
  0
LINE
  5
26E
330
1F
100
AcDbEntity
  8
0
  6
SLD-Solid
 62
   142
420
    32960
370
     0
100
AcDbLine
 10
61.1127523447
 20
548.0520832042
 30
0.0
 11
61.1127523447
 21
543.6520832042
 31
0.0
  0
LINE
  5
26F
330
1F
100
AcDbEntity
  8
0
  6
SLD-Solid
 62
   142
420
    32960
370
     0
100
AcDbLine
 10
61.1127523447
 20
548.0520832042
 30
0.0
 11
61.1127523447
 21
543.6520832042
 31
0.0
  0
LINE
  5
270
330
1F
100
AcDbEntity
  8
0
  6
SLD-Solid
 62
   142
420
    32960
370
     0
100
AcDbLine
 10
61.1127523447
 20
553.2520832042
 30
0.0
 11
61.1127523447
 21
548.4520832042
 31
0.0
  0
LINE
  5
271
330
1F
100
AcDbEntity
  8
0
  6
SLD-Solid
 62
     7
370
    15
100
AcDbLine
 10
756.410885685
 20
-206.5856215673
 30
0.0
 11
703.4108857558
 21
-206.5856215673
 31
0.0
  0
LINE
  5
272
330
1F
100
AcDbEntity
  8
0
  6
SLD-Solid
 62
   142
420
    32960
370
     0
100
AcDbLine
 10
758.4108857558
 20
-200.5856215673
 30
0.0
 11
701.4108857558
 21
-200.5856215673
 31
0.0
  0
LINE
  5
273
330
1F
100
AcDbEntity
  8
0
  6
SLD-Solid
 62
   142
420
    32960
370
     0
100
AcDbLine
 10
795.5443660184
 20
628.4082490591
 30
0.0
 11
795.940733806
 21
627.1883544446
 31
0.0
  0
LINE
  5
274
330
1F
100
AcDbEntity
  8
0
  6
SLD-Solid
 62
     7
370
    15
100
AcDbLine
 10
834.3422371118
 20
509.0006799175
 30
0.0
 11
795.940733806
 21
627.1883544446
 31
0.0
  0
LINE
  5
275
330
1F
100
AcDbEntity
  8
0
  6
SLD-Solid
 62
     7
370
    15
100
AcDbLine
 10
835.1030823248
 20
509.247893513
 30
0.0
 11
796.701579019
 21
627.4355680401
 31
0.0
  0
LINE
  5
276
330
1F
100
AcDbEntity
  8
0
  6
SLD-Solid
 62
   142
420
    32960
370
     0
100
AcDbLine
 10
795.940733806
 20
627.1883544446
 30
0.0
 11
796.701579019
 21
627.4355680401
 31
0.0
  0
LINE
  5
277
330
1F
100
AcDbEntity
  8
0
  6
SLD-Solid
 62
   142
420
    32960
370
     0
100
AcDbLine
 10
834.3422371118
 20
509.0006799175
 30
0.0
 11
835.1030823248
 21
509.247893513
 31
0.0
  0
LINE
  5
278
330
1F
100
AcDbEntity
  8
0
  6
SLD-Solid
 62
   142
420
    32960
370
     0
100
AcDbLine
 10
796.3052112314
 20
628.6554626546
 30
0.0
 11
796.701579019
 21
627.4355680401
 31
0.0
  0
LINE
  5
279
330
1F
100
AcDbEntity
  8
0
  6
SLD-Solid
 62
     7
370
    15
100
AcDbLine
 10
778.5127523447
 20
507.3644086745
 30
0.0
 11
833.1534164664
 21
507.3644086745
 31
0.0
  0
LINE
  5
27A
330
1F
100
AcDbEntity
  8
0
  6
SLD-Solid
 62
   142
420
    32960
370
     0
100
AcDbLine
 10
776.5127523447
 20
507.3644086745
 30
0.0
 11
778.5127523447
 21
507.3644086745
 31
0.0
  0
ARC
  5
27B
330
1F
100
AcDbEntity
  8
0
  6
SLD-Solid
 62
   142
420
    32960
370
     0
100
AcDbCircle
 10
833.1534164664
 20
508.6144086745
 30
0.0
 40
2.050000000000011
100
AcDbArc
 50
270.0
 51
18.0
  0
LINE
  5
27C
330
1F
100
AcDbEntity
  8
0
  6
SLD-Solid
 62
     7
370
    15
100
AcDbLine
 10
778.5127523447
 20
506.5644086745
 30
0.0
 11
833.1534164664
 21
506.5644086745
 31
0.0
  0
LINE
  5
27D
330
1F
100
AcDbEntity
  8
0
  6
SLD-Solid
 62
   142
420
    32960
370
     0
100
AcDbLine
 10
778.5127523447
 20
507.3644086745
 30
0.0
 11
778.5127523447
 21
506.5644086745
 31
0.0
  0
LINE
  5
27E
330
1F
100
AcDbEntity
  8
0
  6
SLD-Solid
 62
   142
420
    32960
370
     0
100
AcDbLine
 10
833.1534164664
 20
506.5644086745
 30
0.0
 11
833.1534164664
 21
507.3644086745
 31
0.0
  0
ARC
  5
27F
330
1F
100
AcDbEntity
  8
0
  6
SLD-Solid
 62
   142
420
    32960
370
     0
100
AcDbCircle
 10
833.1534164664
 20
508.6144086745
 30
0.0
 40
1.249999999999958
100
AcDbArc
 50
270.0
 51
18.0
  0
LINE
  5
280
330
1F
100
AcDbEntity
  8
0
  6
SLD-Solid
 62
   142
420
    32960
370
     0
100
AcDbLine
 10
778.5127523447
 20
506.5644086745
 30
0.0
 11
776.5127523447
 21
506.5644086745
 31
0.0
  0
LINE
  5
281
330
1F
100
AcDbEntity
  8
0
  6
SLD-Solid
 62
   142
420
    32960
370
     0
100
AcDbLine
 10
796.985611073
 20
630.1836657196
 30
0.0
 11
796.806905775
 21
630.0859358513
 31
0.0
  0
LINE
  5
282
330
1F
100
AcDbEntity
  8
0
  6
SLD-Solid
 62
   142
420
    32960
370
     0
100
AcDbLine
 10
796.258502592
 20
628.8520832016
 30
0.0
 11
796.3052112314
 21
628.6554626546
 31
0.0
  0
ARC
  5
283
330
1F
100
AcDbEntity
  8
0
  6
SLD-Solid
 62
   142
420
    32960
370
     0
100
AcDbCircle
 10
797.7697559666
 20
628.1931424056
 30
0.0
 40
1.249999999999996
100
AcDbArc
 50
153.0
 51
198.0
  0
LINE
  5
284
330
1F
100
AcDbEntity
  8
0
  6
SLD-Solid
 62
   142
420
    32960
370
     0
100
AcDbLine
 10
797.4583525183
 20
630.3353403073
 30
0.0
 11
796.806905775
 21
629.0568040851
 31
0.0
  0
LINE
  5
285
330
1F
100
AcDbEntity
  8
0
  6
SLD-Solid
 62
   142
420
    32960
370
     0
100
AcDbLine
 10
796.7025952749
 20
628.8520832016
 30
0.0
 11
796.6559978114
 21
628.7606305303
 31
0.0
  0
LINE
  5
286
330
1F
100
AcDbEntity
  8
0
  6
SLD-Solid
 62
   142
420
    32960
370
     0
100
AcDbLine
 10
796.6559978114
 20
628.7606305303
 30
0.0
 11
796.4765118377
 21
628.8520832016
 31
0.0
  0
LINE
  5
287
330
1F
100
AcDbEntity
  8
0
  6
SLD-Solid
 62
   142
420
    32960
370
     0
100
AcDbLine
 10
796.806905775
 20
630.8189554968
 30
0.0
 11
796.9339056636
 21
631.0682068123
 31
0.0
  0
LINE
  5
288
330
1F
100
AcDbEntity
  8
0
  6
SLD-Solid
 62
   142
420
    32960
370
     0
100
AcDbLine
 10
796.9339056636
 20
631.0682068123
 30
0.0
 11
797.056905775
 21
631.0055351252
 31
0.0
  0
SPLINE
  5
289
330
1F
100
AcDbEntity
  8
0
  6
SLD-Solid
 62
   142
420
    32960
370
     0
100
AcDbSpline
210
0.0
220
0.0
230
1.0
 70
     8
 71
     3
 72
    10
 73
     6
 74
     0
 42
0.00000001
 43
0.00000001
 40
0.0
 40
0.0
 40
0.0
 40
0.0
 40
0.4157465794420023
 40
0.9266289123097015
 40
1.0
 40
1.0
 40
1.0
 40
1.0
 10
805.9671947372609
 20
617.9767215818013
 30
0.0
 10
806.221313376238
 20
617.9545253276424
 30
0.0
 10
806.7877009057493
 20
617.9050536257314
 30
0.0
 10
807.4708984571489
 20
617.8677700260403
 30
0.0
 10
807.776265764022
 20
617.8605635402448
 30
0.0
 10
807.8146140742962
 20
617.8596585430594
 30
0.0
  0
LINE
  5
28A
330
1F
100
AcDbEntity
  8
0
  6
SLD-Solid
 62
   142
420
    32960
370
     0
100
AcDbLine
 10
8.3127523447
 20
493.4520832042
 30
0.0
 11
8.3127523447
 21
640.6450121364
 31
0.0
  0
LINE
  5
28B
330
1F
100
AcDbEntity
  8
0
  6
SLD-Solid
 62
   142
420
    32960
370
     0
100
AcDbLine
 10
-1.6372476553
 20
493.4520832042
 30
0.0
 11
8.3127523447
 21
493.4520832042
 31
0.0
  0
LINE
  5
28C
330
1F
100
AcDbEntity
  8
0
  6
SLD-Solid
 62
   142
420
    32960
370
     0
100
AcDbLine
 10
-1.6372476553
 20
493.4520832042
 30
0.0
 11
-1.6372476553
 21
650.5950121364
 31
0.0
  0
LINE
  5
28D
330
1F
100
AcDbEntity
  8
0
  6
SLD-Solid
 62
   142
420
    32960
370
     0
100
AcDbLine
 10
-1.6372476553
 20
650.5950121364
 30
0.0
 11
8.3127523447
 21
640.6450121364
 31
0.0
  0
LINE
  5
28E
330
1F
100
AcDbEntity
  8
0
  6
SLD-Solid
 62
     7
370
    15
100
AcDbLine
 10
23.0759506122
 20
476.6520832042
 30
0.0
 11
42.4127523447
 21
476.6520832042
 31
0.0
  0
LINE
  5
28F
330
1F
100
AcDbEntity
  8
0
  6
SLD-Solid
 62
     7
370
    15
100
AcDbLine
 10
17.4127523447
 20
476.6520832042
 30
0.0
 11
23.0759506122
 21
476.6520832042
 31
0.0
  0
LINE
  5
290
330
1F
100
AcDbEntity
  8
0
  6
SLD-Solid
 62
     7
370
    15
100
AcDbLine
 10
23.6228947508
 20
475.6520832042
 30
0.0
 11
18.4127523447
 21
475.6520832042
 31
0.0
  0
LINE
  5
291
330
1F
100
AcDbEntity
  8
0
  6
SLD-Solid
 62
     7
370
    15
100
AcDbLine
 10
41.4127523447
 20
475.6520832042
 30
0.0
 11
23.6228947508
 21
475.6520832042
 31
0.0
  0
LINE
  5
292
330
1F
100
AcDbEntity
  8
0
  6
SLD-Solid
 62
   142
420
    32960
370
     0
100
AcDbLine
 10
17.4127523447
 20
489.6520832042
 30
0.0
 11
42.4127523447
 21
489.6520832042
 31
0.0
  0
LINE
  5
293
330
1F
100
AcDbEntity
  8
0
  6
SLD-Solid
 62
   142
420
    32960
370
     0
100
AcDbLine
 10
826.8191343066
 20
494.3520832042
 30
0.0
 11
817.0127523447
 21
494.3520832042
 31
0.0
  0
LINE
  5
294
330
1F
100
AcDbEntity
  8
0
  6
SLD-Solid
 62
   142
420
    32960
370
     0
100
AcDbLine
 10
834.0127523447
 20
494.3520832042
 30
0.0
 11
826.8191343066
 21
494.3520832042
 31
0.0
  0
LINE
  5
295
330
1F
100
AcDbEntity
  8
0
  6
SLD-Solid
 62
     7
370
    15
100
AcDbLine
 10
826.8191343066
 20
495.8520832042
 30
0.0
 11
817.0127523447
 21
495.8520832042
 31
0.0
  0
LINE
  5
296
330
1F
100
AcDbEntity
  8
0
  6
SLD-Solid
 62
     7
370
    15
100
AcDbLine
 10
834.0127523447
 20
495.8520832042
 30
0.0
 11
826.8191343066
 21
495.8520832042
 31
0.0
  0
LINE
  5
297
330
1F
100
AcDbEntity
  8
0
  6
SLD-Solid
 62
     7
370
    15
100
AcDbLine
 10
826.7422883088
 20
496.3520832042
 30
0.0
 11
817.5127523447
 21
496.3520832042
 31
0.0
  0
LINE
  5
298
330
1F
100
AcDbEntity
  8
0
  6
SLD-Solid
 62
     7
370
    15
100
AcDbLine
 10
833.5127523447
 20
496.3520832042
 30
0.0
 11
826.7422883088
 21
496.3520832042
 31
0.0
  0
LINE
  5
299
330
1F
100
AcDbEntity
  8
0
  6
SLD-Solid
 62
     7
370
    15
100
AcDbLine
 10
821.6127523447
 20
-35.6479167958
 30
0.0
 11
829.4127523447
 21
-35.6479167958
 31
0.0
  0
LINE
  5
29A
330
1F
100
AcDbEntity
  8
0
  6
SLD-Solid
 62
   142
420
    32960
370
     0
100
AcDbLine
 10
59.8627523447
 20
640.6520832042
 30
0.0
 11
59.8627523447
 21
493.3591899854
 31
0.0
  0
LINE
  5
29B
330
1F
100
AcDbEntity
  8
0
  6
SLD-Solid
 62
     7
370
    15
100
AcDbLine
 10
59.8627523447
 20
493.3591899854
 30
0.0
 11
-2.0872476553
 21
493.3591899854
 31
0.0
  0
LINE
  5
29C
330
1F
100
AcDbEntity
  8
0
  6
SLD-Solid
 62
   142
420
    32960
370
     0
100
AcDbLine
 10
-2.0872476553
 20
649.8020832042
 30
0.0
 11
-2.0872476553
 21
493.3591899854
 31
0.0
  0
LINE
  5
29D
330
1F
100
AcDbEntity
  8
0
  6
SLD-Solid
 62
   142
420
    32960
370
     0
100
AcDbLine
 10
-0.8301765874
 20
649.8020832042
 30
0.0
 11
-0.8443187231
 21
649.8020832042
 31
0.0
  0
LINE
  5
29E
330
1F
100
AcDbEntity
  8
0
  6
SLD-Solid
 62
   142
420
    32960
370
     0
100
AcDbLine
 10
-1.6372476553
 20
649.8020832042
 30
0.0
 11
-2.0872476553
 21
649.8020832042
 31
0.0
  0
LINE
  5
29F
330
1F
100
AcDbEntity
  8
0
  6
SLD-Solid
 62
   142
420
    32960
370
     0
100
AcDbLine
 10
-2.8872476553
 20
493.4520832042
 30
0.0
 11
-2.8872476553
 21
650.6020832042
 31
0.0
  0
LINE
  5
2A0
330
1F
100
AcDbEntity
  8
0
  6
SLD-Solid
 62
     7
370
    15
100
AcDbLine
 10
764.9108857558
 20
-38.5856215673
 30
0.0
 11
764.9108857558
 21
-36.5856215673
 31
0.0
  0
LINE
  5
2A1
330
1F
100
AcDbEntity
  8
0
  6
SLD-Solid
 62
     7
370
    15
100
AcDbLine
 10
694.9108857558
 20
-38.5856215673
 30
0.0
 11
764.9108857558
 21
-38.5856215673
 31
0.0
  0
LINE
  5
2A2
330
1F
100
AcDbEntity
  8
0
  6
SLD-Solid
 62
     7
370
    15
100
AcDbLine
 10
694.9108857558
 20
-38.5856215673
 30
0.0
 11
694.9108857558
 21
-36.5856215673
 31
0.0
  0
LINE
  5
2A3
330
1F
100
AcDbEntity
  8
0
  6
SLD-Solid
 62
   142
420
    32960
370
     0
100
AcDbLine
 10
694.9108857558
 20
-36.5856215673
 30
0.0
 11
764.9108857558
 21
-36.5856215673
 31
0.0
  0
LINE
  5
2A4
330
1F
100
AcDbEntity
  8
0
  6
SLD-Solid
 62
     7
370
    15
100
AcDbLine
 10
760.8705359761
 20
-132.5856215673
 30
0.0
 11
698.9512355354
 21
-132.5856215673
 31
0.0
  0
SPLINE
  5
2A5
330
1F
100
AcDbEntity
  8
0
  6
SLD-Solid
 62
   142
420
    32960
370
     0
100
AcDbSpline
210
0.0
220
0.0
230
1.0
 70
     8
 71
     3
 72
    10
 73
     6
 74
     0
 42
0.00000001
 43
0.00000001
 40
0.0
 40
0.0
 40
0.0
 40
0.0
 40
0.1951100715175179
 40
0.913276337587693
 40
1.0
 40
1.0
 40
1.0
 40
1.0
 10
821.1193459629809
 20
583.057953268707
 30
0.0
 10
821.1282460548355
 20
583.0121160120599
 30
0.0
 10
821.1699058381049
 20
582.797559779518
 30
0.0
 10
821.1354083667997
 20
582.5342556713247
 30
0.0
 10
821.0421245422713
 20
582.3628055577765
 30
0.0
 10
821.03207358422
 20
582.3443324955082
 30
0.0
  0
SPLINE
  5
2A6
330
1F
100
AcDbEntity
  8
0
  6
SLD-Solid
 62
   142
420
    32960
370
     0
100
AcDbSpline
210
0.0
220
0.0
230
1.0
 70
     8
 71
     3
 72
    14
 73
    10
 74
     0
 42
0.00000001
 43
0.00000001
 40
0.0
 40
0.0
 40
0.0
 40
0.0
 40
0.25
 40
0.25
 40
0.5
 40
0.5
 40
0.75
 40
0.75
 40
1.0
 40
1.0
 40
1.0
 40
1.0
 10
59.86275234474531
 20
491.8520832042344
 30
0.0
 10
60.13109671723954
 20
491.8520832042346
 30
0.0
 10
60.39933550768173
 20
491.9054392170643
 30
0.0
 10
60.89517125450561
 20
492.1108211081078
 30
0.0
 10
61.12257312069386
 20
492.2627661773181
 30
0.0
 10
61.50206937166158
 20
492.6422624282856
 30
0.0
 10
61.65401444087154
 20
492.869664294474
 30
0.0
 10
61.85939633191534
 20
493.3655000412979
 30
0.0
 10
61.9127523447453
 20
493.6337388317402
 30
0.0
 10
61.9127523447453
 20
493.9020832042343
 30
0.0
  0
LINE
  5
2A7
330
1F
100
AcDbEntity
  8
0
  6
SLD-Solid
 62
     7
370
    15
100
AcDbLine
 10
59.8627523447
 20
491.8520832042
 30
0.0
 11
-0.8372476553
 21
491.8520832042
 31
0.0
  0
LINE
  5
2A8
330
1F
100
AcDbEntity
  8
0
  6
SLD-Solid
 62
   142
420
    32960
370
     0
100
AcDbLine
 10
-0.8372476553
 20
491.8520832042
 30
0.0
 11
-0.8372476553
 21
492.6520832042
 31
0.0
  0
LINE
  5
2A9
330
1F
100
AcDbEntity
  8
0
  6
SLD-Solid
 62
   142
420
    32960
370
     0
100
AcDbLine
 10
59.8627523447
 20
491.8520832042
 30
0.0
 11
59.8627523447
 21
492.6520832042
 31
0.0
  0
LINE
  5
2AA
330
1F
100
AcDbEntity
  8
0
  6
SLD-Solid
 62
   142
420
    32960
370
     0
100
AcDbLine
 10
59.8627523447
 20
492.6520832042
 30
0.0
 11
-0.8372476553
 21
492.6520832042
 31
0.0
  0
ARC
  5
2AB
330
1F
100
AcDbEntity
  8
0
  6
SLD-Solid
 62
   142
420
    32960
370
     0
100
AcDbCircle
 10
-0.8372476553
 20
490.6020832042
 30
0.0
 40
2.050000000000239
100
AcDbArc
 50
90.0
 51
180.0
  0
LINE
  5
2AC
330
1F
100
AcDbEntity
  8
0
  6
SLD-Solid
 62
   142
420
    32960
370
     0
100
AcDbLine
 10
-2.8872476553
 20
481.8520832042
 30
0.0
 11
-2.8872476553
 21
486.8520832042
 31
0.0
  0
LINE
  5
2AD
330
1F
100
AcDbEntity
  8
0
  6
SLD-Solid
 62
   142
420
    32960
370
     0
100
AcDbLine
 10
-2.8872476553
 20
486.8520832042
 30
0.0
 11
-2.8872476553
 21
490.6020832042
 31
0.0
  0
LINE
  5
2AE
330
1F
100
AcDbEntity
  8
0
  6
SLD-Solid
 62
   142
420
    32960
370
     0
100
AcDbLine
 10
-2.0872476553
 20
486.8520832042
 30
0.0
 11
-2.0872476553
 21
490.6020832042
 31
0.0
  0
LINE
  5
2AF
330
1F
100
AcDbEntity
  8
0
  6
SLD-Solid
 62
   142
420
    32960
370
     0
100
AcDbLine
 10
-2.0872476553
 20
481.8520832042
 30
0.0
 11
-2.0872476553
 21
486.8520832042
 31
0.0
  0
ARC
  5
2B0
330
1F
100
AcDbEntity
  8
0
  6
SLD-Solid
 62
   142
420
    32960
370
     0
100
AcDbCircle
 10
-0.8372476553
 20
490.6020832042
 30
0.0
 40
1.25
100
AcDbArc
 50
90.0
 51
180.0
  0
LINE
  5
2B1
330
1F
100
AcDbEntity
  8
0
  6
SLD-Solid
 62
   142
420
    32960
370
     0
100
AcDbLine
 10
-2.8872476553
 20
481.8520832042
 30
0.0
 11
-2.0872476553
 21
481.8520832042
 31
0.0
  0
LINE
  5
2B2
330
1F
100
AcDbEntity
  8
0
  6
SLD-Solid
 62
   142
420
    32960
370
     0
100
AcDbLine
 10
-2.8872476553
 20
486.8520832042
 30
0.0
 11
-2.0872476553
 21
486.8520832042
 31
0.0
  0
SPLINE
  5
2B3
330
1F
100
AcDbEntity
  8
0
  6
SLD-Solid
 62
   142
420
    32960
370
     0
100
AcDbSpline
210
0.0
220
0.0
230
1.0
 70
     8
 71
     3
 72
    14
 73
    10
 74
     0
 42
0.00000001
 43
0.00000001
 40
0.0
 40
0.0
 40
0.0
 40
0.0
 40
0.25
 40
0.25
 40
0.5
 40
0.5
 40
0.75
 40
0.75
 40
1.0
 40
1.0
 40
1.0
 40
1.0
 10
61.11275234474522
 20
493.9020832042338
 30
0.0
 10
61.11275234474517
 20
493.7384585868593
 30
0.0
 10
61.08021819058052
 20
493.5748983487848
 30
0.0
 10
60.95498533018817
 20
493.2725594787701
 30
0.0
 10
60.86233589774304
 20
493.1338998042652
 30
0.0
 10
60.6309357447139
 20
492.9024996512359
 30
0.0
 10
60.4922760702089
 20
492.809850218791
 30
0.0
 10
60.18993720019444
 20
492.6846173583983
 30
0.0
 10
60.02637696211971
 20
492.6520832042338
 30
0.0
 10
59.86275234474525
 20
492.6520832042338
 30
0.0
  0
LINE
  5
2B4
330
1F
100
AcDbEntity
  8
0
  6
SLD-Solid
 62
   142
420
    32960
370
     0
100
AcDbLine
 10
61.1127523447
 20
493.9020832042
 30
0.0
 11
61.9127523447
 21
493.9020832042
 31
0.0
  0
LINE
  5
2B5
330
1F
100
AcDbEntity
  8
0
  6
SLD-Solid
 62
   142
420
    32960
370
     0
100
AcDbLine
 10
8.3127523447
 20
486.6520832042
 30
0.0
 11
8.3127523447
 21
491.4020832042
 31
0.0
  0
LINE
  5
2B6
330
1F
100
AcDbEntity
  8
0
  6
SLD-Solid
 62
   142
420
    32960
370
     0
100
AcDbLine
 10
9.1127523447
 20
486.6520832042
 30
0.0
 11
8.3127523447
 21
486.6520832042
 31
0.0
  0
LWPOLYLINE
  5
2B7
330
1F
100
AcDbEntity
  8
0
  6
SLD-Solid
 62
   142
420
    32960
370
     0
100
AcDbPolyline
 90
        3
 70
   128
 43
0.0
 10
8.3127523447
 20
491.4020832042
 10
8.2887339452
 20
491.6459461068
 10
8.2289427237
 20
491.8520832042
  0
LINE
  5
2B8
330
1F
100
AcDbEntity
  8
0
  6
SLD-Solid
 62
   142
420
    32960
370
     0
100
AcDbLine
 10
8.3127523447
 20
491.4020832042
 30
0.0
 11
9.1127523447
 21
491.4020832042
 31
0.0
  0
LINE
  5
2B9
330
1F
100
AcDbEntity
  8
0
  6
SLD-Solid
 62
   142
420
    32960
370
     0
100
AcDbLine
 10
9.1127523447
 20
491.4020832042
 30
0.0
 11
9.1127523447
 21
486.6520832042
 31
0.0
  0
ARC
  5
2BA
330
1F
100
AcDbEntity
  8
0
  6
SLD-Solid
 62
     7
370
    15
100
AcDbCircle
 10
782.0127523447
 20
-29.6479167958
 30
0.0
 40
5.500000000000007
100
AcDbArc
 50
180.0
 51
270.0
  0
LINE
  5
2BB
330
1F
100
AcDbEntity
  8
0
  6
SLD-Solid
 62
   142
420
    32960
370
     0
100
AcDbLine
 10
779.0127523447
 20
-29.6479167958
 30
0.0
 11
776.5127523447
 21
-29.6479167958
 31
0.0
  0
ARC
  5
2BC
330
1F
100
AcDbEntity
  8
0
  6
SLD-Solid
 62
   142
420
    32960
370
     0
100
AcDbCircle
 10
782.0127523447
 20
-29.6479167958
 30
0.0
 40
3.0
100
AcDbArc
 50
180.0
 51
270.0
  0
LINE
  5
2BD
330
1F
100
AcDbEntity
  8
0
  6
SLD-Solid
 62
     7
370
    15
100
AcDbLine
 10
782.0127523447
 20
-35.1479167958
 30
0.0
 11
825.5127523447
 21
-35.1479167958
 31
0.0
  0
LINE
  5
2BE
330
1F
100
AcDbEntity
  8
0
  6
SLD-Solid
 62
     7
370
    15
100
AcDbLine
 10
825.5127523447
 20
-35.1479167958
 30
0.0
 11
833.5127523447
 21
-35.1479167958
 31
0.0
  0
LINE
  5
2BF
330
1F
100
AcDbEntity
  8
0
  6
SLD-Solid
 62
   142
420
    32960
370
     0
100
AcDbLine
 10
825.5127523447
 20
-32.6479167958
 30
0.0
 11
833.5127523447
 21
-32.6479167958
 31
0.0
  0
LINE
  5
2C0
330
1F
100
AcDbEntity
  8
0
  6
SLD-Solid
 62
   142
420
    32960
370
     0
100
AcDbLine
 10
782.0127523447
 20
-32.6479167958
 30
0.0
 11
825.5127523447
 21
-32.6479167958
 31
0.0
  0
ENDSEC
  0
SECTION
  2
OBJECTS
  0
DICTIONARY
  5
C
330
0
100
AcDbDictionary
281
     1
  3
ACAD_GROUP
350
D
  3
ACAD_LAYOUT
350
1A
  3
ACAD_MATERIAL
350
3B
  3
ACAD_MLEADERSTYLE
350
2C2
  3
ACAD_MLINESTYLE
350
17
  3
ACAD_PLOTSETTINGS
350
19
  3
ACAD_PLOTSTYLENAME
350
E
  3
ACAD_TABLESTYLE
350
2C1
  3
ACAD_VISUALSTYLE
350
2A
  0
DICTIONARY
  5
D
102
{ACAD_REACTORS
330
C
102
}
330
C
100
AcDbDictionary
281
     1
  0
DICTIONARY
  5
1A
102
{ACAD_REACTORS
330
C
102
}
330
C
100
AcDbDictionary
281
     1
  3
Layout1
350
1E
  3
Layout2
350
26
  3
Model
350
22
  0
DICTIONARY
  5
3B
102
{ACAD_REACTORS
330
C
102
}
330
C
100
AcDbDictionary
281
     1
  3
ByBlock
350
3D
  3
ByLayer
350
3C
  3
Global
350
3E
  0
DICTIONARY
  5
2C2
102
{ACAD_REACTORS
330
C
102
}
330
C
100
AcDbDictionary
281
     1
  0
DICTIONARY
  5
17
102
{ACAD_REACTORS
330
C
102
}
330
C
100
AcDbDictionary
281
     1
  3
Standard
350
18
  0
DICTIONARY
  5
19
102
{ACAD_REACTORS
330
C
102
}
330
C
100
AcDbDictionary
281
     1
  0
ACDBDICTIONARYWDFLT
  5
E
102
{ACAD_REACTORS
330
C
102
}
330
C
100
AcDbDictionary
281
     1
  3
Normal
350
F
100
AcDbDictionaryWithDefault
340
F
  0
DICTIONARY
  5
2C1
102
{ACAD_REACTORS
330
C
102
}
330
C
100
AcDbDictionary
281
     1
  0
DICTIONARY
  5
2A
102
{ACAD_REACTORS
330
C
102
}
330
C
100
AcDbDictionary
281
     1
  3
2dWireframe
350
2F
  3
3D Hidden
350
31
  3
3dWireframe
350
30
  3
Basic
350
32
  3
Brighten
350
36
  3
ColorChange
350
3A
  3
Conceptual
350
34
  3
Dim
350
35
  3
Facepattern
350
39
  3
Flat
350
2B
  3
FlatWithEdges
350
2C
  3
Gouraud
350
2D
  3
GouraudWithEdges
350
2E
  3
Linepattern
350
38
  3
Realistic
350
33
  3
Thicken
350
37
  0
LAYOUT
  5
1E
102
{ACAD_REACTORS
330
1A
102
}
330
1A
100
AcDbPlotSettings
  1

  2
none_device
  4

  6

 40
0.0
 41
0.0
 42
0.0
 43
0.0
 44
0.0
 45
0.0
 46
0.0
 47
0.0
 48
0.0
 49
0.0
140
0.0
141
0.0
142
1.0
143
1.0
 70
   688
 72
     0
 73
     0
 74
     5
  7

 75
    16
 76
     0
 77
     2
 78
   300
147
1.0
148
0.0
149
0.0
100
AcDbLayout
  1
Layout1
 70
     1
 71
     1
 10
0.0
 20
0.0
 11
420.0
 21
297.0
 12
0.0
 22
0.0
 32
0.0
 14
1.0000000000E+20
 24
1.0000000000E+20
 34
1.0000000000E+20
 15
-1.0000000000E+20
 25
-1.0000000000E+20
 35
-1.0000000000E+20
146
0.0
 13
0.0
 23
0.0
 33
0.0
 16
1.0
 26
0.0
 36
0.0
 17
0.0
 27
1.0
 37
0.0
 76
     0
330
1B
  0
LAYOUT
  5
26
102
{ACAD_REACTORS
330
1A
102
}
330
1A
100
AcDbPlotSettings
  1

  2
none_device
  4

  6

 40
0.0
 41
0.0
 42
0.0
 43
0.0
 44
0.0
 45
0.0
 46
0.0
 47
0.0
 48
0.0
 49
0.0
140
0.0
141
0.0
142
1.0
143
1.0
 70
   688
 72
     0
 73
     0
 74
     5
  7

 75
    16
 76
     0
 77
     2
 78
   300
147
1.0
148
0.0
149
0.0
100
AcDbLayout
  1
Layout2
 70
     1
 71
     2
 10
0.0
 20
0.0
 11
0.0
 21
0.0
 12
0.0
 22
0.0
 32
0.0
 14
0.0
 24
0.0
 34
0.0
 15
0.0
 25
0.0
 35
0.0
146
0.0
 13
0.0
 23
0.0
 33
0.0
 16
1.0
 26
0.0
 36
0.0
 17
0.0
 27
1.0
 37
0.0
 76
     0
330
23
  0
LAYOUT
  5
22
102
{ACAD_REACTORS
330
1A
102
}
330
1A
100
AcDbPlotSettings
  1

  2
none_device
  4

  6

 40
0.0
 41
0.0
 42
0.0
 43
0.0
 44
0.0
 45
0.0
 46
0.0
 47
0.0
 48
0.0
 49
0.0
140
0.0
141
0.0
142
1.0
143
1.0
 70
  1712
 72
     0
 73
     0
 74
     0
  7

 75
     0
 76
     0
 77
     2
 78
   300
147
1.0
148
0.0
149
0.0
100
AcDbLayout
  1
Model
 70
     1
 71
     0
 10
0.0
 20
0.0
 11
841.0
 21
594.0
 12
0.0
 22
0.0
 32
0.0
 14
0.0
 24
0.0
 34
0.0
 15
841.0
 25
594.0
 35
0.0
146
0.0
 13
0.0
 23
0.0
 33
0.0
 16
1.0
 26
0.0
 36
0.0
 17
0.0
 27
1.0
 37
0.0
 76
     0
330
1F
331
29
  0
MATERIAL
  5
3D
102
{ACAD_REACTORS
330
3B
102
}
330
3B
100
AcDbMaterial
  1
ByBlock
 72
     1
 94
      127
  0
MATERIAL
  5
3C
102
{ACAD_REACTORS
330
3B
102
}
330
3B
100
AcDbMaterial
  1
ByLayer
 72
     1
 94
      127
  0
MATERIAL
  5
3E
102
{ACAD_REACTORS
330
3B
102
}
330
3B
100
AcDbMaterial
  1
Global
 72
     1
 94
      127
  0
MLINESTYLE
  5
18
102
{ACAD_REACTORS
330
17
102
}
330
17
100
AcDbMlineStyle
  2
Standard
 70
     0
  3

 62
   256
 51
90.0
 52
90.0
 71
     2
 49
0.5
 62
   256
  6
BYLAYER
 49
-0.5
 62
   256
  6
BYLAYER
  0
ACDBPLACEHOLDER
  5
F
102
{ACAD_REACTORS
330
E
102
}
330
E
  0
VISUALSTYLE
  5
2F
102
{ACAD_REACTORS
330
2A
102
}
330
2A
100
AcDbVisualStyle
  2
2dWireframe
 70
     4
 71
     0
 72
     2
 73
     0
 90
        0
 40
-0.6
 41
-30.0
 62
     5
 63
     7
421
 16777215
 74
     1
 91
        4
 64
     7
 65
   257
 75
     1
175
     1
 42
1.0
 92
        0
 66
   257
 43
1.0
 76
     1
 77
     6
 78
     2
 67
     7
 79
     5
170
     0
171
     0
290
     0
174
     0
 93
        1
 44
0.0
173
     0
291
     0
 45
0.0
  0
VISUALSTYLE
  5
31
102
{ACAD_REACTORS
330
2A
102
}
330
2A
100
AcDbVisualStyle
  2
3D Hidden
 70
     6
 71
     1
 72
     2
 73
     2
 90
        0
 40
-0.6
 41
-30.0
 62
     5
 63
     7
421
 16777215
 74
     2
 91
        2
 64
     7
 65
   257
 75
     2
175
     1
 42
40.0
 92
        0
 66
   257
 43
1.0
 76
     1
 77
     6
 78
     2
 67
     7
 79
     3
170
     0
171
     0
290
     0
174
     0
 93
        1
 44
0.0
173
     0
291
     0
 45
0.0
  0
VISUALSTYLE
  5
30
102
{ACAD_REACTORS
330
2A
102
}
330
2A
100
AcDbVisualStyle
  2
3dWireframe
 70
     5
 71
     0
 72
     2
 73
     0
 90
        0
 40
-0.6
 41
-30.0
 62
     5
 63
     7
421
 16777215
 74
     1
 91
        4
 64
     7
 65
   257
 75
     1
175
     1
 42
1.0
 92
        0
 66
   257
 43
1.0
 76
     1
 77
     6
 78
     2
 67
     7
 79
     5
170
     0
171
     0
290
     0
174
     0
 93
        1
 44
0.0
173
     0
291
     0
 45
0.0
  0
VISUALSTYLE
  5
32
102
{ACAD_REACTORS
330
2A
102
}
330
2A
100
AcDbVisualStyle
  2
Basic
 70
     7
 71
     1
 72
     0
 73
     1
 90
        0
 40
-0.6
 41
-30.0
 62
     5
 63
     7
421
 16777215
 74
     0
 91
        4
 64
     7
 65
   257
 75
     1
175
     1
 42
1.0
 92
        8
 66
     7
 43
1.0
 76
     1
 77
     6
 78
     2
 67
     7
 79
     5
170
     0
171
     0
290
     0
174
     0
 93
        1
 44
0.0
173
     0
291
     1
 45
0.0
  0
VISUALSTYLE
  5
36
102
{ACAD_REACTORS
330
2A
102
}
330
2A
100
AcDbVisualStyle
  2
Brighten
 70
    12
 71
     2
 72
     2
 73
     0
 90
        0
 40
-0.6
 41
-30.0
 62
     5
 63
     7
421
 16777215
 74
     1
 91
        4
 64
     7
 65
   257
 75
     1
175
     1
 42
1.0
 92
        8
 66
     7
 43
1.0
 76
     1
 77
     6
 78
     2
 67
     7
 79
     5
170
     0
171
     0
290
     0
174
     0
 93
        1
 44
50.0
173
     0
291
     1
 45
0.0
  0
VISUALSTYLE
  5
3A
102
{ACAD_REACTORS
330
2A
102
}
330
2A
100
AcDbVisualStyle
  2
ColorChange
 70
    16
 71
     2
 72
     2
 73
     3
 90
        0
 40
-0.6
 41
-30.0
 62
     5
 63
     8
421
  8421504
 74
     1
 91
        4
 64
     7
 65
   257
 75
     1
175
     1
 42
1.0
 92
        8
 66
     8
424
  8421504
 43
1.0
 76
     1
 77
     6
 78
     2
 67
     7
 79
     5
170
     0
171
     0
290
     0
174
     0
 93
        1
 44
0.0
173
     0
291
     1
 45
0.0
  0
VISUALSTYLE
  5
34
102
{ACAD_REACTORS
330
2A
102
}
330
2A
100
AcDbVisualStyle
  2
Conceptual
 70
     9
 71
     3
 72
     2
 73
     0
 90
        0
 40
-0.6
 41
-30.0
 62
     5
 63
     7
421
 16777215
 74
     2
 91
        2
 64
     7
 65
   257
 75
     1
175
     1
 42
40.0
 92
        8
 66
     7
 43
1.0
 76
     1
 77
     6
 78
     2
 67
     7
 79
     3
170
     0
171
     0
290
     0
174
     0
 93
        1
 44
0.0
173
     0
291
     0
 45
0.0
  0
VISUALSTYLE
  5
35
102
{ACAD_REACTORS
330
2A
102
}
330
2A
100
AcDbVisualStyle
  2
Dim
 70
    11
 71
     2
 72
     2
 73
     0
 90
        0
 40
-0.6
 41
-30.0
 62
     5
 63
     7
421
 16777215
 74
     1
 91
        4
 64
     7
 65
   257
 75
     1
175
     1
 42
1.0
 92
        8
 66
     7
 43
1.0
 76
     1
 77
     6
 78
     2
 67
     7
 79
     5
170
     0
171
     0
290
     0
174
     0
 93
        1
 44
-50.0
173
     0
291
     1
 45
0.0
  0
VISUALSTYLE
  5
39
102
{ACAD_REACTORS
330
2A
102
}
330
2A
100
AcDbVisualStyle
  2
Facepattern
 70
    15
 71
     2
 72
     2
 73
     0
 90
        0
 40
-0.6
 41
-30.0
 62
     5
 63
     7
421
 16777215
 74
     1
 91
        4
 64
     7
 65
   257
 75
     1
175
     1
 42
1.0
 92
        8
 66
     7
 43
1.0
 76
     1
 77
     6
 78
     2
 67
     7
 79
     5
170
     0
171
     0
290
     0
174
     0
 93
        1
 44
0.0
173
     0
291
     1
 45
0.0
  0
VISUALSTYLE
  5
2B
102
{ACAD_REACTORS
330
2A
102
}
330
2A
100
AcDbVisualStyle
  2
Flat
 70
     0
 71
     2
 72
     1
 73
     1
 90
        2
 40
-0.6
 41
30.0
 62
     5
 63
     7
421
 16777215
 74
     0
 91
        4
 64
     7
 65
   257
 75
     1
175
     1
 42
1.0
 92
        8
 66
     7
 43
1.0
 76
     1
 77
     6
 78
     2
 67
     7
 79
     5
170
     0
171
     0
290
     0
174
     0
 93
       13
 44
0.0
173
     0
291
     1
 45
0.0
  0
VISUALSTYLE
  5
2C
102
{ACAD_REACTORS
330
2A
102
}
330
2A
100
AcDbVisualStyle
  2
FlatWithEdges
 70
     1
 71
     2
 72
     1
 73
     1
 90
        2
 40
-0.6
 41
30.0
 62
     5
 63
     7
421
 16777215
 74
     1
 91
        4
 64
     7
 65
   257
 75
     1
175
     1
 42
1.0
 92
        0
 66
   257
 43
1.0
 76
     1
 77
     6
 78
     2
 67
     7
 79
     5
170
     0
171
     0
290
     0
174
     0
 93
       13
 44
0.0
173
     0
291
     1
 45
0.0
  0
VISUALSTYLE
  5
2D
102
{ACAD_REACTORS
330
2A
102
}
330
2A
100
AcDbVisualStyle
  2
Gouraud
 70
     2
 71
     2
 72
     2
 73
     1
 90
        2
 40
-0.6
 41
30.0
 62
     5
 63
     7
421
 16777215
 74
     0
 91
        4
 64
     7
 65
   257
 75
     1
175
     1
 42
1.0
 92
        0
 66
     7
 43
1.0
 76
     1
 77
     6
 78
     2
 67
     7
 79
     5
170
     0
171
     0
290
     0
174
     0
 93
       13
 44
0.0
173
     0
291
     1
 45
0.0
  0
VISUALSTYLE
  5
2E
102
{ACAD_REACTORS
330
2A
102
}
330
2A
100
AcDbVisualStyle
  2
GouraudWithEdges
 70
     3
 71
     2
 72
     2
 73
     1
 90
        2
 40
-0.6
 41
30.0
 62
     5
 63
     7
421
 16777215
 74
     1
 91
        4
 64
     7
 65
   257
 75
     1
175
     1
 42
1.0
 92
        0
 66
   257
 43
1.0
 76
     1
 77
     6
 78
     2
 67
     7
 79
     5
170
     0
171
     0
290
     0
174
     0
 93
       13
 44
0.0
173
     0
291
     1
 45
0.0
  0
VISUALSTYLE
  5
38
102
{ACAD_REACTORS
330
2A
102
}
330
2A
100
AcDbVisualStyle
  2
Linepattern
 70
    14
 71
     2
 72
     2
 73
     0
 90
        0
 40
-0.6
 41
-30.0
 62
     5
 63
     7
421
 16777215
 74
     1
 91
        4
 64
     7
 65
   257
 75
     7
175
     7
 42
1.0
 92
        8
 66
     7
 43
1.0
 76
     1
 77
     6
 78
     2
 67
     7
 79
     5
170
     0
171
     0
290
     0
174
     0
 93
        1
 44
0.0
173
     0
291
     1
 45
0.0
  0
VISUALSTYLE
  5
33
102
{ACAD_REACTORS
330
2A
102
}
330
2A
100
AcDbVisualStyle
  2
Realistic
 70
     8
 71
     2
 72
     2
 73
     0
 90
        0
 40
-0.6
 41
-30.0
 62
     5
 63
     7
421
 16777215
 74
     1
 91
        0
 64
     7
 65
   257
 75
     1
175
     1
 42
1.0
 92
        8
 66
     8
424
  7895160
 43
1.0
 76
     1
 77
     6
 78
     2
 67
     7
 79
     5
170
     0
171
     0
290
     0
174
     0
 93
       13
 44
0.0
173
     0
291
     0
 45
0.0
  0
VISUALSTYLE
  5
37
102
{ACAD_REACTORS
330
2A
102
}
330
2A
100
AcDbVisualStyle
  2
Thicken
 70
    13
 71
     2
 72
     2
 73
     0
 90
        0
 40
-0.6
 41
-30.0
 62
     5
 63
     7
421
 16777215
 74
     1
 91
        4
 64
     7
 65
   257
 75
     1
175
     1
 42
1.0
 92
       12
 66
     7
 43
1.0
 76
     1
 77
     6
 78
     2
 67
     7
 79
     5
170
     0
171
     0
290
     0
174
     0
 93
        1
 44
0.0
173
     0
291
     1
 45
0.0
  0
ENDSEC
  0
EOF
