  0
SECTION
  2
HEADER
  9
$ACADVER
  1
AC1021
  9
$ACADMAINTVER
 70
    25
  9
$DWGCODEPAGE
  3
ANSI_1252
  9
$INSBASE
 10
0.0
 20
0.0
 30
0.0
  9
$EXTMIN
 10
0.0
 20
0.0
 30
0.0
  9
$EXTMAX
 10
841.0
 20
594.0
 30
0.0
  9
$LIMMIN
 10
0.0
 20
0.0
  9
$LIMMAX
 10
841.0
 20
594.0
  9
$ORTHOMODE
 70
     0
  9
$REGENMODE
 70
     1
  9
$FILLMODE
 70
     1
  9
$QTEXTMODE
 70
     0
  9
$MIRRTEXT
 70
     1
  9
$LTSCALE
 40
1.0
  9
$ATTMODE
 70
     1
  9
$TEXTSIZE
 40
3.5
  9
$TRACEWID
 40
1.0
  9
$TEXTSTYLE
  7
STANDARD
  9
$CLAYER
  8
0
  9
$CELTYPE
  6
ByLayer
  9
$CECOLOR
 62
   256
  9
$CELTSCALE
 40
1.0
  9
$DISPSILH
 70
     0
  9
$DIMSCALE
 40
1.0
  9
$DIMASZ
 40
3.302
  9
$DIMEXO
 40
1.0
  9
$DIMDLI
 40
3.75
  9
$DIMRND
 40
0.0
  9
$DIMDLE
 40
0.0
  9
$DIMEXE
 40
1.0
  9
$DIMTP
 40
0.0
  9
$DIMTM
 40
0.0
  9
$DIMTXT
 40
3.5
  9
$DIMCEN
 40
2.5
  9
$DIMTSZ
 40
0.0
  9
$DIMTOL
 70
     0
  9
$DIMLIM
 70
     0
  9
$DIMTIH
 70
     1
  9
$DIMTOH
 70
     1
  9
$DIMSE1
 70
     0
  9
$DIMSE2
 70
     0
  9
$DIMTAD
 70
     1
  9
$DIMZIN
 70
     0
  9
$DIMBLK
  1

  9
$DIMASO
 70
     1
  9
$DIMSHO
 70
     1
  9
$DIMPOST
  1

  9
$DIMAPOST
  1

  9
$DIMALT
 70
     0
  9
$DIMALTD
 70
     3
  9
$DIMALTF
 40
0.0393700787
  9
$DIMLFAC
 40
1.0
  9
$DIMTOFL
 70
     1
  9
$DIMTVP
 40
0.0
  9
$DIMTIX
 70
     0
  9
$DIMSOXD
 70
     0
  9
$DIMSAH
 70
     0
  9
$DIMBLK1
  1

  9
$DIMBLK2
  1

  9
$DIMSTYLE
  2
ISO-25
  9
$DIMCLRD
 70
     0
  9
$DIMCLRE
 70
     0
  9
$DIMCLRT
 70
     0
  9
$DIMTFAC
 40
1.0
  9
$DIMGAP
 40
1.524
  9
$DIMJUST
 70
     0
  9
$DIMSD1
 70
     0
  9
$DIMSD2
 70
     0
  9
$DIMTOLJ
 70
     0
  9
$DIMTZIN
 70
     0
  9
$DIMALTZ
 70
     0
  9
$DIMALTTZ
 70
     0
  9
$DIMUPT
 70
     0
  9
$DIMDEC
 70
     1
  9
$DIMTDEC
 70
     1
  9
$DIMALTU
 70
     2
  9
$DIMALTTD
 70
     3
  9
$DIMTXSTY
  7
STANDARD
  9
$DIMAUNIT
 70
     0
  9
$DIMADEC
 70
     1
  9
$DIMALTRND
 40
0.0
  9
$DIMAZIN
 70
     0
  9
$DIMDSEP
 70
    44
  9
$DIMATFIT
 70
     3
  9
$DIMFRAC
 70
     0
  9
$DIMLDRBLK
  1

  9
$DIMLUNIT
 70
     2
  9
$DIMLWD
 70
    -2
  9
$DIMLWE
 70
    -2
  9
$DIMTMOVE
 70
     0
  9
$DIMFXL
 40
1.0
  9
$DIMFXLON
 70
     0
  9
$DIMJOGANG
 40
0.7853981634
  9
$DIMTFILL
 70
     0
  9
$DIMTFILLCLR
 70
     0
  9
$DIMARCSYM
 70
     0
  9
$DIMLTYPE
  6

  9
$DIMLTEX1
  6

  9
$DIMLTEX2
  6

  9
$LUNITS
 70
     2
  9
$LUPREC
 70
     1
  9
$SKETCHINC
 40
1.0
  9
$FILLETRAD
 40
10.0
  9
$AUNITS
 70
     0
  9
$AUPREC
 70
     1
  9
$MENU
  1
.
  9
$ELEVATION
 40
0.0
  9
$PELEVATION
 40
0.0
  9
$THICKNESS
 40
0.0
  9
$LIMCHECK
 70
     0
  9
$CHAMFERA
 40
10.0
  9
$CHAMFERB
 40
10.0
  9
$CHAMFERC
 40
20.0
  9
$CHAMFERD
 40
0.0
  9
$SKPOLY
 70
     0
  9
$TDCREATE
 40
2455700.615596806
  9
$TDUCREATE
 40
2455700.573930139
  9
$TDUPDATE
 40
2455700.615596817
  9
$TDUUPDATE
 40
2455700.57393015
  9
$TDINDWG
 40
0.0000000116
  9
$TDUSRTIMER
 40
0.0000000116
  9
$USRTIMER
 70
     1
  9
$ANGBASE
 50
0.0
  9
$ANGDIR
 70
     0
  9
$PDMODE
 70
     0
  9
$PDSIZE
 40
-1.0
  9
$PLINEWID
 40
0.0
  9
$SPLFRAME
 70
     0
  9
$SPLINETYPE
 70
     6
  9
$SPLINESEGS
 70
     8
  9
$HANDSEED
  5
2C1
  9
$SURFTAB1
 70
     6
  9
$SURFTAB2
 70
     6
  9
$SURFTYPE
 70
     6
  9
$SURFU
 70
     6
  9
$SURFV
 70
     6
  9
$UCSBASE
  2

  9
$UCSNAME
  2

  9
$UCSORG
 10
0.0
 20
0.0
 30
0.0
  9
$UCSXDIR
 10
1.0
 20
0.0
 30
0.0
  9
$UCSYDIR
 10
0.0
 20
1.0
 30
0.0
  9
$UCSORTHOREF
  2

  9
$UCSORTHOVIEW
 70
     0
  9
$UCSORGTOP
 10
0.0
 20
0.0
 30
0.0
  9
$UCSORGBOTTOM
 10
0.0
 20
0.0
 30
0.0
  9
$UCSORGLEFT
 10
0.0
 20
0.0
 30
0.0
  9
$UCSORGRIGHT
 10
0.0
 20
0.0
 30
0.0
  9
$UCSORGFRONT
 10
0.0
 20
0.0
 30
0.0
  9
$UCSORGBACK
 10
0.0
 20
0.0
 30
0.0
  9
$PUCSBASE
  2

  9
$PUCSNAME
  2

  9
$PUCSORG
 10
0.0
 20
0.0
 30
0.0
  9
$PUCSXDIR
 10
1.0
 20
0.0
 30
0.0
  9
$PUCSYDIR
 10
0.0
 20
1.0
 30
0.0
  9
$PUCSORTHOREF
  2

  9
$PUCSORTHOVIEW
 70
     0
  9
$PUCSORGTOP
 10
0.0
 20
0.0
 30
0.0
  9
$PUCSORGBOTTOM
 10
0.0
 20
0.0
 30
0.0
  9
$PUCSORGLEFT
 10
0.0
 20
0.0
 30
0.0
  9
$PUCSORGRIGHT
 10
0.0
 20
0.0
 30
0.0
  9
$PUCSORGFRONT
 10
0.0
 20
0.0
 30
0.0
  9
$PUCSORGBACK
 10
0.0
 20
0.0
 30
0.0
  9
$USERI1
 70
     0
  9
$USERI2
 70
     0
  9
$USERI3
 70
     0
  9
$USERI4
 70
     0
  9
$USERI5
 70
     0
  9
$USERR1
 40
0.0
  9
$USERR2
 40
0.0
  9
$USERR3
 40
0.0
  9
$USERR4
 40
0.0
  9
$USERR5
 40
0.0
  9
$WORLDVIEW
 70
     1
  9
$SHADEDGE
 70
     3
  9
$SHADEDIF
 70
    70
  9
$TILEMODE
 70
     1
  9
$MAXACTVP
 70
    64
  9
$PINSBASE
 10
0.0
 20
0.0
 30
0.0
  9
$PLIMCHECK
 70
     0
  9
$PEXTMIN
 10
1.0000000000E+20
 20
1.0000000000E+20
 30
1.0000000000E+20
  9
$PEXTMAX
 10
-1.0000000000E+20
 20
-1.0000000000E+20
 30
-1.0000000000E+20
  9
$PLIMMIN
 10
0.0
 20
0.0
  9
$PLIMMAX
 10
420.0
 20
297.0
  9
$UNITMODE
 70
     0
  9
$VISRETAIN
 70
     1
  9
$PLINEGEN
 70
     0
  9
$PSLTSCALE
 70
     1
  9
$TREEDEPTH
 70
  3020
  9
$CMLSTYLE
  2
Standard
  9
$CMLJUST
 70
     0
  9
$CMLSCALE
 40
20.0
  9
$PROXYGRAPHICS
 70
     1
  9
$MEASUREMENT
 70
     1
  9
$CELWEIGHT
370
    -1
  9
$ENDCAPS
280
     0
  9
$JOINSTYLE
280
     0
  9
$LWDISPLAY
290
     1
  9
$INSUNITS
 70
     4
  9
$HYPERLINKBASE
  1

  9
$STYLESHEET
  1

  9
$XEDIT
290
     1
  9
$CEPSNTYPE
380
     0
  9
$PSTYLEMODE
290
     1
  9
$FINGERPRINTGUID
  2
{7F44E684-B2C1-4689-B28D-47ACCE72E6CD}
  9
$VERSIONGUID
  2
{FAEB1C32-E019-11D5-929B-00C0DF256EC4}
  9
$EXTNAMES
290
     1
  9
$PSVPSCALE
 40
0.0
  9
$OLESTARTUP
290
     0
  9
$SORTENTS
280
   127
  9
$INDEXCTL
280
     0
  9
$HIDETEXT
280
     1
  9
$XCLIPFRAME
290
     0
  9
$HALOGAP
280
     0
  9
$OBSCOLOR
 70
   257
  9
$OBSLTYPE
280
     0
  9
$INTERSECTIONDISPLAY
280
     0
  9
$INTERSECTIONCOLOR
 70
   257
  9
$DIMASSOC
280
     2
  9
$PROJECTNAME
  1

  9
$CAMERADISPLAY
290
     0
  9
$LENSLENGTH
 40
50.0
  9
$CAMERAHEIGHT
 40
0.0
  9
$STEPSPERSEC
 40
2.0
  9
$STEPSIZE
 40
6.0
  9
$3DDWFPREC
 40
2.0
  9
$PSOLWIDTH
 40
5.0
  9
$PSOLHEIGHT
 40
80.0
  9
$LOFTANG1
 40
1.5707963268
  9
$LOFTANG2
 40
1.5707963268
  9
$LOFTMAG1
 40
0.0
  9
$LOFTMAG2
 40
0.0
  9
$LOFTPARAM
 70
     7
  9
$LOFTNORMALS
280
     1
  9
$LATITUDE
 40
37.795
  9
$LONGITUDE
 40
-122.394
  9
$NORTHDIRECTION
 40
0.0
  9
$TIMEZONE
 70
 -8000
  9
$LIGHTGLYPHDISPLAY
280
     1
  9
$TILEMODELIGHTSYNCH
280
     1
  9
$SOLIDHIST
280
     1
  9
$SHOWHIST
280
     1
  9
$DWFFRAME
280
     2
  9
$DGNFRAME
280
     2
  9
$REALWORLDSCALE
290
     1
  9
$INTERFERECOLOR
 62
   256
  9
$CSHADOW
280
     0
  9
$SHADOWPLANELOCATION
 40
0.0
  0
ENDSEC
  0
SECTION
  2
CLASSES
  0
CLASS
  1
ACDBDICTIONARYWDFLT
  2
AcDbDictionaryWithDefault
  3
ObjectDBX Classes
 90
        0
 91
        4
280
     0
281
     0
  0
CLASS
  1
VISUALSTYLE
  2
AcDbVisualStyle
  3
ObjectDBX Classes
 90
     4095
 91
        4
280
     0
281
     0
  0
CLASS
  1
MATERIAL
  2
AcDbMaterial
  3
ObjectDBX Classes
 90
     1153
 91
        4
280
     0
281
     0
  0
ENDSEC
  0
SECTION
  2
TABLES
  0
TABLE
  2
VPORT
  5
8
330
0
100
AcDbSymbolTable
 70
     1
  0
VPORT
  5
29
330
8
100
AcDbSymbolTableRecord
100
AcDbViewportTableRecord
  2
*Active
 70
     0
 10
0.0
 20
0.0
 11
1.0
 21
1.0
 12
420.5
 22
297.0
 13
0.0
 23
0.0
 14
10.0
 24
10.0
 15
10.0
 25
10.0
 16
0.0
 26
0.0
 36
1.0
 17
0.0
 27
0.0
 37
0.0
 40
594.0
 41
1.4158249158
 42
50.0
 43
0.0
 44
0.0
 50
0.0
 51
0.0
 71
     0
 72
  2000
 73
     1
 74
     3
 75
     0
 76
     0
 77
     0
 78
     0
281
     0
 65
     1
110
0.0
120
0.0
130
0.0
111
1.0
121
0.0
131
0.0
112
0.0
122
1.0
132
0.0
 79
     0
146
0.0
 60
     3
 61
     5
292
     1
282
     1
141
0.0
142
0.0
 63
   250
  0
ENDTAB
  0
TABLE
  2
LTYPE
  5
5
330
0
100
AcDbSymbolTable
 70
     8
  0
LTYPE
  5
14
330
5
100
AcDbSymbolTableRecord
100
AcDbLinetypeTableRecord
  2
ByBlock
 70
     0
  3

 72
    65
 73
     0
 40
0.0
  0
LTYPE
  5
15
330
5
100
AcDbSymbolTableRecord
100
AcDbLinetypeTableRecord
  2
ByLayer
 70
     0
  3

 72
    65
 73
     0
 40
0.0
  0
LTYPE
  5
16
330
5
100
AcDbSymbolTableRecord
100
AcDbLinetypeTableRecord
  2
Continuous
 70
     0
  3
Solid line
 72
    65
 73
     0
 40
0.0
  0
LTYPE
  5
3F
330
5
100
AcDbSymbolTableRecord
100
AcDbLinetypeTableRecord
  2
SLD-Solid
 70
     0
  3
SolidWorks Line Style
 72
    65
 73
     0
 40
0.0
  0
LTYPE
  5
40
330
5
100
AcDbSymbolTableRecord
100
AcDbLinetypeTableRecord
  2
SLD-Dashed
 70
     0
  3
SolidWorks Line Style
 72
    65
 73
     2
 40
1.905
 49
1.27
 74
     0
 49
-0.635
 74
     0
  0
LTYPE
  5
41
330
5
100
AcDbSymbolTableRecord
100
AcDbLinetypeTableRecord
  2
SLD-Phantom
 70
     0
  3
SolidWorks Line Style
 72
    65
 73
     6
 40
12.7
 49
6.35
 74
     0
 49
-1.27
 74
     0
 49
1.27
 74
     0
 49
-1.27
 74
     0
 49
1.27
 74
     0
 49
-1.27
 74
     0
  0
LTYPE
  5
42
330
5
100
AcDbSymbolTableRecord
100
AcDbLinetypeTableRecord
  2
SLD-Chain
 70
     0
  3
SolidWorks Line Style
 72
    65
 73
     4
 40
10.16
 49
6.35
 74
     0
 49
-1.27
 74
     0
 49
1.27
 74
     0
 49
-1.27
 74
     0
  0
LTYPE
  5
43
330
5
100
AcDbSymbolTableRecord
100
AcDbLinetypeTableRecord
  2
SLD-Center
 70
     0
  3
SolidWorks Line Style
 72
    65
 73
     4
 40
19.05
 49
15.24
 74
     0
 49
-1.27
 74
     0
 49
1.27
 74
     0
 49
-1.27
 74
     0
  0
LTYPE
  5
44
330
5
100
AcDbSymbolTableRecord
100
AcDbLinetypeTableRecord
  2
SLD-Stitch
 70
     0
  3
SolidWorks Line Style
 72
    65
 73
     2
 40
0.635
 49
0.0
 74
     0
 49
-0.635
 74
     0
  0
LTYPE
  5
45
330
5
100
AcDbSymbolTableRecord
100
AcDbLinetypeTableRecord
  2
SLD-Thin-Thick-Chain
 70
     0
  3
SolidWorks Line Style
 72
    65
 73
     4
 40
10.16
 49
6.35
 74
     0
 49
-1.27
 74
     0
 49
1.27
 74
     0
 49
-1.27
 74
     0
  0
ENDTAB
  0
TABLE
  2
LAYER
  5
2
330
0
100
AcDbSymbolTable
 70
     1
  0
LAYER
  5
10
330
2
100
AcDbSymbolTableRecord
100
AcDbLayerTableRecord
  2
0
 70
     0
 62
     7
  6
Continuous
370
    -3
390
F
347
3E
  0
ENDTAB
  0
TABLE
  2
STYLE
  5
3
330
0
100
AcDbSymbolTable
 70
     1
  0
STYLE
  5
11
330
3
100
AcDbSymbolTableRecord
100
AcDbTextStyleTableRecord
  2
STANDARD
 70
     0
 40
0.0
 41
1.0
 50
0.0
 71
     0
 42
2.5
  3
GOTHIC.TTF
  4

1001
ACAD
1000
CENTURY GOTHIC
1071
       34
  0
ENDTAB
  0
TABLE
  2
VIEW
  5
6
330
0
100
AcDbSymbolTable
 70
     0
  0
ENDTAB
  0
TABLE
  2
UCS
  5
7
330
0
100
AcDbSymbolTable
 70
     0
  0
ENDTAB
  0
TABLE
  2
APPID
  5
9
330
0
100
AcDbSymbolTable
 70
     1
  0
APPID
  5
12
330
9
100
AcDbSymbolTableRecord
100
AcDbRegAppTableRecord
  2
ACAD
 70
     0
  0
ENDTAB
  0
TABLE
  2
DIMSTYLE
  5
A
330
0
100
AcDbSymbolTable
 70
     1
100
AcDbDimStyleTable
  0
DIMSTYLE
105
27
330
A
100
AcDbSymbolTableRecord
100
AcDbDimStyleTableRecord
  2
ISO-25
 70
     0
 41
2.5
 42
0.625
 43
3.75
 44
1.25
 73
     0
 74
     0
 77
     1
 78
     8
140
2.5
141
2.5
143
0.0393700787
147
0.625
171
     3
172
     1
271
     2
272
     2
274
     3
278
    44
283
     0
284
     8
340
11
  0
ENDTAB
  0
TABLE
  2
BLOCK_RECORD
  5
1
330
0
100
AcDbSymbolTable
 70
     1
  0
BLOCK_RECORD
  5
1F
330
1
100
AcDbSymbolTableRecord
100
AcDbBlockTableRecord
  2
*Model_Space
340
22
 70
     0
280
     1
281
     0
  0
BLOCK_RECORD
  5
1B
330
1
100
AcDbSymbolTableRecord
100
AcDbBlockTableRecord
  2
*Paper_Space
340
1E
 70
     0
280
     1
281
     0
  0
BLOCK_RECORD
  5
23
330
1
100
AcDbSymbolTableRecord
100
AcDbBlockTableRecord
  2
*Paper_Space0
340
26
 70
     0
280
     1
281
     0
  0
ENDTAB
  0
ENDSEC
  0
SECTION
  2
BLOCKS
  0
BLOCK
  5
20
330
1F
100
AcDbEntity
  8
0
100
AcDbBlockBegin
  2
*Model_Space
 70
     0
 10
0.0
 20
0.0
 30
0.0
  3
*Model_Space
  1

  0
ENDBLK
  5
21
330
1F
100
AcDbEntity
  8
0
100
AcDbBlockEnd
  0
BLOCK
  5
1C
330
1B
100
AcDbEntity
 67
     1
  8
0
100
AcDbBlockBegin
  2
*Paper_Space
 70
     0
 10
0.0
 20
0.0
 30
0.0
  3
*Paper_Space
  1

  0
ENDBLK
  5
1D
330
1B
100
AcDbEntity
 67
     1
  8
0
100
AcDbBlockEnd
  0
BLOCK
  5
24
330
23
100
AcDbEntity
  8
0
100
AcDbBlockBegin
  2
*Paper_Space0
 70
     0
 10
0.0
 20
0.0
 30
0.0
  3
*Paper_Space0
  1

  0
ENDBLK
  5
25
330
23
100
AcDbEntity
  8
0
100
AcDbBlockEnd
  0
ENDSEC
  0
SECTION
  2
ENTITIES
  0
LINE
  5
46
330
1F
100
AcDbEntity
  8
0
  6
SLD-Solid
 62
     7
370
    15
100
AcDbLine
 10
833.2644560077
 20
682.6356999706
 30
0.0
 11
833.2644560077
 21
680.4863981304
 31
0.0
  0
LINE
  5
47
330
1F
100
AcDbEntity
  8
0
  6
SLD-Solid
 62
     7
370
    15
100
AcDbLine
 10
833.2644560077
 20
673.0761899564
 30
0.0
 11
833.2644560077
 21
671.8863980553
 31
0.0
  0
LINE
  5
48
330
1F
100
AcDbEntity
  8
0
  6
SLD-Solid
 62
     7
370
    15
100
AcDbLine
 10
858.2644560077
 20
680.4863981357
 30
0.0
 11
858.2644560077
 21
682.6356999706
 31
0.0
  0
ARC
  5
49
330
1F
100
AcDbEntity
  8
0
  6
SLD-Solid
 62
     7
370
    15
100
AcDbCircle
 10
419.1296527396
 20
-85.5740127303
 30
0.0
 40
1.000000000000081
100
AcDbArc
 50
210.4241798531
 51
219.7546578804
  0
ARC
  5
4A
330
1F
100
AcDbEntity
  8
0
  6
SLD-Solid
 62
     7
370
    15
100
AcDbCircle
 10
440.3992592604
 20
-85.5740127303
 30
0.0
 40
1.000000000000049
100
AcDbArc
 50
320.2453421196
 51
329.5758201469
  0
SPLINE
  5
4B
330
1F
100
AcDbEntity
  8
0
  6
SLD-Solid
 62
     7
370
    15
100
AcDbSpline
210
0.0
220
0.0
230
1.0
 70
     8
 71
     3
 72
    12
 73
     8
 74
     0
 42
0.00000001
 43
0.00000001
 40
0.0
 40
0.0
 40
0.0
 40
0.0
 40
0.1457385529867413
 40
0.4224065763362119
 40
0.7025645190516456
 40
0.9915723830907167
 40
1.0
 40
1.0
 40
1.0
 40
1.0
 10
418.3608628934558
 20
-86.21351423339846
 30
0.0
 10
418.5298114539005
 20
-86.42682388769497
 30
0.0
 10
419.0194895900688
 20
-87.0450775956143
 30
0.0
 10
419.6069672083353
 20
-88.05977106019603
 30
0.0
 10
419.995791529674
 20
-89.25236027812689
 30
0.0
 10
420.1521048665277
 20
-90.04574694794681
 30
0.0
 10
420.095109802739
 20
-90.45784795230205
 30
0.0
 10
420.0934948892735
 20
-90.46952453298968
 30
0.0
  0
SPLINE
  5
4C
330
1F
100
AcDbEntity
  8
0
  6
SLD-Solid
 62
     7
370
    15
100
AcDbSpline
210
0.0
220
0.0
230
1.0
 70
     8
 71
     3
 72
    11
 73
     7
 74
     0
 42
0.00000001
 43
0.00000001
 40
0.0
 40
0.0
 40
0.0
 40
0.0
 40
0.2706728893345463
 40
0.5972761992793767
 40
0.9114942371263365
 40
1.0
 40
1.0
 40
1.0
 40
1.0
 10
439.4599090290742
 20
-90.11864491315391
 30
0.0
 10
439.4892455159656
 20
-89.77669598307547
 30
0.0
 10
439.553980426927
 20
-89.02213959655685
 30
0.0
 10
440.0331386120896
 20
-87.84094443077495
 30
0.0
 10
440.634731157147
 20
-86.87204588692127
 30
0.0
 10
441.0719601993052
 20
-86.33216313136998
 30
0.0
 10
441.1680491065351
 20
-86.21351423339851
 30
0.0
  0
LINE
  5
4D
330
1F
100
AcDbEntity
  8
0
  6
SLD-Solid
 62
     7
370
    15
100
AcDbLine
 10
418.0222085384
 20
-94.8048365437
 30
0.0
 11
418.1115894357
 21
-95.3454934852
 31
0.0
  0
SPLINE
  5
4E
330
1F
100
AcDbEntity
  8
0
  6
SLD-Solid
 62
     7
370
    15
100
AcDbSpline
210
0.0
220
0.0
230
1.0
 70
     8
 71
     3
 72
     9
 73
     5
 74
     0
 42
0.00000001
 43
0.00000001
 40
0.0
 40
0.0
 40
0.0
 40
0.0
 40
0.6356821433228165
 40
1.0
 40
1.0
 40
1.0
 40
1.0
 10
416.4265836194493
 20
-86.20426606643261
 30
0.0
 10
416.8071517575925
 20
-88.04450794700891
 30
0.0
 10
417.4058285367669
 20
-90.93941682545736
 30
0.0
 10
417.857614752562
 20
-93.77264201510788
 30
0.0
 10
418.0222085383768
 20
-94.80483654368521
 30
0.0
  0
SPLINE
  5
4F
330
1F
100
AcDbEntity
  8
0
  6
SLD-Solid
 62
     7
370
    15
100
AcDbSpline
210
0.0
220
0.0
230
1.0
 70
     8
 71
     3
 72
     9
 73
     5
 74
     0
 42
0.00000001
 43
0.00000001
 40
0.0
 40
0.0
 40
0.0
 40
0.0
 40
0.7427638674184488
 40
0.9999999999999999
 40
0.9999999999999999
 40
0.9999999999999999
 40
0.9999999999999999
 10
441.3869203226024
 20
-95.35856713889885
 30
0.0
 10
441.7662542928762
 20
-93.10848636085616
 30
0.0
 10
442.276960301762
 20
-90.07915109463882
 30
0.0
 10
442.9309011092724
 20
-86.99708486397
 30
0.0
 10
443.0991183135338
 20
-86.20426606643261
 30
0.0
  0
LINE
  5
50
330
1F
100
AcDbEntity
  8
0
  6
SLD-Solid
 62
     7
370
    15
100
AcDbLine
 10
204.9686898135
 20
-104.1212498826
 30
0.0
 11
209.203442613
 21
-123.5450871048
 31
0.0
  0
ARC
  5
51
330
1F
100
AcDbEntity
  8
0
  6
SLD-Solid
 62
     7
370
    15
100
AcDbCircle
 10
489.4406990356
 20
2057.7678406644
 30
0.0
 40
2203.900000016601
100
AcDbArc
 50
262.8511702807
 51
267.3056035116
  0
LINE
  5
52
330
1F
100
AcDbEntity
  8
0
  6
SLD-Solid
 62
     7
370
    15
100
AcDbLine
 10
393.0112477603
 20
-138.1725869173
 30
0.0
 11
400.3206970715
 21
-104.1212498826
 31
0.0
  0
ARC
  5
53
330
1F
100
AcDbEntity
  8
0
  6
SLD-Solid
 62
     7
370
    15
100
AcDbCircle
 10
386.1671556675
 20
-136.7034362587
 30
0.0
 40
7.000000016603428
100
AcDbArc
 50
267.3056035116
 51
270.0
  0
ARC
  5
54
330
1F
100
AcDbEntity
  8
0
  6
SLD-Solid
 62
     7
370
    15
100
AcDbCircle
 10
386.1671556675
 20
-136.7034362587
 30
0.0
 40
7.000000016603464
100
AcDbArc
 50
270.0
 51
347.8847581975
  0
ARC
  5
55
330
1F
100
AcDbEntity
  8
0
  6
SLD-Solid
 62
     7
370
    15
100
AcDbCircle
 10
216.0427857326
 20
-122.0539848529
 30
0.0
 40
7.000000016602927
100
AcDbArc
 50
192.2990746699
 51
262.8511702807
  0
ARC
  5
56
330
1F
100
AcDbEntity
  8
0
  6
SLD-Solid
 62
     7
370
    15
100
AcDbCircle
 10
368.581897811
 20
-113.8963494328
 30
0.0
 40
6.999999710807683
100
AcDbArc
 50
266.664596036
 51
347.8847581975
  0
ARC
  5
57
330
1F
100
AcDbEntity
  8
0
  6
SLD-Solid
 62
     7
370
    15
100
AcDbCircle
 10
234.2065501564
 20
-102.1018119183
 30
0.0
 40
6.99999971080762
100
AcDbArc
 50
196.7676449
 51
263.3030611363
  0
LINE
  5
58
330
1F
100
AcDbEntity
  8
0
  6
SLD-Solid
 62
     7
370
    15
100
AcDbLine
 10
377.8396768086
 20
-104.1212498826
 30
0.0
 11
375.4259896048
 21
-115.3655000273
 31
0.0
  0
LINE
  5
59
330
1F
100
AcDbEntity
  8
0
  6
SLD-Solid
 62
     7
370
    15
100
AcDbLine
 10
-20.235544
 20
-104.1212498826
 30
0.0
 11
879.764456
 21
-104.1212498826
 31
0.0
  0
LINE
  5
5A
330
1F
100
AcDbEntity
  8
0
  6
SLD-Solid
 62
     7
370
    15
100
AcDbLine
 10
-19.035544
 20
-86.0804104457
 30
0.0
 11
878.564456
 21
-86.0804104457
 31
0.0
  0
LINE
  5
5B
330
1F
100
AcDbEntity
  8
0
  6
SLD-Solid
 62
     7
370
    15
100
AcDbLine
 10
878.564456
 20
-84.7804104457
 30
0.0
 11
879.764456
 21
-84.7804104457
 31
0.0
  0
LINE
  5
5C
330
1F
100
AcDbEntity
  8
0
  6
SLD-Solid
 62
     7
370
    15
100
AcDbLine
 10
-20.235544
 20
-84.7804104457
 30
0.0
 11
-19.035544
 21
-84.7804104457
 31
0.0
  0
LINE
  5
5D
330
1F
100
AcDbEntity
  8
0
  6
SLD-Solid
 62
     7
370
    15
100
AcDbLine
 10
650.4193971202
 20
-123.5450871048
 30
0.0
 11
654.6541499197
 21
-104.1212498826
 31
0.0
  0
ARC
  5
5E
330
1F
100
AcDbEntity
  8
0
  6
SLD-Solid
 62
     7
370
    15
100
AcDbCircle
 10
370.1821406977
 20
2057.7678406644
 30
0.0
 40
2203.900000016601
100
AcDbArc
 50
272.6943964884
 51
277.1488297193
  0
LINE
  5
5F
330
1F
100
AcDbEntity
  8
0
  6
SLD-Solid
 62
     7
370
    15
100
AcDbLine
 10
459.3021426618
 20
-104.1212498826
 30
0.0
 11
466.6115919729
 21
-138.1725869173
 31
0.0
  0
ARC
  5
60
330
1F
100
AcDbEntity
  8
0
  6
SLD-Solid
 62
     7
370
    15
100
AcDbCircle
 10
473.4556840657
 20
-136.7034362587
 30
0.0
 40
7.000000016603496
100
AcDbArc
 50
192.1152418025
 51
270.0
  0
ARC
  5
61
330
1F
100
AcDbEntity
  8
0
  6
SLD-Solid
 62
     7
370
    15
100
AcDbCircle
 10
473.4556840657
 20
-136.7034362587
 30
0.0
 40
7.000000016603454
100
AcDbArc
 50
270.0
 51
272.6943964884
  0
ARC
  5
62
330
1F
100
AcDbEntity
  8
0
  6
SLD-Solid
 62
     7
370
    15
100
AcDbCircle
 10
643.5800540007
 20
-122.0539848529
 30
0.0
 40
7.000000016602899
100
AcDbArc
 50
277.1488297193
 51
347.7009253301
  0
ARC
  5
63
330
1F
100
AcDbEntity
  8
0
  6
SLD-Solid
 62
     7
370
    15
100
AcDbCircle
 10
491.0409419223
 20
-113.8963494328
 30
0.0
 40
6.999999710807686
100
AcDbArc
 50
192.1152418025
 51
273.335403964
  0
ARC
  5
64
330
1F
100
AcDbEntity
  8
0
  6
SLD-Solid
 62
     7
370
    15
100
AcDbCircle
 10
625.4162895769
 20
-102.1018119183
 30
0.0
 40
6.999999710807733
100
AcDbArc
 50
276.6969388637
 51
343.2323551
  0
LINE
  5
65
330
1F
100
AcDbEntity
  8
0
  6
SLD-Solid
 62
     7
370
    15
100
AcDbLine
 10
484.1968501285
 20
-115.3655000273
 30
0.0
 11
481.7831629246
 21
-104.1212498826
 31
0.0
  0
SPLINE
  5
66
330
1F
100
AcDbEntity
  8
0
  6
SLD-Solid
 62
     7
370
    15
100
AcDbSpline
210
0.0
220
0.0
230
1.0
 70
     8
 71
     3
 72
    11
 73
     7
 74
     0
 42
0.00000001
 43
0.00000001
 40
0.0
 40
0.0
 40
0.0
 40
0.0
 40
0.1902282316729713
 40
0.5511222014810876
 40
0.8995875727418213
 40
1.0
 40
1.0
 40
1.0
 40
1.0
 10
147.9598852277703
 20
-89.6642278993885
 30
0.0
 10
147.9650875254931
 20
-89.44526388356033
 30
0.0
 10
147.9801594301655
 20
-88.81088943037297
 30
0.0
 10
148.3462387672101
 20
-87.75624833495671
 30
0.0
 10
148.8751810159635
 20
-86.78149508771504
 30
0.0
 10
149.2790814842355
 20
-86.23446722509398
 30
0.0
 10
149.369432636651
 20
-86.1120989644118
 30
0.0
  0
SPLINE
  5
67
330
1F
100
AcDbEntity
  8
0
  6
SLD-Solid
 62
     7
370
    15
100
AcDbSpline
210
0.0
220
0.0
230
1.0
 70
     8
 71
     3
 72
    12
 73
     8
 74
     0
 42
0.00000001
 43
0.00000001
 40
0.0
 40
0.0
 40
0.0
 40
0.0
 40
0.134778077922538
 40
0.3897137515193215
 40
0.6471317600272684
 40
0.9114710502220871
 40
1.0
 40
1.0
 40
1.0
 40
1.0
 10
126.566603482817
 20
-86.31391138121481
 30
0.0
 10
126.7514500535322
 20
-86.52783684355114
 30
0.0
 10
127.2859379438429
 20
-87.14640698312887
 30
0.0
 10
127.9436718200368
 20
-88.16373649534626
 30
0.0
 10
128.4273286740836
 20
-89.3569814342301
 30
0.0
 10
128.6380431369423
 20
-90.27038595857783
 30
0.0
 10
128.5915001791511
 20
-90.79753680133152
 30
0.0
 10
128.5798233017615
 20
-90.9297904450348
 30
0.0
  0
LINE
  5
68
330
1F
100
AcDbEntity
  8
0
  6
SLD-Solid
 62
     7
370
    15
100
AcDbLine
 10
147.9430872672
 20
-96.4002131923
 30
0.0
 11
149.4359342651
 21
-96.1025393304
 31
0.0
  0
SPLINE
  5
69
330
1F
100
AcDbEntity
  8
0
  6
SLD-Solid
 62
     7
370
    15
100
AcDbSpline
210
0.0
220
0.0
230
1.0
 70
     8
 71
     3
 72
    10
 73
     6
 74
     0
 42
0.00000001
 43
0.00000001
 40
0.0
 40
0.0
 40
0.0
 40
0.0
 40
0.275477110878835
 40
0.8012094880355716
 40
1.0
 40
1.0
 40
1.0
 40
1.0
 10
127.7576243492442
 20
-96.24284831153834
 30
0.0
 10
128.1296020498979
 20
-96.31408187507384
 30
0.0
 10
129.2114780073984
 20
-96.5212606377271
 30
0.0
 10
130.6378172258326
 20
-96.74291409826546
 30
0.0
 10
131.7330279099176
 20
-96.84784972129567
 30
0.0
 10
132.0335256524558
 20
-96.87664136685814
 30
0.0
  0
SPLINE
  5
6A
330
1F
100
AcDbEntity
  8
0
  6
SLD-Solid
 62
     7
370
    15
100
AcDbSpline
210
0.0
220
0.0
230
1.0
 70
     8
 71
     3
 72
     9
 73
     5
 74
     0
 42
0.00000001
 43
0.00000001
 40
0.0
 40
0.0
 40
0.0
 40
0.0
 40
0.752875731912435
 40
1.0
 40
1.0
 40
1.0
 40
1.0
 10
150.2059541045074
 20
-95.30025138022758
 30
0.0
 10
150.6133805405658
 20
-93.03416803772357
 30
0.0
 10
151.1545408128239
 20
-90.02426448199613
 30
0.0
 10
151.8359175609756
 20
-86.96121895131975
 30
0.0
 10
152.0043022911545
 20
-86.20426606643261
 30
0.0
  0
ARC
  5
6B
330
1F
100
AcDbEntity
  8
0
  6
SLD-Solid
 62
     7
370
    15
100
AcDbCircle
 10
127.9554478512
 20
-95.2626106556
 30
0.0
 40
1.000000000000005
100
AcDbArc
 50
188.7738092222
 51
258.590287874
  0
LINE
  5
6C
330
1F
100
AcDbEntity
  8
0
  6
SLD-Solid
 62
     7
370
    15
100
AcDbLine
 10
126.7915730987
 20
-94.4686833168
 30
0.0
 11
126.9351483987
 21
-95.4019051879
 31
0.0
  0
SPLINE
  5
6D
330
1F
100
AcDbEntity
  8
0
  6
SLD-Solid
 62
     7
370
    15
100
AcDbSpline
210
0.0
220
0.0
230
1.0
 70
     8
 71
     3
 72
     9
 73
     5
 74
     0
 42
0.00000001
 43
0.00000001
 40
0.0
 40
0.0
 40
0.0
 40
0.0
 40
0.6692370731126364
 40
1.0
 40
1.0
 40
1.0
 40
1.0
 10
125.340127737336
 20
-86.20426606643261
 30
0.0
 10
125.7065002084453
 20
-88.06523006659862
 30
0.0
 10
126.2539481694574
 20
-90.8459546781486
 30
0.0
 10
126.6579456947806
 20
-93.56824920968349
 30
0.0
 10
126.7915730987118
 20
-94.46868331678337
 30
0.0
  0
SPLINE
  5
6E
330
1F
100
AcDbEntity
  8
0
  6
SLD-Solid
 62
     7
370
    15
100
AcDbSpline
210
0.0
220
0.0
230
1.0
 70
     8
 71
     3
 72
    12
 73
     8
 74
     0
 42
0.00000001
 43
0.00000001
 40
0.0
 40
0.0
 40
0.0
 40
0.0
 40
0.145738552986732
 40
0.422406576336227
 40
0.7025645190516152
 40
0.9915723830906951
 40
1.0
 40
1.0
 40
1.0
 40
1.0
 10
709.8608628934558
 20
-86.21351423339758
 30
0.0
 10
710.0298114539005
 20
-86.42682388769418
 30
0.0
 10
710.5194895900688
 20
-87.04507759561386
 30
0.0
 10
711.1069672083354
 20
-88.05977106019519
 30
0.0
 10
711.4957915296736
 20
-89.25236027812628
 30
0.0
 10
711.6521048665284
 20
-90.04574694794537
 30
0.0
 10
711.595109802739
 20
-90.45784795230138
 30
0.0
 10
711.5934948892734
 20
-90.46952453298907
 30
0.0
  0
SPLINE
  5
6F
330
1F
100
AcDbEntity
  8
0
  6
SLD-Solid
 62
     7
370
    15
100
AcDbSpline
210
0.0
220
0.0
230
1.0
 70
     8
 71
     3
 72
    11
 73
     7
 74
     0
 42
0.00000001
 43
0.00000001
 40
0.0
 40
0.0
 40
0.0
 40
0.0
 40
0.2706728893346069
 40
0.5972761992794177
 40
0.9114942371264437
 40
1.0
 40
1.0
 40
1.0
 40
1.0
 10
730.9599090290742
 20
-90.11864491315275
 30
0.0
 10
730.9892455159656
 20
-89.77669598307442
 30
0.0
 10
731.053980426927
 20
-89.02213959655586
 30
0.0
 10
731.5331386120899
 20
-87.84094443077373
 30
0.0
 10
732.1347311571473
 20
-86.87204588691988
 30
0.0
 10
732.5719601993053
 20
-86.33216313136899
 30
0.0
 10
732.668049106535
 20
-86.21351423339763
 30
0.0
  0
SPLINE
  5
70
330
1F
100
AcDbEntity
  8
0
  6
SLD-Solid
 62
     7
370
    15
100
AcDbSpline
210
0.0
220
0.0
230
1.0
 70
     8
 71
     3
 72
    11
 73
     7
 74
     0
 42
0.00000001
 43
0.00000001
 40
0.0
 40
0.0
 40
0.0
 40
0.0
 40
0.0925535171469219
 40
0.4249799083405212
 40
0.7579032427927601
 40
1.0
 40
1.0
 40
1.0
 40
1.0
 10
725.2577748847841
 20
-97.07053306408453
 30
0.0
 10
725.484967983054
 20
-97.05855571366206
 30
0.0
 10
726.528175254422
 20
-97.00355906478619
 30
0.0
 10
728.3184943581357
 20
-96.80687149114775
 30
0.0
 10
730.3841499430653
 20
-96.51686825021145
 30
0.0
 10
731.5957117235176
 20
-96.27544153234186
 30
0.0
 10
732.1058072531491
 20
-96.17379530058906
 30
0.0
  0
SPLINE
  5
71
330
1F
100
AcDbEntity
  8
0
  6
SLD-Solid
 62
     7
370
    15
100
AcDbSpline
210
0.0
220
0.0
230
1.0
 70
     8
 71
     3
 72
    10
 73
     6
 74
     0
 42
0.00000001
 43
0.00000001
 40
0.0
 40
0.0
 40
0.0
 40
0.0
 40
0.2502355006436259
 40
0.7279697107284072
 40
1.0
 40
1.0
 40
1.0
 40
1.0
 10
710.4231047468417
 20
-96.17379530058906
 30
0.0
 10
710.7903872108707
 20
-96.24758465450556
 30
0.0
 10
711.8588627405504
 20
-96.46224809948961
 30
0.0
 10
713.4176881048243
 20
-96.71275753752468
 30
0.0
 10
714.6597006142485
 20
-96.838581911881
 30
0.0
 10
715.1103288081783
 20
-96.88423363449905
 30
0.0
  0
SPLINE
  5
72
330
1F
100
AcDbEntity
  8
0
  6
SLD-Solid
 62
     7
370
    15
100
AcDbSpline
210
0.0
220
0.0
230
1.0
 70
     8
 71
     3
 72
     9
 73
     5
 74
     0
 42
0.00000001
 43
0.00000001
 40
0.0
 40
0.0
 40
0.0
 40
0.0
 40
0.7427638674191968
 40
1.0
 40
1.0
 40
1.0
 40
1.0
 10
732.8869203226022
 20
-95.35856713889795
 30
0.0
 10
733.2662542928765
 20
-93.10848636085312
 30
0.0
 10
733.7769603017622
 20
-90.07915109463605
 30
0.0
 10
734.4309011092728
 20
-86.99708486396773
 30
0.0
 10
734.5991183135335
 20
-86.20426606643261
 30
0.0
  0
LINE
  5
73
330
1F
100
AcDbEntity
  8
0
  6
SLD-Solid
 62
     7
370
    15
100
AcDbLine
 10
709.5222085384
 20
-94.8048365437
 30
0.0
 11
709.6115894357
 21
-95.3454934852
 31
0.0
  0
SPLINE
  5
74
330
1F
100
AcDbEntity
  8
0
  6
SLD-Solid
 62
     7
370
    15
100
AcDbSpline
210
0.0
220
0.0
230
1.0
 70
     8
 71
     3
 72
     9
 73
     5
 74
     0
 42
0.00000001
 43
0.00000001
 40
0.0
 40
0.0
 40
0.0
 40
0.0
 40
0.6356821433241806
 40
1.0
 40
1.0
 40
1.0
 40
1.0
 10
707.9265836194495
 20
-86.20426606643261
 30
0.0
 10
708.3071517575936
 20
-88.04450794701296
 30
0.0
 10
708.905828536768
 20
-90.93941682546158
 30
0.0
 10
709.3576147525631
 20
-93.77264201511248
 30
0.0
 10
709.5222085383771
 20
-94.80483654368588
 30
0.0
  0
LINE
  5
75
330
1F
100
AcDbEntity
  8
0
  6
SLD-Solid
 62
     7
370
    15
100
AcDbLine
 10
585.2585949956
 20
-86.0804104457
 30
0.0
 11
585.2536972963
 21
-86.3472621571
 31
0.0
  0
SPLINE
  5
76
330
1F
100
AcDbEntity
  8
0
  6
SLD-Solid
 62
     7
370
    15
100
AcDbSpline
210
0.0
220
0.0
230
1.0
 70
     8
 71
     3
 72
    11
 73
     7
 74
     0
 42
0.00000001
 43
0.00000001
 40
0.0
 40
0.0
 40
0.0
 40
0.0
 40
0.2706728893345867
 40
0.5972761992793764
 40
0.9114942371263491
 40
1.0
 40
1.0
 40
1.0
 40
1.0
 10
585.2099090290741
 20
-90.11864491315369
 30
0.0
 10
585.2392455159655
 20
-89.7766959830752
 30
0.0
 10
585.3039804269267
 20
-89.02213959655658
 30
0.0
 10
585.7831386120896
 20
-87.8409444307745
 30
0.0
 10
586.384731157147
 20
-86.87204588692072
 30
0.0
 10
586.8219601993051
 20
-86.33216313136954
 30
0.0
 10
586.918049106535
 20
-86.21351423339802
 30
0.0
  0
SPLINE
  5
77
330
1F
100
AcDbEntity
  8
0
  6
SLD-Solid
 62
     7
370
    15
100
AcDbSpline
210
0.0
220
0.0
230
1.0
 70
     8
 71
     3
 72
    12
 73
     8
 74
     0
 42
0.00000001
 43
0.00000001
 40
0.0
 40
0.0
 40
0.0
 40
0.0
 40
0.1457385529867394
 40
0.4224065763362271
 40
0.7025645190516433
 40
0.991572383090738
 40
1.0
 40
1.0
 40
1.0
 40
1.0
 10
564.1108628934556
 20
-86.21351423339796
 30
0.0
 10
564.2798114539005
 20
-86.42682388769445
 30
0.0
 10
564.7694895900688
 20
-87.04507759561403
 30
0.0
 10
565.3569672083354
 20
-88.05977106019519
 30
0.0
 10
565.7457915296736
 20
-89.25236027812761
 30
0.0
 10
565.9021048665284
 20
-90.04574694794427
 30
0.0
 10
565.8451098027391
 20
-90.45784795230166
 30
0.0
 10
565.8434948892734
 20
-90.46952453298923
 30
0.0
  0
SPLINE
  5
78
330
1F
100
AcDbEntity
  8
0
  6
SLD-Solid
 62
     7
370
    15
100
AcDbSpline
210
0.0
220
0.0
230
1.0
 70
     8
 71
     3
 72
    11
 73
     7
 74
     0
 42
0.00000001
 43
0.00000001
 40
0.0
 40
0.0
 40
0.0
 40
0.0
 40
0.0925535171472869
 40
0.4249799083407851
 40
0.7579032427930544
 40
1.0
 40
1.0
 40
1.0
 40
1.0
 10
579.5077748847843
 20
-97.07053306408486
 30
0.0
 10
579.7349679830551
 20
-97.05855571366229
 30
0.0
 10
580.7781752544237
 20
-97.00355906478664
 30
0.0
 10
582.568494358138
 20
-96.80687149114775
 30
0.0
 10
584.6341499430665
 20
-96.51686825021177
 30
0.0
 10
585.8457117235183
 20
-96.2754415323423
 30
0.0
 10
586.3558072531491
 20
-96.17379530058945
 30
0.0
  0
SPLINE
  5
79
330
1F
100
AcDbEntity
  8
0
  6
SLD-Solid
 62
     7
370
    15
100
AcDbSpline
210
0.0
220
0.0
230
1.0
 70
     8
 71
     3
 72
    10
 73
     6
 74
     0
 42
0.00000001
 43
0.00000001
 40
0.0
 40
0.0
 40
0.0
 40
0.0
 40
0.250235500643622
 40
0.7279697107285251
 40
1.0
 40
1.0
 40
1.0
 40
1.0
 10
564.6731047468417
 20
-96.17379530058945
 30
0.0
 10
565.0403872108707
 20
-96.24758465450594
 30
0.0
 10
566.1088627405506
 20
-96.46224809948988
 30
0.0
 10
567.6676881048244
 20
-96.71275753752518
 30
0.0
 10
568.9097006142488
 20
-96.83858191188128
 30
0.0
 10
569.3603288081783
 20
-96.88423363449938
 30
0.0
  0
LINE
  5
7A
330
1F
100
AcDbEntity
  8
0
  6
SLD-Solid
 62
     7
370
    15
100
AcDbLine
 10
563.7722085384
 20
-94.8048365437
 30
0.0
 11
563.8615894357
 21
-95.3454934852
 31
0.0
  0
SPLINE
  5
7B
330
1F
100
AcDbEntity
  8
0
  6
SLD-Solid
 62
     7
370
    15
100
AcDbSpline
210
0.0
220
0.0
230
1.0
 70
     8
 71
     3
 72
     9
 73
     5
 74
     0
 42
0.00000001
 43
0.00000001
 40
0.0
 40
0.0
 40
0.0
 40
0.0
 40
0.6356821433232193
 40
1.0
 40
1.0
 40
1.0
 40
1.0
 10
562.1765836194494
 20
-86.20426606643267
 30
0.0
 10
562.557151757593
 20
-88.04450794701052
 30
0.0
 10
563.1558285367674
 20
-90.93941682545947
 30
0.0
 10
563.6076147525627
 20
-93.77264201511076
 30
0.0
 10
563.7722085383772
 20
-94.80483654368705
 30
0.0
  0
SPLINE
  5
7C
330
1F
100
AcDbEntity
  8
0
  6
SLD-Solid
 62
     7
370
    15
100
AcDbSpline
210
0.0
220
0.0
230
1.0
 70
     8
 71
     3
 72
     9
 73
     5
 74
     0
 42
0.00000001
 43
0.00000001
 40
0.0
 40
0.0
 40
0.0
 40
0.0
 40
0.7427638674194048
 40
1.0
 40
1.0
 40
1.0
 40
1.0
 10
587.1369203226025
 20
-95.35856713889834
 30
0.0
 10
587.5162542928767
 20
-93.10848636085278
 30
0.0
 10
588.0269603017624
 20
-90.07915109463549
 30
0.0
 10
588.680901109273
 20
-86.99708486396702
 30
0.0
 10
588.8491183135336
 20
-86.20426606643261
 30
0.0
  0
LINE
  5
7D
330
1F
100
AcDbEntity
  8
0
  6
SLD-Solid
 62
   142
420
    32960
370
     0
100
AcDbLine
 10
879.7644560045
 20
599.7363981402
 30
0.0
 11
-20.2355439955
 21
599.7363979489
 31
0.0
  0
LINE
  5
7E
330
1F
100
AcDbEntity
  8
0
  6
SLD-Solid
 62
     7
370
    15
100
AcDbLine
 10
879.7644560045
 20
599.7363981402
 30
0.0
 11
879.7644560092
 21
577.5363981402
 31
0.0
  0
LINE
  5
7F
330
1F
100
AcDbEntity
  8
0
  6
SLD-Solid
 62
   142
420
    32960
370
     0
100
AcDbLine
 10
879.7644560092
 20
577.5363981402
 30
0.0
 11
876.9097122698
 21
577.5363981396
 31
0.0
  0
LINE
  5
80
330
1F
100
AcDbEntity
  8
0
  6
SLD-Solid
 62
   142
420
    32960
370
     0
100
AcDbLine
 10
798.9097122698
 20
577.5363981231
 30
0.0
 11
793.7144559906
 21
577.5363981219
 31
0.0
  0
LINE
  5
81
330
1F
100
AcDbEntity
  8
0
  6
SLD-Solid
 62
   142
420
    32960
370
     0
100
AcDbLine
 10
553.8144559906
 20
577.536398071
 30
0.0
 11
549.7144559906
 21
577.5363980701
 31
0.0
  0
LINE
  5
82
330
1F
100
AcDbEntity
  8
0
  6
SLD-Solid
 62
   142
420
    32960
370
     0
100
AcDbLine
 10
309.8144559906
 20
577.5363980191
 30
0.0
 11
305.7144559906
 21
577.5363980182
 31
0.0
  0
LINE
  5
83
330
1F
100
AcDbEntity
  8
0
  6
SLD-Solid
 62
   142
420
    32960
370
     0
100
AcDbLine
 10
65.8144559906
 20
577.5363979672
 30
0.0
 11
60.7644559965
 21
577.5363979662
 31
0.0
  0
LINE
  5
84
330
1F
100
AcDbEntity
  8
0
  6
SLD-Solid
 62
   142
420
    32960
370
     0
100
AcDbLine
 10
-17.2355440035
 20
577.5363979496
 30
0.0
 11
-20.2355439908
 21
577.5363979489
 31
0.0
  0
LINE
  5
85
330
1F
100
AcDbEntity
  8
0
  6
SLD-Solid
 62
     7
370
    15
100
AcDbLine
 10
-20.2355439955
 20
599.7363979489
 30
0.0
 11
-20.2355439908
 21
577.5363979489
 31
0.0
  0
LINE
  5
86
330
1F
100
AcDbEntity
  8
0
  6
SLD-Solid
 62
   142
420
    32960
370
     0
100
AcDbLine
 10
64.7644560086
 20
580.486397967
 30
0.0
 11
65.8144559906
 21
580.5717662523
 31
0.0
  0
ARC
  5
87
330
1F
100
AcDbEntity
  8
0
  6
SLD-Solid
 62
   142
420
    32960
370
     0
100
AcDbCircle
 10
64.7644560072
 20
586.986397967
 30
0.0
 40
6.499999999999845
100
AcDbArc
 50
80.7037948337
 51
127.9798725637
  0
ARC
  5
88
330
1F
100
AcDbEntity
  8
0
  6
SLD-Solid
 62
   142
420
    32960
370
     0
100
AcDbCircle
 10
64.7644560072
 20
586.986397967
 30
0.0
 40
6.499999999999916
100
AcDbArc
 50
232.0201274363
 51
270.0000000122
  0
ARC
  5
89
330
1F
100
AcDbEntity
  8
0
  6
SLD-Solid
 62
   142
420
    32960
370
     0
100
AcDbCircle
 10
794.7644560072
 20
586.9863981222
 30
0.0
 40
6.500000000000114
100
AcDbArc
 50
270.0000000122
 51
309.6228877154
  0
ARC
  5
8A
330
1F
100
AcDbEntity
  8
0
  6
SLD-Solid
 62
   142
420
    32960
370
     0
100
AcDbCircle
 10
794.7644560072
 20
586.9863981222
 30
0.0
 40
6.499999999999994
100
AcDbArc
 50
50.3771122846
 51
99.2962054624
  0
LINE
  5
8B
330
1F
100
AcDbEntity
  8
0
  6
SLD-Solid
 62
   142
420
    32960
370
     0
100
AcDbLine
 10
793.7144559906
 20
580.5717664129
 30
0.0
 11
794.7644560086
 21
580.4863981222
 31
0.0
  0
LINE
  5
8C
330
1F
100
AcDbEntity
  8
0
  6
SLD-Solid
 62
     7
370
    15
100
AcDbLine
 10
879.7644560094
 20
576.2863981402
 30
0.0
 11
876.9097122698
 21
576.2863981396
 31
0.0
  0
LINE
  5
8D
330
1F
100
AcDbEntity
  8
0
  6
SLD-Solid
 62
     7
370
    15
100
AcDbLine
 10
798.9097122698
 20
576.2863981231
 30
0.0
 11
793.7144559906
 21
576.2863981219
 31
0.0
  0
LINE
  5
8E
330
1F
100
AcDbEntity
  8
0
  6
SLD-Solid
 62
     7
370
    15
100
AcDbLine
 10
553.8144559906
 20
576.286398071
 30
0.0
 11
549.7144559906
 21
576.2863980701
 31
0.0
  0
LINE
  5
8F
330
1F
100
AcDbEntity
  8
0
  6
SLD-Solid
 62
     7
370
    15
100
AcDbLine
 10
309.8144559906
 20
576.2863980191
 30
0.0
 11
305.7144559906
 21
576.2863980182
 31
0.0
  0
LINE
  5
90
330
1F
100
AcDbEntity
  8
0
  6
SLD-Solid
 62
     7
370
    15
100
AcDbLine
 10
65.8144559906
 20
576.2863979672
 30
0.0
 11
60.7644559965
 21
576.2863979662
 31
0.0
  0
LINE
  5
91
330
1F
100
AcDbEntity
  8
0
  6
SLD-Solid
 62
     7
370
    15
100
AcDbLine
 10
-17.2355440035
 20
576.2863979496
 30
0.0
 11
-20.2355439906
 21
576.2863979489
 31
0.0
  0
LINE
  5
92
330
1F
100
AcDbEntity
  8
0
  6
SLD-Solid
 62
   142
420
    32960
370
     0
100
AcDbLine
 10
-20.2355439908
 20
577.5363979489
 30
0.0
 11
-20.2355439906
 21
576.2863979489
 31
0.0
  0
LINE
  5
93
330
1F
100
AcDbEntity
  8
0
  6
SLD-Solid
 62
   142
420
    32960
370
     0
100
AcDbLine
 10
879.7644560092
 20
577.5363981402
 30
0.0
 11
879.7644560094
 21
576.2863981402
 31
0.0
  0
ARC
  5
94
330
1F
100
AcDbEntity
  8
0
  6
SLD-Solid
 62
   142
420
    32960
370
     0
100
AcDbCircle
 10
467.2067326064
 20
-90.6881179802
 30
0.0
 40
1.943246067351069
100
AcDbArc
 50
181.809909826
 51
271.7021999702
  0
LINE
  5
95
330
1F
100
AcDbEntity
  8
0
  6
SLD-Solid
 62
   142
420
    32960
370
     0
100
AcDbLine
 10
487.264456
 20
-92.6305065325
 30
0.0
 11
467.264456
 21
-92.6305065325
 31
0.0
  0
ARC
  5
96
330
1F
100
AcDbEntity
  8
0
  6
SLD-Solid
 62
   142
420
    32960
370
     0
100
AcDbCircle
 10
487.3221793935
 20
-90.6881179802
 30
0.0
 40
1.943246067350891
100
AcDbArc
 50
268.2978000298
 51
358.190090174
  0
LINE
  5
97
330
1F
100
AcDbEntity
  8
0
  6
SLD-Solid
 62
     7
370
    15
100
AcDbLine
 10
487.264456
 20
-91.7239771022
 30
0.0
 11
467.264456
 21
-91.7239771022
 31
0.0
  0
LINE
  5
98
330
1F
100
AcDbEntity
  8
0
  6
SLD-Solid
 62
   142
420
    32960
370
     0
100
AcDbLine
 10
466.264456
 20
-86.0804104457
 30
0.0
 11
466.264456
 21
-90.7834702108
 31
0.0
  0
ARC
  5
99
330
1F
100
AcDbEntity
  8
0
  6
SLD-Solid
 62
   142
420
    32960
370
     0
100
AcDbCircle
 10
467.2355943032
 20
-90.7527828261
 30
0.0
 40
0.9716230336756203
100
AcDbArc
 50
181.809909826
 51
271.7021999702
  0
ARC
  5
9A
330
1F
100
AcDbEntity
  8
0
  6
SLD-Solid
 62
   142
420
    32960
370
     0
100
AcDbCircle
 10
487.2933176968
 20
-90.7527828261
 30
0.0
 40
0.9716230336755078
100
AcDbArc
 50
268.2978000298
 51
358.190090174
  0
LINE
  5
9B
330
1F
100
AcDbEntity
  8
0
  6
SLD-Solid
 62
   142
420
    32960
370
     0
100
AcDbLine
 10
488.264456
 20
-90.7834702108
 30
0.0
 11
488.264456
 21
-86.0804104456
 31
0.0
  0
LINE
  5
9C
330
1F
100
AcDbEntity
  8
0
  6
SLD-Solid
 62
   142
420
    32960
370
     0
100
AcDbLine
 10
480.264456
 20
-86.0804104457
 30
0.0
 11
480.264456
 21
-87.9619495364
 31
0.0
  0
ARC
  5
9D
330
1F
100
AcDbEntity
  8
0
  6
SLD-Solid
 62
   142
420
    32960
370
     0
100
AcDbCircle
 10
478.3221793935
 20
-87.900574767
 30
0.0
 40
1.943246067350945
100
AcDbArc
 50
268.2978000298
 51
358.190090174
  0
LINE
  5
9E
330
1F
100
AcDbEntity
  8
0
  6
SLD-Solid
 62
   142
420
    32960
370
     0
100
AcDbLine
 10
476.264456
 20
-89.8429633193
 30
0.0
 11
478.264456
 21
-89.8429633193
 31
0.0
  0
ARC
  5
9F
330
1F
100
AcDbEntity
  8
0
  6
SLD-Solid
 62
   142
420
    32960
370
     0
100
AcDbCircle
 10
476.2067326064
 20
-87.900574767
 30
0.0
 40
1.943246067351003
100
AcDbArc
 50
181.809909826
 51
271.7021999702
  0
LINE
  5
A0
330
1F
100
AcDbEntity
  8
0
  6
SLD-Solid
 62
   142
420
    32960
370
     0
100
AcDbLine
 10
474.264456
 20
-86.0804104457
 30
0.0
 11
474.264456
 21
-87.9619495364
 31
0.0
  0
ARC
  5
A1
330
1F
100
AcDbEntity
  8
0
  6
SLD-Solid
 62
   142
420
    32960
370
     0
100
AcDbCircle
 10
476.2067326064
 20
-87.8665973058
 30
0.0
 40
1.943246067351002
100
AcDbArc
 50
181.809909826
 51
271.7021999702
  0
LINE
  5
A2
330
1F
100
AcDbEntity
  8
0
  6
SLD-Solid
 62
   142
420
    32960
370
     0
100
AcDbLine
 10
476.264456
 20
-89.8089858581
 30
0.0
 11
478.264456
 21
-89.8089858581
 31
0.0
  0
ARC
  5
A3
330
1F
100
AcDbEntity
  8
0
  6
SLD-Solid
 62
   142
420
    32960
370
     0
100
AcDbCircle
 10
478.3221793935
 20
-87.8665973058
 30
0.0
 40
1.943246067351004
100
AcDbArc
 50
268.2978000298
 51
358.190090174
  0
SPLINE
  5
A4
330
1F
100
AcDbEntity
  8
0
  6
SLD-Solid
 62
   142
420
    32960
370
     0
100
AcDbSpline
210
0.0
220
0.0
230
1.0
 70
    24
 71
     3
 72
     8
 73
     4
 74
     0
 42
0.00000001
 43
0.00000001
 40
0.0
 40
0.0
 40
0.0
 40
0.0
 40
1.0
 40
1.0
 40
1.0
 40
1.0
 10
865.7144560077106
 20
687.5623049612583
 30
0.0
 10
865.7144560077106
 20
687.6035882992693
 30
0.0
 10
865.7144560077106
 20
687.644981181814
 30
0.0
 10
865.7144560077106
 20
687.6864075321172
 30
0.0
  0
SPLINE
  5
A5
330
1F
100
AcDbEntity
  8
0
  6
SLD-Solid
 62
   142
420
    32960
370
     0
100
AcDbSpline
210
0.0
220
0.0
230
1.0
 70
    24
 71
     3
 72
     8
 73
     4
 74
     0
 42
0.00000001
 43
0.00000001
 40
0.0
 40
0.0
 40
0.0
 40
0.0
 40
1.0
 40
1.0
 40
1.0
 40
1.0
 10
460.8144560077108
 20
687.6864075321154
 30
0.0
 10
460.8144560077108
 20
687.6449811818129
 30
0.0
 10
460.8144560077108
 20
687.6035882992688
 30
0.0
 10
460.8144560077108
 20
687.5623049612586
 30
0.0
  0
SPLINE
  5
A6
330
1F
100
AcDbEntity
  8
0
  6
SLD-Solid
 62
     7
370
    15
100
AcDbSpline
210
0.0
220
0.0
230
1.0
 70
     8
 71
     3
 72
    14
 73
    10
 74
     0
 42
0.00000001
 43
0.00000001
 40
0.0
 40
0.0
 40
0.0
 40
0.0
 40
0.25
 40
0.25
 40
0.5
 40
0.5
 40
0.75
 40
0.75
 40
1.0
 40
1.0
 40
1.0
 40
1.0
 10
865.7144560077107
 20
750.6363980552552
 30
0.0
 10
865.9828003802048
 20
750.6358087996041
 30
0.0
 10
866.2510391706472
 20
750.6352195439533
 30
0.0
 10
866.7468749174709
 20
750.6340410326511
 30
0.0
 10
866.9742767836592
 20
750.6334517770001
 30
0.0
 10
867.3537730346268
 20
750.6322732656982
 30
0.0
 10
867.5057181038368
 20
750.6316840100474
 30
0.0
 10
867.7110999948807
 20
750.6305054987453
 30
0.0
 10
867.7644560077107
 20
750.6299162430943
 30
0.0
 10
867.7644560077107
 20
750.6293269874434
 30
0.0
  0
LINE
  5
A7
330
1F
100
AcDbEntity
  8
0
  6
SLD-Solid
 62
     7
370
    15
100
AcDbLine
 10
867.7644560077
 20
687.6863980553
 30
0.0
 11
867.7644560077
 21
750.6293269874
 31
0.0
  0
LINE
  5
A8
330
1F
100
AcDbEntity
  8
0
  6
SLD-Solid
 62
   142
420
    32960
370
     0
100
AcDbLine
 10
867.7644560077
 20
687.6863980553
 30
0.0
 11
865.7144560077
 21
687.6863980553
 31
0.0
  0
LINE
  5
A9
330
1F
100
AcDbEntity
  8
0
  6
SLD-Solid
 62
     7
370
    15
100
AcDbLine
 10
458.7644560077
 20
750.6293269874
 30
0.0
 11
458.7644560077
 21
687.6863980553
 31
0.0
  0
SPLINE
  5
AA
330
1F
100
AcDbEntity
  8
0
  6
SLD-Solid
 62
   142
420
    32960
370
     0
100
AcDbSpline
210
0.0
220
0.0
230
1.0
 70
     8
 71
     3
 72
    14
 73
    10
 74
     0
 42
0.00000001
 43
0.00000001
 40
0.0
 40
0.0
 40
0.0
 40
0.0
 40
0.25
 40
0.25
 40
0.5
 40
0.5
 40
0.75
 40
0.75
 40
1.0
 40
1.0
 40
1.0
 40
1.0
 10
458.7644560077107
 20
750.6293269874436
 30
0.0
 10
458.7644560077107
 20
750.6299162430947
 30
0.0
 10
458.8178120205406
 20
750.6305054987456
 30
0.0
 10
459.0231939115845
 20
750.6316840100476
 30
0.0
 10
459.1751389807945
 20
750.6322732656987
 30
0.0
 10
459.5546352317621
 20
750.6334517770008
 30
0.0
 10
459.7820370979504
 20
750.6340410326516
 30
0.0
 10
460.2778728447742
 20
750.6352195439537
 30
0.0
 10
460.5461116352166
 20
750.6358087996045
 30
0.0
 10
460.8144560077108
 20
750.6363980552555
 30
0.0
  0
LINE
  5
AB
330
1F
100
AcDbEntity
  8
0
  6
SLD-Solid
 62
   142
420
    32960
370
     0
100
AcDbLine
 10
460.8144560077
 20
687.6863980553
 30
0.0
 11
458.7644560077
 21
687.6863980553
 31
0.0
  0
ARC
  5
AC
330
1F
100
AcDbEntity
  8
0
  6
SLD-Solid
 62
     7
370
    15
100
AcDbCircle
 10
470.7644560077
 20
716.4363980553
 30
0.0
 40
3.199999999999989
100
AcDbArc
 50
180.0
 51
0.0
  0
LINE
  5
AD
330
1F
100
AcDbEntity
  8
0
  6
SLD-Solid
 62
     7
370
    15
100
AcDbLine
 10
852.5644560077
 20
716.4363980553
 30
0.0
 11
852.5644560077
 21
722.7363980553
 31
0.0
  0
ARC
  5
AE
330
1F
100
AcDbEntity
  8
0
  6
SLD-Solid
 62
     7
370
    15
100
AcDbCircle
 10
855.7644560077
 20
716.4363980553
 30
0.0
 40
3.200000000000045
100
AcDbArc
 50
180.0
 51
0.0
  0
ARC
  5
AF
330
1F
100
AcDbEntity
  8
0
  6
SLD-Solid
 62
   142
420
    32960
370
     0
100
AcDbCircle
 10
855.7644560077
 20
722.7363980553
 30
0.0
 40
3.200000000000045
100
AcDbArc
 50
0.0
 51
180.0
  0
LINE
  5
B0
330
1F
100
AcDbEntity
  8
0
  6
SLD-Solid
 62
   142
420
    32960
370
     0
100
AcDbLine
 10
858.9644560077
 20
722.7363980553
 30
0.0
 11
858.9644560077
 21
716.4363980553
 31
0.0
  0
LINE
  5
B1
330
1F
100
AcDbEntity
  8
0
  6
SLD-Solid
 62
   142
420
    32960
370
     0
100
AcDbLine
 10
467.5644560077
 20
716.4363980553
 30
0.0
 11
467.5644560077
 21
722.7363980553
 31
0.0
  0
ARC
  5
B2
330
1F
100
AcDbEntity
  8
0
  6
SLD-Solid
 62
   142
420
    32960
370
     0
100
AcDbCircle
 10
470.7644560077
 20
722.7363980553
 30
0.0
 40
3.199999999999989
100
AcDbArc
 50
0.0
 51
180.0
  0
LINE
  5
B3
330
1F
100
AcDbEntity
  8
0
  6
SLD-Solid
 62
   142
420
    32960
370
     0
100
AcDbLine
 10
473.9644560077
 20
722.7363980553
 30
0.0
 11
473.9644560077
 21
716.4363980553
 31
0.0
  0
LINE
  5
B4
330
1F
100
AcDbEntity
  8
0
  6
SLD-Solid
 62
   142
420
    32960
370
     0
100
AcDbLine
 10
865.7144560077
 20
687.5623049613
 30
0.0
 11
865.7144560077
 21
682.6356999706
 31
0.0
  0
LINE
  5
B5
330
1F
100
AcDbEntity
  8
0
  6
SLD-Solid
 62
   142
420
    32960
370
     0
100
AcDbLine
 10
460.8144560077
 20
682.6356999706
 30
0.0
 11
460.8144560077
 21
687.5623049613
 31
0.0
  0
LINE
  5
B6
330
1F
100
AcDbEntity
  8
0
  6
SLD-Solid
 62
   142
420
    32960
370
     0
100
AcDbLine
 10
865.7144560077
 20
682.6356999706
 30
0.0
 11
460.8144560077
 21
682.6356999706
 31
0.0
  0
LINE
  5
B7
330
1F
100
AcDbEntity
  8
0
  6
SLD-Solid
 62
     7
370
    15
100
AcDbLine
 10
460.8144560077
 20
752.6863980553
 30
0.0
 11
865.7144560077
 21
752.6863980553
 31
0.0
  0
LINE
  5
B8
330
1F
100
AcDbEntity
  8
0
  6
SLD-Solid
 62
   142
420
    32960
370
     0
100
AcDbLine
 10
459.5644560077
 20
752.6863980553
 30
0.0
 11
460.8144560077
 21
752.6863980553
 31
0.0
  0
LINE
  5
B9
330
1F
100
AcDbEntity
  8
0
  6
SLD-Solid
 62
   142
420
    32960
370
     0
100
AcDbLine
 10
459.5644560077
 20
750.6363980553
 30
0.0
 11
459.5644560077
 21
752.6863980553
 31
0.0
  0
LINE
  5
BA
330
1F
100
AcDbEntity
  8
0
  6
SLD-Solid
 62
   142
420
    32960
370
     0
100
AcDbLine
 10
459.5644560077
 20
750.6363980553
 30
0.0
 11
460.8144560077
 21
750.6363980553
 31
0.0
  0
LINE
  5
BB
330
1F
100
AcDbEntity
  8
0
  6
SLD-Solid
 62
   142
420
    32960
370
     0
100
AcDbLine
 10
866.9644560077
 20
750.6363980553
 30
0.0
 11
865.7144560077
 21
750.6363980553
 31
0.0
  0
LINE
  5
BC
330
1F
100
AcDbEntity
  8
0
  6
SLD-Solid
 62
   142
420
    32960
370
     0
100
AcDbLine
 10
866.9644560077
 20
752.6863980553
 30
0.0
 11
866.9644560077
 21
750.6363980553
 31
0.0
  0
LINE
  5
BD
330
1F
100
AcDbEntity
  8
0
  6
SLD-Solid
 62
   142
420
    32960
370
     0
100
AcDbLine
 10
866.9644560077
 20
752.6863980553
 30
0.0
 11
865.7144560077
 21
752.6863980553
 31
0.0
  0
SPLINE
  5
BE
330
1F
100
AcDbEntity
  8
0
  6
SLD-Solid
 62
   142
420
    32960
370
     0
100
AcDbSpline
210
0.0
220
0.0
230
1.0
 70
     8
 71
     3
 72
    10
 73
     6
 74
     0
 42
0.00000001
 43
0.00000001
 40
0.0
 40
0.0
 40
0.0
 40
0.0
 40
0.4347688117987923
 40
0.8695376235976022
 40
1.0
 40
1.0
 40
1.0
 40
1.0
 10
867.7644560077107
 20
750.6363980552552
 30
0.0
 10
867.7311992974093
 20
750.9010847259974
 30
0.0
 10
867.6646858768064
 20
751.4304580674818
 30
0.0
 10
867.3293113944613
 20
751.9952840446941
 30
0.0
 10
867.0328767941324
 20
752.1773025113015
 30
0.0
 10
866.9644560077107
 20
752.2193146334178
 30
0.0
  0
LINE
  5
BF
330
1F
100
AcDbEntity
  8
0
  6
SLD-Solid
 62
   142
420
    32960
370
     0
100
AcDbLine
 10
867.7644560077
 20
750.6293269874
 30
0.0
 11
867.7644560077
 21
750.6363980553
 31
0.0
  0
LINE
  5
C0
330
1F
100
AcDbEntity
  8
0
  6
SLD-Solid
 62
   142
420
    32960
370
     0
100
AcDbLine
 10
866.9644560077
 20
750.6363980553
 30
0.0
 11
867.7644560077
 21
750.6363980553
 31
0.0
  0
LINE
  5
C1
330
1F
100
AcDbEntity
  8
0
  6
SLD-Solid
 62
   142
420
    32960
370
     0
100
AcDbLine
 10
532.2918982855
 20
30.9863980528
 30
0.0
 11
532.2918982855
 21
32.2363980528
 31
0.0
  0
LINE
  5
C2
330
1F
100
AcDbEntity
  8
0
  6
SLD-Solid
 62
     7
370
    15
100
AcDbLine
 10
879.7644559873
 20
680.4863981402
 30
0.0
 11
879.7644559878
 21
677.9058190978
 31
0.0
  0
LINE
  5
C3
330
1F
100
AcDbEntity
  8
0
  6
SLD-Solid
 62
     7
370
    15
100
AcDbLine
 10
879.7644559873
 20
680.4863981402
 30
0.0
 11
-20.2355440127
 21
680.4863979489
 31
0.0
  0
LINE
  5
C4
330
1F
100
AcDbEntity
  8
0
  6
SLD-Solid
 62
     7
370
    15
100
AcDbLine
 10
-20.2355440127
 20
680.4863979489
 30
0.0
 11
-20.2355440122
 21
677.9058189065
 31
0.0
  0
LINE
  5
C5
330
1F
100
AcDbEntity
  8
0
  6
SLD-Solid
 62
     7
370
    15
100
AcDbLine
 10
474.1128353979
 20
673.0761898801
 30
0.0
 11
395.3313308171
 21
673.0761898634
 31
0.0
  0
LINE
  5
C6
330
1F
100
AcDbEntity
  8
0
  6
SLD-Solid
 62
     7
370
    15
100
AcDbLine
 10
390.8744051667
 20
670.4355740829
 30
0.0
 11
380.9591509334
 21
651.6000204682
 31
0.0
  0
ARC
  5
C7
330
1F
100
AcDbEntity
  8
0
  6
SLD-Solid
 62
     7
370
    15
100
AcDbCircle
 10
385.2583282592
 20
649.4162680686
 30
0.0
 40
4.822001682067474
100
AcDbArc
 50
153.071863628
 51
265.5402115492
  0
LINE
  5
C8
330
1F
100
AcDbEntity
  8
0
  6
SLD-Solid
 62
     7
370
    15
100
AcDbLine
 10
368.6545068171
 20
647.2219937617
 30
0.0
 11
378.5697610504
 21
666.0575473764
 31
0.0
  0
LINE
  5
C9
330
1F
100
AcDbEntity
  8
0
  6
SLD-Solid
 62
     7
370
    15
100
AcDbLine
 10
374.1128353979
 20
673.0761898589
 30
0.0
 11
295.3313308171
 21
673.0761898421
 31
0.0
  0
LINE
  5
CA
330
1F
100
AcDbEntity
  8
0
  6
SLD-Solid
 62
     7
370
    15
100
AcDbLine
 10
290.8744051667
 20
670.4355740617
 30
0.0
 11
280.9591509334
 21
651.6000204469
 31
0.0
  0
ARC
  5
CB
330
1F
100
AcDbEntity
  8
0
  6
SLD-Solid
 62
     7
370
    15
100
AcDbCircle
 10
285.2583282592
 20
649.4162680473
 30
0.0
 40
4.822001682067679
100
AcDbArc
 50
153.071863628
 51
265.5402115491
  0
ARC
  5
CC
330
1F
100
AcDbEntity
  8
0
  6
SLD-Solid
 62
     7
370
    15
100
AcDbCircle
 10
264.2480236283
 20
649.5862270696
 30
0.0
 40
5.000669288031246
100
AcDbArc
 50
275.53417587
 51
331.7848760152
  0
LINE
  5
CD
330
1F
100
AcDbEntity
  8
0
  6
SLD-Solid
 62
     7
370
    15
100
AcDbLine
 10
268.6545068171
 20
647.2219937404
 30
0.0
 11
278.5697610504
 21
666.0575473551
 31
0.0
  0
ARC
  5
CE
330
1F
100
AcDbEntity
  8
0
  6
SLD-Solid
 62
     7
370
    15
100
AcDbCircle
 10
274.2466818595
 20
668.2367610391
 30
0.0
 40
4.841279373383077
100
AcDbArc
 50
333.2478611049
 51
91.5842536749
  0
LINE
  5
CF
330
1F
100
AcDbEntity
  8
0
  6
SLD-Solid
 62
     7
370
    15
100
AcDbLine
 10
274.1128353979
 20
673.0761898376
 30
0.0
 11
195.3313308171
 21
673.0761898209
 31
0.0
  0
LINE
  5
D0
330
1F
100
AcDbEntity
  8
0
  6
SLD-Solid
 62
     7
370
    15
100
AcDbLine
 10
190.8744051667
 20
670.4355740404
 30
0.0
 11
180.9591509334
 21
651.6000204257
 31
0.0
  0
LINE
  5
D1
330
1F
100
AcDbEntity
  8
0
  6
SLD-Solid
 62
     7
370
    15
100
AcDbLine
 10
174.1128353979
 20
673.0761898163
 30
0.0
 11
95.3313308171
 21
673.0761897996
 31
0.0
  0
LINE
  5
D2
330
1F
100
AcDbEntity
  8
0
  6
SLD-Solid
 62
     7
370
    15
100
AcDbLine
 10
90.8744051667
 20
670.4355740192
 30
0.0
 11
80.9591509334
 21
651.6000204044
 31
0.0
  0
ARC
  5
D3
330
1F
100
AcDbEntity
  8
0
  6
SLD-Solid
 62
     7
370
    15
100
AcDbCircle
 10
74.2466818595
 20
668.2367609966
 30
0.0
 40
4.841279373383083
100
AcDbArc
 50
333.2478611049
 51
91.5842536749
  0
LINE
  5
D4
330
1F
100
AcDbEntity
  8
0
  6
SLD-Solid
 62
     7
370
    15
100
AcDbLine
 10
74.1128353979
 20
673.0761897951
 30
0.0
 11
4.7644559889
 21
673.0761897803
 31
0.0
  0
LINE
  5
D5
330
1F
100
AcDbEntity
  8
0
  6
SLD-Solid
 62
     7
370
    15
100
AcDbLine
 10
-0.2355440101
 20
668.2465606478
 30
0.0
 11
-0.2355440061
 21
649.4110070352
 31
0.0
  0
ARC
  5
D6
330
1F
100
AcDbEntity
  8
0
  6
SLD-Solid
 62
     7
370
    15
100
AcDbCircle
 10
4.6591153947
 20
649.4854007377
 30
0.0
 40
4.895224721419271
100
AcDbArc
 50
180.8707688627
 51
264.991577994
  0
LINE
  5
D7
330
1F
100
AcDbEntity
  8
0
  6
SLD-Solid
 62
     7
370
    15
100
AcDbLine
 10
-20.2355440122
 20
677.9058189065
 30
0.0
 11
-20.2355440051
 21
644.6088665853
 31
0.0
  0
LINE
  5
D8
330
1F
100
AcDbEntity
  8
0
  6
SLD-Solid
 62
     7
370
    15
100
AcDbLine
 10
879.7644559878
 20
677.9058190978
 30
0.0
 11
879.7644559949
 21
644.6088667766
 31
0.0
  0
ARC
  5
D9
330
1F
100
AcDbEntity
  8
0
  6
SLD-Solid
 62
     7
370
    15
100
AcDbCircle
 10
854.869796593
 20
649.4854009184
 30
0.0
 40
4.895224721419314
100
AcDbArc
 50
275.0084220304
 51
359.1292311616
  0
LINE
  5
DA
330
1F
100
AcDbEntity
  8
0
  6
SLD-Solid
 62
     7
370
    15
100
AcDbLine
 10
859.7644559939
 20
649.411007218
 30
0.0
 11
859.7644559899
 21
668.2465608306
 31
0.0
  0
LINE
  5
DB
330
1F
100
AcDbEntity
  8
0
  6
SLD-Solid
 62
     7
370
    15
100
AcDbLine
 10
854.7644559889
 20
673.076189961
 30
0.0
 11
795.3313308171
 21
673.0761899484
 31
0.0
  0
LINE
  5
DC
330
1F
100
AcDbEntity
  8
0
  6
SLD-Solid
 62
     7
370
    15
100
AcDbLine
 10
790.8744051667
 20
670.435574168
 30
0.0
 11
780.9591509334
 21
651.6000205532
 31
0.0
  0
ARC
  5
DD
330
1F
100
AcDbEntity
  8
0
  6
SLD-Solid
 62
     7
370
    15
100
AcDbCircle
 10
785.2583282592
 20
649.4162681536
 30
0.0
 40
4.822001682067423
100
AcDbArc
 50
153.071863628
 51
265.5402115491
  0
LINE
  5
DE
330
1F
100
AcDbEntity
  8
0
  6
SLD-Solid
 62
     7
370
    15
100
AcDbLine
 10
768.6545068171
 20
647.2219938467
 30
0.0
 11
778.5697610504
 21
666.0575474614
 31
0.0
  0
ARC
  5
DF
330
1F
100
AcDbEntity
  8
0
  6
SLD-Solid
 62
     7
370
    15
100
AcDbCircle
 10
774.2466818595
 20
668.2367611454
 30
0.0
 40
4.841279373383005
100
AcDbArc
 50
333.2478611049
 51
91.5842536749
  0
LINE
  5
E0
330
1F
100
AcDbEntity
  8
0
  6
SLD-Solid
 62
     7
370
    15
100
AcDbLine
 10
774.1128353979
 20
673.0761899439
 30
0.0
 11
695.3313308171
 21
673.0761899271
 31
0.0
  0
LINE
  5
E1
330
1F
100
AcDbEntity
  8
0
  6
SLD-Solid
 62
     7
370
    15
100
AcDbLine
 10
690.8744051667
 20
670.4355741467
 30
0.0
 11
680.9591509334
 21
651.600020532
 31
0.0
  0
ARC
  5
E2
330
1F
100
AcDbEntity
  8
0
  6
SLD-Solid
 62
     7
370
    15
100
AcDbCircle
 10
664.2480236283
 20
649.5862271547
 30
0.0
 40
5.000669288031241
100
AcDbArc
 50
275.53417587
 51
331.7848760152
  0
ARC
  5
E3
330
1F
100
AcDbEntity
  8
0
  6
SLD-Solid
 62
     7
370
    15
100
AcDbCircle
 10
674.2466818595
 20
668.2367611241
 30
0.0
 40
4.841279373382965
100
AcDbArc
 50
333.2478611049
 51
91.5842536749
  0
LINE
  5
E4
330
1F
100
AcDbEntity
  8
0
  6
SLD-Solid
 62
     7
370
    15
100
AcDbLine
 10
674.1128353979
 20
673.0761899226
 30
0.0
 11
595.3313308171
 21
673.0761899059
 31
0.0
  0
ARC
  5
E5
330
1F
100
AcDbEntity
  8
0
  6
SLD-Solid
 62
     7
370
    15
100
AcDbCircle
 10
595.2953835674
 20
668.0552758995
 30
0.0
 40
5.021042686942135
100
AcDbArc
 50
89.5897976937
 51
151.70154107
  0
ARC
  5
E6
330
1F
100
AcDbEntity
  8
0
  6
SLD-Solid
 62
     7
370
    15
100
AcDbCircle
 10
585.2583282592
 20
649.4162681111
 30
0.0
 40
4.822001682068081
100
AcDbArc
 50
153.071863628
 51
265.5402115492
  0
ARC
  5
E7
330
1F
100
AcDbEntity
  8
0
  6
SLD-Solid
 62
     7
370
    15
100
AcDbCircle
 10
574.2466818595
 20
668.2367611029
 30
0.0
 40
4.841279373383106
100
AcDbArc
 50
333.2478611049
 51
91.5842536749
  0
LINE
  5
E8
330
1F
100
AcDbEntity
  8
0
  6
SLD-Solid
 62
     7
370
    15
100
AcDbLine
 10
574.1128353979
 20
673.0761899014
 30
0.0
 11
495.3313308171
 21
673.0761898846
 31
0.0
  0
LINE
  5
E9
330
1F
100
AcDbEntity
  8
0
  6
SLD-Solid
 62
     7
370
    15
100
AcDbLine
 10
490.8744051667
 20
670.4355741042
 30
0.0
 11
480.9591509334
 21
651.6000204894
 31
0.0
  0
ARC
  5
EA
330
1F
100
AcDbEntity
  8
0
  6
SLD-Solid
 62
   142
420
    32960
370
     0
100
AcDbCircle
 10
485.2583282592
 20
649.4162680899
 30
0.0
 40
4.822001682067929
100
AcDbArc
 50
153.071863628
 51
265.5402115492
  0
ARC
  5
EB
330
1F
100
AcDbEntity
  8
0
  6
SLD-Solid
 62
   142
420
    32960
370
     0
100
AcDbCircle
 10
495.2953835674
 20
668.0552758783
 30
0.0
 40
5.021042686941225
100
AcDbArc
 50
89.5897976937
 51
151.70154107
  0
LINE
  5
EC
330
1F
100
AcDbEntity
  8
0
  6
SLD-Solid
 62
   142
420
    32960
370
     0
100
AcDbLine
 10
568.6545068171
 20
647.2219938042
 30
0.0
 11
578.5697610504
 21
666.0575474189
 31
0.0
  0
ARC
  5
ED
330
1F
100
AcDbEntity
  8
0
  6
SLD-Solid
 62
   142
420
    32960
370
     0
100
AcDbCircle
 10
564.2480236283
 20
649.5862271334
 30
0.0
 40
5.0006692880315
100
AcDbArc
 50
275.53417587
 51
331.7848760152
  0
LINE
  5
EE
330
1F
100
AcDbEntity
  8
0
  6
SLD-Solid
 62
   142
420
    32960
370
     0
100
AcDbLine
 10
590.8744051667
 20
670.4355741254
 30
0.0
 11
580.9591509334
 21
651.6000205107
 31
0.0
  0
LINE
  5
EF
330
1F
100
AcDbEntity
  8
0
  6
SLD-Solid
 62
   142
420
    32960
370
     0
100
AcDbLine
 10
668.6545068171
 20
647.2219938254
 30
0.0
 11
678.5697610504
 21
666.0575474402
 31
0.0
  0
ARC
  5
F0
330
1F
100
AcDbEntity
  8
0
  6
SLD-Solid
 62
   142
420
    32960
370
     0
100
AcDbCircle
 10
685.2583282592
 20
649.4162681324
 30
0.0
 40
4.822001682068334
100
AcDbArc
 50
153.071863628
 51
265.5402115494
  0
ARC
  5
F1
330
1F
100
AcDbEntity
  8
0
  6
SLD-Solid
 62
   142
420
    32960
370
     0
100
AcDbCircle
 10
695.2953835674
 20
668.0552759208
 30
0.0
 40
5.021042686942131
100
AcDbArc
 50
89.5897976937
 51
151.70154107
  0
ARC
  5
F2
330
1F
100
AcDbEntity
  8
0
  6
SLD-Solid
 62
   142
420
    32960
370
     0
100
AcDbCircle
 10
764.2480236283
 20
649.5862271759
 30
0.0
 40
5.000669288031744
100
AcDbArc
 50
275.5341758698
 51
331.7848760152
  0
ARC
  5
F3
330
1F
100
AcDbEntity
  8
0
  6
SLD-Solid
 62
   142
420
    32960
370
     0
100
AcDbCircle
 10
795.2953835674
 20
668.055275942
 30
0.0
 40
5.021042686942018
100
AcDbArc
 50
89.5897976937
 51
151.70154107
  0
ARC
  5
F4
330
1F
100
AcDbEntity
  8
0
  6
SLD-Solid
 62
   142
420
    32960
370
     0
100
AcDbCircle
 10
854.8481901126
 20
668.1598728869
 30
0.0
 40
4.917030097156954
100
AcDbArc
 50
1.0101851214
 51
90.9757605117
  0
ARC
  5
F5
330
1F
100
AcDbEntity
  8
0
  6
SLD-Solid
 62
   142
420
    32960
370
     0
100
AcDbCircle
 10
4.6807218673
 20
668.1598727062
 30
0.0
 40
4.917030097156863
100
AcDbArc
 50
89.0242395127
 51
178.989814903
  0
LINE
  5
F6
330
1F
100
AcDbEntity
  8
0
  6
SLD-Solid
 62
   142
420
    32960
370
     0
100
AcDbLine
 10
68.6545068171
 20
647.2219936979
 30
0.0
 11
78.5697610504
 21
666.0575473126
 31
0.0
  0
ARC
  5
F7
330
1F
100
AcDbEntity
  8
0
  6
SLD-Solid
 62
   142
420
    32960
370
     0
100
AcDbCircle
 10
64.2480236283
 20
649.5862270271
 30
0.0
 40
5.000669288029736
100
AcDbArc
 50
275.5341758701
 51
331.7848760152
  0
ARC
  5
F8
330
1F
100
AcDbEntity
  8
0
  6
SLD-Solid
 62
   142
420
    32960
370
     0
100
AcDbCircle
 10
85.2583282592
 20
649.4162680048
 30
0.0
 40
4.822001682067325
100
AcDbArc
 50
153.071863628
 51
265.540211549
  0
ARC
  5
F9
330
1F
100
AcDbEntity
  8
0
  6
SLD-Solid
 62
   142
420
    32960
370
     0
100
AcDbCircle
 10
95.2953835674
 20
668.0552757932
 30
0.0
 40
5.021042686941676
100
AcDbArc
 50
89.5897976937
 51
151.70154107
  0
ARC
  5
FA
330
1F
100
AcDbEntity
  8
0
  6
SLD-Solid
 62
   142
420
    32960
370
     0
100
AcDbCircle
 10
174.2466818595
 20
668.2367610178
 30
0.0
 40
4.841279373383004
100
AcDbArc
 50
333.2478611049
 51
91.5842536749
  0
LINE
  5
FB
330
1F
100
AcDbEntity
  8
0
  6
SLD-Solid
 62
   142
420
    32960
370
     0
100
AcDbLine
 10
168.6545068171
 20
647.2219937191
 30
0.0
 11
178.5697610504
 21
666.0575473339
 31
0.0
  0
ARC
  5
FC
330
1F
100
AcDbEntity
  8
0
  6
SLD-Solid
 62
   142
420
    32960
370
     0
100
AcDbCircle
 10
164.2480236283
 20
649.5862270484
 30
0.0
 40
5.000669288030799
100
AcDbArc
 50
275.5341758702
 51
331.7848760152
  0
ARC
  5
FD
330
1F
100
AcDbEntity
  8
0
  6
SLD-Solid
 62
   142
420
    32960
370
     0
100
AcDbCircle
 10
185.2583282592
 20
649.4162680261
 30
0.0
 40
4.822001682067937
100
AcDbArc
 50
153.071863628
 51
265.5402115492
  0
ARC
  5
FE
330
1F
100
AcDbEntity
  8
0
  6
SLD-Solid
 62
   142
420
    32960
370
     0
100
AcDbCircle
 10
195.2953835674
 20
668.0552758145
 30
0.0
 40
5.021042686942018
100
AcDbArc
 50
89.5897976937
 51
151.70154107
  0
ARC
  5
FF
330
1F
100
AcDbEntity
  8
0
  6
SLD-Solid
 62
   142
420
    32960
370
     0
100
AcDbCircle
 10
295.2953835674
 20
668.0552758357
 30
0.0
 40
5.021042686942357
100
AcDbArc
 50
89.5897976937
 51
151.70154107
  0
ARC
  5
100
330
1F
100
AcDbEntity
  8
0
  6
SLD-Solid
 62
   142
420
    32960
370
     0
100
AcDbCircle
 10
374.2466818595
 20
668.2367610603
 30
0.0
 40
4.841279373383157
100
AcDbArc
 50
333.2478611049
 51
91.5842536749
  0
ARC
  5
101
330
1F
100
AcDbEntity
  8
0
  6
SLD-Solid
 62
   142
420
    32960
370
     0
100
AcDbCircle
 10
364.2480236283
 20
649.5862270909
 30
0.0
 40
5.000669288030786
100
AcDbArc
 50
275.53417587
 51
331.7848760152
  0
ARC
  5
102
330
1F
100
AcDbEntity
  8
0
  6
SLD-Solid
 62
   142
420
    32960
370
     0
100
AcDbCircle
 10
395.2953835674
 20
668.055275857
 30
0.0
 40
5.021042686940884
100
AcDbArc
 50
89.5897976936
 51
151.70154107
  0
ARC
  5
103
330
1F
100
AcDbEntity
  8
0
  6
SLD-Solid
 62
   142
420
    32960
370
     0
100
AcDbCircle
 10
474.2466818595
 20
668.2367610816
 30
0.0
 40
4.841279373382853
100
AcDbArc
 50
333.2478611049
 51
91.5842536749
  0
LINE
  5
104
330
1F
100
AcDbEntity
  8
0
  6
SLD-Solid
 62
   142
420
    32960
370
     0
100
AcDbLine
 10
468.6545068171
 20
647.2219937829
 30
0.0
 11
478.5697610504
 21
666.0575473977
 31
0.0
  0
ARC
  5
105
330
1F
100
AcDbEntity
  8
0
  6
SLD-Solid
 62
   142
420
    32960
370
     0
100
AcDbCircle
 10
464.2480236283
 20
649.5862271122
 30
0.0
 40
5.000669288031187
100
AcDbArc
 50
275.53417587
 51
331.7848760152
  0
LWPOLYLINE
  5
106
330
1F
100
AcDbEntity
  8
0
  6
SLD-Solid
 62
     7
370
    15
100
AcDbPolyline
 90
        3
 70
   128
 43
0.0
 10
578.5697610504
 20
666.264602655
 10
578.9974460592
 20
667.4220277105
 10
579.1116865186
 20
668.3500883891
  0
ARC
  5
107
330
1F
100
AcDbEntity
  8
0
  6
SLD-Solid
 62
     7
370
    15
100
AcDbCircle
 10
585.3132667329
 20
649.6964446695
 30
0.0
 40
4.899419486468785
100
AcDbArc
 50
182.1278164334
 51
264.9661675381
  0
LWPOLYLINE
  5
108
330
1F
100
AcDbEntity
  8
0
  6
SLD-Solid
 62
     7
370
    15
100
AcDbPolyline
 90
        3
 70
   128
 43
0.0
 10
678.5697610504
 20
666.2646026762
 10
678.9974460592
 20
667.4220277318
 10
679.1116865186
 20
668.3500884106
  0
ARC
  5
109
330
1F
100
AcDbEntity
  8
0
  6
SLD-Solid
 62
     7
370
    15
100
AcDbCircle
 10
664.2480236283
 20
649.7932823908
 30
0.0
 40
5.000669288030467
100
AcDbArc
 50
275.53417587
 51
331.7848760152
  0
LWPOLYLINE
  5
10A
330
1F
100
AcDbEntity
  8
0
  6
SLD-Solid
 62
     7
370
    15
100
AcDbPolyline
 90
        3
 70
   128
 43
0.0
 10
778.5697610504
 20
666.2646026975
 10
778.9974460592
 20
667.422027753
 10
779.1116865186
 20
668.3500884338
  0
LINE
  5
10B
330
1F
100
AcDbEntity
  8
0
  6
SLD-Solid
 62
     7
370
    15
100
AcDbLine
 10
768.6545068171
 20
647.4290490828
 30
0.0
 11
778.5697610504
 21
666.2646026975
 31
0.0
  0
ARC
  5
10C
330
1F
100
AcDbEntity
  8
0
  6
SLD-Solid
 62
     7
370
    15
100
AcDbCircle
 10
785.3132667328
 20
649.6964447119
 30
0.0
 40
4.89941948631572
100
AcDbArc
 50
182.1278163703
 51
264.9661675386
  0
ARC
  5
10D
330
1F
100
AcDbEntity
  8
0
  6
SLD-Solid
 62
     7
370
    15
100
AcDbCircle
 10
854.869796593
 20
649.6924561545
 30
0.0
 40
4.895224721419104
100
AcDbArc
 50
275.0084220304
 51
359.1292311616
  0
ARC
  5
10E
330
1F
100
AcDbEntity
  8
0
  6
SLD-Solid
 62
     7
370
    15
100
AcDbCircle
 10
4.6591153947
 20
649.6924559738
 30
0.0
 40
4.89522472141926
100
AcDbArc
 50
180.8707688627
 51
264.991577994
  0
LWPOLYLINE
  5
10F
330
1F
100
AcDbEntity
  8
0
  6
SLD-Solid
 62
     7
370
    15
100
AcDbPolyline
 90
        3
 70
   128
 43
0.0
 10
78.5697610504
 20
666.2646025487
 10
78.9974460592
 20
667.4220276042
 10
79.1116865217
 20
668.3500884239
  0
LWPOLYLINE
  5
110
330
1F
100
AcDbEntity
  8
0
  6
SLD-Solid
 62
     7
370
    15
100
AcDbPolyline
 90
        3
 70
   128
 43
0.0
 10
278.5697610504
 20
666.2646025912
 10
278.9974460592
 20
667.4220276468
 10
279.1116865189
 20
668.350088337
  0
LINE
  5
111
330
1F
100
AcDbEntity
  8
0
  6
SLD-Solid
 62
     7
370
    15
100
AcDbLine
 10
268.6545068171
 20
647.4290489765
 30
0.0
 11
278.5697610504
 21
666.2646025912
 31
0.0
  0
ARC
  5
112
330
1F
100
AcDbEntity
  8
0
  6
SLD-Solid
 62
     7
370
    15
100
AcDbCircle
 10
264.2480236283
 20
649.7932823057
 30
0.0
 40
5.000669288030671
100
AcDbArc
 50
275.53417587
 51
331.7848760152
  0
ARC
  5
113
330
1F
100
AcDbEntity
  8
0
  6
SLD-Solid
 62
     7
370
    15
100
AcDbCircle
 10
285.3132667328
 20
649.6964446056
 30
0.0
 40
4.899419486284576
100
AcDbArc
 50
182.1278163574
 51
264.9661675388
  0
LINE
  5
114
330
1F
100
AcDbEntity
  8
0
  6
SLD-Solid
 62
     7
370
    15
100
AcDbLine
 10
368.6545068171
 20
647.4290489977
 30
0.0
 11
378.5697610504
 21
666.2646026125
 31
0.0
  0
ARC
  5
115
330
1F
100
AcDbEntity
  8
0
  6
SLD-Solid
 62
     7
370
    15
100
AcDbCircle
 10
385.3132667329
 20
649.6964446271
 30
0.0
 40
4.899419486531755
100
AcDbArc
 50
182.1278164595
 51
264.9661675378
  0
ARC
  5
116
330
1F
100
AcDbEntity
  8
0
  6
SLD-Solid
 62
   142
420
    32960
370
     0
100
AcDbCircle
 10
485.3132667329
 20
649.6964446483
 30
0.0
 40
4.899419486514141
100
AcDbArc
 50
182.1278164522
 51
264.9661675379
  0
ARC
  5
117
330
1F
100
AcDbEntity
  8
0
  6
SLD-Solid
 62
   142
420
    32960
370
     0
100
AcDbCircle
 10
464.2480236283
 20
649.7932823482
 30
0.0
 40
5.000669288031183
100
AcDbArc
 50
275.53417587
 51
331.7848760152
  0
LINE
  5
118
330
1F
100
AcDbEntity
  8
0
  6
SLD-Solid
 62
   142
420
    32960
370
     0
100
AcDbLine
 10
468.6545068171
 20
647.429049019
 30
0.0
 11
478.5697610504
 21
666.2646026337
 31
0.0
  0
LWPOLYLINE
  5
119
330
1F
100
AcDbEntity
  8
0
  6
SLD-Solid
 62
   142
420
    32960
370
     0
100
AcDbPolyline
 90
        3
 70
   128
 43
0.0
 10
478.5697610504
 20
666.2646026337
 10
478.9974460592
 20
667.4220276893
 10
479.1116865186
 20
668.3500883669
  0
ARC
  5
11A
330
1F
100
AcDbEntity
  8
0
  6
SLD-Solid
 62
   142
420
    32960
370
     0
100
AcDbCircle
 10
364.2480236283
 20
649.793282327
 30
0.0
 40
5.000669288030916
100
AcDbArc
 50
275.5341758701
 51
331.7848760152
  0
LWPOLYLINE
  5
11B
330
1F
100
AcDbEntity
  8
0
  6
SLD-Solid
 62
   142
420
    32960
370
     0
100
AcDbPolyline
 90
        3
 70
   128
 43
0.0
 10
378.5697610504
 20
666.2646026125
 10
378.9974460592
 20
667.422027668
 10
379.1116865185
 20
668.350088342
  0
ARC
  5
11C
330
1F
100
AcDbEntity
  8
0
  6
SLD-Solid
 62
   142
420
    32960
370
     0
100
AcDbCircle
 10
185.3132667327
 20
649.6964445842
 30
0.0
 40
4.899419486156658
100
AcDbArc
 50
182.1278163043
 51
264.9661675394
  0
ARC
  5
11D
330
1F
100
AcDbEntity
  8
0
  6
SLD-Solid
 62
   142
420
    32960
370
     0
100
AcDbCircle
 10
164.2480236283
 20
649.7932822845
 30
0.0
 40
5.00066928803041
100
AcDbArc
 50
275.5341758702
 51
331.7848760152
  0
LINE
  5
11E
330
1F
100
AcDbEntity
  8
0
  6
SLD-Solid
 62
   142
420
    32960
370
     0
100
AcDbLine
 10
168.6545068171
 20
647.4290489552
 30
0.0
 11
178.5697610504
 21
666.26460257
 31
0.0
  0
LWPOLYLINE
  5
11F
330
1F
100
AcDbEntity
  8
0
  6
SLD-Solid
 62
   142
420
    32960
370
     0
100
AcDbPolyline
 90
        3
 70
   128
 43
0.0
 10
178.5697610504
 20
666.26460257
 10
178.9974460592
 20
667.4220276255
 10
179.1116865188
 20
668.3500883114
  0
ARC
  5
120
330
1F
100
AcDbEntity
  8
0
  6
SLD-Solid
 62
   142
420
    32960
370
     0
100
AcDbCircle
 10
85.3132667324
 20
649.6964445621
 30
0.0
 40
4.899419485281045
100
AcDbArc
 50
182.1278159426
 51
264.966167543
  0
ARC
  5
121
330
1F
100
AcDbEntity
  8
0
  6
SLD-Solid
 62
   142
420
    32960
370
     0
100
AcDbCircle
 10
64.2480236283
 20
649.7932822632
 30
0.0
 40
5.000669288030907
100
AcDbArc
 50
275.5341758701
 51
331.7848760152
  0
LINE
  5
122
330
1F
100
AcDbEntity
  8
0
  6
SLD-Solid
 62
   142
420
    32960
370
     0
100
AcDbLine
 10
68.6545068171
 20
647.429048934
 30
0.0
 11
78.5697610504
 21
666.2646025487
 31
0.0
  0
ARC
  5
123
330
1F
100
AcDbEntity
  8
0
  6
SLD-Solid
 62
   142
420
    32960
370
     0
100
AcDbCircle
 10
764.2480236283
 20
649.793282412
 30
0.0
 40
5.000669288032231
100
AcDbArc
 50
275.5341758698
 51
331.7848760152
  0
ARC
  5
124
330
1F
100
AcDbEntity
  8
0
  6
SLD-Solid
 62
   142
420
    32960
370
     0
100
AcDbCircle
 10
685.3132667329
 20
649.6964446908
 30
0.0
 40
4.899419486438624
100
AcDbArc
 50
182.1278164207
 51
264.9661675384
  0
LINE
  5
125
330
1F
100
AcDbEntity
  8
0
  6
SLD-Solid
 62
   142
420
    32960
370
     0
100
AcDbLine
 10
668.6545068171
 20
647.4290490615
 30
0.0
 11
678.5697610504
 21
666.2646026762
 31
0.0
  0
ARC
  5
126
330
1F
100
AcDbEntity
  8
0
  6
SLD-Solid
 62
   142
420
    32960
370
     0
100
AcDbCircle
 10
564.2480236283
 20
649.7932823695
 30
0.0
 40
5.000669288031029
100
AcDbArc
 50
275.53417587
 51
331.7848760152
  0
LINE
  5
127
330
1F
100
AcDbEntity
  8
0
  6
SLD-Solid
 62
   142
420
    32960
370
     0
100
AcDbLine
 10
568.6545068171
 20
647.4290490402
 30
0.0
 11
578.5697610504
 21
666.264602655
 31
0.0
  0
LINE
  5
128
330
1F
100
AcDbEntity
  8
0
  6
SLD-Solid
 62
   142
420
    32960
370
     0
100
AcDbLine
 10
678.5697610504
 20
666.2646026762
 30
0.0
 11
678.5697610504
 21
666.0575474402
 31
0.0
  0
LINE
  5
129
330
1F
100
AcDbEntity
  8
0
  6
SLD-Solid
 62
   142
420
    32960
370
     0
100
AcDbLine
 10
578.5697610504
 20
666.264602655
 30
0.0
 11
578.5697610504
 21
666.0575474189
 31
0.0
  0
LINE
  5
12A
330
1F
100
AcDbEntity
  8
0
  6
SLD-Solid
 62
   142
420
    32960
370
     0
100
AcDbLine
 10
78.5697610504
 20
666.2646025487
 30
0.0
 11
78.5697610504
 21
666.0575473126
 31
0.0
  0
LINE
  5
12B
330
1F
100
AcDbEntity
  8
0
  6
SLD-Solid
 62
   142
420
    32960
370
     0
100
AcDbLine
 10
768.6545068171
 20
647.4290490828
 30
0.0
 11
768.6545068171
 21
647.2219938467
 31
0.0
  0
LINE
  5
12C
330
1F
100
AcDbEntity
  8
0
  6
SLD-Solid
 62
   142
420
    32960
370
     0
100
AcDbLine
 10
378.5697610504
 20
666.2646026125
 30
0.0
 11
378.5697610504
 21
666.0575473764
 31
0.0
  0
LINE
  5
12D
330
1F
100
AcDbEntity
  8
0
  6
SLD-Solid
 62
   142
420
    32960
370
     0
100
AcDbLine
 10
368.6545068171
 20
647.4290489977
 30
0.0
 11
368.6545068171
 21
647.2219937617
 31
0.0
  0
SPLINE
  5
12E
330
1F
100
AcDbEntity
  8
0
  6
SLD-Solid
 62
     7
370
    15
100
AcDbSpline
210
0.0
220
0.0
230
1.0
 70
     8
 71
     3
 72
     8
 73
     4
 74
     0
 42
0.00000001
 43
0.00000001
 40
0.0
 40
0.0
 40
0.0
 40
0.0
 40
1.0
 40
1.0
 40
1.0
 40
1.0
 10
585.4160765859026
 20
644.5813820904945
 30
0.0
 10
585.2380016929187
 20
644.5813820904567
 30
0.0
 10
585.0604335727203
 20
644.5905409234114
 30
0.0
 10
584.8833722243851
 20
644.6088667139142
 30
0.0
  0
ARC
  5
12F
330
1F
100
AcDbEntity
  8
0
  6
SLD-Solid
 62
   142
420
    32960
370
     0
100
AcDbCircle
 10
585.416036349
 20
649.9630476361
 30
0.0
 40
5.174614371887067
100
AcDbArc
 50
264.0916247931
 51
270.0004455218
  0
SPLINE
  5
130
330
1F
100
AcDbEntity
  8
0
  6
SLD-Solid
 62
     7
370
    15
100
AcDbSpline
210
0.0
220
0.0
230
1.0
 70
     8
 71
     3
 72
     8
 73
     4
 74
     0
 42
0.00000001
 43
0.00000001
 40
0.0
 40
0.0
 40
0.0
 40
0.0
 40
1.0
 40
1.0
 40
1.0
 40
1.0
 10
385.4160765859027
 20
644.5813820479824
 30
0.0
 10
385.2380016929182
 20
644.5813820479445
 30
0.0
 10
385.0604335727193
 20
644.5905408808994
 30
0.0
 10
384.8833722243834
 20
644.6088666714023
 30
0.0
  0
ARC
  5
131
330
1F
100
AcDbEntity
  8
0
  6
SLD-Solid
 62
     7
370
    15
100
AcDbCircle
 10
385.416036349
 20
649.9630475935
 30
0.0
 40
5.174614371836022
100
AcDbArc
 50
264.0916247931
 51
270.0004455219
  0
SPLINE
  5
132
330
1F
100
AcDbEntity
  8
0
  6
SLD-Solid
 62
     7
370
    15
100
AcDbSpline
210
0.0
220
0.0
230
1.0
 70
     8
 71
     3
 72
     8
 73
     4
 74
     0
 42
0.00000001
 43
0.00000001
 40
0.0
 40
0.0
 40
0.0
 40
0.0
 40
1.0
 40
1.0
 40
1.0
 40
1.0
 10
285.4160765859027
 20
644.5813820267264
 30
0.0
 10
285.2380016929179
 20
644.5813820266886
 30
0.0
 10
285.0604335727185
 20
644.5905408596435
 30
0.0
 10
284.8833722243824
 20
644.6088666501464
 30
0.0
  0
ARC
  5
133
330
1F
100
AcDbEntity
  8
0
  6
SLD-Solid
 62
   142
420
    32960
370
     0
100
AcDbCircle
 10
285.416036349
 20
649.9630475723
 30
0.0
 40
5.174614371915716
100
AcDbArc
 50
264.0916247931
 51
270.0004455218
  0
SPLINE
  5
134
330
1F
100
AcDbEntity
  8
0
  6
SLD-Solid
 62
     7
370
    15
100
AcDbSpline
210
0.0
220
0.0
230
1.0
 70
     8
 71
     3
 72
     8
 73
     4
 74
     0
 42
0.00000001
 43
0.00000001
 40
0.0
 40
0.0
 40
0.0
 40
0.0
 40
1.0
 40
1.0
 40
1.0
 40
1.0
 10
785.4160765859028
 20
644.5813821330054
 30
0.0
 10
785.2380016929159
 20
644.5813821329675
 30
0.0
 10
785.0604335727146
 20
644.5905409659227
 30
0.0
 10
784.8833722243764
 20
644.608866756426
 30
0.0
  0
ARC
  5
135
330
1F
100
AcDbEntity
  8
0
  6
SLD-Solid
 62
   142
420
    32960
370
     0
100
AcDbCircle
 10
785.416036349
 20
649.9630476786
 30
0.0
 40
5.174614371887974
100
AcDbArc
 50
264.091624793
 51
270.0004455218
  0
SPLINE
  5
136
330
1F
100
AcDbEntity
  8
0
  6
SLD-Solid
 62
     7
370
    15
100
AcDbSpline
210
0.0
220
0.0
230
1.0
 70
     8
 71
     3
 72
     8
 73
     4
 74
     0
 42
0.00000001
 43
0.00000001
 40
0.0
 40
0.0
 40
0.0
 40
0.0
 40
1.0
 40
1.0
 40
1.0
 40
1.0
 10
855.2971603564437
 20
644.6088667713932
 30
0.0
 10
855.1200990081132
 20
644.5905409808146
 30
0.0
 10
854.9425308879157
 20
644.581382147784
 30
0.0
 10
854.7644559949288
 20
644.5813821477461
 30
0.0
  0
ARC
  5
137
330
1F
100
AcDbEntity
  8
0
  6
SLD-Solid
 62
   142
420
    32960
370
     0
100
AcDbCircle
 10
854.7644962296
 20
649.9630476932
 30
0.0
 40
5.174614371806556
100
AcDbArc
 50
269.9995545025
 51
275.9083752313
  0
SPLINE
  5
138
330
1F
100
AcDbEntity
  8
0
  6
SLD-Solid
 62
     7
370
    15
100
AcDbSpline
210
0.0
220
0.0
230
1.0
 70
     8
 71
     3
 72
     8
 73
     4
 74
     0
 42
0.00000001
 43
0.00000001
 40
0.0
 40
0.0
 40
0.0
 40
0.0
 40
1.0
 40
1.0
 40
1.0
 40
1.0
 10
4.764455994928863
 20
644.5813819670703
 30
0.0
 10
4.586381101941372
 20
644.5813819670325
 30
0.0
 10
4.408812981739507
 20
644.5905407999877
 30
0.0
 10
4.231751633400672
 20
644.6088665904912
 30
0.0
  0
ARC
  5
139
330
1F
100
AcDbEntity
  8
0
  6
SLD-Solid
 62
   142
420
    32960
370
     0
100
AcDbCircle
 10
4.764415758
 20
649.9630475125
 30
0.0
 40
5.17461437176792
100
AcDbArc
 50
264.091624793
 51
270.0004455219
  0
SPLINE
  5
13A
330
1F
100
AcDbEntity
  8
0
  6
SLD-Solid
 62
     7
370
    15
100
AcDbSpline
210
0.0
220
0.0
230
1.0
 70
     8
 71
     3
 72
     8
 73
     4
 74
     0
 42
0.00000001
 43
0.00000001
 40
0.0
 40
0.0
 40
0.0
 40
0.0
 40
1.0
 40
1.0
 40
1.0
 40
1.0
 10
664.7302855281722
 20
644.6088667308863
 30
0.0
 10
664.5532241798448
 20
644.5905409403083
 30
0.0
 10
664.3756560596505
 20
644.5813821072782
 30
0.0
 10
664.1975811666669
 20
644.5813821072403
 30
0.0
  0
LINE
  5
13B
330
1F
100
AcDbEntity
  8
0
  6
SLD-Solid
 62
   142
420
    32960
370
     0
100
AcDbLine
 10
668.6545068171
 20
647.4290490615
 30
0.0
 11
668.6545068171
 21
647.2219938254
 31
0.0
  0
ARC
  5
13C
330
1F
100
AcDbEntity
  8
0
  6
SLD-Solid
 62
   142
420
    32960
370
     0
100
AcDbCircle
 10
664.1976214013
 20
649.9630476527
 30
0.0
 40
5.17461437175483
100
AcDbArc
 50
269.9995545025
 51
275.9083752313
  0
SPLINE
  5
13D
330
1F
100
AcDbEntity
  8
0
  6
SLD-Solid
 62
     7
370
    15
100
AcDbSpline
210
0.0
220
0.0
230
1.0
 70
     8
 71
     3
 72
     8
 73
     4
 74
     0
 42
0.00000001
 43
0.00000001
 40
0.0
 40
0.0
 40
0.0
 40
0.0
 40
1.0
 40
1.0
 40
1.0
 40
1.0
 10
264.7302855281722
 20
644.6088666458627
 30
0.0
 10
264.5532241798449
 20
644.5905408552846
 30
0.0
 10
264.3756560596505
 20
644.5813820222544
 30
0.0
 10
264.1975811666669
 20
644.5813820222165
 30
0.0
  0
ARC
  5
13E
330
1F
100
AcDbEntity
  8
0
  6
SLD-Solid
 62
   142
420
    32960
370
     0
100
AcDbCircle
 10
264.1976214013
 20
649.9630475676
 30
0.0
 40
5.174614371755171
100
AcDbArc
 50
269.9995545025
 51
275.9083752313
  0
LINE
  5
13F
330
1F
100
AcDbEntity
  8
0
  6
SLD-Solid
 62
     7
370
    15
100
AcDbLine
 10
664.1975811667
 20
644.5813821072
 30
0.0
 11
585.4160765859
 21
644.5813820905
 31
0.0
  0
LINE
  5
140
330
1F
100
AcDbEntity
  8
0
  6
SLD-Solid
 62
     7
370
    15
100
AcDbLine
 10
764.1975811667
 20
644.5813821285
 30
0.0
 11
685.4160765859
 21
644.5813821118
 31
0.0
  0
LINE
  5
141
330
1F
100
AcDbEntity
  8
0
  6
SLD-Solid
 62
     7
370
    15
100
AcDbLine
 10
854.7644559949
 20
644.5813821477
 30
0.0
 11
785.4160765859
 21
644.581382133
 31
0.0
  0
LINE
  5
142
330
1F
100
AcDbEntity
  8
0
  6
SLD-Solid
 62
     7
370
    15
100
AcDbLine
 10
879.7644559949
 20
644.6088667766
 30
0.0
 11
879.764455999
 21
625.4863981402
 31
0.0
  0
LINE
  5
143
330
1F
100
AcDbEntity
  8
0
  6
SLD-Solid
 62
     7
370
    15
100
AcDbLine
 10
879.764455999
 20
625.4863981402
 30
0.0
 11
-20.235544001
 21
625.4863979489
 31
0.0
  0
LINE
  5
144
330
1F
100
AcDbEntity
  8
0
  6
SLD-Solid
 62
     7
370
    15
100
AcDbLine
 10
-20.2355440051
 20
644.6088665853
 30
0.0
 11
-20.235544001
 21
625.4863979489
 31
0.0
  0
LINE
  5
145
330
1F
100
AcDbEntity
  8
0
  6
SLD-Solid
 62
     7
370
    15
100
AcDbLine
 10
64.1975811667
 20
644.5813819797
 30
0.0
 11
4.7644559949
 21
644.5813819671
 31
0.0
  0
LINE
  5
146
330
1F
100
AcDbEntity
  8
0
  6
SLD-Solid
 62
     7
370
    15
100
AcDbLine
 10
164.1975811667
 20
644.581382001
 30
0.0
 11
85.4160765859
 21
644.5813819842
 31
0.0
  0
LINE
  5
147
330
1F
100
AcDbEntity
  8
0
  6
SLD-Solid
 62
     7
370
    15
100
AcDbLine
 10
264.1975811667
 20
644.5813820222
 30
0.0
 11
185.4160765859
 21
644.5813820055
 31
0.0
  0
LINE
  5
148
330
1F
100
AcDbEntity
  8
0
  6
SLD-Solid
 62
     7
370
    15
100
AcDbLine
 10
364.1975811667
 20
644.5813820435
 30
0.0
 11
285.4160765859
 21
644.5813820267
 31
0.0
  0
LINE
  5
149
330
1F
100
AcDbEntity
  8
0
  6
SLD-Solid
 62
     7
370
    15
100
AcDbLine
 10
464.1975811667
 20
644.5813820647
 30
0.0
 11
385.4160765859
 21
644.581382048
 31
0.0
  0
LINE
  5
14A
330
1F
100
AcDbEntity
  8
0
  6
SLD-Solid
 62
     7
370
    15
100
AcDbLine
 10
564.1975811667
 20
644.581382086
 30
0.0
 11
485.4160765859
 21
644.5813820692
 31
0.0
  0
SPLINE
  5
14B
330
1F
100
AcDbEntity
  8
0
  6
SLD-Solid
 62
   142
420
    32960
370
     0
100
AcDbSpline
210
0.0
220
0.0
230
1.0
 70
     8
 71
     3
 72
     8
 73
     4
 74
     0
 42
0.00000001
 43
0.00000001
 40
0.0
 40
0.0
 40
0.0
 40
0.0
 40
1.0
 40
1.0
 40
1.0
 40
1.0
 10
485.4160765859027
 20
644.5813820692385
 30
0.0
 10
485.2380016929188
 20
644.5813820692007
 30
0.0
 10
485.0604335727204
 20
644.5905409021555
 30
0.0
 10
484.8833722243851
 20
644.6088666926581
 30
0.0
  0
SPLINE
  5
14C
330
1F
100
AcDbEntity
  8
0
  6
SLD-Solid
 62
   142
420
    32960
370
     0
100
AcDbSpline
210
0.0
220
0.0
230
1.0
 70
     8
 71
     3
 72
     8
 73
     4
 74
     0
 42
0.00000001
 43
0.00000001
 40
0.0
 40
0.0
 40
0.0
 40
0.0
 40
1.0
 40
1.0
 40
1.0
 40
1.0
 10
464.7302855281739
 20
644.6088666883745
 30
0.0
 10
464.553224179846
 20
644.5905408977965
 30
0.0
 10
464.3756560596511
 20
644.5813820647661
 30
0.0
 10
464.1975811666669
 20
644.5813820647282
 30
0.0
  0
SPLINE
  5
14D
330
1F
100
AcDbEntity
  8
0
  6
SLD-Solid
 62
   142
420
    32960
370
     0
100
AcDbSpline
210
0.0
220
0.0
230
1.0
 70
     8
 71
     3
 72
     8
 73
     4
 74
     0
 42
0.00000001
 43
0.00000001
 40
0.0
 40
0.0
 40
0.0
 40
0.0
 40
1.0
 40
1.0
 40
1.0
 40
1.0
 10
364.7302855281749
 20
644.6088666671186
 30
0.0
 10
364.5532241798468
 20
644.5905408765404
 30
0.0
 10
364.3756560596515
 20
644.58138204351
 30
0.0
 10
364.1975811666669
 20
644.5813820434721
 30
0.0
  0
SPLINE
  5
14E
330
1F
100
AcDbEntity
  8
0
  6
SLD-Solid
 62
   142
420
    32960
370
     0
100
AcDbSpline
210
0.0
220
0.0
230
1.0
 70
     8
 71
     3
 72
     8
 73
     4
 74
     0
 42
0.00000001
 43
0.00000001
 40
0.0
 40
0.0
 40
0.0
 40
0.0
 40
1.0
 40
1.0
 40
1.0
 40
1.0
 10
185.4160765859027
 20
644.5813820054707
 30
0.0
 10
185.2380016929188
 20
644.5813820054329
 30
0.0
 10
185.0604335727204
 20
644.5905408383876
 30
0.0
 10
184.8833722243852
 20
644.6088666288904
 30
0.0
  0
SPLINE
  5
14F
330
1F
100
AcDbEntity
  8
0
  6
SLD-Solid
 62
   142
420
    32960
370
     0
100
AcDbSpline
210
0.0
220
0.0
230
1.0
 70
     8
 71
     3
 72
     8
 73
     4
 74
     0
 42
0.00000001
 43
0.00000001
 40
0.0
 40
0.0
 40
0.0
 40
0.0
 40
1.0
 40
1.0
 40
1.0
 40
1.0
 10
164.7302855281841
 20
644.6088666246067
 30
0.0
 10
164.5532241798529
 20
644.5905408340279
 30
0.0
 10
164.3756560596545
 20
644.5813820009971
 30
0.0
 10
164.1975811666669
 20
644.5813820009594
 30
0.0
  0
SPLINE
  5
150
330
1F
100
AcDbEntity
  8
0
  6
SLD-Solid
 62
   142
420
    32960
370
     0
100
AcDbSpline
210
0.0
220
0.0
230
1.0
 70
     8
 71
     3
 72
     8
 73
     4
 74
     0
 42
0.00000001
 43
0.00000001
 40
0.0
 40
0.0
 40
0.0
 40
0.0
 40
1.0
 40
1.0
 40
1.0
 40
1.0
 10
85.41607658590273
 20
644.5813819842135
 30
0.0
 10
85.2380016929149
 20
644.5813819841757
 30
0.0
 10
85.06043357271237
 20
644.5905408171309
 30
0.0
 10
84.8833722243732
 20
644.6088666076345
 30
0.0
  0
SPLINE
  5
151
330
1F
100
AcDbEntity
  8
0
  6
SLD-Solid
 62
   142
420
    32960
370
     0
100
AcDbSpline
210
0.0
220
0.0
230
1.0
 70
     8
 71
     3
 72
     8
 73
     4
 74
     0
 42
0.00000001
 43
0.00000001
 40
0.0
 40
0.0
 40
0.0
 40
0.0
 40
1.0
 40
1.0
 40
1.0
 40
1.0
 10
64.73028552818299
 20
644.6088666033507
 30
0.0
 10
64.55322417985215
 20
644.5905408127721
 30
0.0
 10
64.37565605965418
 20
644.5813819797414
 30
0.0
 10
64.19758116666691
 20
644.5813819797035
 30
0.0
  0
SPLINE
  5
152
330
1F
100
AcDbEntity
  8
0
  6
SLD-Solid
 62
   142
420
    32960
370
     0
100
AcDbSpline
210
0.0
220
0.0
230
1.0
 70
     8
 71
     3
 72
     8
 73
     4
 74
     0
 42
0.00000001
 43
0.00000001
 40
0.0
 40
0.0
 40
0.0
 40
0.0
 40
1.0
 40
1.0
 40
1.0
 40
1.0
 10
764.7302855281513
 20
644.6088667521424
 30
0.0
 10
764.553224179831
 20
644.5905409615658
 30
0.0
 10
764.3756560596436
 20
644.5813821285362
 30
0.0
 10
764.197581166667
 20
644.5813821284984
 30
0.0
  0
SPLINE
  5
153
330
1F
100
AcDbEntity
  8
0
  6
SLD-Solid
 62
   142
420
    32960
370
     0
100
AcDbSpline
210
0.0
220
0.0
230
1.0
 70
     8
 71
     3
 72
     8
 73
     4
 74
     0
 42
0.00000001
 43
0.00000001
 40
0.0
 40
0.0
 40
0.0
 40
0.0
 40
1.0
 40
1.0
 40
1.0
 40
1.0
 10
685.4160765859027
 20
644.5813821117525
 30
0.0
 10
685.2380016929259
 20
644.5813821117148
 30
0.0
 10
685.0604335727344
 20
644.5905409446689
 30
0.0
 10
684.8833722244061
 20
644.6088667351702
 30
0.0
  0
SPLINE
  5
154
330
1F
100
AcDbEntity
  8
0
  6
SLD-Solid
 62
   142
420
    32960
370
     0
100
AcDbSpline
210
0.0
220
0.0
230
1.0
 70
     8
 71
     3
 72
     8
 73
     4
 74
     0
 42
0.00000001
 43
0.00000001
 40
0.0
 40
0.0
 40
0.0
 40
0.0
 40
1.0
 40
1.0
 40
1.0
 40
1.0
 10
564.7302855281722
 20
644.6088667096304
 30
0.0
 10
564.5532241798448
 20
644.5905409190524
 30
0.0
 10
564.3756560596505
 20
644.5813820860222
 30
0.0
 10
564.1975811666669
 20
644.5813820859844
 30
0.0
  0
LINE
  5
155
330
1F
100
AcDbEntity
  8
0
  6
SLD-Solid
 62
   142
420
    32960
370
     0
100
AcDbLine
 10
764.1975811666
 20
644.7884333023
 30
0.0
 11
764.1975811667
 21
644.5813821285
 31
0.0
  0
LINE
  5
156
330
1F
100
AcDbEntity
  8
0
  6
SLD-Solid
 62
   142
420
    32960
370
     0
100
AcDbLine
 10
685.4160765859
 20
644.7884332856
 30
0.0
 11
764.1975811666
 21
644.7884333023
 31
0.0
  0
LINE
  5
157
330
1F
100
AcDbEntity
  8
0
  6
SLD-Solid
 62
   142
420
    32960
370
     0
100
AcDbLine
 10
685.4160765859
 20
644.7884332856
 30
0.0
 11
685.4160765859
 21
644.5813821118
 31
0.0
  0
LINE
  5
158
330
1F
100
AcDbEntity
  8
0
  6
SLD-Solid
 62
   142
420
    32960
370
     0
100
AcDbLine
 10
585.4160765859
 20
644.7884332643
 30
0.0
 11
664.1975811666
 21
644.7884332811
 31
0.0
  0
LINE
  5
159
330
1F
100
AcDbEntity
  8
0
  6
SLD-Solid
 62
   142
420
    32960
370
     0
100
AcDbLine
 10
185.4160765859
 20
644.7884331793
 30
0.0
 11
264.1975811666
 21
644.788433196
 31
0.0
  0
LINE
  5
15A
330
1F
100
AcDbEntity
  8
0
  6
SLD-Solid
 62
   142
420
    32960
370
     0
100
AcDbLine
 10
185.4160765859
 20
644.7884331793
 30
0.0
 11
185.4160765859
 21
644.5813820055
 31
0.0
  0
LINE
  5
15B
330
1F
100
AcDbEntity
  8
0
  6
SLD-Solid
 62
   142
420
    32960
370
     0
100
AcDbLine
 10
564.1975811666
 20
644.7884332598
 30
0.0
 11
564.1975811667
 21
644.581382086
 31
0.0
  0
LINE
  5
15C
330
1F
100
AcDbEntity
  8
0
  6
SLD-Solid
 62
   142
420
    32960
370
     0
100
AcDbLine
 10
485.4160765859
 20
644.7884332431
 30
0.0
 11
564.1975811666
 21
644.7884332598
 31
0.0
  0
LINE
  5
15D
330
1F
100
AcDbEntity
  8
0
  6
SLD-Solid
 62
   142
420
    32960
370
     0
100
AcDbLine
 10
485.4160765859
 20
644.7884332431
 30
0.0
 11
485.4160765859
 21
644.5813820692
 31
0.0
  0
LINE
  5
15E
330
1F
100
AcDbEntity
  8
0
  6
SLD-Solid
 62
     7
370
    15
100
AcDbLine
 10
385.4160765859
 20
644.7884332218
 30
0.0
 11
464.1975811666
 21
644.7884332386
 31
0.0
  0
LINE
  5
15F
330
1F
100
AcDbEntity
  8
0
  6
SLD-Solid
 62
   142
420
    32960
370
     0
100
AcDbLine
 10
464.1975811666
 20
644.7884332386
 30
0.0
 11
464.1975811667
 21
644.5813820647
 31
0.0
  0
LINE
  5
160
330
1F
100
AcDbEntity
  8
0
  6
SLD-Solid
 62
   142
420
    32960
370
     0
100
AcDbLine
 10
364.1975811666
 20
644.7884332173
 30
0.0
 11
364.1975811667
 21
644.5813820435
 31
0.0
  0
LINE
  5
161
330
1F
100
AcDbEntity
  8
0
  6
SLD-Solid
 62
   142
420
    32960
370
     0
100
AcDbLine
 10
285.4160765859
 20
644.7884332006
 30
0.0
 11
364.1975811666
 21
644.7884332173
 31
0.0
  0
LINE
  5
162
330
1F
100
AcDbEntity
  8
0
  6
SLD-Solid
 62
   142
420
    32960
370
     0
100
AcDbLine
 10
164.1975811666
 20
644.7884331748
 30
0.0
 11
164.1975811667
 21
644.581382001
 31
0.0
  0
LINE
  5
163
330
1F
100
AcDbEntity
  8
0
  6
SLD-Solid
 62
   142
420
    32960
370
     0
100
AcDbLine
 10
85.4160765859
 20
644.788433158
 30
0.0
 11
164.1975811666
 21
644.7884331748
 31
0.0
  0
LINE
  5
164
330
1F
100
AcDbEntity
  8
0
  6
SLD-Solid
 62
   142
420
    32960
370
     0
100
AcDbLine
 10
85.4160765859
 20
644.788433158
 30
0.0
 11
85.4160765859
 21
644.5813819842
 31
0.0
  0
LINE
  5
165
330
1F
100
AcDbEntity
  8
0
  6
SLD-Solid
 62
   142
420
    32960
370
     0
100
AcDbLine
 10
785.4160765859
 20
644.7884333068
 30
0.0
 11
854.7644559949
 21
644.7884333216
 31
0.0
  0
LINE
  5
166
330
1F
100
AcDbEntity
  8
0
  6
SLD-Solid
 62
   142
420
    32960
370
     0
100
AcDbLine
 10
64.1975811666
 20
644.7884331535
 30
0.0
 11
64.1975811667
 21
644.5813819797
 31
0.0
  0
LINE
  5
167
330
1F
100
AcDbEntity
  8
0
  6
SLD-Solid
 62
   142
420
    32960
370
     0
100
AcDbLine
 10
4.7644559949
 20
644.7884331409
 30
0.0
 11
64.1975811666
 21
644.7884331535
 31
0.0
  0
LINE
  5
168
330
1F
100
AcDbEntity
  8
0
  6
SLD-Solid
 62
     7
370
    15
100
AcDbLine
 10
464.7302855281
 20
644.8159219245
 30
0.0
 11
384.8833722243
 21
644.8159219075
 31
0.0
  0
LINE
  5
169
330
1F
100
AcDbEntity
  8
0
  6
SLD-Solid
 62
   142
420
    32960
370
     0
100
AcDbLine
 10
64.7302855281
 20
644.8159218394
 30
0.0
 11
4.2317516334
 21
644.8159218266
 31
0.0
  0
LINE
  5
16A
330
1F
100
AcDbEntity
  8
0
  6
SLD-Solid
 62
   142
420
    32960
370
     0
100
AcDbLine
 10
164.7302855281
 20
644.8159218607
 30
0.0
 11
84.8833722243
 21
644.8159218437
 31
0.0
  0
LINE
  5
16B
330
1F
100
AcDbEntity
  8
0
  6
SLD-Solid
 62
   142
420
    32960
370
     0
100
AcDbLine
 10
264.7302855281
 20
644.8159218819
 30
0.0
 11
184.8833722243
 21
644.815921865
 31
0.0
  0
LINE
  5
16C
330
1F
100
AcDbEntity
  8
0
  6
SLD-Solid
 62
   142
420
    32960
370
     0
100
AcDbLine
 10
364.7302855281
 20
644.8159219032
 30
0.0
 11
284.8833722243
 21
644.8159218862
 31
0.0
  0
LINE
  5
16D
330
1F
100
AcDbEntity
  8
0
  6
SLD-Solid
 62
   142
420
    32960
370
     0
100
AcDbLine
 10
564.7302855281
 20
644.8159219457
 30
0.0
 11
484.8833722243
 21
644.8159219287
 31
0.0
  0
LINE
  5
16E
330
1F
100
AcDbEntity
  8
0
  6
SLD-Solid
 62
   142
420
    32960
370
     0
100
AcDbLine
 10
664.7302855281
 20
644.815921967
 30
0.0
 11
584.8833722243
 21
644.81592195
 31
0.0
  0
LINE
  5
16F
330
1F
100
AcDbEntity
  8
0
  6
SLD-Solid
 62
   142
420
    32960
370
     0
100
AcDbLine
 10
764.7302855281
 20
644.8159219882
 30
0.0
 11
684.8833722244
 21
644.8159219713
 31
0.0
  0
LINE
  5
170
330
1F
100
AcDbEntity
  8
0
  6
SLD-Solid
 62
   142
420
    32960
370
     0
100
AcDbLine
 10
855.2971603564
 20
644.8159220075
 30
0.0
 11
784.8833722243
 21
644.8159219925
 31
0.0
  0
ARC
  5
171
330
1F
100
AcDbEntity
  8
0
  6
SLD-Solid
 62
   142
420
    32960
370
     0
100
AcDbCircle
 10
464.1976214013
 20
649.9630476102
 30
0.0
 40
5.174614371823727
100
AcDbArc
 50
269.9995545025
 51
275.9083752313
  0
LINE
  5
172
330
1F
100
AcDbEntity
  8
0
  6
SLD-Solid
 62
   142
420
    32960
370
     0
100
AcDbLine
 10
-20.235544001
 20
625.4863979489
 30
0.0
 11
-20.2355440007
 21
624.2363979489
 31
0.0
  0
LINE
  5
173
330
1F
100
AcDbEntity
  8
0
  6
SLD-Solid
 62
   142
420
    32960
370
     0
100
AcDbLine
 10
879.764455999
 20
625.4863981402
 30
0.0
 11
879.7644559993
 21
624.2363981402
 31
0.0
  0
LINE
  5
174
330
1F
100
AcDbEntity
  8
0
  6
SLD-Solid
 62
     7
370
    15
100
AcDbLine
 10
879.7644560042
 20
600.9863981402
 30
0.0
 11
-20.2355439958
 21
600.9863979489
 31
0.0
  0
LINE
  5
175
330
1F
100
AcDbEntity
  8
0
  6
SLD-Solid
 62
   142
420
    32960
370
     0
100
AcDbLine
 10
-20.2355439962
 20
603.0363979489
 30
0.0
 11
-20.2355439958
 21
600.9863979489
 31
0.0
  0
LINE
  5
176
330
1F
100
AcDbEntity
  8
0
  6
SLD-Solid
 62
   142
420
    32960
370
     0
100
AcDbLine
 10
879.7644560038
 20
603.0363981402
 30
0.0
 11
879.7644560042
 21
600.9863981402
 31
0.0
  0
LINE
  5
177
330
1F
100
AcDbEntity
  8
0
  6
SLD-Solid
 62
     7
370
    15
100
AcDbLine
 10
879.7644559993
 20
624.2363981402
 30
0.0
 11
879.7644560038
 21
603.0363981402
 31
0.0
  0
LINE
  5
178
330
1F
100
AcDbEntity
  8
0
  6
SLD-Solid
 62
     7
370
    15
100
AcDbLine
 10
-20.2355440007
 20
624.2363979489
 30
0.0
 11
-20.2355439962
 21
603.0363979489
 31
0.0
  0
LINE
  5
179
330
1F
100
AcDbEntity
  8
0
  6
SLD-Solid
 62
   142
420
    32960
370
     0
100
AcDbLine
 10
479.264456
 20
-86.0804104457
 30
0.0
 11
479.264456
 21
-87.9619495364
 31
0.0
  0
ARC
  5
17A
330
1F
100
AcDbEntity
  8
0
  6
SLD-Solid
 62
   142
420
    32960
370
     0
100
AcDbCircle
 10
478.2933176968
 20
-87.9312621517
 30
0.0
 40
0.9716230336755771
100
AcDbArc
 50
268.2978000298
 51
358.190090174
  0
LINE
  5
17B
330
1F
100
AcDbEntity
  8
0
  6
SLD-Solid
 62
   142
420
    32960
370
     0
100
AcDbLine
 10
476.264456
 20
-88.9024564278
 30
0.0
 11
478.264456
 21
-88.9024564278
 31
0.0
  0
ARC
  5
17C
330
1F
100
AcDbEntity
  8
0
  6
SLD-Solid
 62
   142
420
    32960
370
     0
100
AcDbCircle
 10
476.2355943032
 20
-87.9312621517
 30
0.0
 40
0.9716230336755078
100
AcDbArc
 50
181.809909826
 51
271.7021999702
  0
LINE
  5
17D
330
1F
100
AcDbEntity
  8
0
  6
SLD-Solid
 62
   142
420
    32960
370
     0
100
AcDbLine
 10
475.264456
 20
-86.0804104457
 30
0.0
 11
475.264456
 21
-87.9619495364
 31
0.0
  0
ARC
  5
17E
330
1F
100
AcDbEntity
  8
0
  6
SLD-Solid
 62
   142
420
    32960
370
     0
100
AcDbCircle
 10
758.7067326064
 20
-90.6881179802
 30
0.0
 40
1.943246067351124
100
AcDbArc
 50
181.809909826
 51
271.7021999702
  0
LINE
  5
17F
330
1F
100
AcDbEntity
  8
0
  6
SLD-Solid
 62
   142
420
    32960
370
     0
100
AcDbLine
 10
778.764456
 20
-92.6305065325
 30
0.0
 11
758.764456
 21
-92.6305065325
 31
0.0
  0
ARC
  5
180
330
1F
100
AcDbEntity
  8
0
  6
SLD-Solid
 62
   142
420
    32960
370
     0
100
AcDbCircle
 10
778.8221793935
 20
-90.6881179802
 30
0.0
 40
1.943246067350827
100
AcDbArc
 50
268.2978000298
 51
358.190090174
  0
LINE
  5
181
330
1F
100
AcDbEntity
  8
0
  6
SLD-Solid
 62
   142
420
    32960
370
     0
100
AcDbLine
 10
833.2644560077
 20
671.8863980553
 30
0.0
 11
858.0508509095
 21
671.8863980553
 31
0.0
  0
LINE
  5
182
330
1F
100
AcDbEntity
  8
0
  6
SLD-Solid
 62
     7
370
    15
100
AcDbLine
 10
867.2644560077
 20
30.9863980528
 30
0.0
 11
867.2644560077
 21
32.2363980528
 31
0.0
  0
ARC
  5
183
330
1F
100
AcDbEntity
  8
0
  6
SLD-Solid
 62
     7
370
    15
100
AcDbCircle
 10
374.7644560077
 20
644.2863980553
 30
0.0
 40
10.29999999999978
100
AcDbArc
 50
2.946879838
 51
50.6161473327
  0
ARC
  5
184
330
1F
100
AcDbEntity
  8
0
  6
SLD-Solid
 62
   142
420
    32960
370
     0
100
AcDbCircle
 10
623.0829840537
 20
-89.3858619512
 30
0.0
 40
2.381648798292871
100
AcDbArc
 50
0.7251224445
 51
80.7819046026
  0
ARC
  5
185
330
1F
100
AcDbEntity
  8
0
  6
SLD-Solid
 62
   142
420
    32960
370
     0
100
AcDbCircle
 10
622.846030706
 20
-89.3858619513
 30
0.0
 40
2.381648798337924
100
AcDbArc
 50
99.2180953978
 51
179.2748775319
  0
ARC
  5
186
330
1F
100
AcDbEntity
  8
0
  6
SLD-Solid
 62
   142
420
    32960
370
     0
100
AcDbCircle
 10
622.9645073798
 20
-89.1900966566
 30
0.0
 40
3.503870029614615
100
AcDbArc
 50
182.7093246383
 51
357.2906753755
  0
ARC
  5
187
330
1F
100
AcDbEntity
  8
0
  6
SLD-Solid
 62
   142
420
    32960
370
     0
100
AcDbCircle
 10
383.2612796608
 20
-87.8294461831
 30
0.0
 40
1.498704915935619
100
AcDbArc
 50
182.8711035151
 51
298.8471995542
  0
LINE
  5
188
330
1F
100
AcDbEntity
  8
0
  6
SLD-Solid
 62
   142
420
    32960
370
     0
100
AcDbLine
 10
388.6525204806
 20
-86.7403216011
 30
0.0
 11
383.9843679163
 21
-89.1421760866
 31
0.0
  0
ARC
  5
189
330
1F
100
AcDbEntity
  8
0
  6
SLD-Solid
 62
   142
420
    32960
370
     0
100
AcDbCircle
 10
382.2784722159
 20
-85.2329836492
 30
0.0
 40
6.549851828969217
100
AcDbArc
 50
187.4338278275
 51
346.6950897647
  0
LINE
  5
18A
330
1F
100
AcDbEntity
  8
0
  6
SLD-Solid
 62
   142
420
    32960
370
     0
100
AcDbLine
 10
381.764456
 20
-87.9045151744
 30
0.0
 11
381.764456
 21
-86.0804104457
 31
0.0
  0
LINE
  5
18B
330
1F
100
AcDbEntity
  8
0
  6
SLD-Solid
 62
   142
420
    32960
370
     0
100
AcDbLine
 10
877.7144560101
 20
573.0289137583
 30
0.0
 11
876.9097122698
 21
573.0289137582
 31
0.0
  0
LINE
  5
18C
330
1F
100
AcDbEntity
  8
0
  6
SLD-Solid
 62
   142
420
    32960
370
     0
100
AcDbLine
 10
877.7144560101
 20
573.0289137583
 30
0.0
 11
877.7144561196
 21
58.0289137583
 31
0.0
  0
LINE
  5
18D
330
1F
100
AcDbEntity
  8
0
  6
SLD-Solid
 62
   142
420
    32960
370
     0
100
AcDbLine
 10
876.9097122698
 20
58.0289137582
 30
0.0
 11
877.7144561196
 21
58.0289137583
 31
0.0
  0
LINE
  5
18E
330
1F
100
AcDbEntity
  8
0
  6
SLD-Solid
 62
     7
370
    15
100
AcDbLine
 10
431.264456
 20
-96.5890312009
 30
0.0
 11
431.264456
 21
-86.0804104457
 31
0.0
  0
LINE
  5
18F
330
1F
100
AcDbEntity
  8
0
  6
SLD-Solid
 62
     7
370
    15
100
AcDbLine
 10
428.264456
 20
-86.0804104457
 30
0.0
 11
428.264456
 21
-96.5890312009
 31
0.0
  0
LWPOLYLINE
  5
190
330
1F
100
AcDbEntity
  8
0
  6
SLD-Solid
 62
     7
370
    15
100
AcDbPolyline
 90
        9
 70
   128
 43
0.0
 10
428.264456
 20
-96.5890312009
 10
428.3786367012
 20
-96.766414727
 10
428.7037958282
 20
-96.9167932192
 10
429.1904308514
 20
-97.0172729153
 10
429.764456
 20
-97.0525566924
 10
430.3384811485
 20
-97.0172729153
 10
430.8251161718
 20
-96.9167932192
 10
431.1502752988
 20
-96.766414727
 10
431.264456
 20
-96.5890312009
  0
ARC
  5
191
330
1F
100
AcDbEntity
  8
0
  6
SLD-Solid
 62
   142
420
    32960
370
     0
100
AcDbCircle
 10
429.764456
 20
-41.7793427443
 30
0.0
 40
55.39745141892665
100
AcDbArc
 50
258.9320636459
 51
281.0679363541
  0
ARC
  5
192
330
1F
100
AcDbEntity
  8
0
  6
SLD-Solid
 62
   142
420
    32960
370
     0
100
AcDbCircle
 10
429.2405831243
 20
-96.1386043697
 30
0.0
 40
0.9764498166443911
100
AcDbArc
 50
88.5990561917
 51
178.5269450074
  0
ARC
  5
193
330
1F
100
AcDbEntity
  8
0
  6
SLD-Solid
 62
   142
420
    32960
370
     0
100
AcDbCircle
 10
430.2883288757
 20
-96.1386043697
 30
0.0
 40
0.9764498166442799
100
AcDbArc
 50
1.4730549926
 51
91.4009438083
  0
LWPOLYLINE
  5
194
330
1F
100
AcDbEntity
  8
0
  6
SLD-Solid
 62
   142
420
    32960
370
     0
100
AcDbPolyline
 90
        9
 70
   128
 43
0.0
 10
429.264456
 20
-95.1624464264
 10
429.3025162337
 20
-95.2215742685
 10
429.4109026094
 20
-95.2717004325
 10
429.5731142838
 20
-95.3051936646
 10
429.764456
 20
-95.3169549236
 10
429.9557977162
 20
-95.3051936646
 10
430.1180093906
 20
-95.2717004325
 10
430.2263957663
 20
-95.2215742685
 10
430.264456
 20
-95.1624464264
  0
LINE
  5
195
330
1F
100
AcDbEntity
  8
0
  6
SLD-Solid
 62
     7
370
    15
100
AcDbLine
 10
439.4386200362
 20
-90.0882483703
 30
0.0
 11
439.4312705118
 21
-90.2934438371
 31
0.0
  0
ARC
  5
196
330
1F
100
AcDbEntity
  8
0
  6
SLD-Solid
 62
   142
420
    32960
370
     0
100
AcDbCircle
 10
419.2165121577
 20
-95.0939679458
 30
0.0
 40
1.056025610322204
100
AcDbArc
 50
182.228814608
 51
265.2820210055
  0
ARC
  5
197
330
1F
100
AcDbEntity
  8
0
  6
SLD-Solid
 62
   142
420
    32960
370
     0
100
AcDbCircle
 10
440.3123998423
 20
-95.0939679458
 30
0.0
 40
1.056025610322046
100
AcDbArc
 50
274.7179789945
 51
357.771185392
  0
ARC
  5
198
330
1F
100
AcDbEntity
  8
0
  6
SLD-Solid
 62
   142
420
    32960
370
     0
100
AcDbCircle
 10
418.627119907
 20
-95.2799380137
 30
0.0
 40
0.4878503929849781
100
AcDbArc
 50
162.7213508662
 51
232.1662483846
  0
ARC
  5
199
330
1F
100
AcDbEntity
  8
0
  6
SLD-Solid
 62
   142
420
    32960
370
     0
100
AcDbCircle
 10
440.9017848006
 20
-95.2799374845
 30
0.0
 40
0.4878571990840859
100
AcDbArc
 50
307.8285182018
 51
17.2783354098
  0
LWPOLYLINE
  5
19A
330
1F
100
AcDbEntity
  8
0
  6
SLD-Solid
 62
   142
420
    32960
370
     0
100
AcDbPolyline
 90
        9
 70
   128
 43
0.0
 10
431.264456
 20
-96.1135029427
 10
431.1502752988
 20
-96.2908864688
 10
430.8251161718
 20
-96.4412649611
 10
430.3384811485
 20
-96.5417446572
 10
429.764456
 20
-96.5770284343
 10
429.1904308514
 20
-96.5417446572
 10
428.7037958282
 20
-96.4412649611
 10
428.3786367012
 20
-96.2908864688
 10
428.264456
 20
-96.1135029427
  0
LINE
  5
19B
330
1F
100
AcDbEntity
  8
0
  6
SLD-Solid
 62
   142
420
    32960
370
     0
100
AcDbLine
 10
776.2918982855
 20
30.9863980528
 30
0.0
 11
776.2918982855
 21
35.0363980163
 31
0.0
  0
LINE
  5
19C
330
1F
100
AcDbEntity
  8
0
  6
SLD-Solid
 62
   142
420
    32960
370
     0
100
AcDbLine
 10
878.564456
 20
30.9863980528
 30
0.0
 11
878.564456
 21
32.2363980528
 31
0.0
  0
LINE
  5
19D
330
1F
100
AcDbEntity
  8
0
  6
SLD-Solid
 62
   142
420
    32960
370
     0
100
AcDbLine
 10
878.564456
 20
29.7863980528
 30
0.0
 11
878.564456
 21
30.9863980528
 31
0.0
  0
LINE
  5
19E
330
1F
100
AcDbEntity
  8
0
  6
SLD-Solid
 62
   142
420
    32960
370
     0
100
AcDbLine
 10
-19.035544
 20
30.9863980528
 30
0.0
 11
-19.035544
 21
29.7863980528
 31
0.0
  0
LINE
  5
19F
330
1F
100
AcDbEntity
  8
0
  6
SLD-Solid
 62
   142
420
    32960
370
     0
100
AcDbLine
 10
-19.035544
 20
30.9863980528
 30
0.0
 11
-19.035544
 21
32.2363980528
 31
0.0
  0
LINE
  5
1A0
330
1F
100
AcDbEntity
  8
0
  6
SLD-Solid
 62
     7
370
    15
100
AcDbLine
 10
-19.035544
 20
32.2363980528
 30
0.0
 11
-19.035544
 21
54.0363980528
 31
0.0
  0
LINE
  5
1A1
330
1F
100
AcDbEntity
  8
0
  6
SLD-Solid
 62
     7
370
    15
100
AcDbLine
 10
878.564456
 20
32.2363980528
 30
0.0
 11
878.564456
 21
54.0363980528
 31
0.0
  0
ARC
  5
1A2
330
1F
100
AcDbEntity
  8
0
  6
SLD-Solid
 62
   142
420
    32960
370
     0
100
AcDbCircle
 10
794.764456
 20
44.9863980528
 30
0.0
 40
6.500000000000007
100
AcDbArc
 50
270.0
 51
309.6228877975
  0
ARC
  5
1A3
330
1F
100
AcDbEntity
  8
0
  6
SLD-Solid
 62
   142
420
    32960
370
     0
100
AcDbCircle
 10
794.764456
 20
44.9863980528
 30
0.0
 40
6.500000000000041
100
AcDbArc
 50
50.3771122025
 51
99.2962053983
  0
LINE
  5
1A4
330
1F
100
AcDbEntity
  8
0
  6
SLD-Solid
 62
   142
420
    32960
370
     0
100
AcDbLine
 10
793.7144559906
 20
38.5717663424
 30
0.0
 11
794.764456
 21
38.4863980528
 31
0.0
  0
LINE
  5
1A5
330
1F
100
AcDbEntity
  8
0
  6
SLD-Solid
 62
   142
420
    32960
370
     0
100
AcDbLine
 10
64.764456
 20
38.4863980528
 30
0.0
 11
65.8144559906
 21
38.5717663393
 31
0.0
  0
ARC
  5
1A6
330
1F
100
AcDbEntity
  8
0
  6
SLD-Solid
 62
   142
420
    32960
370
     0
100
AcDbCircle
 10
64.764456
 20
44.9863980528
 30
0.0
 40
6.49999999999991
100
AcDbArc
 50
80.7037947697
 51
127.9798724835
  0
ARC
  5
1A7
330
1F
100
AcDbEntity
  8
0
  6
SLD-Solid
 62
   142
420
    32960
370
     0
100
AcDbCircle
 10
64.764456
 20
44.9863980528
 30
0.0
 40
6.499999999999893
100
AcDbArc
 50
232.0201275165
 51
270.0
  0
LINE
  5
1A8
330
1F
100
AcDbEntity
  8
0
  6
SLD-Solid
 62
   142
420
    32960
370
     0
100
AcDbLine
 10
878.564456
 20
32.2363980528
 30
0.0
 11
-19.035544
 21
32.2363980528
 31
0.0
  0
LINE
  5
1A9
330
1F
100
AcDbEntity
  8
0
  6
SLD-Solid
 62
   142
420
    32960
370
     0
100
AcDbLine
 10
878.564456
 20
54.0363980528
 30
0.0
 11
876.9097122698
 21
54.0363980528
 31
0.0
  0
LINE
  5
1AA
330
1F
100
AcDbEntity
  8
0
  6
SLD-Solid
 62
   142
420
    32960
370
     0
100
AcDbLine
 10
798.9097122698
 20
54.0363980528
 30
0.0
 11
793.7144559906
 21
54.0363980528
 31
0.0
  0
LINE
  5
1AB
330
1F
100
AcDbEntity
  8
0
  6
SLD-Solid
 62
   142
420
    32960
370
     0
100
AcDbLine
 10
553.8144559906
 20
54.0363980528
 30
0.0
 11
549.7144559906
 21
54.0363980528
 31
0.0
  0
LINE
  5
1AC
330
1F
100
AcDbEntity
  8
0
  6
SLD-Solid
 62
   142
420
    32960
370
     0
100
AcDbLine
 10
309.8144559906
 20
54.0363980528
 30
0.0
 11
305.7144559906
 21
54.0363980528
 31
0.0
  0
LINE
  5
1AD
330
1F
100
AcDbEntity
  8
0
  6
SLD-Solid
 62
   142
420
    32960
370
     0
100
AcDbLine
 10
65.8144559906
 20
54.0363980528
 30
0.0
 11
60.7644559965
 21
54.0363980528
 31
0.0
  0
LINE
  5
1AE
330
1F
100
AcDbEntity
  8
0
  6
SLD-Solid
 62
   142
420
    32960
370
     0
100
AcDbLine
 10
-17.2355440035
 20
54.0363980528
 30
0.0
 11
-19.035544
 21
54.0363980528
 31
0.0
  0
LINE
  5
1AF
330
1F
100
AcDbEntity
  8
0
  6
SLD-Solid
 62
   142
420
    32960
370
     0
100
AcDbLine
 10
623.4645073798
 20
-87.0689478901
 30
0.0
 11
623.4645073798
 21
-86.0804104457
 31
0.0
  0
LWPOLYLINE
  5
1B0
330
1F
100
AcDbEntity
  8
0
  6
SLD-Solid
 62
   142
420
    32960
370
     0
100
AcDbPolyline
 90
       16
 70
   128
 43
0.0
 10
623.4645073798
 20
-87.0689478901
 10
624.3624425339
 20
-87.4233911166
 10
625.0482686414
 20
-88.0736049601
 10
625.4179251375
 20
-88.9209323134
 10
625.4153239505
 20
-89.8368079877
 10
625.0408597593
 20
-90.6822659403
 10
624.3513501081
 20
-91.3290246272
 10
623.4514144668
 20
-91.6789511928
 10
622.4776002929
 20
-91.6789511928
 10
621.5776646516
 20
-91.3290246272
 10
620.8881550004
 20
-90.6822659403
 10
620.5136908092
 20
-89.8368079877
 10
620.5110896222
 20
-88.9209323134
 10
620.8807461182
 20
-88.0736049601
 10
621.5665722257
 20
-87.4233911166
 10
622.4645073798
 20
-87.0689478901
  0
LINE
  5
1B1
330
1F
100
AcDbEntity
  8
0
  6
SLD-Solid
 62
   142
420
    32960
370
     0
100
AcDbLine
 10
622.4645073798
 20
-87.0689478901
 30
0.0
 11
622.4645073798
 21
-86.0804104457
 31
0.0
  0
LINE
  5
1B2
330
1F
100
AcDbEntity
  8
0
  6
SLD-Solid
 62
   142
420
    32960
370
     0
100
AcDbLine
 10
879.7644560112
 20
568.0289137588
 30
0.0
 11
878.9644560112
 21
568.0289137586
 31
0.0
  0
LINE
  5
1B3
330
1F
100
AcDbEntity
  8
0
  6
SLD-Solid
 62
     7
370
    15
100
AcDbLine
 10
879.7644560112
 20
568.0289137588
 30
0.0
 11
879.7644561185
 21
63.0289137588
 31
0.0
  0
LINE
  5
1B4
330
1F
100
AcDbEntity
  8
0
  6
SLD-Solid
 62
   142
420
    32960
370
     0
100
AcDbLine
 10
879.7644561185
 20
63.0289137588
 30
0.0
 11
878.9644561185
 21
63.0289137586
 31
0.0
  0
LINE
  5
1B5
330
1F
100
AcDbEntity
  8
0
  6
SLD-Solid
 62
   142
420
    32960
370
     0
100
AcDbLine
 10
878.9644560112
 20
568.0289137586
 30
0.0
 11
878.9644561185
 21
63.0289137586
 31
0.0
  0
LINE
  5
1B6
330
1F
100
AcDbEntity
  8
0
  6
SLD-Solid
 62
   142
420
    32960
370
     0
100
AcDbLine
 10
879.7644561185
 20
63.0289137588
 30
0.0
 11
879.7644561196
 21
58.0289137588
 31
0.0
  0
LINE
  5
1B7
330
1F
100
AcDbEntity
  8
0
  6
SLD-Solid
 62
   142
420
    32960
370
     0
100
AcDbLine
 10
879.7644560101
 20
573.0289137588
 30
0.0
 11
879.7644560112
 21
568.0289137588
 31
0.0
  0
LINE
  5
1B8
330
1F
100
AcDbEntity
  8
0
  6
SLD-Solid
 62
   142
420
    32960
370
     0
100
AcDbLine
 10
879.7644560101
 20
573.0289137588
 30
0.0
 11
878.7821638333
 21
573.0289137586
 31
0.0
  0
LINE
  5
1B9
330
1F
100
AcDbEntity
  8
0
  6
SLD-Solid
 62
   142
420
    32960
370
     0
100
AcDbLine
 10
878.7821638881
 20
58.0289137586
 30
0.0
 11
879.7644561196
 21
58.0289137588
 31
0.0
  0
SPLINE
  5
1BA
330
1F
100
AcDbEntity
  8
0
  6
SLD-Solid
 62
   142
420
    32960
370
     0
100
AcDbSpline
210
0.0
220
0.0
230
1.0
 70
     8
 71
     3
 72
    10
 73
     6
 74
     0
 42
0.00000001
 43
0.00000001
 40
0.0
 40
0.0
 40
0.0
 40
0.0
 40
0.5
 40
0.5
 40
1.0
 40
1.0
 40
1.0
 40
1.0
 10
233.3139559829193
 20
-109.7036089735695
 30
0.0
 10
255.7228646329562
 20
-112.3349818799286
 30
0.0
 10
278.1703636524739
 20
-114.6379921751811
 30
0.0
 10
323.1136079280284
 20
-118.5848026344091
 30
0.0
 10
345.6116786213864
 20
-120.2289571293186
 30
0.0
 10
368.1362187454381
 20
-121.5436023344847
 30
0.0
  0
LINE
  5
1BB
330
1F
100
AcDbEntity
  8
0
  6
SLD-Solid
 62
   142
420
    32960
370
     0
100
AcDbLine
 10
368.1362187454
 20
-121.5436023345
 30
0.0
 11
368.1746314784
 21
-120.8844915382
 31
0.0
  0
LINE
  5
1BC
330
1F
100
AcDbEntity
  8
0
  6
SLD-Solid
 62
   142
420
    32960
370
     0
100
AcDbLine
 10
233.3139559829
 20
-109.7036089736
 30
0.0
 11
233.3902264658
 21
-109.0540498014
 31
0.0
  0
LINE
  5
1BD
330
1F
100
AcDbEntity
  8
0
  6
SLD-Solid
 62
     7
370
    15
100
AcDbLine
 10
309.8144559906
 20
35.0363980294
 30
0.0
 11
549.7144559906
 21
35.0363980294
 31
0.0
  0
LINE
  5
1BE
330
1F
100
AcDbEntity
  8
0
  6
SLD-Solid
 62
     7
370
    15
100
AcDbLine
 10
309.8144559906
 20
596.9363980294
 30
0.0
 11
309.8144559906
 21
35.0363980294
 31
0.0
  0
LINE
  5
1BF
330
1F
100
AcDbEntity
  8
0
  6
SLD-Solid
 62
     7
370
    15
100
AcDbLine
 10
549.7144559906
 20
596.9363980294
 30
0.0
 11
309.8144559906
 21
596.9363980294
 31
0.0
  0
LINE
  5
1C0
330
1F
100
AcDbEntity
  8
0
  6
SLD-Solid
 62
     7
370
    15
100
AcDbLine
 10
549.7144559906
 20
35.0363980294
 30
0.0
 11
549.7144559906
 21
596.9363980294
 31
0.0
  0
LINE
  5
1C1
330
1F
100
AcDbEntity
  8
0
  6
SLD-Solid
 62
   142
420
    32960
370
     0
100
AcDbLine
 10
573.2918982855
 20
35.0363980163
 30
0.0
 11
573.2918982855
 21
30.9863980528
 31
0.0
  0
LINE
  5
1C2
330
1F
100
AcDbEntity
  8
0
  6
SLD-Solid
 62
     7
370
    15
100
AcDbLine
 10
879.764456
 20
-96.9908156944
 30
0.0
 11
879.764456
 21
-84.7804104457
 31
0.0
  0
LINE
  5
1C3
330
1F
100
AcDbEntity
  8
0
  6
SLD-Solid
 62
     7
370
    15
100
AcDbLine
 10
-20.235544
 20
-96.9908156944
 30
0.0
 11
-20.235544
 21
-84.7804104457
 31
0.0
  0
ARC
  5
1C4
330
1F
100
AcDbEntity
  8
0
  6
SLD-Solid
 62
   142
420
    32960
370
     0
100
AcDbCircle
 10
382.4909034469
 20
-85.3735980013
 30
0.0
 40
7.294401754105184
100
AcDbArc
 50
268.2210236955
 51
353.4611161371
  0
ARC
  5
1C5
330
1F
100
AcDbEntity
  8
0
  6
SLD-Solid
 62
   142
420
    32960
370
     0
100
AcDbCircle
 10
382.0973122376
 20
-85.3049935018
 30
0.0
 40
7.361388271755608
100
AcDbArc
 50
187.0168209005
 51
271.3010392669
  0
LINE
  5
1C6
330
1F
100
AcDbEntity
  8
0
  6
SLD-Solid
 62
   142
420
    32960
370
     0
100
AcDbLine
 10
780.764456
 20
-90.7834702108
 30
0.0
 11
780.764456
 21
-86.0804104456
 31
0.0
  0
ARC
  5
1C7
330
1F
100
AcDbEntity
  8
0
  6
SLD-Solid
 62
   142
420
    32960
370
     0
100
AcDbCircle
 10
778.8221793935
 20
-90.7220954414
 30
0.0
 40
1.943246067350784
100
AcDbArc
 50
268.2978000298
 51
358.190090174
  0
LINE
  5
1C8
330
1F
100
AcDbEntity
  8
0
  6
SLD-Solid
 62
   142
420
    32960
370
     0
100
AcDbLine
 10
778.764456
 20
-92.6644839937
 30
0.0
 11
758.764456
 21
-92.6644839937
 31
0.0
  0
ARC
  5
1C9
330
1F
100
AcDbEntity
  8
0
  6
SLD-Solid
 62
   142
420
    32960
370
     0
100
AcDbCircle
 10
758.7067326064
 20
-90.7220954414
 30
0.0
 40
1.943246067351124
100
AcDbArc
 50
181.809909826
 51
271.7021999702
  0
LINE
  5
1CA
330
1F
100
AcDbEntity
  8
0
  6
SLD-Solid
 62
   142
420
    32960
370
     0
100
AcDbLine
 10
756.764456
 20
-86.0804104457
 30
0.0
 11
756.764456
 21
-90.7834702108
 31
0.0
  0
LINE
  5
1CB
330
1F
100
AcDbEntity
  8
0
  6
SLD-Solid
 62
   142
420
    32960
370
     0
100
AcDbLine
 10
197.764456
 20
-90.7834702108
 30
0.0
 11
197.764456
 21
-86.0804104457
 31
0.0
  0
ARC
  5
1CC
330
1F
100
AcDbEntity
  8
0
  6
SLD-Solid
 62
   142
420
    32960
370
     0
100
AcDbCircle
 10
195.8221793935
 20
-90.7220954414
 30
0.0
 40
1.94324606735074
100
AcDbArc
 50
268.2978000298
 51
358.190090174
  0
LINE
  5
1CD
330
1F
100
AcDbEntity
  8
0
  6
SLD-Solid
 62
   142
420
    32960
370
     0
100
AcDbLine
 10
195.764456
 20
-92.6644839937
 30
0.0
 11
175.764456
 21
-92.6644839937
 31
0.0
  0
ARC
  5
1CE
330
1F
100
AcDbEntity
  8
0
  6
SLD-Solid
 62
   142
420
    32960
370
     0
100
AcDbCircle
 10
175.7067326064
 20
-90.7220954414
 30
0.0
 40
1.943246067351012
100
AcDbArc
 50
181.809909826
 51
271.7021999702
  0
LINE
  5
1CF
330
1F
100
AcDbEntity
  8
0
  6
SLD-Solid
 62
   142
420
    32960
370
     0
100
AcDbLine
 10
173.764456
 20
-86.0804104457
 30
0.0
 11
173.764456
 21
-90.7834702108
 31
0.0
  0
LINE
  5
1D0
330
1F
100
AcDbEntity
  8
0
  6
SLD-Solid
 62
   142
420
    32960
370
     0
100
AcDbLine
 10
489.264456
 20
-90.7834702108
 30
0.0
 11
489.264456
 21
-86.0804104456
 31
0.0
  0
ARC
  5
1D1
330
1F
100
AcDbEntity
  8
0
  6
SLD-Solid
 62
   142
420
    32960
370
     0
100
AcDbCircle
 10
487.3221793935
 20
-90.7220954414
 30
0.0
 40
1.943246067350905
100
AcDbArc
 50
268.2978000298
 51
358.190090174
  0
LINE
  5
1D2
330
1F
100
AcDbEntity
  8
0
  6
SLD-Solid
 62
   142
420
    32960
370
     0
100
AcDbLine
 10
487.264456
 20
-92.6644839937
 30
0.0
 11
467.264456
 21
-92.6644839937
 31
0.0
  0
ARC
  5
1D3
330
1F
100
AcDbEntity
  8
0
  6
SLD-Solid
 62
   142
420
    32960
370
     0
100
AcDbCircle
 10
467.2067326064
 20
-90.7220954414
 30
0.0
 40
1.943246067351241
100
AcDbArc
 50
181.809909826
 51
271.7021999702
  0
LINE
  5
1D4
330
1F
100
AcDbEntity
  8
0
  6
SLD-Solid
 62
   142
420
    32960
370
     0
100
AcDbLine
 10
465.264456
 20
-86.0804104457
 30
0.0
 11
465.264456
 21
-90.7834702108
 31
0.0
  0
LINE
  5
1D5
330
1F
100
AcDbEntity
  8
0
  6
SLD-Solid
 62
   142
420
    32960
370
     0
100
AcDbLine
 10
621.4645073798
 20
-86.3985659416
 30
0.0
 11
621.4645073798
 21
-86.0804104457
 31
0.0
  0
LINE
  5
1D6
330
1F
100
AcDbEntity
  8
0
  6
SLD-Solid
 62
   142
420
    32960
370
     0
100
AcDbLine
 10
624.4645073798
 20
-86.3985659416
 30
0.0
 11
624.4645073798
 21
-86.0804104457
 31
0.0
  0
LWPOLYLINE
  5
1D7
330
1F
100
AcDbEntity
  8
0
  6
SLD-Solid
 62
   142
420
    32960
370
     0
100
AcDbPolyline
 90
       17
 70
   128
 43
0.0
 10
624.4645073798
 20
-86.3985659416
 10
625.4265979792
 20
-87.0331132255
 10
626.1111616926
 20
-87.9313798756
 10
626.4410344888
 20
-88.9921132627
 10
626.3790331017
 20
-90.0957475051
 10
625.9321463286
 20
-91.1178809358
 10
625.1507472526
 20
-91.9432986604
 10
624.1229151882
 20
-92.478959582
 10
622.9645073798
 20
-92.6644839939
 10
621.8060995715
 20
-92.478959582
 10
620.7782675071
 20
-91.9432986604
 10
619.9968684311
 20
-91.1178809358
 10
619.549981658
 20
-90.0957475051
 10
619.4879802709
 20
-88.9921132627
 10
619.8178530671
 20
-87.9313798756
 10
620.5024167805
 20
-87.0331132255
 10
621.4645073798
 20
-86.3985659416
  0
LINE
  5
1D8
330
1F
100
AcDbEntity
  8
0
  6
SLD-Solid
 62
     7
370
    15
100
AcDbLine
 10
879.764456
 20
-104.1212498826
 30
0.0
 11
879.764456
 21
-96.9908156944
 31
0.0
  0
LINE
  5
1D9
330
1F
100
AcDbEntity
  8
0
  6
SLD-Solid
 62
     7
370
    15
100
AcDbLine
 10
-20.235544
 20
-104.1212498826
 30
0.0
 11
-20.235544
 21
-96.9908156944
 31
0.0
  0
ARC
  5
1DA
330
1F
100
AcDbEntity
  8
0
  6
SLD-Solid
 62
   142
420
    32960
370
     0
100
AcDbCircle
 10
383.2633972203
 20
-87.8794921773
 30
0.0
 40
0.4995683053118019
100
AcDbArc
 50
182.8711035151
 51
298.8471995543
  0
LINE
  5
1DB
330
1F
100
AcDbEntity
  8
0
  6
SLD-Solid
 62
   142
420
    32960
370
     0
100
AcDbLine
 10
382.764456
 20
-87.9045151744
 30
0.0
 11
382.764456
 21
-86.0804104457
 31
0.0
  0
LINE
  5
1DC
330
1F
100
AcDbEntity
  8
0
  6
SLD-Solid
 62
   142
420
    32960
370
     0
100
AcDbLine
 10
387.8515103402
 20
-86.0804104457
 30
0.0
 11
383.5044266388
 21
-88.3170688118
 31
0.0
  0
LINE
  5
1DD
330
1F
100
AcDbEntity
  8
0
  6
SLD-Solid
 62
     7
370
    15
100
AcDbLine
 10
-17.2355440035
 20
596.9863980425
 30
0.0
 11
-17.2355440035
 21
34.9863980425
 31
0.0
  0
CIRCLE
  5
1DE
330
1F
100
AcDbEntity
  8
0
  6
SLD-Solid
 62
     7
370
    15
100
AcDbCircle
 10
18.7644559965
 20
584.9863980425
 30
0.0
 40
7.49999999999995
  0
CIRCLE
  5
1DF
330
1F
100
AcDbEntity
  8
0
  6
SLD-Solid
 62
     7
370
    15
100
AcDbCircle
 10
18.7644559965
 20
46.9863980425
 30
0.0
 40
7.49999999999995
  0
LINE
  5
1E0
330
1F
100
AcDbEntity
  8
0
  6
SLD-Solid
 62
     7
370
    15
100
AcDbLine
 10
60.7644559965
 20
596.9863980425
 30
0.0
 11
-17.2355440035
 21
596.9863980425
 31
0.0
  0
LINE
  5
1E1
330
1F
100
AcDbEntity
  8
0
  6
SLD-Solid
 62
     7
370
    15
100
AcDbLine
 10
60.7644559965
 20
34.9863980425
 30
0.0
 11
60.7644559965
 21
596.9863980425
 31
0.0
  0
LINE
  5
1E2
330
1F
100
AcDbEntity
  8
0
  6
SLD-Solid
 62
     7
370
    15
100
AcDbLine
 10
-17.2355440035
 20
34.9863980425
 30
0.0
 11
60.7644559965
 21
34.9863980425
 31
0.0
  0
CIRCLE
  5
1E3
330
1F
100
AcDbEntity
  8
0
  6
SLD-Solid
 62
     7
370
    15
100
AcDbCircle
 10
18.7644559965
 20
46.9863980425
 30
0.0
 40
4.000000000000004
  0
CIRCLE
  5
1E4
330
1F
100
AcDbEntity
  8
0
  6
SLD-Solid
 62
     7
370
    15
100
AcDbCircle
 10
18.7644559965
 20
584.9863980425
 30
0.0
 40
4.000000000000004
  0
LINE
  5
1E5
330
1F
100
AcDbEntity
  8
0
  6
SLD-Solid
 62
     7
370
    15
100
AcDbLine
 10
-20.235544
 20
28.5363980528
 30
0.0
 11
-17.785544
 21
28.5363980528
 31
0.0
  0
LINE
  5
1E6
330
1F
100
AcDbEntity
  8
0
  6
SLD-Solid
 62
   142
420
    32960
370
     0
100
AcDbLine
 10
-17.785544
 20
-62.7804104457
 30
0.0
 11
-20.235544
 21
-62.7804104457
 31
0.0
  0
LINE
  5
1E7
330
1F
100
AcDbEntity
  8
0
  6
SLD-Solid
 62
     7
370
    15
100
AcDbLine
 10
-20.235544
 20
28.5363980528
 30
0.0
 11
-20.235544
 21
-62.7804104457
 31
0.0
  0
LINE
  5
1E8
330
1F
100
AcDbEntity
  8
0
  6
SLD-Solid
 62
     7
370
    15
100
AcDbLine
 10
877.314456
 20
28.5363980528
 30
0.0
 11
879.764456
 21
28.5363980528
 31
0.0
  0
LINE
  5
1E9
330
1F
100
AcDbEntity
  8
0
  6
SLD-Solid
 62
     7
370
    15
100
AcDbLine
 10
879.764456
 20
-62.7804104457
 30
0.0
 11
879.764456
 21
28.5363980528
 31
0.0
  0
LINE
  5
1EA
330
1F
100
AcDbEntity
  8
0
  6
SLD-Solid
 62
   142
420
    32960
370
     0
100
AcDbLine
 10
879.764456
 20
-62.7804104457
 30
0.0
 11
877.314456
 21
-62.7804104457
 31
0.0
  0
LINE
  5
1EB
330
1F
100
AcDbEntity
  8
0
  6
SLD-Solid
 62
     7
370
    15
100
AcDbLine
 10
877.314456
 20
30.9863980528
 30
0.0
 11
-17.785544
 21
30.9863980528
 31
0.0
  0
LINE
  5
1EC
330
1F
100
AcDbEntity
  8
0
  6
SLD-Solid
 62
   142
420
    32960
370
     0
100
AcDbLine
 10
877.314456
 20
30.9863980528
 30
0.0
 11
877.314456
 21
28.5363980528
 31
0.0
  0
LINE
  5
1ED
330
1F
100
AcDbEntity
  8
0
  6
SLD-Solid
 62
   142
420
    32960
370
     0
100
AcDbLine
 10
-17.785544
 20
28.5363980528
 30
0.0
 11
-17.785544
 21
30.9863980528
 31
0.0
  0
LINE
  5
1EE
330
1F
100
AcDbEntity
  8
0
  6
SLD-Solid
 62
     7
370
    15
100
AcDbLine
 10
878.564456
 20
-86.0804104457
 30
0.0
 11
878.564456
 21
-63.2804104457
 31
0.0
  0
LINE
  5
1EF
330
1F
100
AcDbEntity
  8
0
  6
SLD-Solid
 62
     7
370
    15
100
AcDbLine
 10
-19.035544
 20
-86.0804104457
 30
0.0
 11
-19.035544
 21
-63.2804104457
 31
0.0
  0
LINE
  5
1F0
330
1F
100
AcDbEntity
  8
0
  6
SLD-Solid
 62
   142
420
    32960
370
     0
100
AcDbLine
 10
877.314456
 20
-63.2804104457
 30
0.0
 11
878.564456
 21
-63.2804104457
 31
0.0
  0
LINE
  5
1F1
330
1F
100
AcDbEntity
  8
0
  6
SLD-Solid
 62
   142
420
    32960
370
     0
100
AcDbLine
 10
877.314456
 20
-62.7804104457
 30
0.0
 11
877.314456
 21
-63.2804104457
 31
0.0
  0
LINE
  5
1F2
330
1F
100
AcDbEntity
  8
0
  6
SLD-Solid
 62
   142
420
    32960
370
     0
100
AcDbLine
 10
-17.785544
 20
-63.2804104457
 30
0.0
 11
-17.785544
 21
-62.7804104457
 31
0.0
  0
LINE
  5
1F3
330
1F
100
AcDbEntity
  8
0
  6
SLD-Solid
 62
   142
420
    32960
370
     0
100
AcDbLine
 10
-19.035544
 20
-63.2804104457
 30
0.0
 11
-17.785544
 21
-63.2804104457
 31
0.0
  0
LINE
  5
1F4
330
1F
100
AcDbEntity
  8
0
  6
SLD-Solid
 62
     7
370
    15
100
AcDbLine
 10
879.764456
 20
-84.7804104457
 30
0.0
 11
879.764456
 21
-63.2804104457
 31
0.0
  0
LINE
  5
1F5
330
1F
100
AcDbEntity
  8
0
  6
SLD-Solid
 62
   142
420
    32960
370
     0
100
AcDbLine
 10
879.764456
 20
-63.2804104457
 30
0.0
 11
878.564456
 21
-63.2804104457
 31
0.0
  0
LINE
  5
1F6
330
1F
100
AcDbEntity
  8
0
  6
SLD-Solid
 62
     7
370
    15
100
AcDbLine
 10
-20.235544
 20
54.0363980528
 30
0.0
 11
-20.235544
 21
55.2763980528
 31
0.0
  0
LINE
  5
1F7
330
1F
100
AcDbEntity
  8
0
  6
SLD-Solid
 62
     7
370
    15
100
AcDbLine
 10
-20.235544
 20
32.2363980528
 30
0.0
 11
-20.235544
 21
54.0363980528
 31
0.0
  0
LINE
  5
1F8
330
1F
100
AcDbEntity
  8
0
  6
SLD-Solid
 62
     7
370
    15
100
AcDbLine
 10
-20.235544
 20
-84.7804104457
 30
0.0
 11
-20.235544
 21
-63.2804104457
 31
0.0
  0
LINE
  5
1F9
330
1F
100
AcDbEntity
  8
0
  6
SLD-Solid
 62
   142
420
    32960
370
     0
100
AcDbLine
 10
-20.235544
 20
-63.2804104457
 30
0.0
 11
-20.235544
 21
-62.7804104457
 31
0.0
  0
LINE
  5
1FA
330
1F
100
AcDbEntity
  8
0
  6
SLD-Solid
 62
   142
420
    32960
370
     0
100
AcDbLine
 10
-20.235544
 20
28.5363980528
 30
0.0
 11
-20.235544
 21
29.7763980528
 31
0.0
  0
LINE
  5
1FB
330
1F
100
AcDbEntity
  8
0
  6
SLD-Solid
 62
   142
420
    32960
370
     0
100
AcDbLine
 10
-20.235544
 20
29.7763980528
 30
0.0
 11
-20.235544
 21
32.2363980528
 31
0.0
  0
LINE
  5
1FC
330
1F
100
AcDbEntity
  8
0
  6
SLD-Solid
 62
     7
370
    15
100
AcDbLine
 10
878.564456
 20
54.0363980528
 30
0.0
 11
878.564456
 21
55.2763980528
 31
0.0
  0
LINE
  5
1FD
330
1F
100
AcDbEntity
  8
0
  6
SLD-Solid
 62
   142
420
    32960
370
     0
100
AcDbLine
 10
878.564456
 20
-63.2804104457
 30
0.0
 11
878.564456
 21
-62.7804104457
 31
0.0
  0
LINE
  5
1FE
330
1F
100
AcDbEntity
  8
0
  6
SLD-Solid
 62
   142
420
    32960
370
     0
100
AcDbLine
 10
878.564456
 20
28.5363980528
 30
0.0
 11
878.564456
 21
29.7763980528
 31
0.0
  0
LINE
  5
1FF
330
1F
100
AcDbEntity
  8
0
  6
SLD-Solid
 62
   142
420
    32960
370
     0
100
AcDbLine
 10
878.564456
 20
29.7763980528
 30
0.0
 11
878.564456
 21
29.7863980528
 31
0.0
  0
LINE
  5
200
330
1F
100
AcDbEntity
  8
0
  6
SLD-Solid
 62
   142
420
    32960
370
     0
100
AcDbLine
 10
-20.235544
 20
-63.2804104457
 30
0.0
 11
-19.035544
 21
-63.2804104457
 31
0.0
  0
LINE
  5
201
330
1F
100
AcDbEntity
  8
0
  6
SLD-Solid
 62
     7
370
    15
100
AcDbLine
 10
879.764456
 20
32.2363980528
 30
0.0
 11
879.764456
 21
54.0363980528
 31
0.0
  0
LINE
  5
202
330
1F
100
AcDbEntity
  8
0
  6
SLD-Solid
 62
     7
370
    15
100
AcDbLine
 10
879.764456
 20
54.0363980528
 30
0.0
 11
879.764456
 21
55.2763980528
 31
0.0
  0
LINE
  5
203
330
1F
100
AcDbEntity
  8
0
  6
SLD-Solid
 62
   142
420
    32960
370
     0
100
AcDbLine
 10
879.764456
 20
29.7763980528
 30
0.0
 11
879.764456
 21
32.2363980528
 31
0.0
  0
LINE
  5
204
330
1F
100
AcDbEntity
  8
0
  6
SLD-Solid
 62
   142
420
    32960
370
     0
100
AcDbLine
 10
879.764456
 20
28.5363980528
 30
0.0
 11
879.764456
 21
29.7763980528
 31
0.0
  0
LINE
  5
205
330
1F
100
AcDbEntity
  8
0
  6
SLD-Solid
 62
   142
420
    32960
370
     0
100
AcDbLine
 10
879.764456
 20
-63.2804104457
 30
0.0
 11
879.764456
 21
-62.7804104457
 31
0.0
  0
LINE
  5
206
330
1F
100
AcDbEntity
  8
0
  6
SLD-Solid
 62
     7
370
    15
100
AcDbLine
 10
-19.035544
 20
54.0363980528
 30
0.0
 11
-19.035544
 21
55.2763980528
 31
0.0
  0
LINE
  5
207
330
1F
100
AcDbEntity
  8
0
  6
SLD-Solid
 62
   142
420
    32960
370
     0
100
AcDbLine
 10
-19.035544
 20
29.7763980528
 30
0.0
 11
-19.035544
 21
29.7863980528
 31
0.0
  0
LINE
  5
208
330
1F
100
AcDbEntity
  8
0
  6
SLD-Solid
 62
   142
420
    32960
370
     0
100
AcDbLine
 10
-19.035544
 20
28.5363980528
 30
0.0
 11
-19.035544
 21
29.7763980528
 31
0.0
  0
LINE
  5
209
330
1F
100
AcDbEntity
  8
0
  6
SLD-Solid
 62
   142
420
    32960
370
     0
100
AcDbLine
 10
-19.035544
 20
-63.2804104457
 30
0.0
 11
-19.035544
 21
-62.7804104457
 31
0.0
  0
LINE
  5
20A
330
1F
100
AcDbEntity
  8
0
  6
SLD-Solid
 62
   142
420
    32960
370
     0
100
AcDbLine
 10
-17.785544
 20
30.9863980528
 30
0.0
 11
-19.035544
 21
30.9863980528
 31
0.0
  0
LINE
  5
20B
330
1F
100
AcDbEntity
  8
0
  6
SLD-Solid
 62
   142
420
    32960
370
     0
100
AcDbLine
 10
878.564456
 20
30.9863980528
 30
0.0
 11
877.314456
 21
30.9863980528
 31
0.0
  0
LINE
  5
20C
330
1F
100
AcDbEntity
  8
0
  6
SLD-Solid
 62
   142
420
    32960
370
     0
100
AcDbLine
 10
879.764456
 20
29.7763980528
 30
0.0
 11
878.564456
 21
29.7763980528
 31
0.0
  0
LINE
  5
20D
330
1F
100
AcDbEntity
  8
0
  6
SLD-Solid
 62
   142
420
    32960
370
     0
100
AcDbLine
 10
-20.235544
 20
29.7763980528
 30
0.0
 11
-19.035544
 21
29.7763980528
 31
0.0
  0
LINE
  5
20E
330
1F
100
AcDbEntity
  8
0
  6
SLD-Solid
 62
   142
420
    32960
370
     0
100
AcDbLine
 10
-20.235544
 20
32.2363980528
 30
0.0
 11
-19.035544
 21
32.2363980528
 31
0.0
  0
LINE
  5
20F
330
1F
100
AcDbEntity
  8
0
  6
SLD-Solid
 62
   142
420
    32960
370
     0
100
AcDbLine
 10
879.764456
 20
32.2363980528
 30
0.0
 11
878.564456
 21
32.2363980528
 31
0.0
  0
LINE
  5
210
330
1F
100
AcDbEntity
  8
0
  6
SLD-Solid
 62
   142
420
    32960
370
     0
100
AcDbLine
 10
-20.235544
 20
55.2763980528
 30
0.0
 11
-19.035544
 21
55.2763980528
 31
0.0
  0
LINE
  5
211
330
1F
100
AcDbEntity
  8
0
  6
SLD-Solid
 62
   142
420
    32960
370
     0
100
AcDbLine
 10
879.764456
 20
55.2763980528
 30
0.0
 11
878.564456
 21
55.2763980528
 31
0.0
  0
LINE
  5
212
330
1F
100
AcDbEntity
  8
0
  6
SLD-Solid
 62
   142
420
    32960
370
     0
100
AcDbLine
 10
877.314456
 20
55.2763980528
 30
0.0
 11
877.314456
 21
54.0363980528
 31
0.0
  0
LINE
  5
213
330
1F
100
AcDbEntity
  8
0
  6
SLD-Solid
 62
   142
420
    32960
370
     0
100
AcDbLine
 10
877.314456
 20
32.2363980528
 30
0.0
 11
877.314456
 21
30.9863980528
 31
0.0
  0
LINE
  5
214
330
1F
100
AcDbEntity
  8
0
  6
SLD-Solid
 62
   142
420
    32960
370
     0
100
AcDbLine
 10
878.564456
 20
55.2763980528
 30
0.0
 11
878.4326706448
 21
55.2763980528
 31
0.0
  0
LINE
  5
215
330
1F
100
AcDbEntity
  8
0
  6
SLD-Solid
 62
   142
420
    32960
370
     0
100
AcDbLine
 10
877.7144560077
 20
55.2763980528
 30
0.0
 11
877.314456
 21
55.2763980528
 31
0.0
  0
LINE
  5
216
330
1F
100
AcDbEntity
  8
0
  6
SLD-Solid
 62
   142
420
    32960
370
     0
100
AcDbLine
 10
-17.785544
 20
55.2763980528
 30
0.0
 11
-18.1855439923
 21
55.2763980528
 31
0.0
  0
LINE
  5
217
330
1F
100
AcDbEntity
  8
0
  6
SLD-Solid
 62
   142
420
    32960
370
     0
100
AcDbLine
 10
-18.9037586383
 20
55.2763980528
 30
0.0
 11
-19.035544
 21
55.2763980528
 31
0.0
  0
LINE
  5
218
330
1F
100
AcDbEntity
  8
0
  6
SLD-Solid
 62
   142
420
    32960
370
     0
100
AcDbLine
 10
-17.785544
 20
30.9863980528
 30
0.0
 11
-17.785544
 21
32.2363980528
 31
0.0
  0
LINE
  5
219
330
1F
100
AcDbEntity
  8
0
  6
SLD-Solid
 62
   142
420
    32960
370
     0
100
AcDbLine
 10
-17.785544
 20
54.0363980528
 30
0.0
 11
-17.785544
 21
55.2763980528
 31
0.0
  0
LINE
  5
21A
330
1F
100
AcDbEntity
  8
0
  6
SLD-Solid
 62
   142
420
    32960
370
     0
100
AcDbLine
 10
772.764456
 20
-86.0804104457
 30
0.0
 11
772.764456
 21
-87.9619495364
 31
0.0
  0
ARC
  5
21B
330
1F
100
AcDbEntity
  8
0
  6
SLD-Solid
 62
   142
420
    32960
370
     0
100
AcDbCircle
 10
773.7355943032
 20
-87.9312621517
 30
0.0
 40
0.9716230336756749
100
AcDbArc
 50
181.809909826
 51
271.7021999702
  0
LINE
  5
21C
330
1F
100
AcDbEntity
  8
0
  6
SLD-Solid
 62
   142
420
    32960
370
     0
100
AcDbLine
 10
773.764456
 20
-88.9024564278
 30
0.0
 11
775.764456
 21
-88.9024564278
 31
0.0
  0
ARC
  5
21D
330
1F
100
AcDbEntity
  8
0
  6
SLD-Solid
 62
   142
420
    32960
370
     0
100
AcDbCircle
 10
775.7933176968
 20
-87.9312621517
 30
0.0
 40
0.9716230336754418
100
AcDbArc
 50
268.2978000298
 51
358.190090174
  0
LINE
  5
21E
330
1F
100
AcDbEntity
  8
0
  6
SLD-Solid
 62
   142
420
    32960
370
     0
100
AcDbLine
 10
776.764456
 20
-86.0804104457
 30
0.0
 11
776.764456
 21
-87.9619495364
 31
0.0
  0
LINE
  5
21F
330
1F
100
AcDbEntity
  8
0
  6
SLD-Solid
 62
   142
420
    32960
370
     0
100
AcDbLine
 10
56.814456
 20
30.9863980528
 30
0.0
 11
56.814456
 21
32.2363980528
 31
0.0
  0
LINE
  5
220
330
1F
100
AcDbEntity
  8
0
  6
SLD-Solid
 62
   142
420
    32960
370
     0
100
AcDbLine
 10
802.714456
 20
32.2363980528
 30
0.0
 11
802.714456
 21
30.9863980528
 31
0.0
  0
LINE
  5
221
330
1F
100
AcDbEntity
  8
0
  6
SLD-Solid
 62
   142
420
    32960
370
     0
100
AcDbLine
 10
771.764456
 20
-86.0804104457
 30
0.0
 11
771.764456
 21
-87.9619495364
 31
0.0
  0
ARC
  5
222
330
1F
100
AcDbEntity
  8
0
  6
SLD-Solid
 62
   142
420
    32960
370
     0
100
AcDbCircle
 10
773.7067326064
 20
-87.900574767
 30
0.0
 40
1.943246067351234
100
AcDbArc
 50
181.809909826
 51
271.7021999702
  0
LINE
  5
223
330
1F
100
AcDbEntity
  8
0
  6
SLD-Solid
 62
   142
420
    32960
370
     0
100
AcDbLine
 10
773.764456
 20
-89.8429633193
 30
0.0
 11
775.764456
 21
-89.8429633193
 31
0.0
  0
ARC
  5
224
330
1F
100
AcDbEntity
  8
0
  6
SLD-Solid
 62
   142
420
    32960
370
     0
100
AcDbCircle
 10
775.8221793935
 20
-87.900574767
 30
0.0
 40
1.943246067350422
100
AcDbArc
 50
268.2978000298
 51
358.190090174
  0
LINE
  5
225
330
1F
100
AcDbEntity
  8
0
  6
SLD-Solid
 62
   142
420
    32960
370
     0
100
AcDbLine
 10
777.764456
 20
-86.0804104457
 30
0.0
 11
777.764456
 21
-87.9619495364
 31
0.0
  0
LINE
  5
226
330
1F
100
AcDbEntity
  8
0
  6
SLD-Solid
 62
   142
420
    32960
370
     0
100
AcDbLine
 10
779.764456
 20
-90.7834702108
 30
0.0
 11
779.764456
 21
-86.0804104456
 31
0.0
  0
ARC
  5
227
330
1F
100
AcDbEntity
  8
0
  6
SLD-Solid
 62
   142
420
    32960
370
     0
100
AcDbCircle
 10
778.7933176968
 20
-90.7527828261
 30
0.0
 40
0.9716230336755679
100
AcDbArc
 50
268.2978000298
 51
358.190090174
  0
LINE
  5
228
330
1F
100
AcDbEntity
  8
0
  6
SLD-Solid
 62
   142
420
    32960
370
     0
100
AcDbLine
 10
778.764456
 20
-91.7239771022
 30
0.0
 11
758.764456
 21
-91.7239771022
 31
0.0
  0
ARC
  5
229
330
1F
100
AcDbEntity
  8
0
  6
SLD-Solid
 62
   142
420
    32960
370
     0
100
AcDbCircle
 10
758.7355943032
 20
-90.7527828261
 30
0.0
 40
0.9716230336757948
100
AcDbArc
 50
181.809909826
 51
271.7021999702
  0
LINE
  5
22A
330
1F
100
AcDbEntity
  8
0
  6
SLD-Solid
 62
   142
420
    32960
370
     0
100
AcDbLine
 10
757.764456
 20
-86.0804104457
 30
0.0
 11
757.764456
 21
-90.7834702108
 31
0.0
  0
ARC
  5
22B
330
1F
100
AcDbEntity
  8
0
  6
SLD-Solid
 62
   142
420
    32960
370
     0
100
AcDbCircle
 10
383.2612796608
 20
-87.7954687218
 30
0.0
 40
1.498704915935632
100
AcDbArc
 50
182.8711035151
 51
298.8471995542
  0
LINE
  5
22C
330
1F
100
AcDbEntity
  8
0
  6
SLD-Solid
 62
   142
420
    32960
370
     0
100
AcDbLine
 10
388.6525204806
 20
-86.7063441399
 30
0.0
 11
383.9843679163
 21
-89.1081986254
 31
0.0
  0
ARC
  5
22D
330
1F
100
AcDbEntity
  8
0
  6
SLD-Solid
 62
   142
420
    32960
370
     0
100
AcDbCircle
 10
382.277708436
 20
-85.1977158484
 30
0.0
 40
6.550892147354974
100
AcDbArc
 50
187.7438273809
 51
346.6856443795
  0
ARC
  5
22E
330
1F
100
AcDbEntity
  8
0
  6
SLD-Solid
 62
   142
420
    32960
370
     0
100
AcDbCircle
 10
382.4901221637
 20
-85.3377695206
 30
0.0
 40
7.296227675393382
100
AcDbArc
 50
268.2276072404
 51
353.1794832413
  0
ARC
  5
22F
330
1F
100
AcDbEntity
  8
0
  6
SLD-Solid
 62
   142
420
    32960
370
     0
100
AcDbCircle
 10
382.0979272768
 20
-85.2690245077
 30
0.0
 40
7.363365356019572
100
AcDbArc
 50
187.2970066126
 51
271.2959029057
  0
LINE
  5
230
330
1F
100
AcDbEntity
  8
0
  6
SLD-Solid
 62
   142
420
    32960
370
     0
100
AcDbLine
 10
6.7644560073
 20
32.2363980528
 30
0.0
 11
6.7644560073
 21
30.9863980528
 31
0.0
  0
LINE
  5
231
330
1F
100
AcDbEntity
  8
0
  6
SLD-Solid
 62
   142
420
    32960
370
     0
100
AcDbLine
 10
852.7644560073
 20
30.9863980528
 30
0.0
 11
852.7644560073
 21
32.2363980528
 31
0.0
  0
LINE
  5
232
330
1F
100
AcDbEntity
  8
0
  6
SLD-Solid
 62
   142
420
    32960
370
     0
100
AcDbLine
 10
476.3068222505
 20
672.5863980553
 30
0.0
 11
393.1373440023
 21
672.5863980553
 31
0.0
  0
LINE
  5
233
330
1F
100
AcDbEntity
  8
0
  6
SLD-Solid
 62
   142
420
    32960
370
     0
100
AcDbLine
 10
329.7644560073
 20
644.8159218958
 30
0.0
 11
329.7644560073
 21
672.5863980553
 31
0.0
  0
LINE
  5
234
330
1F
100
AcDbEntity
  8
0
  6
SLD-Solid
 62
   142
420
    32960
370
     0
100
AcDbLine
 10
329.7644560073
 20
672.5863980553
 30
0.0
 11
293.1373440473
 21
672.5863980553
 31
0.0
  0
LINE
  5
235
330
1F
100
AcDbEntity
  8
0
  6
SLD-Solid
 62
   142
420
    32960
370
     0
100
AcDbLine
 10
276.3068221603
 20
672.5863980553
 30
0.0
 11
244.7644560073
 21
672.5863980553
 31
0.0
  0
LINE
  5
236
330
1F
100
AcDbEntity
  8
0
  6
SLD-Solid
 62
   142
420
    32960
370
     0
100
AcDbLine
 10
244.7644560073
 20
672.5863980553
 30
0.0
 11
244.7644560073
 21
644.8159218777
 31
0.0
  0
LINE
  5
237
330
1F
100
AcDbEntity
  8
0
  6
SLD-Solid
 62
   142
420
    32960
370
     0
100
AcDbLine
 10
766.7644560073
 20
646.0863980553
 30
0.0
 11
767.6491001014
 21
646.1237308606
 31
0.0
  0
ARC
  5
238
330
1F
100
AcDbEntity
  8
0
  6
SLD-Solid
 62
   142
420
    32960
370
     0
100
AcDbCircle
 10
766.7644560073
 20
656.5863980553
 30
0.0
 40
10.5
100
AcDbArc
 50
27.797924066
 51
270.0
  0
LINE
  5
239
330
1F
100
AcDbEntity
  8
0
  6
SLD-Solid
 62
   142
420
    32960
370
     0
100
AcDbLine
 10
529.7644560073
 20
672.5863980553
 30
0.0
 11
529.7644560073
 21
644.8159219383
 31
0.0
  0
LINE
  5
23A
330
1F
100
AcDbEntity
  8
0
  6
SLD-Solid
 62
   142
420
    32960
370
     0
100
AcDbLine
 10
614.7644560073
 20
644.8159219563
 30
0.0
 11
614.7644560073
 21
672.5863980553
 31
0.0
  0
LINE
  5
23B
330
1F
100
AcDbEntity
  8
0
  6
SLD-Solid
 62
   142
420
    32960
370
     0
100
AcDbLine
 10
614.7644560073
 20
672.5863980553
 30
0.0
 11
593.1373439121
 21
672.5863980553
 31
0.0
  0
LINE
  5
23C
330
1F
100
AcDbEntity
  8
0
  6
SLD-Solid
 62
   142
420
    32960
370
     0
100
AcDbLine
 10
576.3068222955
 20
672.5863980553
 30
0.0
 11
529.7644560073
 21
672.5863980553
 31
0.0
  0
CIRCLE
  5
23D
330
1F
100
AcDbEntity
  8
0
  6
SLD-Solid
 62
   142
420
    32960
370
     0
100
AcDbCircle
 10
846.7644560073
 20
656.5863980553
 30
0.0
 40
10.5
  0
ARC
  5
23E
330
1F
100
AcDbEntity
  8
0
  6
SLD-Solid
 62
   142
420
    32960
370
     0
100
AcDbCircle
 10
838.2644560073
 20
595.9863980553
 30
0.0
 40
4.899999999999954
100
AcDbArc
 50
49.9342351099
 51
130.0657649144
  0
ARC
  5
23F
330
1F
100
AcDbEntity
  8
0
  6
SLD-Solid
 62
   142
420
    32960
370
     0
100
AcDbCircle
 10
21.2644560073
 20
595.9863980553
 30
0.0
 40
4.899999999999933
100
AcDbArc
 50
49.9342319552
 51
130.0657680692
  0
LINE
  5
240
330
1F
100
AcDbEntity
  8
0
  6
SLD-Solid
 62
   142
420
    32960
370
     0
100
AcDbLine
 10
-20.2355439955
 20
599.7363979489
 30
0.0
 11
-20.2355439958
 21
600.9863979489
 31
0.0
  0
LINE
  5
241
330
1F
100
AcDbEntity
  8
0
  6
SLD-Solid
 62
   142
420
    32960
370
     0
100
AcDbLine
 10
-19.4355439958
 20
600.9863979491
 30
0.0
 11
-19.4355439955
 21
599.7363979491
 31
0.0
  0
LINE
  5
242
330
1F
100
AcDbEntity
  8
0
  6
SLD-Solid
 62
   142
420
    32960
370
     0
100
AcDbLine
 10
-9.4355439955
 20
599.7363979512
 30
0.0
 11
-9.4355439958
 21
600.9863979512
 31
0.0
  0
ARC
  5
243
330
1F
100
AcDbEntity
  8
0
  6
SLD-Solid
 62
   142
420
    32960
370
     0
100
AcDbCircle
 10
175.7067326064
 20
-90.6881179802
 30
0.0
 40
1.943246067350971
100
AcDbArc
 50
181.809909826
 51
271.7021999702
  0
LINE
  5
244
330
1F
100
AcDbEntity
  8
0
  6
SLD-Solid
 62
   142
420
    32960
370
     0
100
AcDbLine
 10
195.764456
 20
-92.6305065325
 30
0.0
 11
175.764456
 21
-92.6305065325
 31
0.0
  0
ARC
  5
245
330
1F
100
AcDbEntity
  8
0
  6
SLD-Solid
 62
   142
420
    32960
370
     0
100
AcDbCircle
 10
195.8221793935
 20
-90.6881179802
 30
0.0
 40
1.943246067350832
100
AcDbArc
 50
268.2978000298
 51
358.190090174
  0
LINE
  5
246
330
1F
100
AcDbEntity
  8
0
  6
SLD-Solid
 62
   142
420
    32960
370
     0
100
AcDbLine
 10
-18.1855440035
 20
58.4863980363
 30
0.0
 11
-17.2355440035
 21
58.4863980363
 31
0.0
  0
LINE
  5
247
330
1F
100
AcDbEntity
  8
0
  6
SLD-Solid
 62
   142
420
    32960
370
     0
100
AcDbLine
 10
-18.1855440035
 20
58.4863980363
 30
0.0
 11
-18.1855440035
 21
573.4863980363
 31
0.0
  0
LINE
  5
248
330
1F
100
AcDbEntity
  8
0
  6
SLD-Solid
 62
   142
420
    32960
370
     0
100
AcDbLine
 10
-17.2355440035
 20
573.4863980363
 30
0.0
 11
-18.1855440035
 21
573.4863980363
 31
0.0
  0
ARC
  5
249
330
1F
100
AcDbEntity
  8
0
  6
SLD-Solid
 62
   142
420
    32960
370
     0
100
AcDbCircle
 10
180.8221793935
 20
-87.8665973058
 30
0.0
 40
1.94324606735083
100
AcDbArc
 50
268.2978000298
 51
358.190090174
  0
LINE
  5
24A
330
1F
100
AcDbEntity
  8
0
  6
SLD-Solid
 62
   142
420
    32960
370
     0
100
AcDbLine
 10
178.764456
 20
-89.8089858581
 30
0.0
 11
180.764456
 21
-89.8089858581
 31
0.0
  0
ARC
  5
24B
330
1F
100
AcDbEntity
  8
0
  6
SLD-Solid
 62
   142
420
    32960
370
     0
100
AcDbCircle
 10
178.7067326064
 20
-87.8665973058
 30
0.0
 40
1.943246067350918
100
AcDbArc
 50
181.809909826
 51
271.7021999702
  0
LINE
  5
24C
330
1F
100
AcDbEntity
  8
0
  6
SLD-Solid
 62
   142
420
    32960
370
     0
100
AcDbLine
 10
-20.2355440035
 20
63.4863980363
 30
0.0
 11
-19.4355440035
 21
63.4863980363
 31
0.0
  0
LINE
  5
24D
330
1F
100
AcDbEntity
  8
0
  6
SLD-Solid
 62
     7
370
    15
100
AcDbLine
 10
-20.2355440035
 20
63.4863980363
 30
0.0
 11
-20.2355440035
 21
568.4863980363
 31
0.0
  0
LINE
  5
24E
330
1F
100
AcDbEntity
  8
0
  6
SLD-Solid
 62
   142
420
    32960
370
     0
100
AcDbLine
 10
-20.2355440035
 20
568.4863980363
 30
0.0
 11
-19.4355440035
 21
568.4863980363
 31
0.0
  0
LINE
  5
24F
330
1F
100
AcDbEntity
  8
0
  6
SLD-Solid
 62
   142
420
    32960
370
     0
100
AcDbLine
 10
-19.4355440035
 20
63.4863980363
 30
0.0
 11
-19.4355440035
 21
568.4863980363
 31
0.0
  0
LINE
  5
250
330
1F
100
AcDbEntity
  8
0
  6
SLD-Solid
 62
   142
420
    32960
370
     0
100
AcDbLine
 10
-20.2355440035
 20
58.4863980363
 30
0.0
 11
-20.2355440035
 21
63.4863980363
 31
0.0
  0
LINE
  5
251
330
1F
100
AcDbEntity
  8
0
  6
SLD-Solid
 62
   142
420
    32960
370
     0
100
AcDbLine
 10
-20.2355440035
 20
568.4863980363
 30
0.0
 11
-20.2355440035
 21
573.4863980363
 31
0.0
  0
LINE
  5
252
330
1F
100
AcDbEntity
  8
0
  6
SLD-Solid
 62
   142
420
    32960
370
     0
100
AcDbLine
 10
-20.2355440035
 20
58.4863980363
 30
0.0
 11
-19.2532518223
 21
58.4863980363
 31
0.0
  0
LINE
  5
253
330
1F
100
AcDbEntity
  8
0
  6
SLD-Solid
 62
   142
420
    32960
370
     0
100
AcDbLine
 10
-19.2532518223
 20
573.4863980363
 30
0.0
 11
-20.2355440035
 21
573.4863980363
 31
0.0
  0
LINE
  5
254
330
1F
100
AcDbEntity
  8
0
  6
SLD-Solid
 62
   142
420
    32960
370
     0
100
AcDbLine
 10
329.2918982855
 20
35.0363980294
 30
0.0
 11
329.2918982855
 21
30.9863980528
 31
0.0
  0
CIRCLE
  5
255
330
1F
100
AcDbEntity
  8
0
  6
SLD-Solid
 62
     7
370
    15
100
AcDbCircle
 10
840.9097122698
 20
46.986398045
 30
0.0
 40
7.500000000000114
  0
CIRCLE
  5
256
330
1F
100
AcDbEntity
  8
0
  6
SLD-Solid
 62
     7
370
    15
100
AcDbCircle
 10
840.9097122698
 20
584.986398045
 30
0.0
 40
7.500000000000114
  0
LINE
  5
257
330
1F
100
AcDbEntity
  8
0
  6
SLD-Solid
 62
     7
370
    15
100
AcDbLine
 10
876.9097122698
 20
34.986398045
 30
0.0
 11
876.9097122698
 21
596.986398045
 31
0.0
  0
LINE
  5
258
330
1F
100
AcDbEntity
  8
0
  6
SLD-Solid
 62
     7
370
    15
100
AcDbLine
 10
798.9097122698
 20
34.986398045
 30
0.0
 11
876.9097122698
 21
34.986398045
 31
0.0
  0
LINE
  5
259
330
1F
100
AcDbEntity
  8
0
  6
SLD-Solid
 62
     7
370
    15
100
AcDbLine
 10
798.9097122698
 20
596.986398045
 30
0.0
 11
798.9097122698
 21
34.986398045
 31
0.0
  0
LINE
  5
25A
330
1F
100
AcDbEntity
  8
0
  6
SLD-Solid
 62
     7
370
    15
100
AcDbLine
 10
876.9097122698
 20
596.986398045
 30
0.0
 11
798.9097122698
 21
596.986398045
 31
0.0
  0
CIRCLE
  5
25B
330
1F
100
AcDbEntity
  8
0
  6
SLD-Solid
 62
     7
370
    15
100
AcDbCircle
 10
840.9097122698
 20
46.986398045
 30
0.0
 40
4.0
  0
CIRCLE
  5
25C
330
1F
100
AcDbEntity
  8
0
  6
SLD-Solid
 62
     7
370
    15
100
AcDbCircle
 10
840.9097122698
 20
584.986398045
 30
0.0
 40
4.0
  0
LINE
  5
25D
330
1F
100
AcDbEntity
  8
0
  6
SLD-Solid
 62
   142
420
    32960
370
     0
100
AcDbLine
 10
-4.2355439923
 20
30.9863980528
 30
0.0
 11
-4.2355439923
 21
32.2363980528
 31
0.0
  0
LINE
  5
25E
330
1F
100
AcDbEntity
  8
0
  6
SLD-Solid
 62
   142
420
    32960
370
     0
100
AcDbLine
 10
-4.2355439923
 20
599.7363979523
 30
0.0
 11
-4.2355439923
 21
600.9863979523
 31
0.0
  0
SPLINE
  5
25F
330
1F
100
AcDbEntity
  8
0
  6
SLD-Solid
 62
   142
420
    32960
370
     0
100
AcDbSpline
210
0.0
220
0.0
230
1.0
 70
     8
 71
     3
 72
    10
 73
     6
 74
     0
 42
0.00000001
 43
0.00000001
 40
0.0
 40
0.0
 40
0.0
 40
0.0
 40
0.5
 40
0.5
 40
1.0
 40
1.0
 40
1.0
 40
1.0
 10
491.4866209878134
 20
-121.5436023344857
 30
0.0
 10
514.011160780106
 20
-120.2289571486828
 30
0.0
 10
536.5164690882457
 20
-118.5842382101864
 30
0.0
 10
581.4597009932486
 20
-114.6372865403714
 30
0.0
 10
603.8999748513985
 20
-112.3349819091557
 30
0.0
 10
626.3088837503321
 20
-109.7036089735697
 30
0.0
  0
LINE
  5
260
330
1F
100
AcDbEntity
  8
0
  6
SLD-Solid
 62
   142
420
    32960
370
     0
100
AcDbLine
 10
491.4482082548
 20
-120.8844915382
 30
0.0
 11
491.4866209878
 21
-121.5436023345
 31
0.0
  0
LINE
  5
261
330
1F
100
AcDbEntity
  8
0
  6
SLD-Solid
 62
   142
420
    32960
370
     0
100
AcDbLine
 10
626.2326132674
 20
-109.0540498014
 30
0.0
 11
626.3088837503
 21
-109.7036089736
 31
0.0
  0
LINE
  5
262
330
1F
100
AcDbEntity
  8
0
  6
SLD-Solid
 62
   142
420
    32960
370
     0
100
AcDbLine
 10
877.7144560077
 20
600.9863981398
 30
0.0
 11
877.7144560077
 21
599.7363981398
 31
0.0
  0
LINE
  5
263
330
1F
100
AcDbEntity
  8
0
  6
SLD-Solid
 62
   142
420
    32960
370
     0
100
AcDbLine
 10
877.7144560077
 20
576.2863981398
 30
0.0
 11
877.7144560077
 21
573.0289137583
 31
0.0
  0
LINE
  5
264
330
1F
100
AcDbEntity
  8
0
  6
SLD-Solid
 62
   142
420
    32960
370
     0
100
AcDbLine
 10
877.7144560077
 20
58.0289137583
 30
0.0
 11
877.7144560077
 21
54.0363980528
 31
0.0
  0
LINE
  5
265
330
1F
100
AcDbEntity
  8
0
  6
SLD-Solid
 62
   142
420
    32960
370
     0
100
AcDbLine
 10
877.7144560077
 20
32.2363980528
 30
0.0
 11
877.7144560077
 21
28.5363980528
 31
0.0
  0
LINE
  5
266
330
1F
100
AcDbEntity
  8
0
  6
SLD-Solid
 62
     7
370
    15
100
AcDbLine
 10
879.7644560086
 20
576.2863981402
 30
0.0
 11
879.7644560077
 21
573.0289137588
 31
0.0
  0
LINE
  5
267
330
1F
100
AcDbEntity
  8
0
  6
SLD-Solid
 62
     7
370
    15
100
AcDbLine
 10
879.7644560077
 20
58.0289137588
 30
0.0
 11
879.7644560077
 21
55.2763980528
 31
0.0
  0
LINE
  5
268
330
1F
100
AcDbEntity
  8
0
  6
SLD-Solid
 62
     7
370
    15
100
AcDbLine
 10
-20.2355439923
 20
55.2763980528
 30
0.0
 11
-20.2355439923
 21
58.4863980363
 31
0.0
  0
LINE
  5
269
330
1F
100
AcDbEntity
  8
0
  6
SLD-Solid
 62
     7
370
    15
100
AcDbLine
 10
-20.2355439923
 20
573.4863980363
 30
0.0
 11
-20.2355439914
 21
576.2863979489
 31
0.0
  0
LINE
  5
26A
330
1F
100
AcDbEntity
  8
0
  6
SLD-Solid
 62
   142
420
    32960
370
     0
100
AcDbLine
 10
-18.1855439923
 20
28.5363980528
 30
0.0
 11
-18.1855439923
 21
32.2363980528
 31
0.0
  0
LINE
  5
26B
330
1F
100
AcDbEntity
  8
0
  6
SLD-Solid
 62
   142
420
    32960
370
     0
100
AcDbLine
 10
-18.1855439923
 20
54.0363980528
 30
0.0
 11
-18.1855439923
 21
58.4863980363
 31
0.0
  0
LINE
  5
26C
330
1F
100
AcDbEntity
  8
0
  6
SLD-Solid
 62
   142
420
    32960
370
     0
100
AcDbLine
 10
-18.1855439923
 20
573.4863980363
 30
0.0
 11
-18.1855439923
 21
576.2863979494
 31
0.0
  0
LINE
  5
26D
330
1F
100
AcDbEntity
  8
0
  6
SLD-Solid
 62
   142
420
    32960
370
     0
100
AcDbLine
 10
-18.1855439923
 20
599.7363979494
 30
0.0
 11
-18.1855439923
 21
600.9863979494
 31
0.0
  0
LINE
  5
26E
330
1F
100
AcDbEntity
  8
0
  6
SLD-Solid
 62
     7
370
    15
100
AcDbLine
 10
140.1173949956
 20
-96.5782647141
 30
0.0
 11
139.4113033677
 21
-86.0804104456
 31
0.0
  0
LINE
  5
26F
330
1F
100
AcDbEntity
  8
0
  6
SLD-Solid
 62
     7
370
    15
100
AcDbLine
 10
136.4106554346
 20
-86.0804104457
 30
0.0
 11
137.1180427888
 21
-96.5975289913
 31
0.0
  0
LINE
  5
270
330
1F
100
AcDbEntity
  8
0
  6
SLD-Solid
 62
   142
420
    32960
370
     0
100
AcDbLine
 10
137.1180427888
 20
-96.1220007331
 30
0.0
 11
137.1180427888
 21
-96.5975289913
 31
0.0
  0
ARC
  5
271
330
1F
100
AcDbEntity
  8
0
  6
SLD-Solid
 62
   142
420
    32960
370
     0
100
AcDbCircle
 10
148.1582769657
 20
-85.7308646199
 30
0.0
 40
0.8371623332442699
100
AcDbArc
 50
299.7321399681
 51
335.3208465129
  0
ARC
  5
272
330
1F
100
AcDbEntity
  8
0
  6
SLD-Solid
 62
   142
420
    32960
370
     0
100
AcDbCircle
 10
127.775970672
 20
-85.7535947771
 30
0.0
 40
0.9620427793745646
100
AcDbArc
 50
199.8592140391
 51
240.924205259
  0
ARC
  5
273
330
1F
100
AcDbEntity
  8
0
  6
SLD-Solid
 62
     7
370
    15
100
AcDbCircle
 10
138.2447427329
 20
-40.5495713117
 30
0.0
 40
56.62621917396963
100
AcDbArc
 50
263.8307972235
 51
279.4779608696
  0
LWPOLYLINE
  5
274
330
1F
100
AcDbEntity
  8
0
  6
SLD-Solid
 62
   142
420
    32960
370
     0
100
AcDbPolyline
 90
        9
 70
   128
 43
0.0
 10
137.1180427888
 20
-96.5975289913
 10
137.2441271751
 20
-96.7741410119
 10
137.5793284487
 20
-96.9223990475
 10
138.0726152543
 20
-97.0197321563
 10
138.6488891474
 20
-97.0513222547
 10
139.2204176517
 20
-97.0123600366
 10
139.7001907333
 20
-96.9087771465
 10
140.0151672898
 20
-96.7563431405
 10
140.1173949956
 20
-96.5782647141
  0
LINE
  5
275
330
1F
100
AcDbEntity
  8
0
  6
SLD-Solid
 62
     7
370
    15
100
AcDbLine
 10
147.9230894474
 20
-89.634013488
 30
0.0
 11
147.9158967015
 21
-89.8362526089
 31
0.0
  0
ARC
  5
276
330
1F
100
AcDbEntity
  8
0
  6
SLD-Solid
 62
   142
420
    32960
370
     0
100
AcDbCircle
 10
148.655757549
 20
-85.5591595254
 30
0.0
 40
0.9024179836294234
100
AcDbArc
 50
264.7678079872
 51
324.7169724592
  0
ARC
  5
277
330
1F
100
AcDbEntity
  8
0
  6
SLD-Solid
 62
   142
420
    32960
370
     0
100
AcDbCircle
 10
149.1224763929
 20
-95.0199076226
 30
0.0
 40
1.061709549448044
100
AcDbArc
 50
275.2953648405
 51
357.8625501148
  0
ARC
  5
278
330
1F
100
AcDbEntity
  8
0
  6
SLD-Solid
 62
   142
420
    32960
370
     0
100
AcDbCircle
 10
127.2114301423
 20
-85.7326733422
 30
0.0
 40
0.8671697544830768
100
AcDbArc
 50
203.640854756
 51
276.4237872687
  0
ARC
  5
279
330
1F
100
AcDbEntity
  8
0
  6
SLD-Solid
 62
   142
420
    32960
370
     0
100
AcDbCircle
 10
149.3625331587
 20
-95.7602018831
 30
0.0
 40
0.3472748963104604
100
AcDbArc
 50
245.851437019
 51
330.4195571281
  0
ARC
  5
27A
330
1F
100
AcDbEntity
  8
0
  6
SLD-Solid
 62
   142
420
    32960
370
     0
100
AcDbCircle
 10
149.7231500267
 20
-95.2170592607
 30
0.0
 40
0.4865146706034623
100
AcDbArc
 50
304.7136961084
 51
18.8953448437
  0
LINE
  5
27B
330
1F
100
AcDbEntity
  8
0
  6
SLD-Solid
 62
     7
370
    15
100
AcDbLine
 10
126.9671496408
 20
-95.4151447416
 30
0.0
 11
126.9649205835
 21
-95.3986992145
 31
0.0
  0
ARC
  5
27C
330
1F
100
AcDbEntity
  8
0
  6
SLD-Solid
 62
   142
420
    32960
370
     0
100
AcDbCircle
 10
138.6569174433
 20
-94.1292602194
 30
0.0
 40
2.517766859222676
100
AcDbArc
 50
232.323231455
 51
304.7441822125
  0
LINE
  5
27D
330
1F
100
AcDbEntity
  8
0
  6
SLD-Solid
 62
   142
420
    32960
370
     0
100
AcDbLine
 10
879.7644560042
 20
600.9863981402
 30
0.0
 11
879.7644560045
 21
599.7363981402
 31
0.0
  0
LINE
  5
27E
330
1F
100
AcDbEntity
  8
0
  6
SLD-Solid
 62
   142
420
    32960
370
     0
100
AcDbLine
 10
878.9644560045
 20
599.7363981401
 30
0.0
 11
878.9644560042
 21
600.9863981401
 31
0.0
  0
LINE
  5
27F
330
1F
100
AcDbEntity
  8
0
  6
SLD-Solid
 62
   142
420
    32960
370
     0
100
AcDbLine
 10
868.9644560045
 20
599.7363981379
 30
0.0
 11
868.9644560042
 21
600.9863981379
 31
0.0
  0
ARC
  5
280
330
1F
100
AcDbEntity
  8
0
  6
SLD-Solid
 62
     7
370
    15
100
AcDbCircle
 10
470.7644560077
 20
719.0863980553
 30
0.0
 40
3.999999999999977
100
AcDbArc
 50
36.8698976458
 51
143.1301023542
  0
ARC
  5
281
330
1F
100
AcDbEntity
  8
0
  6
SLD-Solid
 62
     7
370
    15
100
AcDbCircle
 10
470.7644560077
 20
719.0863980553
 30
0.0
 40
3.999999999999977
100
AcDbArc
 50
216.8698976458
 51
323.1301023542
  0
LINE
  5
282
330
1F
100
AcDbEntity
  8
0
  6
SLD-Solid
 62
     7
370
    15
100
AcDbLine
 10
722.764456
 20
-96.5890312009
 30
0.0
 11
722.764456
 21
-86.0804104457
 31
0.0
  0
LINE
  5
283
330
1F
100
AcDbEntity
  8
0
  6
SLD-Solid
 62
     7
370
    15
100
AcDbLine
 10
719.764456
 20
-86.0804104457
 30
0.0
 11
719.764456
 21
-96.5890312009
 31
0.0
  0
ARC
  5
284
330
1F
100
AcDbEntity
  8
0
  6
SLD-Solid
 62
   142
420
    32960
370
     0
100
AcDbCircle
 10
731.4377665564
 20
-85.7229675569
 30
0.0
 40
0.9253878302516927
100
AcDbArc
 50
299.914157982
 51
337.2778415534
  0
ARC
  5
285
330
1F
100
AcDbEntity
  8
0
  6
SLD-Solid
 62
   142
420
    32960
370
     0
100
AcDbCircle
 10
711.0911454436
 20
-85.7229675569
 30
0.0
 40
0.9253878302558035
100
AcDbArc
 50
202.7221584467
 51
240.0858420179
  0
LWPOLYLINE
  5
286
330
1F
100
AcDbEntity
  8
0
  6
SLD-Solid
 62
   142
420
    32960
370
     0
100
AcDbPolyline
 90
        9
 70
   128
 43
0.0
 10
719.764456
 20
-96.5890312009
 10
719.8786367012
 20
-96.766414727
 10
720.2037958282
 20
-96.9167932192
 10
720.6904308514
 20
-97.0172729153
 10
721.264456
 20
-97.0525566924
 10
721.8384811485
 20
-97.0172729153
 10
722.3251161718
 20
-96.9167932192
 10
722.6502752988
 20
-96.766414727
 10
722.764456
 20
-96.5890312009
  0
ARC
  5
287
330
1F
100
AcDbEntity
  8
0
  6
SLD-Solid
 62
   142
420
    32960
370
     0
100
AcDbCircle
 10
721.7883288757
 20
-96.1386043697
 30
0.0
 40
0.9764498166445127
100
AcDbArc
 50
1.4730549926
 51
91.4009438083
  0
ARC
  5
288
330
1F
100
AcDbEntity
  8
0
  6
SLD-Solid
 62
   142
420
    32960
370
     0
100
AcDbCircle
 10
720.7405831243
 20
-96.1386043697
 30
0.0
 40
0.9764498166444466
100
AcDbArc
 50
88.5990561917
 51
178.5269450074
  0
LWPOLYLINE
  5
289
330
1F
100
AcDbEntity
  8
0
  6
SLD-Solid
 62
   142
420
    32960
370
     0
100
AcDbPolyline
 90
        9
 70
   128
 43
0.0
 10
720.764456
 20
-95.1624464264
 10
720.8025162337
 20
-95.2215742685
 10
720.9109026094
 20
-95.2717004325
 10
721.0731142838
 20
-95.3051936646
 10
721.264456
 20
-95.3169549236
 10
721.4557977162
 20
-95.3051936646
 10
721.6180093906
 20
-95.2717004325
 10
721.7263957663
 20
-95.2215742685
 10
721.764456
 20
-95.1624464264
  0
LINE
  5
28A
330
1F
100
AcDbEntity
  8
0
  6
SLD-Solid
 62
     7
370
    15
100
AcDbLine
 10
730.9386200362
 20
-90.0882483703
 30
0.0
 11
730.9312705118
 21
-90.2934438371
 31
0.0
  0
ARC
  5
28B
330
1F
100
AcDbEntity
  8
0
  6
SLD-Solid
 62
   142
420
    32960
370
     0
100
AcDbCircle
 10
710.541472623
 20
-85.6422785445
 30
0.0
 40
0.8871838347347879
100
AcDbArc
 50
209.5936617161
 51
275.7042342682
  0
ARC
  5
28C
330
1F
100
AcDbEntity
  8
0
  6
SLD-Solid
 62
   142
420
    32960
370
     0
100
AcDbCircle
 10
710.7165121577
 20
-95.0939679458
 30
0.0
 40
1.056025610322048
100
AcDbArc
 50
182.228814608
 51
265.2820210055
  0
ARC
  5
28D
330
1F
100
AcDbEntity
  8
0
  6
SLD-Solid
 62
   142
420
    32960
370
     0
100
AcDbCircle
 10
731.987439377
 20
-85.6422785445
 30
0.0
 40
0.8871838347355196
100
AcDbArc
 50
264.2957657318
 51
330.4063382839
  0
ARC
  5
28E
330
1F
100
AcDbEntity
  8
0
  6
SLD-Solid
 62
   142
420
    32960
370
     0
100
AcDbCircle
 10
731.8123998423
 20
-95.0939679458
 30
0.0
 40
1.056025610321864
100
AcDbArc
 50
274.7179789945
 51
357.771185392
  0
ARC
  5
28F
330
1F
100
AcDbEntity
  8
0
  6
SLD-Solid
 62
   142
420
    32960
370
     0
100
AcDbCircle
 10
732.0390665149
 20
-95.8493044515
 30
0.0
 40
0.3283610091123367
100
AcDbArc
 50
244.8003979038
 51
329.0457032887
  0
ARC
  5
290
330
1F
100
AcDbEntity
  8
0
  6
SLD-Solid
 62
   142
420
    32960
370
     0
100
AcDbCircle
 10
710.4898454858
 20
-95.8493045676
 30
0.0
 40
0.3283609037226344
100
AcDbArc
 50
210.95440166
 51
295.1996106028
  0
ARC
  5
291
330
1F
100
AcDbEntity
  8
0
  6
SLD-Solid
 62
   142
420
    32960
370
     0
100
AcDbCircle
 10
732.401781965
 20
-95.2799372787
 30
0.0
 40
0.4878598456216863
100
AcDbArc
 50
307.8264834332
 51
17.2782134238
  0
ARC
  5
292
330
1F
100
AcDbEntity
  8
0
  6
SLD-Solid
 62
   142
420
    32960
370
     0
100
AcDbCircle
 10
710.1271340923
 20
-95.2799369843
 30
0.0
 40
0.4878636323791061
100
AcDbArc
 50
162.7219611132
 51
232.1764277555
  0
LINE
  5
293
330
1F
100
AcDbEntity
  8
0
  6
SLD-Solid
 62
     7
370
    15
100
AcDbLine
 10
574.014456
 20
-86.0804104457
 30
0.0
 11
574.014456
 21
-96.5890312009
 31
0.0
  0
LINE
  5
294
330
1F
100
AcDbEntity
  8
0
  6
SLD-Solid
 62
     7
370
    15
100
AcDbLine
 10
577.014456
 20
-96.5890312009
 30
0.0
 11
577.014456
 21
-86.0804104457
 31
0.0
  0
ARC
  5
295
330
1F
100
AcDbEntity
  8
0
  6
SLD-Solid
 62
   142
420
    32960
370
     0
100
AcDbCircle
 10
565.3411454436
 20
-85.7229675569
 30
0.0
 40
0.9253878302560857
100
AcDbArc
 50
202.7221584467
 51
240.0858420179
  0
ARC
  5
296
330
1F
100
AcDbEntity
  8
0
  6
SLD-Solid
 62
   142
420
    32960
370
     0
100
AcDbCircle
 10
577.5842941088
 20
-127.3985462341
 30
0.0
 40
41.7612230316855
100
AcDbArc
 50
78.1650138215
 51
81.4270033
  0
LWPOLYLINE
  5
297
330
1F
100
AcDbEntity
  8
0
  6
SLD-Solid
 62
   142
420
    32960
370
     0
100
AcDbPolyline
 90
        9
 70
   128
 43
0.0
 10
574.014456
 20
-96.5890312009
 10
574.1286367012
 20
-96.766414727
 10
574.4537958282
 20
-96.9167932192
 10
574.9404308514
 20
-97.0172729153
 10
575.514456
 20
-97.0525566924
 10
576.0884811485
 20
-97.0172729153
 10
576.5751161718
 20
-96.9167932192
 10
576.9002752988
 20
-96.766414727
 10
577.014456
 20
-96.5890312009
  0
LINE
  5
298
330
1F
100
AcDbEntity
  8
0
  6
SLD-Solid
 62
     7
370
    15
100
AcDbLine
 10
585.1886200362
 20
-90.0882483703
 30
0.0
 11
585.1812705118
 21
-90.2934438371
 31
0.0
  0
ARC
  5
299
330
1F
100
AcDbEntity
  8
0
  6
SLD-Solid
 62
   142
420
    32960
370
     0
100
AcDbCircle
 10
586.237439377
 20
-85.6422785445
 30
0.0
 40
0.8871838347355069
100
AcDbArc
 50
264.2957657318
 51
330.4063382839
  0
ARC
  5
29A
330
1F
100
AcDbEntity
  8
0
  6
SLD-Solid
 62
   142
420
    32960
370
     0
100
AcDbCircle
 10
586.0623998423
 20
-95.0939679458
 30
0.0
 40
1.056025610322222
100
AcDbArc
 50
274.7179789945
 51
357.771185392
  0
ARC
  5
29B
330
1F
100
AcDbEntity
  8
0
  6
SLD-Solid
 62
   142
420
    32960
370
     0
100
AcDbCircle
 10
564.791472623
 20
-85.6422785445
 30
0.0
 40
0.887183834735394
100
AcDbArc
 50
209.5936617161
 51
275.7042342682
  0
ARC
  5
29C
330
1F
100
AcDbEntity
  8
0
  6
SLD-Solid
 62
   142
420
    32960
370
     0
100
AcDbCircle
 10
564.9665121577
 20
-95.0939679458
 30
0.0
 40
1.056025610322355
100
AcDbArc
 50
182.228814608
 51
265.2820210055
  0
ARC
  5
29D
330
1F
100
AcDbEntity
  8
0
  6
SLD-Solid
 62
   142
420
    32960
370
     0
100
AcDbCircle
 10
586.2890665128
 20
-95.8493047719
 30
0.0
 40
0.3283607183056779
100
AcDbArc
 50
244.800374431
 51
329.0454136995
  0
ARC
  5
29E
330
1F
100
AcDbEntity
  8
0
  6
SLD-Solid
 62
   142
420
    32960
370
     0
100
AcDbCircle
 10
564.7398454873
 20
-95.8493047848
 30
0.0
 40
0.3283607065731242
100
AcDbArc
 50
210.9545979839
 51
295.199626516
  0
ARC
  5
29F
330
1F
100
AcDbEntity
  8
0
  6
SLD-Solid
 62
   142
420
    32960
370
     0
100
AcDbCircle
 10
564.3771354604
 20
-95.2799368851
 30
0.0
 40
0.487864909256241
100
AcDbArc
 50
162.722019965
 51
232.1774093352
  0
ARC
  5
2A0
330
1F
100
AcDbEntity
  8
0
  6
SLD-Solid
 62
   142
420
    32960
370
     0
100
AcDbCircle
 10
586.6517693532
 20
-95.2799363637
 30
0.0
 40
0.487871616526274
100
AcDbArc
 50
307.8174350567
 51
17.2776709045
  0
LWPOLYLINE
  5
2A1
330
1F
100
AcDbEntity
  8
0
  6
SLD-Solid
 62
   142
420
    32960
370
     0
100
AcDbPolyline
 90
        9
 70
   128
 43
0.0
 10
577.014456
 20
-96.1135029427
 10
576.9002752988
 20
-96.2908864688
 10
576.5751161718
 20
-96.4412649611
 10
576.0884811485
 20
-96.5417446572
 10
575.514456
 20
-96.5770284343
 10
574.9404308514
 20
-96.5417446572
 10
574.4537958282
 20
-96.4412649611
 10
574.1286367012
 20
-96.2908864688
 10
574.014456
 20
-96.1135029427
  0
ARC
  5
2A2
330
1F
100
AcDbEntity
  8
0
  6
SLD-Solid
 62
   142
420
    32960
370
     0
100
AcDbCircle
 10
855.7644560077
 20
719.0863980553
 30
0.0
 40
4.000000000000022
100
AcDbArc
 50
36.8698976458
 51
143.1301023542
  0
ARC
  5
2A3
330
1F
100
AcDbEntity
  8
0
  6
SLD-Solid
 62
   142
420
    32960
370
     0
100
AcDbCircle
 10
855.7644560077
 20
719.0863980553
 30
0.0
 40
4.000000000000091
100
AcDbArc
 50
216.8698976458
 51
323.1301023542
  0
LINE
  5
2A4
330
1F
100
AcDbEntity
  8
0
  6
SLD-Solid
 62
   142
420
    32960
370
     0
100
AcDbLine
 10
458.7644560077
 20
750.6363980553
 30
0.0
 11
458.7644560077
 21
750.6293269874
 31
0.0
  0
LINE
  5
2A5
330
1F
100
AcDbEntity
  8
0
  6
SLD-Solid
 62
   142
420
    32960
370
     0
100
AcDbLine
 10
177.764456
 20
-86.0804104456
 30
0.0
 11
177.764456
 21
-87.9619495364
 31
0.0
  0
ARC
  5
2A6
330
1F
100
AcDbEntity
  8
0
  6
SLD-Solid
 62
   142
420
    32960
370
     0
100
AcDbCircle
 10
178.7355943032
 20
-87.9312621517
 30
0.0
 40
0.9716230336755487
100
AcDbArc
 50
181.809909826
 51
271.7021999702
  0
LINE
  5
2A7
330
1F
100
AcDbEntity
  8
0
  6
SLD-Solid
 62
   142
420
    32960
370
     0
100
AcDbLine
 10
178.764456
 20
-88.9024564278
 30
0.0
 11
180.764456
 21
-88.9024564278
 31
0.0
  0
ARC
  5
2A8
330
1F
100
AcDbEntity
  8
0
  6
SLD-Solid
 62
   142
420
    32960
370
     0
100
AcDbCircle
 10
180.7933176968
 20
-87.9312621517
 30
0.0
 40
0.9716230336754139
100
AcDbArc
 50
268.2978000298
 51
358.190090174
  0
LINE
  5
2A9
330
1F
100
AcDbEntity
  8
0
  6
SLD-Solid
 62
   142
420
    32960
370
     0
100
AcDbLine
 10
181.764456
 20
-86.0804104456
 30
0.0
 11
181.764456
 21
-87.9619495364
 31
0.0
  0
LINE
  5
2AA
330
1F
100
AcDbEntity
  8
0
  6
SLD-Solid
 62
     7
370
    15
100
AcDbLine
 10
793.7144559906
 20
35.0363980163
 30
0.0
 11
793.7144559906
 21
596.9363980163
 31
0.0
  0
LINE
  5
2AB
330
1F
100
AcDbEntity
  8
0
  6
SLD-Solid
 62
     7
370
    15
100
AcDbLine
 10
553.8144559906
 20
35.0363980163
 30
0.0
 11
793.7144559906
 21
35.0363980163
 31
0.0
  0
LINE
  5
2AC
330
1F
100
AcDbEntity
  8
0
  6
SLD-Solid
 62
     7
370
    15
100
AcDbLine
 10
553.8144559906
 20
596.9363980163
 30
0.0
 11
553.8144559906
 21
35.0363980163
 31
0.0
  0
LINE
  5
2AD
330
1F
100
AcDbEntity
  8
0
  6
SLD-Solid
 62
     7
370
    15
100
AcDbLine
 10
793.7144559906
 20
596.9363980163
 30
0.0
 11
553.8144559906
 21
596.9363980163
 31
0.0
  0
LINE
  5
2AE
330
1F
100
AcDbEntity
  8
0
  6
SLD-Solid
 62
     7
370
    15
100
AcDbLine
 10
305.7144559906
 20
35.0363980425
 30
0.0
 11
305.7144559906
 21
596.9363980425
 31
0.0
  0
LINE
  5
2AF
330
1F
100
AcDbEntity
  8
0
  6
SLD-Solid
 62
     7
370
    15
100
AcDbLine
 10
65.8144559906
 20
35.0363980425
 30
0.0
 11
305.7144559906
 21
35.0363980425
 31
0.0
  0
LINE
  5
2B0
330
1F
100
AcDbEntity
  8
0
  6
SLD-Solid
 62
     7
370
    15
100
AcDbLine
 10
65.8144559906
 20
596.9363980425
 30
0.0
 11
65.8144559906
 21
35.0363980425
 31
0.0
  0
LINE
  5
2B1
330
1F
100
AcDbEntity
  8
0
  6
SLD-Solid
 62
     7
370
    15
100
AcDbLine
 10
305.7144559906
 20
596.9363980425
 30
0.0
 11
65.8144559906
 21
596.9363980425
 31
0.0
  0
LINE
  5
2B2
330
1F
100
AcDbEntity
  8
0
  6
SLD-Solid
 62
   142
420
    32960
370
     0
100
AcDbLine
 10
174.764456
 20
-86.0804104457
 30
0.0
 11
174.764456
 21
-90.7834702108
 31
0.0
  0
ARC
  5
2B3
330
1F
100
AcDbEntity
  8
0
  6
SLD-Solid
 62
   142
420
    32960
370
     0
100
AcDbCircle
 10
175.7355943032
 20
-90.7527828261
 30
0.0
 40
0.9716230336755062
100
AcDbArc
 50
181.809909826
 51
271.7021999702
  0
LINE
  5
2B4
330
1F
100
AcDbEntity
  8
0
  6
SLD-Solid
 62
   142
420
    32960
370
     0
100
AcDbLine
 10
195.764456
 20
-91.7239771022
 30
0.0
 11
175.764456
 21
-91.7239771022
 31
0.0
  0
ARC
  5
2B5
330
1F
100
AcDbEntity
  8
0
  6
SLD-Solid
 62
   142
420
    32960
370
     0
100
AcDbCircle
 10
195.7933176968
 20
-90.7527828261
 30
0.0
 40
0.9716230336754134
100
AcDbArc
 50
268.2978000298
 51
358.190090174
  0
LINE
  5
2B6
330
1F
100
AcDbEntity
  8
0
  6
SLD-Solid
 62
   142
420
    32960
370
     0
100
AcDbLine
 10
196.764456
 20
-90.7834702108
 30
0.0
 11
196.764456
 21
-86.0804104457
 31
0.0
  0
LINE
  5
2B7
330
1F
100
AcDbEntity
  8
0
  6
SLD-Solid
 62
   142
420
    32960
370
     0
100
AcDbLine
 10
182.764456
 20
-86.0804104456
 30
0.0
 11
182.764456
 21
-87.9619495364
 31
0.0
  0
ARC
  5
2B8
330
1F
100
AcDbEntity
  8
0
  6
SLD-Solid
 62
   142
420
    32960
370
     0
100
AcDbCircle
 10
180.8221793935
 20
-87.900574767
 30
0.0
 40
1.943246067350861
100
AcDbArc
 50
268.2978000298
 51
358.190090174
  0
LINE
  5
2B9
330
1F
100
AcDbEntity
  8
0
  6
SLD-Solid
 62
   142
420
    32960
370
     0
100
AcDbLine
 10
178.764456
 20
-89.8429633193
 30
0.0
 11
180.764456
 21
-89.8429633193
 31
0.0
  0
ARC
  5
2BA
330
1F
100
AcDbEntity
  8
0
  6
SLD-Solid
 62
   142
420
    32960
370
     0
100
AcDbCircle
 10
178.7067326064
 20
-87.900574767
 30
0.0
 40
1.943246067350831
100
AcDbArc
 50
181.809909826
 51
271.7021999702
  0
LINE
  5
2BB
330
1F
100
AcDbEntity
  8
0
  6
SLD-Solid
 62
   142
420
    32960
370
     0
100
AcDbLine
 10
176.764456
 20
-86.0804104456
 30
0.0
 11
176.764456
 21
-87.9619495364
 31
0.0
  0
ARC
  5
2BC
330
1F
100
AcDbEntity
  8
0
  6
SLD-Solid
 62
   142
420
    32960
370
     0
100
AcDbCircle
 10
773.7067326064
 20
-87.8665973058
 30
0.0
 40
1.943246067351234
100
AcDbArc
 50
181.809909826
 51
271.7021999702
  0
LINE
  5
2BD
330
1F
100
AcDbEntity
  8
0
  6
SLD-Solid
 62
   142
420
    32960
370
     0
100
AcDbLine
 10
773.764456
 20
-89.8089858581
 30
0.0
 11
775.764456
 21
-89.8089858581
 31
0.0
  0
ARC
  5
2BE
330
1F
100
AcDbEntity
  8
0
  6
SLD-Solid
 62
   142
420
    32960
370
     0
100
AcDbCircle
 10
775.8221793935
 20
-87.8665973058
 30
0.0
 40
1.943246067350532
100
AcDbArc
 50
268.2978000298
 51
358.190090174
  0
ENDSEC
  0
SECTION
  2
OBJECTS
  0
DICTIONARY
  5
C
330
0
100
AcDbDictionary
281
     1
  3
ACAD_GROUP
350
D
  3
ACAD_LAYOUT
350
1A
  3
ACAD_MATERIAL
350
3B
  3
ACAD_MLEADERSTYLE
350
2C0
  3
ACAD_MLINESTYLE
350
17
  3
ACAD_PLOTSETTINGS
350
19
  3
ACAD_PLOTSTYLENAME
350
E
  3
ACAD_TABLESTYLE
350
2BF
  3
ACAD_VISUALSTYLE
350
2A
  0
DICTIONARY
  5
D
102
{ACAD_REACTORS
330
C
102
}
330
C
100
AcDbDictionary
281
     1
  0
DICTIONARY
  5
1A
102
{ACAD_REACTORS
330
C
102
}
330
C
100
AcDbDictionary
281
     1
  3
Layout1
350
1E
  3
Layout2
350
26
  3
Model
350
22
  0
DICTIONARY
  5
3B
102
{ACAD_REACTORS
330
C
102
}
330
C
100
AcDbDictionary
281
     1
  3
ByBlock
350
3D
  3
ByLayer
350
3C
  3
Global
350
3E
  0
DICTIONARY
  5
2C0
102
{ACAD_REACTORS
330
C
102
}
330
C
100
AcDbDictionary
281
     1
  0
DICTIONARY
  5
17
102
{ACAD_REACTORS
330
C
102
}
330
C
100
AcDbDictionary
281
     1
  3
Standard
350
18
  0
DICTIONARY
  5
19
102
{ACAD_REACTORS
330
C
102
}
330
C
100
AcDbDictionary
281
     1
  0
ACDBDICTIONARYWDFLT
  5
E
102
{ACAD_REACTORS
330
C
102
}
330
C
100
AcDbDictionary
281
     1
  3
Normal
350
F
100
AcDbDictionaryWithDefault
340
F
  0
DICTIONARY
  5
2BF
102
{ACAD_REACTORS
330
C
102
}
330
C
100
AcDbDictionary
281
     1
  0
DICTIONARY
  5
2A
102
{ACAD_REACTORS
330
C
102
}
330
C
100
AcDbDictionary
281
     1
  3
2dWireframe
350
2F
  3
3D Hidden
350
31
  3
3dWireframe
350
30
  3
Basic
350
32
  3
Brighten
350
36
  3
ColorChange
350
3A
  3
Conceptual
350
34
  3
Dim
350
35
  3
Facepattern
350
39
  3
Flat
350
2B
  3
FlatWithEdges
350
2C
  3
Gouraud
350
2D
  3
GouraudWithEdges
350
2E
  3
Linepattern
350
38
  3
Realistic
350
33
  3
Thicken
350
37
  0
LAYOUT
  5
1E
102
{ACAD_REACTORS
330
1A
102
}
330
1A
100
AcDbPlotSettings
  1

  2
none_device
  4

  6

 40
0.0
 41
0.0
 42
0.0
 43
0.0
 44
0.0
 45
0.0
 46
0.0
 47
0.0
 48
0.0
 49
0.0
140
0.0
141
0.0
142
1.0
143
1.0
 70
   688
 72
     0
 73
     0
 74
     5
  7

 75
    16
 76
     0
 77
     2
 78
   300
147
1.0
148
0.0
149
0.0
100
AcDbLayout
  1
Layout1
 70
     1
 71
     1
 10
0.0
 20
0.0
 11
420.0
 21
297.0
 12
0.0
 22
0.0
 32
0.0
 14
1.0000000000E+20
 24
1.0000000000E+20
 34
1.0000000000E+20
 15
-1.0000000000E+20
 25
-1.0000000000E+20
 35
-1.0000000000E+20
146
0.0
 13
0.0
 23
0.0
 33
0.0
 16
1.0
 26
0.0
 36
0.0
 17
0.0
 27
1.0
 37
0.0
 76
     0
330
1B
  0
LAYOUT
  5
26
102
{ACAD_REACTORS
330
1A
102
}
330
1A
100
AcDbPlotSettings
  1

  2
none_device
  4

  6

 40
0.0
 41
0.0
 42
0.0
 43
0.0
 44
0.0
 45
0.0
 46
0.0
 47
0.0
 48
0.0
 49
0.0
140
0.0
141
0.0
142
1.0
143
1.0
 70
   688
 72
     0
 73
     0
 74
     5
  7

 75
    16
 76
     0
 77
     2
 78
   300
147
1.0
148
0.0
149
0.0
100
AcDbLayout
  1
Layout2
 70
     1
 71
     2
 10
0.0
 20
0.0
 11
0.0
 21
0.0
 12
0.0
 22
0.0
 32
0.0
 14
0.0
 24
0.0
 34
0.0
 15
0.0
 25
0.0
 35
0.0
146
0.0
 13
0.0
 23
0.0
 33
0.0
 16
1.0
 26
0.0
 36
0.0
 17
0.0
 27
1.0
 37
0.0
 76
     0
330
23
  0
LAYOUT
  5
22
102
{ACAD_REACTORS
330
1A
102
}
330
1A
100
AcDbPlotSettings
  1

  2
none_device
  4

  6

 40
0.0
 41
0.0
 42
0.0
 43
0.0
 44
0.0
 45
0.0
 46
0.0
 47
0.0
 48
0.0
 49
0.0
140
0.0
141
0.0
142
1.0
143
1.0
 70
  1712
 72
     0
 73
     0
 74
     0
  7

 75
     0
 76
     0
 77
     2
 78
   300
147
1.0
148
0.0
149
0.0
100
AcDbLayout
  1
Model
 70
     1
 71
     0
 10
0.0
 20
0.0
 11
841.0
 21
594.0
 12
0.0
 22
0.0
 32
0.0
 14
0.0
 24
0.0
 34
0.0
 15
841.0
 25
594.0
 35
0.0
146
0.0
 13
0.0
 23
0.0
 33
0.0
 16
1.0
 26
0.0
 36
0.0
 17
0.0
 27
1.0
 37
0.0
 76
     0
330
1F
331
29
  0
MATERIAL
  5
3D
102
{ACAD_REACTORS
330
3B
102
}
330
3B
100
AcDbMaterial
  1
ByBlock
 72
     1
 94
      127
  0
MATERIAL
  5
3C
102
{ACAD_REACTORS
330
3B
102
}
330
3B
100
AcDbMaterial
  1
ByLayer
 72
     1
 94
      127
  0
MATERIAL
  5
3E
102
{ACAD_REACTORS
330
3B
102
}
330
3B
100
AcDbMaterial
  1
Global
 72
     1
 94
      127
  0
MLINESTYLE
  5
18
102
{ACAD_REACTORS
330
17
102
}
330
17
100
AcDbMlineStyle
  2
Standard
 70
     0
  3

 62
   256
 51
90.0
 52
90.0
 71
     2
 49
0.5
 62
   256
  6
BYLAYER
 49
-0.5
 62
   256
  6
BYLAYER
  0
ACDBPLACEHOLDER
  5
F
102
{ACAD_REACTORS
330
E
102
}
330
E
  0
VISUALSTYLE
  5
2F
102
{ACAD_REACTORS
330
2A
102
}
330
2A
100
AcDbVisualStyle
  2
2dWireframe
 70
     4
 71
     0
 72
     2
 73
     0
 90
        0
 40
-0.6
 41
-30.0
 62
     5
 63
     7
421
 16777215
 74
     1
 91
        4
 64
     7
 65
   257
 75
     1
175
     1
 42
1.0
 92
        0
 66
   257
 43
1.0
 76
     1
 77
     6
 78
     2
 67
     7
 79
     5
170
     0
171
     0
290
     0
174
     0
 93
        1
 44
0.0
173
     0
291
     0
 45
0.0
  0
VISUALSTYLE
  5
31
102
{ACAD_REACTORS
330
2A
102
}
330
2A
100
AcDbVisualStyle
  2
3D Hidden
 70
     6
 71
     1
 72
     2
 73
     2
 90
        0
 40
-0.6
 41
-30.0
 62
     5
 63
     7
421
 16777215
 74
     2
 91
        2
 64
     7
 65
   257
 75
     2
175
     1
 42
40.0
 92
        0
 66
   257
 43
1.0
 76
     1
 77
     6
 78
     2
 67
     7
 79
     3
170
     0
171
     0
290
     0
174
     0
 93
        1
 44
0.0
173
     0
291
     0
 45
0.0
  0
VISUALSTYLE
  5
30
102
{ACAD_REACTORS
330
2A
102
}
330
2A
100
AcDbVisualStyle
  2
3dWireframe
 70
     5
 71
     0
 72
     2
 73
     0
 90
        0
 40
-0.6
 41
-30.0
 62
     5
 63
     7
421
 16777215
 74
     1
 91
        4
 64
     7
 65
   257
 75
     1
175
     1
 42
1.0
 92
        0
 66
   257
 43
1.0
 76
     1
 77
     6
 78
     2
 67
     7
 79
     5
170
     0
171
     0
290
     0
174
     0
 93
        1
 44
0.0
173
     0
291
     0
 45
0.0
  0
VISUALSTYLE
  5
32
102
{ACAD_REACTORS
330
2A
102
}
330
2A
100
AcDbVisualStyle
  2
Basic
 70
     7
 71
     1
 72
     0
 73
     1
 90
        0
 40
-0.6
 41
-30.0
 62
     5
 63
     7
421
 16777215
 74
     0
 91
        4
 64
     7
 65
   257
 75
     1
175
     1
 42
1.0
 92
        8
 66
     7
 43
1.0
 76
     1
 77
     6
 78
     2
 67
     7
 79
     5
170
     0
171
     0
290
     0
174
     0
 93
        1
 44
0.0
173
     0
291
     1
 45
0.0
  0
VISUALSTYLE
  5
36
102
{ACAD_REACTORS
330
2A
102
}
330
2A
100
AcDbVisualStyle
  2
Brighten
 70
    12
 71
     2
 72
     2
 73
     0
 90
        0
 40
-0.6
 41
-30.0
 62
     5
 63
     7
421
 16777215
 74
     1
 91
        4
 64
     7
 65
   257
 75
     1
175
     1
 42
1.0
 92
        8
 66
     7
 43
1.0
 76
     1
 77
     6
 78
     2
 67
     7
 79
     5
170
     0
171
     0
290
     0
174
     0
 93
        1
 44
50.0
173
     0
291
     1
 45
0.0
  0
VISUALSTYLE
  5
3A
102
{ACAD_REACTORS
330
2A
102
}
330
2A
100
AcDbVisualStyle
  2
ColorChange
 70
    16
 71
     2
 72
     2
 73
     3
 90
        0
 40
-0.6
 41
-30.0
 62
     5
 63
     8
421
  8421504
 74
     1
 91
        4
 64
     7
 65
   257
 75
     1
175
     1
 42
1.0
 92
        8
 66
     8
424
  8421504
 43
1.0
 76
     1
 77
     6
 78
     2
 67
     7
 79
     5
170
     0
171
     0
290
     0
174
     0
 93
        1
 44
0.0
173
     0
291
     1
 45
0.0
  0
VISUALSTYLE
  5
34
102
{ACAD_REACTORS
330
2A
102
}
330
2A
100
AcDbVisualStyle
  2
Conceptual
 70
     9
 71
     3
 72
     2
 73
     0
 90
        0
 40
-0.6
 41
-30.0
 62
     5
 63
     7
421
 16777215
 74
     2
 91
        2
 64
     7
 65
   257
 75
     1
175
     1
 42
40.0
 92
        8
 66
     7
 43
1.0
 76
     1
 77
     6
 78
     2
 67
     7
 79
     3
170
     0
171
     0
290
     0
174
     0
 93
        1
 44
0.0
173
     0
291
     0
 45
0.0
  0
VISUALSTYLE
  5
35
102
{ACAD_REACTORS
330
2A
102
}
330
2A
100
AcDbVisualStyle
  2
Dim
 70
    11
 71
     2
 72
     2
 73
     0
 90
        0
 40
-0.6
 41
-30.0
 62
     5
 63
     7
421
 16777215
 74
     1
 91
        4
 64
     7
 65
   257
 75
     1
175
     1
 42
1.0
 92
        8
 66
     7
 43
1.0
 76
     1
 77
     6
 78
     2
 67
     7
 79
     5
170
     0
171
     0
290
     0
174
     0
 93
        1
 44
-50.0
173
     0
291
     1
 45
0.0
  0
VISUALSTYLE
  5
39
102
{ACAD_REACTORS
330
2A
102
}
330
2A
100
AcDbVisualStyle
  2
Facepattern
 70
    15
 71
     2
 72
     2
 73
     0
 90
        0
 40
-0.6
 41
-30.0
 62
     5
 63
     7
421
 16777215
 74
     1
 91
        4
 64
     7
 65
   257
 75
     1
175
     1
 42
1.0
 92
        8
 66
     7
 43
1.0
 76
     1
 77
     6
 78
     2
 67
     7
 79
     5
170
     0
171
     0
290
     0
174
     0
 93
        1
 44
0.0
173
     0
291
     1
 45
0.0
  0
VISUALSTYLE
  5
2B
102
{ACAD_REACTORS
330
2A
102
}
330
2A
100
AcDbVisualStyle
  2
Flat
 70
     0
 71
     2
 72
     1
 73
     1
 90
        2
 40
-0.6
 41
30.0
 62
     5
 63
     7
421
 16777215
 74
     0
 91
        4
 64
     7
 65
   257
 75
     1
175
     1
 42
1.0
 92
        8
 66
     7
 43
1.0
 76
     1
 77
     6
 78
     2
 67
     7
 79
     5
170
     0
171
     0
290
     0
174
     0
 93
       13
 44
0.0
173
     0
291
     1
 45
0.0
  0
VISUALSTYLE
  5
2C
102
{ACAD_REACTORS
330
2A
102
}
330
2A
100
AcDbVisualStyle
  2
FlatWithEdges
 70
     1
 71
     2
 72
     1
 73
     1
 90
        2
 40
-0.6
 41
30.0
 62
     5
 63
     7
421
 16777215
 74
     1
 91
        4
 64
     7
 65
   257
 75
     1
175
     1
 42
1.0
 92
        0
 66
   257
 43
1.0
 76
     1
 77
     6
 78
     2
 67
     7
 79
     5
170
     0
171
     0
290
     0
174
     0
 93
       13
 44
0.0
173
     0
291
     1
 45
0.0
  0
VISUALSTYLE
  5
2D
102
{ACAD_REACTORS
330
2A
102
}
330
2A
100
AcDbVisualStyle
  2
Gouraud
 70
     2
 71
     2
 72
     2
 73
     1
 90
        2
 40
-0.6
 41
30.0
 62
     5
 63
     7
421
 16777215
 74
     0
 91
        4
 64
     7
 65
   257
 75
     1
175
     1
 42
1.0
 92
        0
 66
     7
 43
1.0
 76
     1
 77
     6
 78
     2
 67
     7
 79
     5
170
     0
171
     0
290
     0
174
     0
 93
       13
 44
0.0
173
     0
291
     1
 45
0.0
  0
VISUALSTYLE
  5
2E
102
{ACAD_REACTORS
330
2A
102
}
330
2A
100
AcDbVisualStyle
  2
GouraudWithEdges
 70
     3
 71
     2
 72
     2
 73
     1
 90
        2
 40
-0.6
 41
30.0
 62
     5
 63
     7
421
 16777215
 74
     1
 91
        4
 64
     7
 65
   257
 75
     1
175
     1
 42
1.0
 92
        0
 66
   257
 43
1.0
 76
     1
 77
     6
 78
     2
 67
     7
 79
     5
170
     0
171
     0
290
     0
174
     0
 93
       13
 44
0.0
173
     0
291
     1
 45
0.0
  0
VISUALSTYLE
  5
38
102
{ACAD_REACTORS
330
2A
102
}
330
2A
100
AcDbVisualStyle
  2
Linepattern
 70
    14
 71
     2
 72
     2
 73
     0
 90
        0
 40
-0.6
 41
-30.0
 62
     5
 63
     7
421
 16777215
 74
     1
 91
        4
 64
     7
 65
   257
 75
     7
175
     7
 42
1.0
 92
        8
 66
     7
 43
1.0
 76
     1
 77
     6
 78
     2
 67
     7
 79
     5
170
     0
171
     0
290
     0
174
     0
 93
        1
 44
0.0
173
     0
291
     1
 45
0.0
  0
VISUALSTYLE
  5
33
102
{ACAD_REACTORS
330
2A
102
}
330
2A
100
AcDbVisualStyle
  2
Realistic
 70
     8
 71
     2
 72
     2
 73
     0
 90
        0
 40
-0.6
 41
-30.0
 62
     5
 63
     7
421
 16777215
 74
     1
 91
        0
 64
     7
 65
   257
 75
     1
175
     1
 42
1.0
 92
        8
 66
     8
424
  7895160
 43
1.0
 76
     1
 77
     6
 78
     2
 67
     7
 79
     5
170
     0
171
     0
290
     0
174
     0
 93
       13
 44
0.0
173
     0
291
     0
 45
0.0
  0
VISUALSTYLE
  5
37
102
{ACAD_REACTORS
330
2A
102
}
330
2A
100
AcDbVisualStyle
  2
Thicken
 70
    13
 71
     2
 72
     2
 73
     0
 90
        0
 40
-0.6
 41
-30.0
 62
     5
 63
     7
421
 16777215
 74
     1
 91
        4
 64
     7
 65
   257
 75
     1
175
     1
 42
1.0
 92
       12
 66
     7
 43
1.0
 76
     1
 77
     6
 78
     2
 67
     7
 79
     5
170
     0
171
     0
290
     0
174
     0
 93
        1
 44
0.0
173
     0
291
     1
 45
0.0
  0
ENDSEC
  0
EOF
