  0
SECTION
  2
HEADER
  9
$ACADVER
  1
AC1021
  9
$ACADMAINTVER
 70
    25
  9
$DWGCODEPAGE
  3
ANSI_1252
  9
$INSBASE
 10
0.0
 20
0.0
 30
0.0
  9
$EXTMIN
 10
0.0
 20
0.0
 30
0.0
  9
$EXTMAX
 10
841.0
 20
594.0
 30
0.0
  9
$LIMMIN
 10
0.0
 20
0.0
  9
$LIMMAX
 10
841.0
 20
594.0
  9
$ORTHOMODE
 70
     0
  9
$REGENMODE
 70
     1
  9
$FILLMODE
 70
     1
  9
$QTEXTMODE
 70
     0
  9
$MIRRTEXT
 70
     1
  9
$LTSCALE
 40
1.0
  9
$ATTMODE
 70
     1
  9
$TEXTSIZE
 40
3.5
  9
$TRACEWID
 40
1.0
  9
$TEXTSTYLE
  7
STANDARD
  9
$CLAYER
  8
0
  9
$CELTYPE
  6
ByLayer
  9
$CECOLOR
 62
   256
  9
$CELTSCALE
 40
1.0
  9
$DISPSILH
 70
     0
  9
$DIMSCALE
 40
1.0
  9
$DIMASZ
 40
3.302
  9
$DIMEXO
 40
1.0
  9
$DIMDLI
 40
3.75
  9
$DIMRND
 40
0.0
  9
$DIMDLE
 40
0.0
  9
$DIMEXE
 40
1.0
  9
$DIMTP
 40
0.0
  9
$DIMTM
 40
0.0
  9
$DIMTXT
 40
3.5
  9
$DIMCEN
 40
2.5
  9
$DIMTSZ
 40
0.0
  9
$DIMTOL
 70
     0
  9
$DIMLIM
 70
     0
  9
$DIMTIH
 70
     1
  9
$DIMTOH
 70
     1
  9
$DIMSE1
 70
     0
  9
$DIMSE2
 70
     0
  9
$DIMTAD
 70
     1
  9
$DIMZIN
 70
     0
  9
$DIMBLK
  1

  9
$DIMASO
 70
     1
  9
$DIMSHO
 70
     1
  9
$DIMPOST
  1

  9
$DIMAPOST
  1

  9
$DIMALT
 70
     0
  9
$DIMALTD
 70
     3
  9
$DIMALTF
 40
0.0393700787
  9
$DIMLFAC
 40
1.0
  9
$DIMTOFL
 70
     1
  9
$DIMTVP
 40
0.0
  9
$DIMTIX
 70
     0
  9
$DIMSOXD
 70
     0
  9
$DIMSAH
 70
     0
  9
$DIMBLK1
  1

  9
$DIMBLK2
  1

  9
$DIMSTYLE
  2
ISO-25
  9
$DIMCLRD
 70
     0
  9
$DIMCLRE
 70
     0
  9
$DIMCLRT
 70
     0
  9
$DIMTFAC
 40
1.0
  9
$DIMGAP
 40
1.524
  9
$DIMJUST
 70
     0
  9
$DIMSD1
 70
     0
  9
$DIMSD2
 70
     0
  9
$DIMTOLJ
 70
     0
  9
$DIMTZIN
 70
     0
  9
$DIMALTZ
 70
     0
  9
$DIMALTTZ
 70
     0
  9
$DIMUPT
 70
     0
  9
$DIMDEC
 70
     1
  9
$DIMTDEC
 70
     1
  9
$DIMALTU
 70
     2
  9
$DIMALTTD
 70
     3
  9
$DIMTXSTY
  7
STANDARD
  9
$DIMAUNIT
 70
     0
  9
$DIMADEC
 70
     1
  9
$DIMALTRND
 40
0.0
  9
$DIMAZIN
 70
     0
  9
$DIMDSEP
 70
    44
  9
$DIMATFIT
 70
     3
  9
$DIMFRAC
 70
     0
  9
$DIMLDRBLK
  1

  9
$DIMLUNIT
 70
     2
  9
$DIMLWD
 70
    -2
  9
$DIMLWE
 70
    -2
  9
$DIMTMOVE
 70
     0
  9
$DIMFXL
 40
1.0
  9
$DIMFXLON
 70
     0
  9
$DIMJOGANG
 40
0.7853981634
  9
$DIMTFILL
 70
     0
  9
$DIMTFILLCLR
 70
     0
  9
$DIMARCSYM
 70
     0
  9
$DIMLTYPE
  6

  9
$DIMLTEX1
  6

  9
$DIMLTEX2
  6

  9
$LUNITS
 70
     2
  9
$LUPREC
 70
     1
  9
$SKETCHINC
 40
1.0
  9
$FILLETRAD
 40
10.0
  9
$AUNITS
 70
     0
  9
$AUPREC
 70
     1
  9
$MENU
  1
.
  9
$ELEVATION
 40
0.0
  9
$PELEVATION
 40
0.0
  9
$THICKNESS
 40
0.0
  9
$LIMCHECK
 70
     0
  9
$CHAMFERA
 40
10.0
  9
$CHAMFERB
 40
10.0
  9
$CHAMFERC
 40
20.0
  9
$CHAMFERD
 40
0.0
  9
$SKPOLY
 70
     0
  9
$TDCREATE
 40
2455700.631980417
  9
$TDUCREATE
 40
2455700.59031375
  9
$TDUPDATE
 40
2455700.631980428
  9
$TDUUPDATE
 40
2455700.590313761
  9
$TDINDWG
 40
0.0000000116
  9
$TDUSRTIMER
 40
0.0000000116
  9
$USRTIMER
 70
     1
  9
$ANGBASE
 50
0.0
  9
$ANGDIR
 70
     0
  9
$PDMODE
 70
     0
  9
$PDSIZE
 40
-1.0
  9
$PLINEWID
 40
0.0
  9
$SPLFRAME
 70
     0
  9
$SPLINETYPE
 70
     6
  9
$SPLINESEGS
 70
     8
  9
$HANDSEED
  5
313
  9
$SURFTAB1
 70
     6
  9
$SURFTAB2
 70
     6
  9
$SURFTYPE
 70
     6
  9
$SURFU
 70
     6
  9
$SURFV
 70
     6
  9
$UCSBASE
  2

  9
$UCSNAME
  2

  9
$UCSORG
 10
0.0
 20
0.0
 30
0.0
  9
$UCSXDIR
 10
1.0
 20
0.0
 30
0.0
  9
$UCSYDIR
 10
0.0
 20
1.0
 30
0.0
  9
$UCSORTHOREF
  2

  9
$UCSORTHOVIEW
 70
     0
  9
$UCSORGTOP
 10
0.0
 20
0.0
 30
0.0
  9
$UCSORGBOTTOM
 10
0.0
 20
0.0
 30
0.0
  9
$UCSORGLEFT
 10
0.0
 20
0.0
 30
0.0
  9
$UCSORGRIGHT
 10
0.0
 20
0.0
 30
0.0
  9
$UCSORGFRONT
 10
0.0
 20
0.0
 30
0.0
  9
$UCSORGBACK
 10
0.0
 20
0.0
 30
0.0
  9
$PUCSBASE
  2

  9
$PUCSNAME
  2

  9
$PUCSORG
 10
0.0
 20
0.0
 30
0.0
  9
$PUCSXDIR
 10
1.0
 20
0.0
 30
0.0
  9
$PUCSYDIR
 10
0.0
 20
1.0
 30
0.0
  9
$PUCSORTHOREF
  2

  9
$PUCSORTHOVIEW
 70
     0
  9
$PUCSORGTOP
 10
0.0
 20
0.0
 30
0.0
  9
$PUCSORGBOTTOM
 10
0.0
 20
0.0
 30
0.0
  9
$PUCSORGLEFT
 10
0.0
 20
0.0
 30
0.0
  9
$PUCSORGRIGHT
 10
0.0
 20
0.0
 30
0.0
  9
$PUCSORGFRONT
 10
0.0
 20
0.0
 30
0.0
  9
$PUCSORGBACK
 10
0.0
 20
0.0
 30
0.0
  9
$USERI1
 70
     0
  9
$USERI2
 70
     0
  9
$USERI3
 70
     0
  9
$USERI4
 70
     0
  9
$USERI5
 70
     0
  9
$USERR1
 40
0.0
  9
$USERR2
 40
0.0
  9
$USERR3
 40
0.0
  9
$USERR4
 40
0.0
  9
$USERR5
 40
0.0
  9
$WORLDVIEW
 70
     1
  9
$SHADEDGE
 70
     3
  9
$SHADEDIF
 70
    70
  9
$TILEMODE
 70
     1
  9
$MAXACTVP
 70
    64
  9
$PINSBASE
 10
0.0
 20
0.0
 30
0.0
  9
$PLIMCHECK
 70
     0
  9
$PEXTMIN
 10
1.0000000000E+20
 20
1.0000000000E+20
 30
1.0000000000E+20
  9
$PEXTMAX
 10
-1.0000000000E+20
 20
-1.0000000000E+20
 30
-1.0000000000E+20
  9
$PLIMMIN
 10
0.0
 20
0.0
  9
$PLIMMAX
 10
420.0
 20
297.0
  9
$UNITMODE
 70
     0
  9
$VISRETAIN
 70
     1
  9
$PLINEGEN
 70
     0
  9
$PSLTSCALE
 70
     1
  9
$TREEDEPTH
 70
  3020
  9
$CMLSTYLE
  2
Standard
  9
$CMLJUST
 70
     0
  9
$CMLSCALE
 40
20.0
  9
$PROXYGRAPHICS
 70
     1
  9
$MEASUREMENT
 70
     1
  9
$CELWEIGHT
370
    -1
  9
$ENDCAPS
280
     0
  9
$JOINSTYLE
280
     0
  9
$LWDISPLAY
290
     1
  9
$INSUNITS
 70
     4
  9
$HYPERLINKBASE
  1

  9
$STYLESHEET
  1

  9
$XEDIT
290
     1
  9
$CEPSNTYPE
380
     0
  9
$PSTYLEMODE
290
     1
  9
$FINGERPRINTGUID
  2
{2F58577A-EBB9-4A32-A205-765477181A17}
  9
$VERSIONGUID
  2
{FAEB1C32-E019-11D5-929B-00C0DF256EC4}
  9
$EXTNAMES
290
     1
  9
$PSVPSCALE
 40
0.0
  9
$OLESTARTUP
290
     0
  9
$SORTENTS
280
   127
  9
$INDEXCTL
280
     0
  9
$HIDETEXT
280
     1
  9
$XCLIPFRAME
290
     0
  9
$HALOGAP
280
     0
  9
$OBSCOLOR
 70
   257
  9
$OBSLTYPE
280
     0
  9
$INTERSECTIONDISPLAY
280
     0
  9
$INTERSECTIONCOLOR
 70
   257
  9
$DIMASSOC
280
     2
  9
$PROJECTNAME
  1

  9
$CAMERADISPLAY
290
     0
  9
$LENSLENGTH
 40
50.0
  9
$CAMERAHEIGHT
 40
0.0
  9
$STEPSPERSEC
 40
2.0
  9
$STEPSIZE
 40
6.0
  9
$3DDWFPREC
 40
2.0
  9
$PSOLWIDTH
 40
5.0
  9
$PSOLHEIGHT
 40
80.0
  9
$LOFTANG1
 40
1.5707963268
  9
$LOFTANG2
 40
1.5707963268
  9
$LOFTMAG1
 40
0.0
  9
$LOFTMAG2
 40
0.0
  9
$LOFTPARAM
 70
     7
  9
$LOFTNORMALS
280
     1
  9
$LATITUDE
 40
37.795
  9
$LONGITUDE
 40
-122.394
  9
$NORTHDIRECTION
 40
0.0
  9
$TIMEZONE
 70
 -8000
  9
$LIGHTGLYPHDISPLAY
280
     1
  9
$TILEMODELIGHTSYNCH
280
     1
  9
$SOLIDHIST
280
     1
  9
$SHOWHIST
280
     1
  9
$DWFFRAME
280
     2
  9
$DGNFRAME
280
     2
  9
$REALWORLDSCALE
290
     1
  9
$INTERFERECOLOR
 62
   256
  9
$CSHADOW
280
     0
  9
$SHADOWPLANELOCATION
 40
0.0
  0
ENDSEC
  0
SECTION
  2
CLASSES
  0
CLASS
  1
ACDBDICTIONARYWDFLT
  2
AcDbDictionaryWithDefault
  3
ObjectDBX Classes
 90
        0
 91
        4
280
     0
281
     0
  0
CLASS
  1
VISUALSTYLE
  2
AcDbVisualStyle
  3
ObjectDBX Classes
 90
     4095
 91
        4
280
     0
281
     0
  0
CLASS
  1
MATERIAL
  2
AcDbMaterial
  3
ObjectDBX Classes
 90
     1153
 91
        4
280
     0
281
     0
  0
ENDSEC
  0
SECTION
  2
TABLES
  0
TABLE
  2
VPORT
  5
8
330
0
100
AcDbSymbolTable
 70
     1
  0
VPORT
  5
29
330
8
100
AcDbSymbolTableRecord
100
AcDbViewportTableRecord
  2
*Active
 70
     0
 10
0.0
 20
0.0
 11
1.0
 21
1.0
 12
420.5
 22
297.0
 13
0.0
 23
0.0
 14
10.0
 24
10.0
 15
10.0
 25
10.0
 16
0.0
 26
0.0
 36
1.0
 17
0.0
 27
0.0
 37
0.0
 40
594.0
 41
1.4158249158
 42
50.0
 43
0.0
 44
0.0
 50
0.0
 51
0.0
 71
     0
 72
  2000
 73
     1
 74
     3
 75
     0
 76
     0
 77
     0
 78
     0
281
     0
 65
     1
110
0.0
120
0.0
130
0.0
111
1.0
121
0.0
131
0.0
112
0.0
122
1.0
132
0.0
 79
     0
146
0.0
 60
     3
 61
     5
292
     1
282
     1
141
0.0
142
0.0
 63
   250
  0
ENDTAB
  0
TABLE
  2
LTYPE
  5
5
330
0
100
AcDbSymbolTable
 70
     8
  0
LTYPE
  5
14
330
5
100
AcDbSymbolTableRecord
100
AcDbLinetypeTableRecord
  2
ByBlock
 70
     0
  3

 72
    65
 73
     0
 40
0.0
  0
LTYPE
  5
15
330
5
100
AcDbSymbolTableRecord
100
AcDbLinetypeTableRecord
  2
ByLayer
 70
     0
  3

 72
    65
 73
     0
 40
0.0
  0
LTYPE
  5
16
330
5
100
AcDbSymbolTableRecord
100
AcDbLinetypeTableRecord
  2
Continuous
 70
     0
  3
Solid line
 72
    65
 73
     0
 40
0.0
  0
LTYPE
  5
3F
330
5
100
AcDbSymbolTableRecord
100
AcDbLinetypeTableRecord
  2
SLD-Solid
 70
     0
  3
SolidWorks Line Style
 72
    65
 73
     0
 40
0.0
  0
LTYPE
  5
40
330
5
100
AcDbSymbolTableRecord
100
AcDbLinetypeTableRecord
  2
SLD-Dashed
 70
     0
  3
SolidWorks Line Style
 72
    65
 73
     2
 40
1.905
 49
1.27
 74
     0
 49
-0.635
 74
     0
  0
LTYPE
  5
41
330
5
100
AcDbSymbolTableRecord
100
AcDbLinetypeTableRecord
  2
SLD-Phantom
 70
     0
  3
SolidWorks Line Style
 72
    65
 73
     6
 40
12.7
 49
6.35
 74
     0
 49
-1.27
 74
     0
 49
1.27
 74
     0
 49
-1.27
 74
     0
 49
1.27
 74
     0
 49
-1.27
 74
     0
  0
LTYPE
  5
42
330
5
100
AcDbSymbolTableRecord
100
AcDbLinetypeTableRecord
  2
SLD-Chain
 70
     0
  3
SolidWorks Line Style
 72
    65
 73
     4
 40
10.16
 49
6.35
 74
     0
 49
-1.27
 74
     0
 49
1.27
 74
     0
 49
-1.27
 74
     0
  0
LTYPE
  5
43
330
5
100
AcDbSymbolTableRecord
100
AcDbLinetypeTableRecord
  2
SLD-Center
 70
     0
  3
SolidWorks Line Style
 72
    65
 73
     4
 40
19.05
 49
15.24
 74
     0
 49
-1.27
 74
     0
 49
1.27
 74
     0
 49
-1.27
 74
     0
  0
LTYPE
  5
44
330
5
100
AcDbSymbolTableRecord
100
AcDbLinetypeTableRecord
  2
SLD-Stitch
 70
     0
  3
SolidWorks Line Style
 72
    65
 73
     2
 40
0.635
 49
0.0
 74
     0
 49
-0.635
 74
     0
  0
LTYPE
  5
45
330
5
100
AcDbSymbolTableRecord
100
AcDbLinetypeTableRecord
  2
SLD-Thin-Thick-Chain
 70
     0
  3
SolidWorks Line Style
 72
    65
 73
     4
 40
10.16
 49
6.35
 74
     0
 49
-1.27
 74
     0
 49
1.27
 74
     0
 49
-1.27
 74
     0
  0
ENDTAB
  0
TABLE
  2
LAYER
  5
2
330
0
100
AcDbSymbolTable
 70
     1
  0
LAYER
  5
10
330
2
100
AcDbSymbolTableRecord
100
AcDbLayerTableRecord
  2
0
 70
     0
 62
     7
  6
Continuous
370
    -3
390
F
347
3E
  0
ENDTAB
  0
TABLE
  2
STYLE
  5
3
330
0
100
AcDbSymbolTable
 70
     1
  0
STYLE
  5
11
330
3
100
AcDbSymbolTableRecord
100
AcDbTextStyleTableRecord
  2
STANDARD
 70
     0
 40
0.0
 41
1.0
 50
0.0
 71
     0
 42
2.5
  3
GOTHIC.TTF
  4

1001
ACAD
1000
CENTURY GOTHIC
1071
       34
  0
ENDTAB
  0
TABLE
  2
VIEW
  5
6
330
0
100
AcDbSymbolTable
 70
     0
  0
ENDTAB
  0
TABLE
  2
UCS
  5
7
330
0
100
AcDbSymbolTable
 70
     0
  0
ENDTAB
  0
TABLE
  2
APPID
  5
9
330
0
100
AcDbSymbolTable
 70
     1
  0
APPID
  5
12
330
9
100
AcDbSymbolTableRecord
100
AcDbRegAppTableRecord
  2
ACAD
 70
     0
  0
ENDTAB
  0
TABLE
  2
DIMSTYLE
  5
A
330
0
100
AcDbSymbolTable
 70
     1
100
AcDbDimStyleTable
  0
DIMSTYLE
105
27
330
A
100
AcDbSymbolTableRecord
100
AcDbDimStyleTableRecord
  2
ISO-25
 70
     0
 41
2.5
 42
0.625
 43
3.75
 44
1.25
 73
     0
 74
     0
 77
     1
 78
     8
140
2.5
141
2.5
143
0.0393700787
147
0.625
171
     3
172
     1
271
     2
272
     2
274
     3
278
    44
283
     0
284
     8
340
11
  0
ENDTAB
  0
TABLE
  2
BLOCK_RECORD
  5
1
330
0
100
AcDbSymbolTable
 70
     1
  0
BLOCK_RECORD
  5
1F
330
1
100
AcDbSymbolTableRecord
100
AcDbBlockTableRecord
  2
*Model_Space
340
22
 70
     0
280
     1
281
     0
  0
BLOCK_RECORD
  5
1B
330
1
100
AcDbSymbolTableRecord
100
AcDbBlockTableRecord
  2
*Paper_Space
340
1E
 70
     0
280
     1
281
     0
  0
BLOCK_RECORD
  5
23
330
1
100
AcDbSymbolTableRecord
100
AcDbBlockTableRecord
  2
*Paper_Space0
340
26
 70
     0
280
     1
281
     0
  0
ENDTAB
  0
ENDSEC
  0
SECTION
  2
BLOCKS
  0
BLOCK
  5
20
330
1F
100
AcDbEntity
  8
0
100
AcDbBlockBegin
  2
*Model_Space
 70
     0
 10
0.0
 20
0.0
 30
0.0
  3
*Model_Space
  1

  0
ENDBLK
  5
21
330
1F
100
AcDbEntity
  8
0
100
AcDbBlockEnd
  0
BLOCK
  5
1C
330
1B
100
AcDbEntity
 67
     1
  8
0
100
AcDbBlockBegin
  2
*Paper_Space
 70
     0
 10
0.0
 20
0.0
 30
0.0
  3
*Paper_Space
  1

  0
ENDBLK
  5
1D
330
1B
100
AcDbEntity
 67
     1
  8
0
100
AcDbBlockEnd
  0
BLOCK
  5
24
330
23
100
AcDbEntity
  8
0
100
AcDbBlockBegin
  2
*Paper_Space0
 70
     0
 10
0.0
 20
0.0
 30
0.0
  3
*Paper_Space0
  1

  0
ENDBLK
  5
25
330
23
100
AcDbEntity
  8
0
100
AcDbBlockEnd
  0
ENDSEC
  0
SECTION
  2
ENTITIES
  0
LINE
  5
46
330
1F
100
AcDbEntity
  8
0
  6
SLD-Solid
 62
     7
370
    15
100
AcDbLine
 10
812.3986361848
 20
-36.1167691791
 30
0.0
 11
812.3986361848
 21
-33.6167691791
 31
0.0
  0
LINE
  5
47
330
1F
100
AcDbEntity
  8
0
  6
SLD-Solid
 62
   142
420
    32960
370
     0
100
AcDbLine
 10
812.8986361848
 20
494.8832308209
 30
0.0
 11
812.3986361848
 21
495.3832308209
 31
0.0
  0
LINE
  5
48
330
1F
100
AcDbEntity
  8
0
  6
SLD-Solid
 62
   142
420
    32960
370
     0
100
AcDbLine
 10
796.3986361848
 20
495.3832308209
 30
0.0
 11
795.8986361848
 21
494.8832308209
 31
0.0
  0
LINE
  5
49
330
1F
100
AcDbEntity
  8
0
  6
SLD-Solid
 62
     7
370
    15
100
AcDbLine
 10
812.8986361848
 20
493.3832308209
 30
0.0
 11
812.8986361848
 21
494.8832308209
 31
0.0
  0
LINE
  5
4A
330
1F
100
AcDbEntity
  8
0
  6
SLD-Solid
 62
     7
370
    15
100
AcDbLine
 10
795.8986361848
 20
494.8832308209
 30
0.0
 11
795.8986361848
 21
493.3832308209
 31
0.0
  0
LINE
  5
4B
330
1F
100
AcDbEntity
  8
0
  6
SLD-Solid
 62
     7
370
    15
100
AcDbLine
 10
784.8872650069
 20
617.5984013611
 30
0.0
 11
784.0708039983
 21
617.6526508152
 31
0.0
  0
LINE
  5
4C
330
1F
100
AcDbEntity
  8
0
  6
SLD-Solid
 62
     7
370
    15
100
AcDbLine
 10
788.7796949734
 20
617.339770271
 30
0.0
 11
787.9713098877
 21
617.3934831233
 31
0.0
  0
LINE
  5
4D
330
1F
100
AcDbEntity
  8
0
  6
SLD-Solid
 62
     7
370
    15
100
AcDbLine
 10
785.5981132394
 20
633.4980646888
 30
0.0
 11
785.4356256709
 21
633.863017743
 31
0.0
  0
LINE
  5
4E
330
1F
100
AcDbEntity
  8
0
  6
SLD-Solid
 62
     7
370
    15
100
AcDbLine
 10
787.5989111039
 20
596.4714150926
 30
0.0
 11
785.6967980713
 21
595.8533811039
 31
0.0
  0
LINE
  5
4F
330
1F
100
AcDbEntity
  8
0
  6
SLD-Solid
 62
     7
370
    15
100
AcDbLine
 10
791.8771379588
 20
576.832250778
 30
0.0
 11
793.7792509914
 21
577.4502847667
 31
0.0
  0
LINE
  5
50
330
1F
100
AcDbEntity
  8
0
  6
SLD-Solid
 62
     7
370
    15
100
AcDbLine
 10
787.3631777176
 20
617.4338902437
 30
0.0
 11
784.9078487459
 21
617.5970336821
 31
0.0
  0
LINE
  5
51
330
1F
100
AcDbEntity
  8
0
  6
SLD-Solid
 62
     7
370
    15
100
AcDbLine
 10
784.0708039983
 20
617.6526508152
 30
0.0
 11
783.1387577952
 21
617.7145802854
 31
0.0
  0
LINE
  5
52
330
1F
100
AcDbEntity
  8
0
  6
SLD-Solid
 62
     7
370
    15
100
AcDbLine
 10
800.4986361848
 20
499.1832305076
 30
0.0
 11
800.4986361848
 21
498.6832305076
 31
0.0
  0
LINE
  5
53
330
1F
100
AcDbEntity
  8
0
  6
SLD-Solid
 62
     7
370
    15
100
AcDbLine
 10
808.2986361848
 20
498.6832305076
 30
0.0
 11
808.2986361848
 21
499.1832305076
 31
0.0
  0
LINE
  5
54
330
1F
100
AcDbEntity
  8
0
  6
SLD-Solid
 62
     7
370
    15
100
AcDbLine
 10
800.7321333648
 20
556.0515131501
 30
0.0
 11
809.0066305503
 21
562.945909159
 31
0.0
  0
LINE
  5
55
330
1F
100
AcDbEntity
  8
0
  6
SLD-Solid
 62
     7
370
    15
100
AcDbLine
 10
784.0823829507
 20
617.6418594058
 30
0.0
 11
780.6460287305
 21
617.8701867093
 31
0.0
  0
LINE
  5
56
330
1F
100
AcDbEntity
  8
0
  6
SLD-Solid
 62
     7
370
    15
100
AcDbLine
 10
791.3926618709
 20
617.1561305879
 30
0.0
 11
788.7615715219
 21
617.330952427
 31
0.0
  0
LINE
  5
57
330
1F
100
AcDbEntity
  8
0
  6
SLD-Solid
 62
     7
370
    15
100
AcDbLine
 10
809.0066305503
 20
562.945909159
 30
0.0
 11
824.7678247118
 21
577.2512009259
 31
0.0
  0
LINE
  5
58
330
1F
100
AcDbEntity
  8
0
  6
SLD-Solid
 62
     7
370
    15
100
AcDbLine
 10
791.8897111454
 20
617.101890209
 30
0.0
 11
791.3926618709
 21
617.1561305879
 31
0.0
  0
ARC
  5
59
330
1F
100
AcDbEntity
  8
0
  6
SLD-Solid
 62
     7
370
    15
100
AcDbCircle
 10
824.0957454687
 20
577.9916801565
 30
0.0
 40
0.9999999999999672
100
AcDbArc
 50
312.227745318
 51
18.0
  0
LINE
  5
5A
330
1F
100
AcDbEntity
  8
0
  6
SLD-Solid
 62
     7
370
    15
100
AcDbLine
 10
49.3986361847
 20
644.6832308201
 30
0.0
 11
48.5986361847
 21
644.6832308201
 31
0.0
  0
LINE
  5
5B
330
1F
100
AcDbEntity
  8
0
  6
SLD-Solid
 62
     7
370
    15
100
AcDbLine
 10
786.0392079949
 20
632.7078893715
 30
0.0
 11
785.5607091122
 21
633.8083614608
 31
0.0
  0
LINE
  5
5C
330
1F
100
AcDbEntity
  8
0
  6
SLD-Solid
 62
     7
370
    15
100
AcDbLine
 10
779.6915246362
 20
631.2563674196
 30
0.0
 11
780.1700235189
 21
630.1558953304
 31
0.0
  0
LINE
  5
5D
330
1F
100
AcDbEntity
  8
0
  6
SLD-Solid
 62
     7
370
    15
100
AcDbLine
 10
795.8986361848
 20
-33.1167691791
 30
0.0
 11
796.3986361848
 21
-33.6167691791
 31
0.0
  0
LINE
  5
5E
330
1F
100
AcDbEntity
  8
0
  6
SLD-Solid
 62
     7
370
    15
100
AcDbLine
 10
812.3986361848
 20
-33.6167691791
 30
0.0
 11
812.8986361848
 21
-33.1167691791
 31
0.0
  0
LINE
  5
5F
330
1F
100
AcDbEntity
  8
0
  6
SLD-Solid
 62
     7
370
    15
100
AcDbLine
 10
795.8986361848
 20
-31.6167691791
 30
0.0
 11
795.8986361848
 21
-33.1167691791
 31
0.0
  0
LINE
  5
60
330
1F
100
AcDbEntity
  8
0
  6
SLD-Solid
 62
     7
370
    15
100
AcDbLine
 10
812.8986361848
 20
-33.1167691791
 30
0.0
 11
812.8986361848
 21
-31.6167691791
 31
0.0
  0
LINE
  5
61
330
1F
100
AcDbEntity
  8
0
  6
SLD-Solid
 62
     7
370
    15
100
AcDbLine
 10
791.1973005712
 20
578.9245751138
 30
0.0
 11
792.8963452932
 21
580.167589099
 31
0.0
  0
LINE
  5
62
330
1F
100
AcDbEntity
  8
0
  6
SLD-Solid
 62
     7
370
    15
100
AcDbLine
 10
788.4818168021
 20
593.7541107604
 30
0.0
 11
786.3766354589
 21
593.7610567681
 31
0.0
  0
LINE
  5
63
330
1F
100
AcDbEntity
  8
0
  6
SLD-Solid
 62
     7
370
    15
100
AcDbLine
 10
46.8986361848
 20
722.4332308201
 30
0.0
 11
47.3986361848
 21
722.4332308201
 31
0.0
  0
LINE
  5
64
330
1F
100
AcDbEntity
  8
0
  6
SLD-Solid
 62
     7
370
    15
100
AcDbLine
 10
47.3986361848
 20
725.7332308201
 30
0.0
 11
46.8986361848
 21
725.7332308201
 31
0.0
  0
SPLINE
  5
65
330
1F
100
AcDbEntity
  8
0
  6
SLD-Solid
 62
     7
370
    15
100
AcDbSpline
210
0.0
220
0.0
230
1.0
 70
     8
 71
     3
 72
    11
 73
     7
 74
     0
 42
0.00000001
 43
0.00000001
 40
0.0
 40
0.0
 40
0.0
 40
0.0
 40
0.1214790361929132
 40
0.567826966411751
 40
0.8436747018745432
 40
1.0
 40
1.0
 40
1.0
 40
1.0
 10
814.3998182480224
 20
428.3178091010892
 30
0.0
 10
815.8009947294662
 20
428.3165567065932
 30
0.0
 10
822.3504852078256
 20
428.3107026646972
 30
0.0
 10
832.090010185615
 20
428.4395819937612
 30
0.0
 10
842.2133648726367
 20
428.4262819437026
 30
0.0
 10
847.184439704108
 20
428.2245237055024
 30
0.0
 10
848.9825730780984
 20
428.1515438703794
 30
0.0
  0
SPLINE
  5
66
330
1F
100
AcDbEntity
  8
0
  6
SLD-Solid
 62
     7
370
    15
100
AcDbSpline
210
0.0
220
0.0
230
1.0
 70
     8
 71
     3
 72
    11
 73
     7
 74
     0
 42
0.00000001
 43
0.00000001
 40
0.0
 40
0.0
 40
0.0
 40
0.0
 40
0.1810018577877344
 40
0.4503554019085527
 40
0.768737878871727
 40
1.0
 40
1.0
 40
1.0
 40
1.0
 10
848.978664779921
 20
457.6141494375298
 30
0.0
 10
846.8978893342032
 20
457.5402252262841
 30
0.0
 10
841.7206581522081
 20
457.3562924850776
 30
0.0
 10
832.8585142225917
 20
457.346150723004
 30
0.0
 10
823.4077089329645
 20
457.4566437854668
 30
0.0
 10
817.0666391555205
 20
457.4546569522053
 30
0.0
 10
814.3986437780603
 20
457.4538209951596
 30
0.0
  0
SPLINE
  5
67
330
1F
100
AcDbEntity
  8
0
  6
SLD-Solid
 62
     7
370
    15
100
AcDbSpline
210
0.0
220
0.0
230
1.0
 70
     8
 71
     3
 72
    25
 73
    21
 74
     0
 42
0.00000001
 43
0.00000001
 40
0.0
 40
0.0
 40
0.0
 40
0.0
 40
0.0121463723561837
 40
0.0257666063651329
 40
0.0351111005159298
 40
0.0440415474870699
 40
0.0766307234537482
 40
0.1078734359334151
 40
0.1411138506510513
 40
0.1735752462760575
 40
0.3432004243886996
 40
0.5128105682964595
 40
0.6824237349773741
 40
0.8520614857639466
 40
0.9368991343418429
 40
0.9595234165184974
 40
0.9655679795930757
 40
0.9713212597009413
 40
0.9879406962848026
 40
1.0
 40
1.0
 40
1.0
 40
1.0
 10
850.8964063674549
 20
428.3937921018401
 30
0.0
 10
850.8999186974083
 20
428.3935170701055
 30
0.0
 10
850.9073695494551
 20
428.3929336338136
 30
0.0
 10
850.5394512029537
 20
428.3316878817183
 30
0.0
 10
850.3262747920791
 20
428.3168924615482
 30
0.0
 10
850.4389210263994
 20
428.3242898586365
 30
0.0
 10
850.5565233590424
 20
428.3242967352303
 30
0.0
 10
851.0798782329861
 20
428.3094335222971
 30
0.0
 10
851.9227406265039
 20
428.3002542637084
 30
0.0
 10
853.1608789207346
 20
428.3040682312292
 30
0.0
 10
855.3298475708482
 20
428.2987542992837
 30
0.0
 10
857.7349256660709
 20
428.2983808427738
 30
0.0
 10
860.020674874953
 20
428.2972603745788
 30
0.0
 10
861.2204739034784
 20
428.2935803871879
 30
0.0
 10
862.6640937357265
 20
428.2971743268231
 30
0.0
 10
862.4901482409206
 20
428.2929943066191
 30
0.0
 10
862.9652870896097
 20
428.2957719073877
 30
0.0
 10
863.3128753905784
 20
428.3093430214116
 30
0.0
 10
863.6193114397222
 20
428.3350354762583
 30
0.0
 10
863.6310160041547
 20
428.3361952569028
 30
0.0
 10
863.6359377300005
 20
428.3366829403539
 30
0.0
  0
SPLINE
  5
68
330
1F
100
AcDbEntity
  8
0
  6
SLD-Solid
 62
     7
370
    15
100
AcDbSpline
210
0.0
220
0.0
230
1.0
 70
     8
 71
     3
 72
    10
 73
     6
 74
     0
 42
0.00000001
 43
0.00000001
 40
0.0
 40
0.0
 40
0.0
 40
0.0
 40
0.0115732680091148
 40
0.5053991018148153
 40
1.0
 40
1.0
 40
1.0
 40
1.0
 10
862.6565266158315
 20
457.4022989038891
 30
0.0
 10
862.6633902612899
 20
457.4035407762718
 30
0.0
 10
862.9631223894243
 20
457.4577727517452
 30
0.0
 10
863.347507980605
 20
457.432752163855
 30
0.0
 10
863.5476391553208
 20
457.4283604716397
 30
0.0
 10
863.6477832080518
 20
457.4261629036828
 30
0.0
  0
SPLINE
  5
69
330
1F
100
AcDbEntity
  8
0
  6
SLD-Solid
 62
     7
370
    15
100
AcDbSpline
210
0.0
220
0.0
230
1.0
 70
     8
 71
     3
 72
    24
 73
    20
 74
     0
 42
0.00000001
 43
0.00000001
 40
0.0
 40
0.0
 40
0.0
 40
0.0
 40
0.0035211659888942
 40
0.0188792206529798
 40
0.0351785575627725
 40
0.0400125319118432
 40
0.0449529912537412
 40
0.0498233162716929
 40
0.2197595294189818
 40
0.3896184347143254
 40
0.5593933431399365
 40
0.7290627456383703
 40
0.8987406299980523
 40
0.9457289641693641
 40
0.9557769431949741
 40
0.9664486855062244
 40
0.9778648342145982
 40
0.9888033261006673
 40
1.0
 40
1.0
 40
1.0
 40
1.0
 10
863.7021360391797
 20
457.4220198339543
 30
0.0
 10
863.7099087109198
 20
457.4214038914967
 30
0.0
 10
863.7515829703294
 20
457.4181014304357
 30
0.0
 10
863.5144254829743
 20
457.4397155123302
 30
0.0
 10
863.1963127068894
 20
457.4683781818682
 30
0.0
 10
862.7267567853015
 20
457.4750544505823
 30
0.0
 10
862.702228621113
 20
457.4742179711001
 30
0.0
 10
862.1223278306737
 20
457.4767941355977
 30
0.0
 10
861.0543559839779
 20
457.474621923882
 30
0.0
 10
859.0271648706329
 20
457.4767273077309
 30
0.0
 10
856.7760033428123
 20
457.4770614701081
 30
0.0
 10
853.9838310448205
 20
457.4784879948097
 30
0.0
 10
852.2476663030428
 20
457.4770594490142
 30
0.0
 10
850.2733131795987
 20
457.479422791331
 30
0.0
 10
850.0191019240178
 20
457.472727896233
 30
0.0
 10
850.2354704596797
 20
457.4791548865606
 30
0.0
 10
850.8800073863099
 20
457.4089182327371
 30
0.0
 10
851.2217502430375
 20
457.3227577499449
 30
0.0
 10
851.255663934892
 20
457.3124645363558
 30
0.0
 10
851.2728185635087
 20
457.307257900135
 30
0.0
  0
SPLINE
  5
6A
330
1F
100
AcDbEntity
  8
0
  6
SLD-Solid
 62
     7
370
    15
100
AcDbSpline
210
0.0
220
0.0
230
1.0
 70
     8
 71
     3
 72
     9
 73
     5
 74
     0
 42
0.00000001
 43
0.00000001
 40
0.0
 40
0.0
 40
0.0
 40
0.0
 40
0.7685820790851331
 40
1.0
 40
1.0
 40
1.0
 40
1.0
 10
814.3985412510866
 20
428.2862615578454
 30
0.0
 10
822.3040561256446
 20
428.2871946151053
 30
0.0
 10
832.5898994853651
 20
428.2884086133042
 30
0.0
 10
842.8741959189919
 20
428.2857899122505
 30
0.0
 10
845.2541664177339
 20
428.2851838978972
 30
0.0
  0
SPLINE
  5
6B
330
1F
100
AcDbEntity
  8
0
  6
SLD-Solid
 62
     7
370
    15
100
AcDbSpline
210
0.0
220
0.0
230
1.0
 70
     8
 71
     3
 72
    10
 73
     6
 74
     0
 42
0.00000001
 43
0.00000001
 40
0.0
 40
0.0
 40
0.0
 40
0.0
 40
0.4111368807832252
 40
0.9939246343414632
 40
1.0
 40
1.0
 40
1.0
 40
1.0
 10
849.641960438104
 20
428.2841927806558
 30
0.0
 10
851.5788935619232
 20
428.2893226129706
 30
0.0
 10
856.261435160157
 20
428.3017239978769
 30
0.0
 10
860.94971831465
 20
428.2159976032549
 30
0.0
 10
863.7195776668362
 20
428.1250605220716
 30
0.0
 10
863.7481546108459
 20
428.1241223141891
 30
0.0
  0
SPLINE
  5
6C
330
1F
100
AcDbEntity
  8
0
  6
SLD-Solid
 62
     7
370
    15
100
AcDbSpline
210
0.0
220
0.0
230
1.0
 70
     8
 71
     3
 72
    10
 73
     6
 74
     0
 42
0.00000001
 43
0.00000001
 40
0.0
 40
0.0
 40
0.0
 40
0.0
 40
0.0093101019606207
 40
0.602786773108252
 40
1.0
 40
1.0
 40
1.0
 40
1.0
 10
863.5341502768521
 20
457.6349777881242
 30
0.0
 10
863.491488408116
 20
457.6334988480036
 30
0.0
 10
860.7293263717642
 20
457.5377441992709
 30
0.0
 10
856.1580689764759
 20
457.4689532647471
 30
0.0
 10
851.6104611131813
 20
457.47738968871
 30
0.0
 10
849.7871155864
 20
457.4807722397912
 30
0.0
  0
LWPOLYLINE
  5
6D
330
1F
100
AcDbEntity
  8
0
  6
SLD-Solid
 62
     7
370
    15
100
AcDbPolyline
 90
        3
 70
   128
 43
0.0
 10
844.6263229888
 20
457.479619507
 10
831.1039477435
 20
457.4796669673
 10
814.3998884324
 20
457.4797124489
  0
SPLINE
  5
6E
330
1F
100
AcDbEntity
  8
0
  6
SLD-Solid
 62
     7
370
    15
100
AcDbSpline
210
0.0
220
0.0
230
1.0
 70
     8
 71
     3
 72
    11
 73
     7
 74
     0
 42
0.00000001
 43
0.00000001
 40
0.0
 40
0.0
 40
0.0
 40
0.0
 40
0.2464092759273723
 40
0.4969199590963888
 40
0.7482774569564785
 40
1.0
 40
1.0
 40
1.0
 40
1.0
 10
863.4507910199924
 20
428.1409221395365
 30
0.0
 10
864.2281230695588
 20
428.1740762857808
 30
0.0
 10
865.7957256235665
 20
428.2409364189212
 30
0.0
 10
867.9831621845794
 20
429.3660443985644
 30
0.0
 10
869.7835768318001
 20
431.1490623491694
 30
0.0
 10
870.308578527436
 20
432.7460571477403
 30
0.0
 10
870.5712698512465
 20
433.5451339530961
 30
0.0
  0
SPLINE
  5
6F
330
1F
100
AcDbEntity
  8
0
  6
SLD-Solid
 62
     7
370
    15
100
AcDbSpline
210
0.0
220
0.0
230
1.0
 70
     8
 71
     3
 72
    11
 73
     7
 74
     0
 42
0.00000001
 43
0.00000001
 40
0.0
 40
0.0
 40
0.0
 40
0.0
 40
0.251722540889011
 40
0.503080606322593
 40
0.7535913286369529
 40
1.0
 40
1.0
 40
1.0
 40
1.0
 10
870.5712971451181
 20
452.2216709213053
 30
0.0
 10
870.3086044369716
 20
453.0207478706179
 30
0.0
 10
869.7835993801174
 20
454.6177447654482
 30
0.0
 10
867.9831738732669
 20
456.4007927132566
 30
0.0
 10
865.7957284699391
 20
457.5259591524175
 30
0.0
 10
864.2281233294343
 20
457.5928698401084
 30
0.0
 10
863.4507910199926
 20
457.6260490113456
 30
0.0
  0
SPLINE
  5
70
330
1F
100
AcDbEntity
  8
0
  6
SLD-Solid
 62
     7
370
    15
100
AcDbSpline
210
0.0
220
0.0
230
1.0
 70
     8
 71
     3
 72
    13
 73
     9
 74
     0
 42
0.00000001
 43
0.00000001
 40
0.0
 40
0.0
 40
0.0
 40
0.0
 40
0.0883118284164063
 40
0.3003794254270591
 40
0.5092844779808989
 40
0.7152412373741716
 40
0.9184115260256347
 40
1.0
 40
1.0
 40
1.0
 40
1.0
 10
870.6205120013129
 20
433.6772205643112
 30
0.0
 10
870.7393156583755
 20
434.2103393660338
 30
0.0
 10
871.1434084609704
 20
436.0236629288837
 30
0.0
 10
871.4802198402025
 20
439.1622695914395
 30
0.0
 10
871.6480525657464
 20
443.0376960602125
 30
0.0
 10
871.4569292484132
 20
446.8570678467538
 30
0.0
 10
871.1163287980999
 20
449.8787018821936
 30
0.0
 10
870.7351264449311
 20
451.5980562505321
 30
0.0
 10
870.6259051588722
 20
452.0906820009754
 30
0.0
  0
ARC
  5
71
330
1F
100
AcDbEntity
  8
0
  6
SLD-Solid
 62
     7
370
    15
100
AcDbCircle
 10
19.2486361847
 20
490.1832308201
 30
0.0
 40
1.500000000000057
100
AcDbArc
 50
180.0
 51
270.0
  0
LINE
  5
72
330
1F
100
AcDbEntity
  8
0
  6
SLD-Solid
 62
     7
370
    15
100
AcDbLine
 10
17.7486361847
 20
490.1832308201
 30
0.0
 11
17.7486361847
 21
491.9832308201
 31
0.0
  0
LINE
  5
73
330
1F
100
AcDbEntity
  8
0
  6
SLD-Solid
 62
     7
370
    15
100
AcDbLine
 10
17.7486361847
 20
492.7832308201
 30
0.0
 11
17.7486361847
 21
493.4903376013
 31
0.0
  0
LINE
  5
74
330
1F
100
AcDbEntity
  8
0
  6
SLD-Solid
 62
     7
370
    15
100
AcDbLine
 10
-3.5513638153
 20
493.4903376013
 30
0.0
 11
-3.5513638153
 21
492.7832308201
 31
0.0
  0
LINE
  5
75
330
1F
100
AcDbEntity
  8
0
  6
SLD-Solid
 62
     7
370
    15
100
AcDbLine
 10
-7.6851693536
 20
489.8363008463
 30
0.0
 11
-5.9013638153
 21
488.6832308201
 31
0.0
  0
LINE
  5
76
330
1F
100
AcDbEntity
  8
0
  6
SLD-Solid
 62
     7
370
    15
100
AcDbLine
 10
737.5986361847
 20
-204.1167691799
 30
0.0
 11
737.5986361847
 21
-200.1167691799
 31
0.0
  0
LINE
  5
77
330
1F
100
AcDbEntity
  8
0
  6
SLD-Solid
 62
     7
370
    15
100
AcDbLine
 10
680.5986361847
 20
-200.1167691799
 30
0.0
 11
680.5986361847
 21
-204.1167691799
 31
0.0
  0
ARC
  5
78
330
1F
100
AcDbEntity
  8
0
  6
SLD-Solid
 62
     7
370
    15
100
AcDbCircle
 10
735.5986361847
 20
-204.1167691799
 30
0.0
 40
2.0
100
AcDbArc
 50
270.0
 51
0.0
  0
ARC
  5
79
330
1F
100
AcDbEntity
  8
0
  6
SLD-Solid
 62
     7
370
    15
100
AcDbCircle
 10
682.5986361847
 20
-204.1167691799
 30
0.0
 40
2.0
100
AcDbArc
 50
180.0
 51
270.0
  0
LINE
  5
7A
330
1F
100
AcDbEntity
  8
0
  6
SLD-Solid
 62
     7
370
    15
100
AcDbLine
 10
737.3986361847
 20
-200.1167691799
 30
0.0
 11
737.3986361847
 21
-132.1167691799
 31
0.0
  0
LINE
  5
7B
330
1F
100
AcDbEntity
  8
0
  6
SLD-Solid
 62
     7
370
    15
100
AcDbLine
 10
680.7986361847
 20
-132.1167691799
 30
0.0
 11
680.7986361847
 21
-200.1167691799
 31
0.0
  0
ARC
  5
7C
330
1F
100
AcDbEntity
  8
0
  6
SLD-Solid
 62
     7
370
    15
100
AcDbCircle
 10
742.4986361847
 20
-39.6167691799
 30
0.0
 40
1.500000000000007
100
AcDbArc
 50
90.0
 51
180.0
  0
ARC
  5
7D
330
1F
100
AcDbEntity
  8
0
  6
SLD-Solid
 62
     7
370
    15
100
AcDbCircle
 10
675.6986361847
 20
-39.6167691799
 30
0.0
 40
1.500000000000007
100
AcDbArc
 50
0.0
 51
90.0
  0
LINE
  5
7E
330
1F
100
AcDbEntity
  8
0
  6
SLD-Solid
 62
     7
370
    15
100
AcDbLine
 10
740.9986361847
 20
-126.0842032342
 30
0.0
 11
740.9986361847
 21
-39.6167691799
 31
0.0
  0
LINE
  5
7F
330
1F
100
AcDbEntity
  8
0
  6
SLD-Solid
 62
     7
370
    15
100
AcDbLine
 10
677.1986361847
 20
-39.6167691799
 30
0.0
 11
677.1986361847
 21
-126.0842032342
 31
0.0
  0
ARC
  5
80
330
1F
100
AcDbEntity
  8
0
  6
SLD-Solid
 62
     7
370
    15
100
AcDbCircle
 10
736.2986361847
 20
-126.0842032342
 30
0.0
 40
4.700000000000045
100
AcDbArc
 50
350.5402980318
 51
0.0
  0
ARC
  5
81
330
1F
100
AcDbEntity
  8
0
  6
SLD-Solid
 62
     7
370
    15
100
AcDbCircle
 10
681.8986361847
 20
-126.0842032342
 30
0.0
 40
4.700000000000117
100
AcDbArc
 50
180.0
 51
189.4597019682
  0
LINE
  5
82
330
1F
100
AcDbEntity
  8
0
  6
SLD-Solid
 62
     7
370
    15
100
AcDbLine
 10
677.2625494117
 20
-126.8566664587
 30
0.0
 11
678.1389859644
 21
-132.1167691799
 31
0.0
  0
LINE
  5
83
330
1F
100
AcDbEntity
  8
0
  6
SLD-Solid
 62
     7
370
    15
100
AcDbLine
 10
740.0582864051
 20
-132.1167691799
 30
0.0
 11
740.9347229577
 21
-126.8566664587
 31
0.0
  0
LINE
  5
84
330
1F
100
AcDbEntity
  8
0
  6
SLD-Solid
 62
     7
370
    15
100
AcDbLine
 10
148.5986361847
 20
-204.1167691799
 30
0.0
 11
148.5986361847
 21
-200.1167691799
 31
0.0
  0
LINE
  5
85
330
1F
100
AcDbEntity
  8
0
  6
SLD-Solid
 62
     7
370
    15
100
AcDbLine
 10
91.5986361847
 20
-200.1167691799
 30
0.0
 11
91.5986361847
 21
-204.1167691799
 31
0.0
  0
ARC
  5
86
330
1F
100
AcDbEntity
  8
0
  6
SLD-Solid
 62
     7
370
    15
100
AcDbCircle
 10
146.5986361847
 20
-204.1167691799
 30
0.0
 40
2.0
100
AcDbArc
 50
270.0
 51
0.0
  0
ARC
  5
87
330
1F
100
AcDbEntity
  8
0
  6
SLD-Solid
 62
     7
370
    15
100
AcDbCircle
 10
93.5986361847
 20
-204.1167691799
 30
0.0
 40
2.0
100
AcDbArc
 50
180.0
 51
270.0
  0
LINE
  5
88
330
1F
100
AcDbEntity
  8
0
  6
SLD-Solid
 62
     7
370
    15
100
AcDbLine
 10
47.7986361848
 20
550.9832308201
 30
0.0
 11
39.0986361847
 21
550.9832308201
 31
0.0
  0
LINE
  5
89
330
1F
100
AcDbEntity
  8
0
  6
SLD-Solid
 62
     7
370
    15
100
AcDbLine
 10
39.0986361847
 20
540.9832308201
 30
0.0
 11
47.7986361848
 21
540.9832308201
 31
0.0
  0
LINE
  5
8A
330
1F
100
AcDbEntity
  8
0
  6
SLD-Solid
 62
     7
370
    15
100
AcDbLine
 10
812.3986361848
 20
496.1832305076
 30
0.0
 11
812.3986361848
 21
498.6832305076
 31
0.0
  0
LINE
  5
8B
330
1F
100
AcDbEntity
  8
0
  6
SLD-Solid
 62
     7
370
    15
100
AcDbLine
 10
41.2986361847
 20
583.4832308201
 30
0.0
 11
47.7986361848
 21
583.4832308201
 31
0.0
  0
LINE
  5
8C
330
1F
100
AcDbEntity
  8
0
  6
SLD-Solid
 62
     7
370
    15
100
AcDbLine
 10
47.7986361848
 20
608.4832308201
 30
0.0
 11
41.2986361847
 21
608.4832308201
 31
0.0
  0
LINE
  5
8D
330
1F
100
AcDbEntity
  8
0
  6
SLD-Solid
 62
     7
370
    15
100
AcDbLine
 10
148.3986361847
 20
-200.1167691799
 30
0.0
 11
148.3986361847
 21
-132.1167691799
 31
0.0
  0
LINE
  5
8E
330
1F
100
AcDbEntity
  8
0
  6
SLD-Solid
 62
     7
370
    15
100
AcDbLine
 10
91.7986361847
 20
-132.1167691799
 30
0.0
 11
91.7986361847
 21
-200.1167691799
 31
0.0
  0
LINE
  5
8F
330
1F
100
AcDbEntity
  8
0
  6
SLD-Solid
 62
     7
370
    15
100
AcDbLine
 10
42.4486361847
 20
8.9832308201
 30
0.0
 11
42.6449931187
 21
8.6431306342
 31
0.0
  0
LINE
  5
90
330
1F
100
AcDbEntity
  8
0
  6
SLD-Solid
 62
     7
370
    15
100
AcDbLine
 10
808.2986361848
 20
-36.6167691791
 30
0.0
 11
808.2986361848
 21
-36.1167691791
 31
0.0
  0
LINE
  5
91
330
1F
100
AcDbEntity
  8
0
  6
SLD-Solid
 62
     7
370
    15
100
AcDbLine
 10
800.4986361848
 20
-36.1167691791
 30
0.0
 11
800.4986361848
 21
-36.6167691791
 31
0.0
  0
ARC
  5
92
330
1F
100
AcDbEntity
  8
0
  6
SLD-Solid
 62
   142
420
    32960
370
     0
100
AcDbCircle
 10
153.4986361847
 20
-39.6167691799
 30
0.0
 40
1.5
100
AcDbArc
 50
90.0
 51
180.0
  0
ARC
  5
93
330
1F
100
AcDbEntity
  8
0
  6
SLD-Solid
 62
   142
420
    32960
370
     0
100
AcDbCircle
 10
86.6986361847
 20
-39.6167691799
 30
0.0
 40
1.5
100
AcDbArc
 50
0.0
 51
90.0
  0
LINE
  5
94
330
1F
100
AcDbEntity
  8
0
  6
SLD-Solid
 62
   142
420
    32960
370
     0
100
AcDbLine
 10
151.9986361847
 20
-126.0842032342
 30
0.0
 11
151.9986361847
 21
-39.6167691799
 31
0.0
  0
LINE
  5
95
330
1F
100
AcDbEntity
  8
0
  6
SLD-Solid
 62
   142
420
    32960
370
     0
100
AcDbLine
 10
88.1986361847
 20
-39.6167691799
 30
0.0
 11
88.1986361847
 21
-126.0842032342
 31
0.0
  0
ARC
  5
96
330
1F
100
AcDbEntity
  8
0
  6
SLD-Solid
 62
   142
420
    32960
370
     0
100
AcDbCircle
 10
147.2986361847
 20
-126.0842032342
 30
0.0
 40
4.699999999999989
100
AcDbArc
 50
350.5402980318
 51
0.0
  0
ARC
  5
97
330
1F
100
AcDbEntity
  8
0
  6
SLD-Solid
 62
   142
420
    32960
370
     0
100
AcDbCircle
 10
92.8986361847
 20
-126.0842032342
 30
0.0
 40
4.699999999999998
100
AcDbArc
 50
180.0
 51
189.4597019682
  0
LINE
  5
98
330
1F
100
AcDbEntity
  8
0
  6
SLD-Solid
 62
     7
370
    15
100
AcDbLine
 10
88.2625494117
 20
-126.8566664587
 30
0.0
 11
89.1389859644
 21
-132.1167691799
 31
0.0
  0
LINE
  5
99
330
1F
100
AcDbEntity
  8
0
  6
SLD-Solid
 62
     7
370
    15
100
AcDbLine
 10
151.0582864051
 20
-132.1167691799
 30
0.0
 11
151.9347229577
 21
-126.8566664587
 31
0.0
  0
ARC
  5
9A
330
1F
100
AcDbEntity
  8
0
  6
SLD-Solid
 62
     7
370
    15
100
AcDbCircle
 10
36.7486361847
 20
5.5332308201
 30
0.0
 40
0.2499999999999939
100
AcDbArc
 50
301.0756875733
 51
0.0
  0
LINE
  5
9B
330
1F
100
AcDbEntity
  8
0
  6
SLD-Solid
 62
     7
370
    15
100
AcDbLine
 10
38.6986361847
 20
652.7832308201
 30
0.0
 11
38.6440600061
 21
652.7832308201
 31
0.0
  0
LINE
  5
9C
330
1F
100
AcDbEntity
  8
0
  6
SLD-Solid
 62
   142
420
    32960
370
     0
100
AcDbLine
 10
38.6986361847
 20
652.7832308201
 30
0.0
 11
38.6986361847
 21
650.7332308201
 31
0.0
  0
SPLINE
  5
9D
330
1F
100
AcDbEntity
  8
0
  6
SLD-Solid
 62
     7
370
    15
100
AcDbSpline
210
0.0
220
0.0
230
1.0
 70
     8
 71
     3
 72
    14
 73
    10
 74
     0
 42
0.00000001
 43
0.00000001
 40
0.0
 40
0.0
 40
0.0
 40
0.0
 40
0.25
 40
0.25
 40
0.5
 40
0.5
 40
0.75
 40
0.75
 40
1.0
 40
1.0
 40
1.0
 40
1.0
 10
-24.24429274745687
 20
650.7332308201193
 30
0.0
 10
-24.24488200310781
 20
651.0015751926132
 30
0.0
 10
-24.24547125875887
 20
651.2698139830558
 30
0.0
 10
-24.24664977006091
 20
651.7656497298793
 30
0.0
 10
-24.24723902571185
 20
651.9930515960676
 30
0.0
 10
-24.24841753701373
 20
652.3725478470352
 30
0.0
 10
-24.24900679266484
 20
652.5244929162454
 30
0.0
 10
-24.25018530396683
 20
652.7298748072892
 30
0.0
 10
-24.25077455961777
 20
652.7832308201191
 30
0.0
 10
-24.25136381526877
 20
652.7832308201191
 30
0.0
  0
LINE
  5
9E
330
1F
100
AcDbEntity
  8
0
  6
SLD-Solid
 62
     7
370
    15
100
AcDbLine
 10
-24.2513638153
 20
652.7832308201
 30
0.0
 11
38.6440600061
 21
652.7832308201
 31
0.0
  0
LINE
  5
9F
330
1F
100
AcDbEntity
  8
0
  6
SLD-Solid
 62
     7
370
    15
100
AcDbLine
 10
-14.2942927475
 20
640.7832308201
 30
0.0
 11
38.6986361847
 21
640.7832308201
 31
0.0
  0
LINE
  5
A0
330
1F
100
AcDbEntity
  8
0
  6
SLD-Solid
 62
   142
420
    32960
370
     0
100
AcDbLine
 10
-14.2942927475
 20
640.7832308201
 30
0.0
 11
-24.2442927475
 21
650.7332308201
 31
0.0
  0
LINE
  5
A1
330
1F
100
AcDbEntity
  8
0
  6
SLD-Solid
 62
   142
420
    32960
370
     0
100
AcDbLine
 10
38.6986361847
 20
640.7832308201
 30
0.0
 11
38.6986361847
 21
650.7332308201
 31
0.0
  0
LINE
  5
A2
330
1F
100
AcDbEntity
  8
0
  6
SLD-Solid
 62
     7
370
    15
100
AcDbLine
 10
-24.2513638153
 20
493.5832308201
 30
0.0
 11
-14.3013638153
 21
493.5832308201
 31
0.0
  0
LINE
  5
A3
330
1F
100
AcDbEntity
  8
0
  6
SLD-Solid
 62
   142
420
    32960
370
     0
100
AcDbLine
 10
-24.2513638153
 20
650.7261597523
 30
0.0
 11
-14.3013638153
 21
640.7761597523
 31
0.0
  0
LINE
  5
A4
330
1F
100
AcDbEntity
  8
0
  6
SLD-Solid
 62
   142
420
    32960
370
     0
100
AcDbLine
 10
-14.3013638153
 20
493.5832308201
 30
0.0
 11
-14.3013638153
 21
640.7761597523
 31
0.0
  0
LINE
  5
A5
330
1F
100
AcDbEntity
  8
0
  6
SLD-Solid
 62
   142
420
    32960
370
     0
100
AcDbLine
 10
-24.2513638153
 20
651.9832308201
 30
0.0
 11
-24.2513638153
 21
652.7832308201
 31
0.0
  0
LINE
  5
A6
330
1F
100
AcDbEntity
  8
0
  6
SLD-Solid
 62
     7
370
    15
100
AcDbLine
 10
-26.3013638153
 20
493.5832308201
 30
0.0
 11
-26.3013638153
 21
650.7332308201
 31
0.0
  0
LINE
  5
A7
330
1F
100
AcDbEntity
  8
0
  6
SLD-Solid
 62
   142
420
    32960
370
     0
100
AcDbLine
 10
-24.2513638153
 20
493.5832308201
 30
0.0
 11
-26.3013638153
 21
493.5832308201
 31
0.0
  0
SPLINE
  5
A8
330
1F
100
AcDbEntity
  8
0
  6
SLD-Solid
 62
   142
420
    32960
370
     0
100
AcDbSpline
210
0.0
220
0.0
230
1.0
 70
     8
 71
     3
 72
    14
 73
    10
 74
     0
 42
0.00000001
 43
0.00000001
 40
0.0
 40
0.0
 40
0.0
 40
0.0
 40
0.25
 40
0.25
 40
0.5
 40
0.5
 40
0.75
 40
0.75
 40
1.0
 40
1.0
 40
1.0
 40
1.0
 10
-26.30136381526871
 20
650.7332308201193
 30
0.0
 10
-26.30136381526854
 20
650.732641564468
 30
0.0
 10
-26.2480078024388
 20
650.7320523088172
 30
0.0
 10
-26.04262591139489
 20
650.7308737975151
 30
0.0
 10
-25.89068084218499
 20
650.7302845418643
 30
0.0
 10
-25.51118459121732
 20
650.7291060305622
 30
0.0
 10
-25.28378272502901
 20
650.7285167749113
 30
0.0
 10
-24.78794697820535
 20
650.7273382636095
 30
0.0
 10
-24.51970818776289
 20
650.7267490079585
 30
0.0
 10
-24.25136381526871
 20
650.7261597523074
 30
0.0
  0
ARC
  5
A9
330
1F
100
AcDbEntity
  8
0
  6
SLD-Solid
 62
   142
420
    32960
370
     0
100
AcDbCircle
 10
-24.2513638153
 20
650.7332308201
 30
0.0
 40
2.049999999999997
100
AcDbArc
 50
90.0
 51
180.0
  0
SPLINE
  5
AA
330
1F
100
AcDbEntity
  8
0
  6
SLD-Solid
 62
   142
420
    32960
370
     0
100
AcDbSpline
210
0.0
220
0.0
230
1.0
 70
     8
 71
     3
 72
     8
 73
     4
 74
     0
 42
0.00000001
 43
0.00000001
 40
0.0
 40
0.0
 40
0.0
 40
0.0
 40
1.0
 40
1.0
 40
1.0
 40
1.0
 10
38.69862670787138
 20
652.7825044658452
 30
0.0
 10
38.74005305817391
 20
652.7814013924185
 30
0.0
 10
38.78144594071803
 20
652.7790417752781
 30
0.0
 10
38.82272927872826
 20
652.7754299512098
 30
0.0
  0
LINE
  5
AB
330
1F
100
AcDbEntity
  8
0
  6
SLD-Solid
 62
   142
420
    32960
370
     0
100
AcDbLine
 10
43.7493342694
 20
652.3444078649
 30
0.0
 11
38.8227292787
 21
652.7754299512
 31
0.0
  0
ARC
  5
AC
330
1F
100
AcDbEntity
  8
0
  6
SLD-Solid
 62
   142
420
    32960
370
     0
100
AcDbCircle
 10
-24.2513638153
 20
494.8332308201
 30
0.0
 40
2.049999999999996
100
AcDbArc
 50
217.5718693197
 51
270.0
  0
ARC
  5
AD
330
1F
100
AcDbEntity
  8
0
  6
SLD-Solid
 62
   142
420
    32960
370
     0
100
AcDbCircle
 10
-24.2513638153
 20
650.7332308201
 30
0.0
 40
1.25
100
AcDbArc
 50
90.0
 51
180.0
  0
LINE
  5
AE
330
1F
100
AcDbEntity
  8
0
  6
SLD-Solid
 62
     7
370
    15
100
AcDbLine
 10
760.8986361848
 20
-36.1167691791
 30
0.0
 11
804.3986361848
 21
-36.1167691791
 31
0.0
  0
LINE
  5
AF
330
1F
100
AcDbEntity
  8
0
  6
SLD-Solid
 62
     7
370
    15
100
AcDbLine
 10
804.3986361848
 20
-36.1167691791
 30
0.0
 11
812.3986361848
 21
-36.1167691791
 31
0.0
  0
LINE
  5
B0
330
1F
100
AcDbEntity
  8
0
  6
SLD-Solid
 62
     7
370
    15
100
AcDbLine
 10
757.8986361848
 20
-30.6167691791
 30
0.0
 11
757.8986361848
 21
-20.6167691791
 31
0.0
  0
ARC
  5
B1
330
1F
100
AcDbEntity
  8
0
  6
SLD-Solid
 62
     7
370
    15
100
AcDbCircle
 10
760.8986361848
 20
-30.6167691791
 30
0.0
 40
5.500000000000007
100
AcDbArc
 50
180.0
 51
270.0
  0
ARC
  5
B2
330
1F
100
AcDbEntity
  8
0
  6
SLD-Solid
 62
   142
420
    32960
370
     0
100
AcDbCircle
 10
760.8986361848
 20
-30.6167691791
 30
0.0
 40
3.0
100
AcDbArc
 50
180.0
 51
270.0
  0
LINE
  5
B3
330
1F
100
AcDbEntity
  8
0
  6
SLD-Solid
 62
   142
420
    32960
370
     0
100
AcDbLine
 10
760.8986361848
 20
-33.6167691791
 30
0.0
 11
804.3986361848
 21
-33.6167691791
 31
0.0
  0
LINE
  5
B4
330
1F
100
AcDbEntity
  8
0
  6
SLD-Solid
 62
   142
420
    32960
370
     0
100
AcDbLine
 10
804.3986361848
 20
-33.6167691791
 30
0.0
 11
812.3986361848
 21
-33.6167691791
 31
0.0
  0
LINE
  5
B5
330
1F
100
AcDbEntity
  8
0
  6
SLD-Solid
 62
   142
420
    32960
370
     0
100
AcDbLine
 10
755.3986361848
 20
-15.6167691791
 30
0.0
 11
757.8986361848
 21
-15.6167691791
 31
0.0
  0
LINE
  5
B6
330
1F
100
AcDbEntity
  8
0
  6
SLD-Solid
 62
     7
370
    15
100
AcDbLine
 10
757.8986361848
 20
-20.6167691791
 30
0.0
 11
757.8986361848
 21
-15.6167691791
 31
0.0
  0
LINE
  5
B7
330
1F
100
AcDbEntity
  8
0
  6
SLD-Solid
 62
     7
370
    15
100
AcDbLine
 10
762.5986361848
 20
-27.4667691791
 30
0.0
 11
762.5986361848
 21
489.2332308209
 31
0.0
  0
SPLINE
  5
B8
330
1F
100
AcDbEntity
  8
0
  6
SLD-Solid
 62
   142
420
    32960
370
     0
100
AcDbSpline
210
0.0
220
0.0
230
1.0
 70
     8
 71
     3
 72
    12
 73
     8
 74
     0
 42
0.00000001
 43
0.00000001
 40
0.0
 40
0.0
 40
0.0
 40
0.0
 40
0.1622307853855866
 40
0.4106775957256124
 40
0.6591247578677427
 40
0.9075717193364887
 40
1.0
 40
1.0
 40
1.0
 40
1.0
 10
764.3986361847564
 20
-28.55250251741609
 30
0.0
 10
764.238966057307
 20
-28.49376886957639
 30
0.0
 10
763.8347706150286
 20
-28.34508812919984
 30
0.0
 10
763.2699287743841
 20
-28.10641687431115
 30
0.0
 10
762.804544268475
 20
-27.83671940684684
 30
0.0
 10
762.6160475846011
 20
-27.62291115754462
 30
0.0
 10
762.6023502227639
 20
-27.50007593485665
 30
0.0
 10
762.598636184759
 20
-27.46676917908597
 30
0.0
  0
SPLINE
  5
B9
330
1F
100
AcDbEntity
  8
0
  6
SLD-Solid
 62
   142
420
    32960
370
     0
100
AcDbSpline
210
0.0
220
0.0
230
1.0
 70
     8
 71
     3
 72
    11
 73
     7
 74
     0
 42
0.00000001
 43
0.00000001
 40
0.0
 40
0.0
 40
0.0
 40
0.0
 40
0.2716412431751297
 40
0.5432824863502339
 40
0.8149237295253288
 40
1.0
 40
1.0
 40
1.0
 40
1.0
 10
762.5986361847592
 20
489.2332308209139
 30
0.0
 10
762.6293531160577
 20
489.3315049310708
 30
0.0
 10
762.6907869786545
 20
489.5280531513843
 30
0.0
 10
763.1663147592898
 20
489.8228754818547
 30
0.0
 10
763.7669701722427
 20
490.0863804189738
 30
0.0
 10
764.2164804944489
 20
490.2516112459365
 30
0.0
 10
764.3986361847548
 20
490.3185679627421
 30
0.0
  0
SPLINE
  5
BA
330
1F
100
AcDbEntity
  8
0
  6
SLD-Solid
 62
   142
420
    32960
370
     0
100
AcDbSpline
210
0.0
220
0.0
230
1.0
 70
     8
 71
     3
 72
    11
 73
     7
 74
     0
 42
0.00000001
 43
0.00000001
 40
0.0
 40
0.0
 40
0.0
 40
0.0
 40
0.2716412431750018
 40
0.5432824863500036
 40
0.8149237295250172
 40
0.9999999999999999
 40
0.9999999999999999
 40
0.9999999999999999
 40
0.9999999999999999
 10
762.5986361847594
 20
-27.46676917908592
 30
0.0
 10
762.6293531160577
 20
-27.73568608417754
 30
0.0
 10
762.6907869786545
 20
-28.27351989436067
 30
0.0
 10
763.1663147592895
 20
-28.94677253607852
 30
0.0
 10
763.7669701722433
 20
-29.38529976372639
 30
0.0
 10
764.2164804944499
 20
-29.44346906196715
 30
0.0
 10
764.3986361847564
 20
-29.46704108724052
 30
0.0
  0
LINE
  5
BB
330
1F
100
AcDbEntity
  8
0
  6
SLD-Solid
 62
     7
370
    15
100
AcDbLine
 10
812.8986361848
 20
494.8832308209
 30
0.0
 11
795.8986361848
 21
494.8832308209
 31
0.0
  0
LINE
  5
BC
330
1F
100
AcDbEntity
  8
0
  6
SLD-Solid
 62
     7
370
    15
100
AcDbLine
 10
812.3986361848
 20
495.3832308209
 30
0.0
 11
796.3986361848
 21
495.3832308209
 31
0.0
  0
LINE
  5
BD
330
1F
100
AcDbEntity
  8
0
  6
SLD-Solid
 62
   142
420
    32960
370
     0
100
AcDbLine
 10
812.8986361848
 20
493.3832308209
 30
0.0
 11
795.8986361848
 21
493.3832308209
 31
0.0
  0
LINE
  5
BE
330
1F
100
AcDbEntity
  8
0
  6
SLD-Solid
 62
   142
420
    32960
370
     0
100
AcDbLine
 10
788.7443736848
 20
617.3410957286
 30
0.0
 11
788.76431512
 21
617.340786611
 31
0.0
  0
SPLINE
  5
BF
330
1F
100
AcDbEntity
  8
0
  6
SLD-Solid
 62
   142
420
    32960
370
     0
100
AcDbSpline
210
0.0
220
0.0
230
1.0
 70
     8
 71
     3
 72
    18
 73
    14
 74
     0
 42
0.00000001
 43
0.00000001
 40
0.0
 40
0.0
 40
0.0
 40
0.0
 40
0.0312995111645917
 40
0.0625945874393746
 40
0.125161495875697
 40
0.1752170307478887
 40
0.2502176268373813
 40
0.3698155274565679
 40
0.4997006321671989
 40
0.6246497396546656
 40
0.7497209249591873
 40
0.874850320675307
 40
1.0
 40
1.0
 40
1.0
 40
1.0
 10
788.7643151200298
 20
617.340786610988
 30
0.0
 10
788.7641510298733
 20
617.3407476816426
 30
0.0
 10
788.7638228728107
 20
617.340669828468
 30
0.0
 10
788.7539816221407
 20
617.3406021761348
 30
0.0
 10
788.7321125394441
 20
617.3405517286014
 30
0.0
 10
788.6788783548013
 20
617.3411074397442
 30
0.0
 10
788.5732072935893
 20
617.3430067023979
 30
0.0
 10
788.3562833350892
 20
617.3491045084319
 30
0.0
 10
788.0257990641585
 20
617.3622845350346
 30
0.0
 10
787.6516233712097
 20
617.3804535454464
 30
0.0
 10
787.2617933794712
 20
617.4026750256419
 30
0.0
 10
786.8666586515914
 20
617.427190097474
 30
0.0
 10
786.6022390293097
 20
617.4446240187627
 30
0.0
 10
786.4700185033615
 20
617.4533416858643
 30
0.0
  0
SPLINE
  5
C0
330
1F
100
AcDbEntity
  8
0
  6
SLD-Solid
 62
   142
420
    32960
370
     0
100
AcDbSpline
210
0.0
220
0.0
230
1.0
 70
     8
 71
     3
 72
    14
 73
    10
 74
     0
 42
0.00000001
 43
0.00000001
 40
0.0
 40
0.0
 40
0.0
 40
0.0
 40
0.1250553932925197
 40
0.2501032493440961
 40
0.5001236321706766
 40
0.7499715960342775
 40
0.8749544500388831
 40
0.9374688794932622
 40
0.9999999999999999
 40
0.9999999999999999
 40
0.9999999999999999
 40
0.9999999999999999
 10
786.4700185033615
 20
617.4533416858643
 30
0.0
 10
786.3930671887234
 20
617.4585150695868
 30
0.0
 10
786.2391691973964
 20
617.4688615252257
 30
0.0
 10
785.9316661798581
 20
617.4900549034419
 30
0.0
 10
785.5487527112361
 20
617.5176367541775
 30
0.0
 10
785.1729245964074
 20
617.5467906546365
 30
0.0
 10
784.9209908583215
 20
617.5677181571913
 30
0.0
 10
784.7852281677618
 20
617.5796995816352
 30
0.0
 10
784.7200299932219
 20
617.5855938356782
 30
0.0
 10
784.6874265546331
 20
617.5885413560816
 30
0.0
  0
SPLINE
  5
C1
330
1F
100
AcDbEntity
  8
0
  6
SLD-Solid
 62
   142
420
    32960
370
     0
100
AcDbSpline
210
0.0
220
0.0
230
1.0
 70
     8
 71
     3
 72
    13
 73
     9
 74
     0
 42
0.00000001
 43
0.00000001
 40
0.0
 40
0.0
 40
0.0
 40
0.0
 40
0.1251713704823993
 40
0.2502865226305473
 40
0.4999512569308111
 40
0.7496532036844565
 40
0.8747965534411184
 40
0.9999999999999999
 40
0.9999999999999999
 40
0.9999999999999999
 40
0.9999999999999999
 10
784.6874233682253
 20
617.5885416555986
 30
0.0
 10
784.6409928124418
 20
617.5928766205315
 30
0.0
 10
784.5481525542737
 20
617.6015446034306
 30
0.0
 10
784.3825889944101
 20
617.6177614292994
 30
0.0
 10
784.2153572231415
 20
617.635318012861
 30
0.0
 10
784.1176049904382
 20
617.6465871503835
 30
0.0
 10
784.0821268548599
 20
617.6512240342886
 30
0.0
 10
784.0779119544524
 20
617.6519084952428
 30
0.0
 10
784.075803998346
 20
617.6522508078737
 30
0.0
  0
SPLINE
  5
C2
330
1F
100
AcDbEntity
  8
0
  6
SLD-Solid
 62
   142
420
    32960
370
     0
100
AcDbSpline
210
0.0
220
0.0
230
1.0
 70
     8
 71
     3
 72
    13
 73
     9
 74
     0
 42
0.00000001
 43
0.00000001
 40
0.0
 40
0.0
 40
0.0
 40
0.0
 40
0.0427271562437384
 40
0.2820231572482302
 40
0.5202885061822529
 40
0.7600182588244951
 40
0.8796329299928989
 40
1.0
 40
1.0
 40
1.0
 40
1.0
 10
787.9749554122935
 20
617.3932303393282
 30
0.0
 10
787.9745927779211
 20
617.3932592698796
 30
0.0
 10
787.9721991879966
 20
617.3934502277197
 30
0.0
 10
787.9560590170272
 20
617.394264223447
 30
0.0
 10
787.8874648813268
 20
617.3979336567021
 30
0.0
 10
787.8049285232725
 20
617.4024602063045
 30
0.0
 10
787.7276298333775
 20
617.4068487838831
 30
0.0
 10
787.6862285839878
 20
617.4092384537413
 30
0.0
 10
787.6654630579972
 20
617.410437034757
 30
0.0
  0
SPLINE
  5
C3
330
1F
100
AcDbEntity
  8
0
  6
SLD-Solid
 62
   142
420
    32960
370
     0
100
AcDbSpline
210
0.0
220
0.0
230
1.0
 70
     8
 71
     3
 72
    13
 73
     9
 74
     0
 42
0.00000001
 43
0.00000001
 40
0.0
 40
0.0
 40
0.0
 40
0.0
 40
0.0625234477983278
 40
0.1250288441722305
 40
0.2500295548749796
 40
0.4999123112426986
 40
0.749931408706613
 40
1.0
 40
1.0
 40
1.0
 40
1.0
 10
787.6654630579972
 20
617.410437034757
 30
0.0
 10
787.6421622934402
 20
617.411798925476
 30
0.0
 10
787.5955674915942
 20
617.4145223137159
 30
0.0
 10
787.4985802111343
 20
617.420272663792
 30
0.0
 10
787.3216699889416
 20
617.4310455321488
 30
0.0
 10
787.0608533005444
 20
617.447423572457
 30
0.0
 10
786.7439792194964
 20
617.4679667579643
 30
0.0
 10
786.5322240093151
 20
617.482014487746
 30
0.0
 10
786.4263359254859
 20
617.4890390477905
 30
0.0
  0
SPLINE
  5
C4
330
1F
100
AcDbEntity
  8
0
  6
SLD-Solid
 62
   142
420
    32960
370
     0
100
AcDbSpline
210
0.0
220
0.0
230
1.0
 70
     8
 71
     3
 72
    16
 73
    12
 74
     0
 42
0.00000001
 43
0.00000001
 40
0.0
 40
0.0
 40
0.0
 40
0.0
 40
0.1252631461791233
 40
0.2505188863277727
 40
0.3757538585426599
 40
0.5009662291660135
 40
0.6260366187426515
 40
0.750924097672494
 40
0.8647214306627821
 40
0.9776019377437228
 40
1.0
 40
1.0
 40
1.0
 40
1.0
 10
786.4263359254859
 20
617.4890390477905
 30
0.0
 10
786.3477645493431
 20
617.4942933665803
 30
0.0
 10
786.190626442494
 20
617.504801693505
 30
0.0
 10
785.955140827016
 20
617.5207347253033
 30
0.0
 10
785.7210609291224
 20
617.5368759907935
 30
0.0
 10
785.4893217733916
 20
617.5531084458796
 30
0.0
 10
785.2652077318836
 20
617.5693445357075
 30
0.0
 10
785.0731598907364
 20
617.5839186721295
 30
0.0
 10
784.9285899420324
 20
617.5951543564444
 30
0.0
 10
784.8852757965841
 20
617.5985940848487
 30
0.0
 10
784.883449339967
 20
617.5986404901262
 30
0.0
 10
784.8831469336864
 20
617.5986481734441
 30
0.0
  0
SPLINE
  5
C5
330
1F
100
AcDbEntity
  8
0
  6
SLD-Solid
 62
   142
420
    32960
370
     0
100
AcDbSpline
210
0.0
220
0.0
230
1.0
 70
     8
 71
     3
 72
    18
 73
    14
 74
     0
 42
0.00000001
 43
0.00000001
 40
0.0
 40
0.0
 40
0.0
 40
0.0
 40
0.0625056993940019
 40
0.1249366024064276
 40
0.187395056947579
 40
0.2498256751883326
 40
0.3219622618204789
 40
0.3747766092284791
 40
0.4997092147424113
 40
0.6247460768752788
 40
0.7498233215064687
 40
0.8702808453861042
 40
1.0
 40
1.0
 40
1.0
 40
1.0
 10
784.8831469336864
 20
617.5986481734441
 30
0.0
 10
784.8852981814982
 20
617.5984091823594
 30
0.0
 10
784.8895981028678
 20
617.5979314861751
 30
0.0
 10
784.9285386113856
 20
617.5945180651283
 30
0.0
 10
784.9896112609974
 20
617.5893772647387
 30
0.0
 10
785.0749612753845
 20
617.5824059910475
 30
0.0
 10
785.1767191202546
 20
617.5745240873435
 30
0.0
 10
785.3236597569824
 20
617.5635072793922
 30
0.0
 10
785.5122473094314
 20
617.5497371265391
 30
0.0
 10
785.7534369677317
 20
617.5327953536378
 30
0.0
 10
785.9939300254135
 20
617.5163105257535
 30
0.0
 10
786.2381270435334
 20
617.4998059581872
 30
0.0
 10
786.4010678366151
 20
617.4889436846771
 30
0.0
 10
786.485554296576
 20
617.4833114852834
 30
0.0
  0
SPLINE
  5
C6
330
1F
100
AcDbEntity
  8
0
  6
SLD-Solid
 62
   142
420
    32960
370
     0
100
AcDbSpline
210
0.0
220
0.0
230
1.0
 70
     8
 71
     3
 72
    18
 73
    14
 74
     0
 42
0.00000001
 43
0.00000001
 40
0.0
 40
0.0
 40
0.0
 40
0.0
 40
0.1251150348332535
 40
0.2502142338132707
 40
0.3753103425832137
 40
0.5003678378249686
 40
0.630487566638754
 40
0.7500246333156967
 40
0.8126119443874716
 40
0.8749668753729751
 40
0.9374460115586882
 40
0.9687143461569477
 40
1.0
 40
1.0
 40
1.0
 40
1.0
 10
786.485554296576
 20
617.4833114852834
 30
0.0
 10
786.5624052798235
 20
617.4782251975926
 30
0.0
 10
786.7160975192628
 20
617.4680532659842
 30
0.0
 10
786.9463049321723
 20
617.4530727361338
 30
0.0
 10
787.1753105784467
 20
617.4384700090341
 30
0.0
 10
787.4043589274851
 20
617.424277217491
 30
0.0
 10
787.6209248552501
 20
617.4115372822278
 30
0.0
 10
787.7782765537909
 20
617.4029714971495
 30
0.0
 10
787.876773539555
 20
617.3978588013864
 30
0.0
 10
787.9350530984866
 20
617.3949525505516
 30
0.0
 10
787.9627543023075
 20
617.3936881215502
 30
0.0
 10
787.9735990892194
 20
617.3932431220566
 30
0.0
 10
787.9745032211603
 20
617.3932346010242
 30
0.0
 10
787.9749554122935
 20
617.3932303393282
 30
0.0
  0
LINE
  5
C7
330
1F
100
AcDbEntity
  8
0
  6
SLD-Solid
 62
     7
370
    15
100
AcDbLine
 10
757.3986361847
 20
506.895556293
 30
0.0
 11
812.0393003064
 21
506.895556293
 31
0.0
  0
LINE
  5
C8
330
1F
100
AcDbEntity
  8
0
  6
SLD-Solid
 62
   142
420
    32960
370
     0
100
AcDbLine
 10
755.3986361847
 20
506.895556293
 30
0.0
 11
757.3986361847
 21
506.895556293
 31
0.0
  0
LINE
  5
C9
330
1F
100
AcDbEntity
  8
0
  6
SLD-Solid
 62
   142
420
    32960
370
     0
100
AcDbLine
 10
774.4302498584
 20
627.9393966775
 30
0.0
 11
774.826617646
 21
626.7195020631
 31
0.0
  0
LINE
  5
CA
330
1F
100
AcDbEntity
  8
0
  6
SLD-Solid
 62
     7
370
    15
100
AcDbLine
 10
813.2281209518
 20
508.5318275359
 30
0.0
 11
774.826617646
 21
626.7195020631
 31
0.0
  0
LINE
  5
CB
330
1F
100
AcDbEntity
  8
0
  6
SLD-Solid
 62
     7
370
    15
100
AcDbLine
 10
813.9889661648
 20
508.7790411314
 30
0.0
 11
775.587462859
 21
626.9667156586
 31
0.0
  0
LINE
  5
CC
330
1F
100
AcDbEntity
  8
0
  6
SLD-Solid
 62
   142
420
    32960
370
     0
100
AcDbLine
 10
775.1910950714
 20
628.186610273
 30
0.0
 11
775.587462859
 21
626.9667156586
 31
0.0
  0
LINE
  5
CD
330
1F
100
AcDbEntity
  8
0
  6
SLD-Solid
 62
   142
420
    32960
370
     0
100
AcDbLine
 10
757.3986361847
 20
506.095556293
 30
0.0
 11
755.3986361847
 21
506.095556293
 31
0.0
  0
LINE
  5
CE
330
1F
100
AcDbEntity
  8
0
  6
SLD-Solid
 62
     7
370
    15
100
AcDbLine
 10
757.3986361847
 20
506.095556293
 30
0.0
 11
812.0393003064
 21
506.095556293
 31
0.0
  0
ARC
  5
CF
330
1F
100
AcDbEntity
  8
0
  6
SLD-Solid
 62
   142
420
    32960
370
     0
100
AcDbCircle
 10
812.0393003064
 20
508.145556293
 30
0.0
 40
2.050000000000054
100
AcDbArc
 50
270.0
 51
18.0
  0
ARC
  5
D0
330
1F
100
AcDbEntity
  8
0
  6
SLD-Solid
 62
   142
420
    32960
370
     0
100
AcDbCircle
 10
812.0393003064
 20
508.145556293
 30
0.0
 40
1.250000000000067
100
AcDbArc
 50
270.0
 51
18.0
  0
LINE
  5
D1
330
1F
100
AcDbEntity
  8
0
  6
SLD-Solid
 62
   142
420
    32960
370
     0
100
AcDbLine
 10
757.3986361847
 20
506.895556293
 30
0.0
 11
757.3986361847
 21
506.095556293
 31
0.0
  0
LINE
  5
D2
330
1F
100
AcDbEntity
  8
0
  6
SLD-Solid
 62
   142
420
    32960
370
     0
100
AcDbLine
 10
812.0393003064
 20
506.095556293
 30
0.0
 11
812.0393003064
 21
506.895556293
 31
0.0
  0
LINE
  5
D3
330
1F
100
AcDbEntity
  8
0
  6
SLD-Solid
 62
   142
420
    32960
370
     0
100
AcDbLine
 10
774.826617646
 20
626.7195020631
 30
0.0
 11
775.587462859
 21
626.9667156586
 31
0.0
  0
LINE
  5
D4
330
1F
100
AcDbEntity
  8
0
  6
SLD-Solid
 62
   142
420
    32960
370
     0
100
AcDbLine
 10
813.2281209518
 20
508.5318275359
 30
0.0
 11
813.9889661648
 21
508.7790411314
 31
0.0
  0
LWPOLYLINE
  5
D5
330
1F
100
AcDbEntity
  8
0
  6
SLD-Solid
 62
   142
420
    32960
370
     0
100
AcDbPolyline
 90
        3
 70
   128
 43
0.0
 10
775.8427896126
 20
629.7015956287
 10
775.6719079207
 20
629.6030392518
 10
775.5927896126
 20
629.5439286292
  0
LINE
  5
D6
330
1F
100
AcDbEntity
  8
0
  6
SLD-Solid
 62
   142
420
    32960
370
     0
100
AcDbLine
 10
775.144386432
 20
628.3832308201
 30
0.0
 11
775.1910950714
 21
628.186610273
 31
0.0
  0
ARC
  5
D7
330
1F
100
AcDbEntity
  8
0
  6
SLD-Solid
 62
   142
420
    32960
370
     0
100
AcDbCircle
 10
776.6556398066
 20
627.724290024
 30
0.0
 40
1.249999999999888
100
AcDbArc
 50
153.0
 51
198.0
  0
LINE
  5
D8
330
1F
100
AcDbEntity
  8
0
  6
SLD-Solid
 62
   142
420
    32960
370
     0
100
AcDbLine
 10
776.3726964262
 20
629.922343954
 30
0.0
 11
775.5927896126
 21
628.3916906482
 31
0.0
  0
LINE
  5
D9
330
1F
100
AcDbEntity
  8
0
  6
SLD-Solid
 62
   142
420
    32960
370
     0
100
AcDbLine
 10
775.5884791149
 20
628.3832308201
 30
0.0
 11
775.5418816514
 21
628.2917781487
 31
0.0
  0
LINE
  5
DA
330
1F
100
AcDbEntity
  8
0
  6
SLD-Solid
 62
     7
370
    15
100
AcDbLine
 10
48.4721599911
 20
732.5700932628
 30
0.0
 11
81.7691123123
 21
723.6482017779
 31
0.0
  0
LINE
  5
DB
330
1F
100
AcDbEntity
  8
0
  6
SLD-Solid
 62
     7
370
    15
100
AcDbLine
 10
48.6792152272
 20
733.3428339238
 30
0.0
 11
81.9761675484
 21
724.4209424389
 31
0.0
  0
ARC
  5
DC
330
1F
100
AcDbEntity
  8
0
  6
SLD-Solid
 62
     7
370
    15
100
AcDbCircle
 10
75.2986361848
 20
699.5000561206
 30
0.0
 40
25.00000000000011
100
AcDbArc
 50
0.0
 51
75.0
  0
ARC
  5
DD
330
1F
100
AcDbEntity
  8
0
  6
SLD-Solid
 62
   142
420
    32960
370
     0
100
AcDbCircle
 10
126.8486361848
 20
664.6332308201
 30
0.0
 40
1.250000000000028
100
AcDbArc
 50
180.0
 51
270.0
  0
LINE
  5
DE
330
1F
100
AcDbEntity
  8
0
  6
SLD-Solid
 62
     7
370
    15
100
AcDbLine
 10
46.0986361848
 20
682.5832308201
 30
0.0
 11
46.8986361848
 21
682.5832308201
 31
0.0
  0
LINE
  5
DF
330
1F
100
AcDbEntity
  8
0
  6
SLD-Solid
 62
   142
420
    32960
370
     0
100
AcDbLine
 10
126.8486361848
 20
663.3832308201
 30
0.0
 11
126.8486361848
 21
662.5832308201
 31
0.0
  0
LINE
  5
E0
330
1F
100
AcDbEntity
  8
0
  6
SLD-Solid
 62
     7
370
    15
100
AcDbLine
 10
126.8486361848
 20
663.3832308201
 30
0.0
 11
149.0486361848
 21
663.3832308201
 31
0.0
  0
LINE
  5
E1
330
1F
100
AcDbEntity
  8
0
  6
SLD-Solid
 62
   142
420
    32960
370
     0
100
AcDbLine
 10
149.0486361848
 20
662.5832308201
 30
0.0
 11
149.0486361848
 21
663.3832308201
 31
0.0
  0
LINE
  5
E2
330
1F
100
AcDbEntity
  8
0
  6
SLD-Solid
 62
     7
370
    15
100
AcDbLine
 10
126.8486361848
 20
662.5832308201
 30
0.0
 11
149.0486361848
 21
662.5832308201
 31
0.0
  0
ARC
  5
E3
330
1F
100
AcDbEntity
  8
0
  6
SLD-Solid
 62
     7
370
    15
100
AcDbCircle
 10
75.2986361848
 20
699.5000561206
 30
0.0
 40
25.80000000000008
100
AcDbArc
 50
0.0
 51
75.0
  0
LINE
  5
E4
330
1F
100
AcDbEntity
  8
0
  6
SLD-Solid
 62
   142
420
    32960
370
     0
100
AcDbLine
 10
101.0986361848
 20
699.5000561206
 30
0.0
 11
100.2986361848
 21
699.5000561206
 31
0.0
  0
LINE
  5
E5
330
1F
100
AcDbEntity
  8
0
  6
SLD-Solid
 62
   142
420
    32960
370
     0
100
AcDbLine
 10
125.5986361848
 20
681.3332308201
 30
0.0
 11
124.7986361848
 21
681.3332308201
 31
0.0
  0
LINE
  5
E6
330
1F
100
AcDbEntity
  8
0
  6
SLD-Solid
 62
     7
370
    15
100
AcDbLine
 10
125.5986361848
 20
681.3332308201
 30
0.0
 11
125.5986361848
 21
664.6332308201
 31
0.0
  0
LINE
  5
E7
330
1F
100
AcDbEntity
  8
0
  6
SLD-Solid
 62
   142
420
    32960
370
     0
100
AcDbLine
 10
124.7986361848
 20
664.6332308201
 30
0.0
 11
125.5986361848
 21
664.6332308201
 31
0.0
  0
LINE
  5
E8
330
1F
100
AcDbEntity
  8
0
  6
SLD-Solid
 62
   142
420
    32960
370
     0
100
AcDbLine
 10
124.7986361848
 20
681.3332308201
 30
0.0
 11
124.7986361848
 21
664.6332308201
 31
0.0
  0
LINE
  5
E9
330
1F
100
AcDbEntity
  8
0
  6
SLD-Solid
 62
   142
420
    32960
370
     0
100
AcDbLine
 10
101.0986361848
 20
699.5000561206
 30
0.0
 11
101.0986361848
 21
684.6332308201
 31
0.0
  0
LINE
  5
EA
330
1F
100
AcDbEntity
  8
0
  6
SLD-Solid
 62
   142
420
    32960
370
     0
100
AcDbLine
 10
46.0986361848
 20
682.5832308201
 30
0.0
 11
46.0986361848
 21
731.3626859799
 31
0.0
  0
LINE
  5
EB
330
1F
100
AcDbEntity
  8
0
  6
SLD-Solid
 62
   142
420
    32960
370
     0
100
AcDbLine
 10
46.8986361848
 20
731.3626859799
 30
0.0
 11
46.0986361848
 21
731.3626859799
 31
0.0
  0
LINE
  5
EC
330
1F
100
AcDbEntity
  8
0
  6
SLD-Solid
 62
     7
370
    15
100
AcDbLine
 10
46.8986361848
 20
682.5832308201
 30
0.0
 11
46.8986361848
 21
731.3626859799
 31
0.0
  0
LINE
  5
ED
330
1F
100
AcDbEntity
  8
0
  6
SLD-Solid
 62
   142
420
    32960
370
     0
100
AcDbLine
 10
102.3486361848
 20
682.5832308201
 30
0.0
 11
123.5486361848
 21
682.5832308201
 31
0.0
  0
LINE
  5
EE
330
1F
100
AcDbEntity
  8
0
  6
SLD-Solid
 62
   142
420
    32960
370
     0
100
AcDbLine
 10
48.6792152272
 20
733.3428339238
 30
0.0
 11
48.4721599911
 21
732.5700932628
 31
0.0
  0
LINE
  5
EF
330
1F
100
AcDbEntity
  8
0
  6
SLD-Solid
 62
   142
420
    32960
370
     0
100
AcDbLine
 10
151.0986361848
 20
661.3332308201
 30
0.0
 11
151.0986361848
 21
652.5832308201
 31
0.0
  0
ARC
  5
F0
330
1F
100
AcDbEntity
  8
0
  6
SLD-Solid
 62
   142
420
    32960
370
     0
100
AcDbCircle
 10
149.0486361848
 20
661.3332308201
 30
0.0
 40
2.050000000000068
100
AcDbArc
 50
0.0
 51
90.0
  0
ARC
  5
F1
330
1F
100
AcDbEntity
  8
0
  6
SLD-Solid
 62
   142
420
    32960
370
     0
100
AcDbCircle
 10
102.3486361848
 20
684.6332308201
 30
0.0
 40
1.25
100
AcDbArc
 50
180.0
 51
270.0
  0
LINE
  5
F2
330
1F
100
AcDbEntity
  8
0
  6
SLD-Solid
 62
   142
420
    32960
370
     0
100
AcDbLine
 10
102.3486361848
 20
683.3832308201
 30
0.0
 11
123.5486361848
 21
683.3832308201
 31
0.0
  0
ARC
  5
F3
330
1F
100
AcDbEntity
  8
0
  6
SLD-Solid
 62
   142
420
    32960
370
     0
100
AcDbCircle
 10
102.3486361848
 20
684.6332308201
 30
0.0
 40
2.050000000000068
100
AcDbArc
 50
180.0
 51
270.0
  0
ARC
  5
F4
330
1F
100
AcDbEntity
  8
0
  6
SLD-Solid
 62
   142
420
    32960
370
     0
100
AcDbCircle
 10
123.5486361848
 20
681.3332308201
 30
0.0
 40
2.050000000000068
100
AcDbArc
 50
0.0
 51
90.0
  0
LINE
  5
F5
330
1F
100
AcDbEntity
  8
0
  6
SLD-Solid
 62
   142
420
    32960
370
     0
100
AcDbLine
 10
100.2986361848
 20
699.5000561206
 30
0.0
 11
100.2986361848
 21
684.6332308201
 31
0.0
  0
ARC
  5
F6
330
1F
100
AcDbEntity
  8
0
  6
SLD-Solid
 62
   142
420
    32960
370
     0
100
AcDbCircle
 10
48.1486361848
 20
731.3626859799
 30
0.0
 40
2.049999999999997
100
AcDbArc
 50
75.0
 51
180.0
  0
LINE
  5
F7
330
1F
100
AcDbEntity
  8
0
  6
SLD-Solid
 62
   142
420
    32960
370
     0
100
AcDbLine
 10
101.0986361848
 20
684.6332308201
 30
0.0
 11
100.2986361848
 21
684.6332308201
 31
0.0
  0
LINE
  5
F8
330
1F
100
AcDbEntity
  8
0
  6
SLD-Solid
 62
   142
420
    32960
370
     0
100
AcDbLine
 10
150.2986361848
 20
661.3332308201
 30
0.0
 11
151.0986361848
 21
661.3332308201
 31
0.0
  0
LINE
  5
F9
330
1F
100
AcDbEntity
  8
0
  6
SLD-Solid
 62
   142
420
    32960
370
     0
100
AcDbLine
 10
150.2976357844
 20
661.3832308201
 30
0.0
 11
150.2986361848
 21
661.3332308201
 31
0.0
  0
LINE
  5
FA
330
1F
100
AcDbEntity
  8
0
  6
SLD-Solid
 62
   142
420
    32960
370
     0
100
AcDbLine
 10
102.3486361848
 20
682.5832308201
 30
0.0
 11
102.3486361848
 21
683.3832308201
 31
0.0
  0
LINE
  5
FB
330
1F
100
AcDbEntity
  8
0
  6
SLD-Solid
 62
   142
420
    32960
370
     0
100
AcDbLine
 10
123.5486361848
 20
683.3832308201
 30
0.0
 11
123.5486361848
 21
682.5832308201
 31
0.0
  0
LINE
  5
FC
330
1F
100
AcDbEntity
  8
0
  6
SLD-Solid
 62
     7
370
    15
100
AcDbLine
 10
812.3486361848
 20
-30.246058501
 30
0.0
 11
764.3986361848
 21
-30.246058501
 31
0.0
  0
LINE
  5
FD
330
1F
100
AcDbEntity
  8
0
  6
SLD-Solid
 62
     7
370
    15
100
AcDbLine
 10
812.3486361848
 20
492.0125201428
 30
0.0
 11
764.3986361848
 21
492.0125201428
 31
0.0
  0
CIRCLE
  5
FE
330
1F
100
AcDbEntity
  8
0
  6
SLD-Solid
 62
   142
420
    32960
370
     0
100
AcDbCircle
 10
784.3986361848
 20
462.8832308209
 30
0.0
 40
1.599999999999909
  0
CIRCLE
  5
FF
330
1F
100
AcDbEntity
  8
0
  6
SLD-Solid
 62
   142
420
    32960
370
     0
100
AcDbCircle
 10
784.3986361848
 20
-1.1167691791
 30
0.0
 40
1.600000000000023
  0
CIRCLE
  5
100
330
1F
100
AcDbEntity
  8
0
  6
SLD-Solid
 62
   142
420
    32960
370
     0
100
AcDbCircle
 10
784.3986361848
 20
230.8832308209
 30
0.0
 40
1.600000000000023
  0
LINE
  5
101
330
1F
100
AcDbEntity
  8
0
  6
SLD-Solid
 62
   142
420
    32960
370
     0
100
AcDbLine
 10
764.3986361848
 20
492.0125201428
 30
0.0
 11
764.3986361848
 21
-30.246058501
 31
0.0
  0
LINE
  5
102
330
1F
100
AcDbEntity
  8
0
  6
SLD-Solid
 62
     7
370
    15
100
AcDbLine
 10
814.3986361848
 20
490.8332308209
 30
0.0
 11
814.3986361848
 21
-29.0667691791
 31
0.0
  0
SPLINE
  5
103
330
1F
100
AcDbEntity
  8
0
  6
SLD-Solid
 62
   142
420
    32960
370
     0
100
AcDbSpline
210
0.0
220
0.0
230
1.0
 70
     8
 71
     3
 72
    29
 73
    25
 74
     0
 42
0.00000001
 43
0.00000001
 40
0.0
 40
0.0
 40
0.0
 40
0.0
 40
0.0500934119596589
 40
0.097951031642187
 40
0.143574139578621
 40
0.1869642294174346
 40
0.2281230533097321
 40
0.2670526802015306
 40
0.3037555716773091
 40
0.3382346820586739
 40
0.3704935926293952
 40
0.400536694840782
 40
0.4283694454006174
 40
0.4539987295328598
 40
0.4774333916779202
 40
0.4986850338261622
 40
0.5440434879115008
 40
0.5941879968404358
 40
0.6492240219550305
 40
0.7092308785169178
 40
0.7742693300887756
 40
0.8443866864020259
 40
0.9196202977430047
 40
1.0
 40
1.0
 40
1.0
 40
1.0
 10
814.398636184755
 20
490.8332308209133
 30
0.0
 10
814.3976003213953
 20
490.8631622340562
 30
0.0
 10
814.3955748278075
 20
490.9216891476997
 30
0.0
 10
814.3796863512536
 20
491.0065800728487
 30
0.0
 10
814.3559686926156
 20
491.0867915230698
 30
0.0
 10
814.3248557794345
 20
491.1622677931741
 30
0.0
 10
814.2878486728562
 20
491.2330232396172
 30
0.0
 10
814.2461062523741
 20
491.2990548962319
 30
0.0
 10
814.2007841486369
 20
491.360364244611
 30
0.0
 10
814.1529428442677
 20
491.4169518547745
 30
0.0
 10
814.1035655233219
 20
491.4688188258497
 30
0.0
 10
814.0535515418884
 20
491.5159663597363
 30
0.0
 10
814.0037179925492
 20
491.5583965763324
 30
0.0
 10
813.9548012950276
 20
491.596110630664
 30
0.0
 10
813.9074592837161
 20
491.6291157182116
 30
0.0
 10
813.843661026596
 20
491.6690584819466
 30
0.0
 10
813.7544246706277
 20
491.7148298987877
 30
0.0
 10
813.6286677765853
 20
491.7655769640098
 30
0.0
 10
813.4791100332119
 20
491.8136579472794
 30
0.0
 10
813.3040317193601
 20
491.859070469157
 30
0.0
 10
813.102352501772
 20
491.9018301796301
 30
0.0
 10
812.8739163617839
 20
491.9418483595253
 30
0.0
 10
812.6198671793106
 20
491.9794771531602
 30
0.0
 10
812.4410180143877
 20
492.0012656331693
 30
0.0
 10
812.3486361847547
 20
492.0125201427949
 30
0.0
  0
SPLINE
  5
104
330
1F
100
AcDbEntity
  8
0
  6
SLD-Solid
 62
   142
420
    32960
370
     0
100
AcDbSpline
210
0.0
220
0.0
230
1.0
 70
     8
 71
     3
 72
    27
 73
    23
 74
     0
 42
0.00000001
 43
0.00000001
 40
0.0
 40
0.0
 40
0.0
 40
0.0
 40
0.0429553442438639
 40
0.084724185032328
 40
0.1253154593338635
 40
0.1647389106646881
 40
0.2030051803196573
 40
0.2401259104775936
 40
0.2761138607699977
 40
0.3109830400692686
 40
0.3447488554066203
 40
0.3774282800564223
 40
0.4090400428910332
 40
0.439604841079793
 40
0.4691455780191728
 40
0.497687627958233
 40
0.5590715783691803
 40
0.6292936409266362
 40
0.7084438868552447
 40
0.7965843065510855
 40
0.893758972424822
 40
1.0
 40
1.0
 40
1.0
 40
1.0
 10
812.3486361847552
 20
-30.2460585009679
 30
0.0
 10
812.3981657517695
 20
-30.24151956745524
 30
0.0
 10
812.4958567905485
 20
-30.23256707389366
 30
0.0
 10
812.6393489159786
 20
-30.21675574365068
 30
0.0
 10
812.7771811612483
 20
-30.19941197667775
 30
0.0
 10
812.9088519165648
 20
-30.18036594682616
 30
0.0
 10
813.0339958631732
 20
-30.15966120572799
 30
0.0
 10
813.1523509692157
 20
-30.13728652893333
 30
0.0
 10
813.2637549606645
 20
-30.11324471963195
 30
0.0
 10
813.3681338878822
 20
-30.08753486195159
 30
0.0
 10
813.4654928176732
 20
-30.06015722318689
 30
0.0
 10
813.5559055794057
 20
-30.03111066655489
 30
0.0
 10
813.6395070457796
 20
-30.00039797836129
 30
0.0
 10
813.7164782345445
 20
-29.96800785368242
 30
0.0
 10
813.7870586291576
 20
-29.93397848857015
 30
0.0
 10
813.8768885781299
 20
-29.88403723566541
 30
0.0
 10
813.9863261466928
 20
-29.80931265205678
 30
0.0
 10
814.1100287895431
 20
-29.70241833051718
 30
0.0
 10
814.2238649526286
 20
-29.57422407369143
 30
0.0
 10
814.317845079962
 20
-29.42473503868248
 30
0.0
 10
814.385216821818
 20
-29.25421827990898
 30
0.0
 10
814.3940320963854
 20
-29.13108163781042
 30
0.0
 10
814.3986361847551
 20
-29.06676917908663
 30
0.0
  0
SPLINE
  5
105
330
1F
100
AcDbEntity
  8
0
  6
SLD-Solid
 62
     7
370
    15
100
AcDbSpline
210
0.0
220
0.0
230
1.0
 70
     8
 71
     3
 72
    22
 73
    18
 74
     0
 42
0.00000001
 43
0.00000001
 40
0.0
 40
0.0
 40
0.0
 40
0.0
 40
0.125
 40
0.125
 40
0.25
 40
0.25
 40
0.375
 40
0.375
 40
0.5
 40
0.5
 40
0.625
 40
0.625
 40
0.75
 40
0.75
 40
0.875
 40
0.875
 40
1.0
 40
1.0
 40
1.0
 40
1.0
 10
814.398636184755
 20
-29.06676917908663
 30
0.0
 10
814.3986361847549
 20
-29.20213393747506
 30
0.0
 10
814.3853404518542
 20
-29.33537248259055
 30
0.0
 10
814.3333221795905
 20
-29.59717799139666
 30
0.0
 10
814.2941663631698
 20
-29.72673882359317
 30
0.0
 10
814.1910707648842
 20
-29.97565994520618
 30
0.0
 10
814.1280092306491
 20
-30.09350054963905
 30
0.0
 10
813.9797132825568
 20
-30.31574205499599
 30
0.0
 10
813.8933991734817
 20
-30.42110201264081
 30
0.0
 10
813.7036511231371
 20
-30.61093388278374
 30
0.0
 10
813.6004580476174
 20
-30.69568173039017
 30
0.0
 10
813.3780320835489
 20
-30.84462129883125
 30
0.0
 10
813.2577205820006
 20
-30.9090434201576
 30
0.0
 10
813.0104989996742
 20
-31.01159473292342
 30
0.0
 10
812.8827588174165
 20
-31.05051071997167
 30
0.0
 10
812.6195258951783
 20
-31.1032210573644
 30
0.0
 10
812.4840009484924
 20
-31.11676917908657
 30
0.0
 10
812.3486361847549
 20
-31.11676917908657
 30
0.0
  0
LINE
  5
106
330
1F
100
AcDbEntity
  8
0
  6
SLD-Solid
 62
     7
370
    15
100
AcDbLine
 10
812.3486361848
 20
-30.3167691791
 30
0.0
 11
812.3486361848
 21
-31.1167691791
 31
0.0
  0
SPLINE
  5
107
330
1F
100
AcDbEntity
  8
0
  6
SLD-Solid
 62
   142
420
    32960
370
     0
100
AcDbSpline
210
0.0
220
0.0
230
1.0
 70
     8
 71
     3
 72
     9
 73
     5
 74
     0
 42
0.00000001
 43
0.00000001
 40
0.0
 40
0.0
 40
0.0
 40
0.0
 40
0.1335047189091954
 40
1.0
 40
1.0
 40
1.0
 40
1.0
 10
812.8847996932335
 20
-30.18217988020644
 30
0.0
 10
812.8643685105923
 20
-30.19650178393163
 30
0.0
 10
812.7113313534938
 20
-30.30377816968183
 30
0.0
 10
812.5170125291104
 20
-30.3107382780391
 30
0.0
 10
812.3486361847549
 20
-30.31676917908655
 30
0.0
  0
SPLINE
  5
108
330
1F
100
AcDbEntity
  8
0
  6
SLD-Solid
 62
     7
370
    15
100
AcDbSpline
210
0.0
220
0.0
230
1.0
 70
     8
 71
     3
 72
    22
 73
    18
 74
     0
 42
0.00000001
 43
0.00000001
 40
0.0
 40
0.0
 40
0.0
 40
0.0
 40
0.125
 40
0.125
 40
0.25
 40
0.25
 40
0.375
 40
0.375
 40
0.5
 40
0.5
 40
0.625
 40
0.625
 40
0.75
 40
0.75
 40
0.875
 40
0.875
 40
1.0
 40
1.0
 40
1.0
 40
1.0
 10
812.3486361847547
 20
492.8832308209134
 30
0.0
 10
812.4840009413745
 20
492.8832308209136
 30
0.0
 10
812.6172394897474
 20
492.8699350883315
 30
0.0
 10
812.8790450137474
 20
492.8179168118194
 30
0.0
 10
813.0086058730237
 20
492.7787609833435
 30
0.0
 10
813.2575269627195
 20
492.6756653939962
 30
0.0
 10
813.3753675618157
 20
492.6126038632847
 30
0.0
 10
813.597609071573
 20
492.4643079106156
 30
0.0
 10
813.702969037315
 20
492.3779937918517
 30
0.0
 10
813.8928008879221
 20
492.1882457586163
 30
0.0
 10
813.9775487345313
 20
492.0850526864373
 30
0.0
 10
814.1264883096377
 20
491.8626267116532
 30
0.0
 10
814.190910428505
 20
491.742315211319
 30
0.0
 10
814.2934617341966
 20
491.4950936468092
 30
0.0
 10
814.3323777231452
 20
491.3673534652387
 30
0.0
 10
814.3850880645921
 20
491.1041205243434
 30
0.0
 10
814.398636184755
 20
490.9685955828825
 30
0.0
 10
814.3986361847549
 20
490.8332308209134
 30
0.0
  0
LINE
  5
109
330
1F
100
AcDbEntity
  8
0
  6
SLD-Solid
 62
     7
370
    15
100
AcDbLine
 10
812.3486361848
 20
492.0832308209
 30
0.0
 11
812.3486361848
 21
492.8832308209
 31
0.0
  0
SPLINE
  5
10A
330
1F
100
AcDbEntity
  8
0
  6
SLD-Solid
 62
   142
420
    32960
370
     0
100
AcDbSpline
210
0.0
220
0.0
230
1.0
 70
     8
 71
     3
 72
     9
 73
     5
 74
     0
 42
0.00000001
 43
0.00000001
 40
0.0
 40
0.0
 40
0.0
 40
0.0
 40
0.8366150873031835
 40
1.0
 40
1.0
 40
1.0
 40
1.0
 10
812.3486361847548
 20
492.0832308209135
 30
0.0
 10
812.5187372967109
 20
492.0759858317354
 30
0.0
 10
812.7220579330915
 20
492.0673259482502
 30
0.0
 10
812.8814897613362
 20
491.9530462302253
 30
0.0
 10
812.9075385166751
 20
491.9343746484726
 30
0.0
  0
LINE
  5
10B
330
1F
100
AcDbEntity
  8
0
  6
SLD-Solid
 62
   142
420
    32960
370
     0
100
AcDbLine
 10
812.3486361848
 20
-31.1167691791
 30
0.0
 11
764.3986361848
 21
-31.1167691791
 31
0.0
  0
LINE
  5
10C
330
1F
100
AcDbEntity
  8
0
  6
SLD-Solid
 62
     7
370
    15
100
AcDbLine
 10
764.3986361848
 20
-31.1167691791
 30
0.0
 11
764.3986361848
 21
-30.3167691791
 31
0.0
  0
LINE
  5
10D
330
1F
100
AcDbEntity
  8
0
  6
SLD-Solid
 62
   142
420
    32960
370
     0
100
AcDbLine
 10
812.3486361848
 20
-30.3167691791
 30
0.0
 11
764.3986361848
 21
-30.3167691791
 31
0.0
  0
LINE
  5
10E
330
1F
100
AcDbEntity
  8
0
  6
SLD-Solid
 62
     7
370
    15
100
AcDbLine
 10
764.3986361848
 20
492.8832308209
 30
0.0
 11
764.3986361848
 21
492.0832308209
 31
0.0
  0
LINE
  5
10F
330
1F
100
AcDbEntity
  8
0
  6
SLD-Solid
 62
     7
370
    15
100
AcDbLine
 10
812.3486361848
 20
492.8832308209
 30
0.0
 11
764.3986361848
 21
492.8832308209
 31
0.0
  0
LINE
  5
110
330
1F
100
AcDbEntity
  8
0
  6
SLD-Solid
 62
   142
420
    32960
370
     0
100
AcDbLine
 10
812.3486361848
 20
492.0832308209
 30
0.0
 11
764.3986361848
 21
492.0832308209
 31
0.0
  0
LWPOLYLINE
  5
111
330
1F
100
AcDbEntity
  8
0
  6
SLD-Solid
 62
   142
420
    32960
370
     0
100
AcDbPolyline
 90
        2
 70
   128
 43
0.0
 10
812.3486361848
 20
492.0125201428
 10
812.3486361848
 20
492.0125201428
  0
LINE
  5
112
330
1F
100
AcDbEntity
  8
0
  6
SLD-Solid
 62
   142
420
    32960
370
     0
100
AcDbLine
 10
763.3486361848
 20
490.8332308209
 30
0.0
 11
763.3486361848
 21
489.8891788689
 31
0.0
  0
LINE
  5
113
330
1F
100
AcDbEntity
  8
0
  6
SLD-Solid
 62
   142
420
    32960
370
     0
100
AcDbLine
 10
763.3486361848
 20
492.0125201428
 30
0.0
 11
763.3486361848
 21
490.8332308209
 31
0.0
  0
LINE
  5
114
330
1F
100
AcDbEntity
  8
0
  6
SLD-Solid
 62
   142
420
    32960
370
     0
100
AcDbLine
 10
764.3986361847
 20
492.0125201428
 30
0.0
 11
763.3486361848
 21
492.0125201428
 31
0.0
  0
LINE
  5
115
330
1F
100
AcDbEntity
  8
0
  6
SLD-Solid
 62
   142
420
    32960
370
     0
100
AcDbLine
 10
788.5001036559
 20
606.7658191553
 30
0.0
 11
788.3402448622
 21
607.2567003682
 31
0.0
  0
SPLINE
  5
116
330
1F
100
AcDbEntity
  8
0
  6
SLD-Solid
 62
   142
420
    32960
370
     0
100
AcDbSpline
210
0.0
220
0.0
230
1.0
 70
     8
 71
     3
 72
     8
 73
     4
 74
     0
 42
0.00000001
 43
0.00000001
 40
0.0
 40
0.0
 40
0.0
 40
0.0
 40
1.0
 40
1.0
 40
1.0
 40
1.0
 10
792.0025510895629
 20
606.9863562508233
 30
0.0
 10
790.8351340347159
 20
606.9126425342101
 30
0.0
 10
789.6676515405181
 20
606.8391302192105
 30
0.0
 10
788.5001036558751
 20
606.7658191553069
 30
0.0
  0
LINE
  5
117
330
1F
100
AcDbEntity
  8
0
  6
SLD-Solid
 62
   142
420
    32960
370
     0
100
AcDbLine
 10
789.8189232825
 20
606.2076997367
 30
0.0
 11
792.198314398
 21
606.357088118
 31
0.0
  0
LINE
  5
118
330
1F
100
AcDbEntity
  8
0
  6
SLD-Solid
 62
   142
420
    32960
370
     0
100
AcDbLine
 10
802.3986361848
 20
493.3832308209
 30
0.0
 11
802.3986361848
 21
492.8832308209
 31
0.0
  0
SPLINE
  5
119
330
1F
100
AcDbEntity
  8
0
  6
SLD-Solid
 62
     7
370
    15
100
AcDbSpline
210
0.0
220
0.0
230
1.0
 70
     8
 71
     3
 72
    10
 73
     6
 74
     0
 42
0.00000001
 43
0.00000001
 40
0.0
 40
0.0
 40
0.0
 40
0.0
 40
0.5
 40
0.5
 40
1.0
 40
1.0
 40
1.0
 40
1.0
 10
29.39863618473404
 20
10.97031388954139
 30
0.0
 10
29.39863618473398
 20
11.35984764516312
 30
0.0
 10
29.44172653176846
 20
11.75467797021446
 30
0.0
 10
29.59825689185375
 20
12.52419695466089
 30
0.0
 10
29.71047281800432
 20
12.90159307019445
 30
0.0
 10
29.84521817211927
 20
13.27410291123554
 30
0.0
  0
LINE
  5
11A
330
1F
100
AcDbEntity
  8
0
  6
SLD-Solid
 62
     7
370
    15
100
AcDbLine
 10
34.1520541973
 20
13.2741029112
 30
0.0
 11
29.8452181721
 21
13.2741029112
 31
0.0
  0
SPLINE
  5
11B
330
1F
100
AcDbEntity
  8
0
  6
SLD-Solid
 62
   142
420
    32960
370
     0
100
AcDbSpline
210
0.0
220
0.0
230
1.0
 70
     8
 71
     3
 72
    10
 73
     6
 74
     0
 42
0.00000001
 43
0.00000001
 40
0.0
 40
0.0
 40
0.0
 40
0.0
 40
0.5
 40
0.5
 40
1.0
 40
1.0
 40
1.0
 40
1.0
 10
34.59863618473402
 20
10.97031388954139
 30
0.0
 10
34.59863618473402
 20
11.35984764516318
 30
0.0
 10
34.5555458376996
 20
11.75467797021446
 30
0.0
 10
34.39901547761431
 20
12.52419695466089
 30
0.0
 10
34.28679955146374
 20
12.90159307019445
 30
0.0
 10
34.15205419734879
 20
13.27410291123554
 30
0.0
  0
LINE
  5
11C
330
1F
100
AcDbEntity
  8
0
  6
SLD-Solid
 62
   142
420
    32960
370
     0
100
AcDbLine
 10
34.3593518185
 20
9.3687917868
 30
0.0
 11
34.5986361847
 21
10.9703138895
 31
0.0
  0
LINE
  5
11D
330
1F
100
AcDbEntity
  8
0
  6
SLD-Solid
 62
     7
370
    15
100
AcDbLine
 10
30.4486361847
 20
8.6665248678
 30
0.0
 11
29.8452181721
 21
8.6665248678
 31
0.0
  0
SPLINE
  5
11E
330
1F
100
AcDbEntity
  8
0
  6
SLD-Solid
 62
   142
420
    32960
370
     0
100
AcDbSpline
210
0.0
220
0.0
230
1.0
 70
     8
 71
     3
 72
    10
 73
     6
 74
     0
 42
0.00000001
 43
0.00000001
 40
0.0
 40
0.0
 40
0.0
 40
0.0
 40
0.5
 40
0.5
 40
1.0
 40
1.0
 40
1.0
 40
1.0
 10
29.84521817211921
 20
8.666524867847302
 30
0.0
 10
29.70968325681189
 20
9.041217487776809
 30
0.0
 10
29.59600535797879
 20
9.424976235901216
 30
0.0
 10
29.44056662358613
 20
10.19423118001805
 30
0.0
 10
29.39863618473404
 20
10.58101143223872
 30
0.0
 10
29.39863618473404
 20
10.97031388954139
 30
0.0
  0
SPLINE
  5
11F
330
1F
100
AcDbEntity
  8
0
  6
SLD-Solid
 62
     7
370
    15
100
AcDbSpline
210
0.0
220
0.0
230
1.0
 70
     8
 71
     3
 72
    12
 73
     8
 74
     0
 42
0.00000001
 43
0.00000001
 40
0.0
 40
0.0
 40
0.0
 40
0.0
 40
0.2500000000000042
 40
0.2500000000000042
 40
0.5000000000000084
 40
0.5000000000000084
 40
1.0
 40
1.0
 40
1.0
 40
1.0
 10
29.39863618473404
 20
15.93245588737174
 30
0.0
 10
29.39863618473404
 20
15.70684961137309
 30
0.0
 10
29.40919174525747
 20
15.4802320388317
 30
0.0
 10
29.45004047181793
 20
15.03193509479794
 30
0.0
 10
29.48029438185784
 20
14.80928599831424
 30
0.0
 10
29.59698050710618
 20
14.14529315403898
 30
0.0
 10
29.70923624483296
 20
13.70788846455706
 30
0.0
 10
29.84521817211888
 20
13.27410291123549
 30
0.0
  0
LINE
  5
120
330
1F
100
AcDbEntity
  8
0
  6
SLD-Solid
 62
     7
370
    15
100
AcDbLine
 10
29.3986361847
 20
10.9703138895
 30
0.0
 11
29.3986361847
 21
15.9324558874
 31
0.0
  0
LINE
  5
121
330
1F
100
AcDbEntity
  8
0
  6
SLD-Solid
 62
     7
370
    15
100
AcDbLine
 10
34.1520541973
 20
18.5908088635
 30
0.0
 11
29.8452181721
 21
18.5908088635
 31
0.0
  0
SPLINE
  5
122
330
1F
100
AcDbEntity
  8
0
  6
SLD-Solid
 62
   142
420
    32960
370
     0
100
AcDbSpline
210
0.0
220
0.0
230
1.0
 70
     8
 71
     3
 72
     8
 73
     4
 74
     0
 42
0.00000001
 43
0.00000001
 40
0.0
 40
0.0
 40
0.0
 40
0.0
 40
1.0
 40
1.0
 40
1.0
 40
1.0
 10
29.84521817211855
 20
18.590808863508
 30
0.0
 10
29.5725737827674
 20
17.72106683487792
 30
0.0
 10
29.39863618473404
 20
16.83826666086949
 30
0.0
 10
29.39863618473404
 20
15.93245588737174
 30
0.0
  0
SPLINE
  5
123
330
1F
100
AcDbEntity
  8
0
  6
SLD-Solid
 62
   142
420
    32960
370
     0
100
AcDbSpline
210
0.0
220
0.0
230
1.0
 70
     8
 71
     3
 72
    12
 73
     8
 74
     0
 42
0.00000001
 43
0.00000001
 40
0.0
 40
0.0
 40
0.0
 40
0.0
 40
0.2500000000000042
 40
0.2500000000000042
 40
0.5000000000000084
 40
0.5000000000000084
 40
1.0
 40
1.0
 40
1.0
 40
1.0
 10
34.59863618473402
 20
15.93245588737174
 30
0.0
 10
34.59863618473408
 20
15.70684961137309
 30
0.0
 10
34.5880806242107
 20
15.4802320388317
 30
0.0
 10
34.54723189765024
 20
15.03193509479792
 30
0.0
 10
34.51697798761022
 20
14.80928599831424
 30
0.0
 10
34.40029186236171
 20
14.14529315403895
 30
0.0
 10
34.28803612463499
 20
13.70788846455703
 30
0.0
 10
34.15205419734918
 20
13.27410291123554
 30
0.0
  0
SPLINE
  5
124
330
1F
100
AcDbEntity
  8
0
  6
SLD-Solid
 62
   142
420
    32960
370
     0
100
AcDbSpline
210
0.0
220
0.0
230
1.0
 70
     8
 71
     3
 72
     8
 73
     4
 74
     0
 42
0.00000001
 43
0.00000001
 40
0.0
 40
0.0
 40
0.0
 40
0.0
 40
1.0
 40
1.0
 40
1.0
 40
1.0
 10
34.15205419734951
 20
18.590808863508
 30
0.0
 10
34.42469858670066
 20
17.72106683487792
 30
0.0
 10
34.59863618473402
 20
16.83826666086946
 30
0.0
 10
34.59863618473402
 20
15.93245588737174
 30
0.0
  0
LINE
  5
125
330
1F
100
AcDbEntity
  8
0
  6
SLD-Solid
 62
   142
420
    32960
370
     0
100
AcDbLine
 10
29.3986361847
 20
8.9832308201
 30
0.0
 11
29.3986361847
 21
10.9703138895
 31
0.0
  0
LINE
  5
126
330
1F
100
AcDbEntity
  8
0
  6
SLD-Solid
 62
   142
420
    32960
370
     0
100
AcDbLine
 10
29.3986361847
 20
15.9324558874
 30
0.0
 11
29.3986361847
 21
18.9453728179
 31
0.0
  0
SPLINE
  5
127
330
1F
100
AcDbEntity
  8
0
  6
SLD-Solid
 62
     7
370
    15
100
AcDbSpline
210
0.0
220
0.0
230
1.0
 70
     8
 71
     3
 72
     8
 73
     4
 74
     0
 42
0.00000001
 43
0.00000001
 40
0.0
 40
0.0
 40
0.0
 40
0.0
 40
1.0
 40
1.0
 40
1.0
 40
1.0
 10
29.84521817211855
 20
19.29993677239206
 30
0.0
 10
29.5725737827674
 20
19.18393292497833
 30
0.0
 10
29.39863618473404
 20
19.06618741733188
 30
0.0
 10
29.39863618473404
 20
18.94537281794997
 30
0.0
  0
LINE
  5
128
330
1F
100
AcDbEntity
  8
0
  6
SLD-Solid
 62
     7
370
    15
100
AcDbLine
 10
34.1520541973
 20
19.2999367724
 30
0.0
 11
29.8452181721
 21
19.2999367724
 31
0.0
  0
SPLINE
  5
129
330
1F
100
AcDbEntity
  8
0
  6
SLD-Solid
 62
   142
420
    32960
370
     0
100
AcDbSpline
210
0.0
220
0.0
230
1.0
 70
     8
 71
     3
 72
    12
 73
     8
 74
     0
 42
0.00000001
 43
0.00000001
 40
0.0
 40
0.0
 40
0.0
 40
0.0
 40
0.2500000000000148
 40
0.2500000000000148
 40
0.5000000000000296
 40
0.5000000000000296
 40
1.0
 40
1.0
 40
1.0
 40
1.0
 10
29.39863618473404
 20
18.94537281794997
 30
0.0
 10
29.39863618473398
 20
18.91528206097257
 30
0.0
 10
29.40919174525747
 20
18.88505641998822
 30
0.0
 10
29.45004047181782
 20
18.8252637819647
 30
0.0
 10
29.48029438185773
 20
18.79556744562011
 30
0.0
 10
29.59698050710613
 20
18.70700586982449
 30
0.0
 10
29.70923624483301
 20
18.64866601135329
 30
0.0
 10
29.84521817211888
 20
18.59080886350792
 30
0.0
  0
SPLINE
  5
12A
330
1F
100
AcDbEntity
  8
0
  6
SLD-Solid
 62
   142
420
    32960
370
     0
100
AcDbSpline
210
0.0
220
0.0
230
1.0
 70
     8
 71
     3
 72
    12
 73
     8
 74
     0
 42
0.00000001
 43
0.00000001
 40
0.0
 40
0.0
 40
0.0
 40
0.0
 40
0.2500000000000148
 40
0.2500000000000148
 40
0.5000000000000296
 40
0.5000000000000296
 40
1.0
 40
1.0
 40
1.0
 40
1.0
 10
34.59863618473402
 20
18.94537281794997
 30
0.0
 10
34.59863618473408
 20
18.91528206097257
 30
0.0
 10
34.58808062421059
 20
18.88505641998822
 30
0.0
 10
34.54723189765019
 20
18.8252637819647
 30
0.0
 10
34.51697798761016
 20
18.79556744562011
 30
0.0
 10
34.40029186236171
 20
18.70700586982449
 30
0.0
 10
34.28803612463505
 20
18.64866601135329
 30
0.0
 10
34.15205419734918
 20
18.59080886350792
 30
0.0
  0
SPLINE
  5
12B
330
1F
100
AcDbEntity
  8
0
  6
SLD-Solid
 62
   142
420
    32960
370
     0
100
AcDbSpline
210
0.0
220
0.0
230
1.0
 70
     8
 71
     3
 72
     8
 73
     4
 74
     0
 42
0.00000001
 43
0.00000001
 40
0.0
 40
0.0
 40
0.0
 40
0.0
 40
1.0
 40
1.0
 40
1.0
 40
1.0
 10
34.15205419734951
 20
19.29993677239206
 30
0.0
 10
34.42469858670066
 20
19.18393292497833
 30
0.0
 10
34.59863618473402
 20
19.06618741733188
 30
0.0
 10
34.59863618473402
 20
18.94537281794997
 30
0.0
  0
SPLINE
  5
12C
330
1F
100
AcDbEntity
  8
0
  6
SLD-Solid
 62
   142
420
    32960
370
     0
100
AcDbSpline
210
0.0
220
0.0
230
1.0
 70
     8
 71
     3
 72
     8
 73
     4
 74
     0
 42
0.00000001
 43
0.00000001
 40
0.0
 40
0.0
 40
0.0
 40
0.0
 40
1.0
 40
1.0
 40
1.0
 40
1.0
 10
29.84521817211855
 20
8.666524867847302
 30
0.0
 10
29.5725737827674
 20
8.782528715261083
 30
0.0
 10
29.39863618473404
 20
8.900274222907512
 30
0.0
 10
29.39863618473404
 20
9.021088822289357
 30
0.0
  0
SPLINE
  5
12D
330
1F
100
AcDbEntity
  8
0
  6
SLD-Solid
 62
     7
370
    15
100
AcDbSpline
210
0.0
220
0.0
230
1.0
 70
     8
 71
     3
 72
     9
 73
     5
 74
     0
 42
0.00000001
 43
0.00000001
 40
0.0
 40
0.0
 40
0.0
 40
0.0
 40
0.3638572527450221
 40
1.0
 40
1.0
 40
1.0
 40
1.0
 10
29.39863618473404
 20
16.99614775069794
 30
0.0
 10
29.40343036498794
 20
17.20580192858387
 30
0.0
 10
29.41660635699506
 20
17.78200090855267
 30
0.0
 10
29.58864711482751
 20
18.34302217298497
 30
0.0
 10
29.69808959515491
 20
18.69991178140939
 30
0.0
  0
SPLINE
  5
12E
330
1F
100
AcDbEntity
  8
0
  6
SLD-Solid
 62
   142
420
    32960
370
     0
100
AcDbSpline
210
0.0
220
0.0
230
1.0
 70
     8
 71
     3
 72
     9
 73
     5
 74
     0
 42
0.00000001
 43
0.00000001
 40
0.0
 40
0.0
 40
0.0
 40
0.0
 40
0.3872473839015353
 40
1.0
 40
1.0
 40
1.0
 40
1.0
 10
34.59863618473402
 20
16.99614775069794
 30
0.0
 10
34.59429268628539
 20
17.20584498608754
 30
0.0
 10
34.58307634595853
 20
17.74735215723197
 30
0.0
 10
34.42259083131516
 20
18.27459836211143
 30
0.0
 10
34.32425291237162
 20
18.59766985347924
 30
0.0
  0
SPLINE
  5
12F
330
1F
100
AcDbEntity
  8
0
  6
SLD-Solid
 62
   142
420
    32960
370
     0
100
AcDbSpline
210
0.0
220
0.0
230
1.0
 70
     8
 71
     3
 72
     9
 73
     5
 74
     0
 42
0.00000001
 43
0.00000001
 40
0.0
 40
0.0
 40
0.0
 40
0.0
 40
0.0957726906216451
 40
1.0
 40
1.0
 40
1.0
 40
1.0
 10
34.59863618473402
 20
12.03400575286762
 30
0.0
 10
34.59832263308427
 20
12.09703521726368
 30
0.0
 10
34.59504871806995
 20
12.75515042721509
 30
0.0
 10
34.42939180342191
 20
13.40007363930029
 30
0.0
 10
34.27960029720983
 20
13.98323082011971
 30
0.0
  0
LINE
  5
130
330
1F
100
AcDbEntity
  8
0
  6
SLD-Solid
 62
   142
420
    32960
370
     0
100
AcDbLine
 10
783.2813231982
 20
617.6950855291
 30
0.0
 11
783.141527247
 21
617.7143773366
 31
0.0
  0
LINE
  5
131
330
1F
100
AcDbEntity
  8
0
  6
SLD-Solid
 62
   142
420
    32960
370
     0
100
AcDbLine
 10
784.9007892235
 20
617.5139580058
 30
0.0
 11
785.6312947217
 21
617.4541154991
 31
0.0
  0
SPLINE
  5
132
330
1F
100
AcDbEntity
  8
0
  6
SLD-Solid
 62
   142
420
    32960
370
     0
100
AcDbSpline
210
0.0
220
0.0
230
1.0
 70
     8
 71
     3
 72
    14
 73
    10
 74
     0
 42
0.00000001
 43
0.00000001
 40
0.0
 40
0.0
 40
0.0
 40
0.0
 40
0.25
 40
0.25
 40
0.5
 40
0.5
 40
0.75
 40
0.75
 40
1.0
 40
1.0
 40
1.0
 40
1.0
 10
773.0565629781997
 20
625.5332308201107
 30
0.0
 10
773.3043020189598
 20
625.6391490836179
 30
0.0
 10
773.5519406452221
 20
625.7450347204767
 30
0.0
 10
774.0085652166279
 20
625.9442469767866
 30
0.0
 10
774.2173656199725
 20
626.0375133100533
 30
0.0
 10
774.563344755742
 20
626.2007746850269
 30
0.0
 10
774.7003814806217
 20
626.2707235856861
 30
0.0
 10
774.880768019805
 20
626.3801806644786
 30
0.0
 10
774.924040980179
 20
626.4196638712567
 30
0.0
 10
774.9165693568676
 20
626.4426591633184
 30
0.0
  0
SPLINE
  5
133
330
1F
100
AcDbEntity
  8
0
  6
SLD-Solid
 62
   142
420
    32960
370
     0
100
AcDbSpline
210
0.0
220
0.0
230
1.0
 70
     8
 71
     3
 72
    20
 73
    16
 74
     0
 42
0.00000001
 43
0.00000001
 40
0.0
 40
0.0
 40
0.0
 40
0.0
 40
0.1249999999999957
 40
0.1249999999999957
 40
0.2499999999999914
 40
0.2499999999999914
 40
0.3749999999999871
 40
0.3749999999999871
 40
0.4999999999999828
 40
0.4999999999999828
 40
0.6249999999999785
 40
0.6249999999999785
 40
0.7499999999999742
 40
0.7499999999999742
 40
1.0
 40
1.0
 40
1.0
 40
1.0
 10
813.1566518276259
 20
508.7517868828455
 30
0.0
 10
813.1453537151443
 20
508.786558897631
 30
0.0
 10
813.1216016219416
 20
508.8166698157694
 30
0.0
 10
813.0498607671318
 20
508.869167603756
 30
0.0
 10
813.0012610543748
 20
508.8917168926668
 30
0.0
 10
812.8808998284362
 20
508.929019428705
 30
0.0
 10
812.8099105126659
 20
508.9437020425755
 30
0.0
 10
812.6464729882631
 20
508.966534388666
 30
0.0
 10
812.5529026322193
 20
508.9746956855334
 30
0.0
 10
812.3504766535409
 20
508.9849969700157
 30
0.0
 10
812.2413266774428
 20
508.9872626701897
 30
0.0
 10
812.0069327920565
 20
508.9872996712563
 30
0.0
 10
811.8814043017002
 20
508.9850170271615
 30
0.0
 10
811.4959959683276
 20
508.9735945793288
 30
0.0
 10
811.2182457570938
 20
508.9596643831283
 30
0.0
 10
810.9381947700605
 20
508.9455562929705
 30
0.0
  0
SPLINE
  5
134
330
1F
100
AcDbEntity
  8
0
  6
SLD-Solid
 62
     7
370
    15
100
AcDbSpline
210
0.0
220
0.0
230
1.0
 70
     8
 71
     3
 72
    20
 73
    16
 74
     0
 42
0.00000001
 43
0.00000001
 40
0.0
 40
0.0
 40
0.0
 40
0.0
 40
0.1249999999999951
 40
0.1249999999999951
 40
0.2499999999999902
 40
0.2499999999999902
 40
0.3749999999999852
 40
0.3749999999999852
 40
0.4999999999999803
 40
0.4999999999999803
 40
0.6249999999999755
 40
0.6249999999999755
 40
0.7499999999999705
 40
0.7499999999999705
 40
1.0
 40
1.0
 40
1.0
 40
1.0
 10
810.9381947700605
 20
508.9455562929705
 30
0.0
 10
810.9747562300682
 20
508.8102043210143
 30
0.0
 10
811.0107332154266
 20
508.6770365318061
 30
0.0
 10
811.0828307221101
 20
508.4152312724126
 30
0.0
 10
811.1192945074301
 20
508.2854065711142
 30
0.0
 10
811.191964991682
 20
508.0368521666408
 30
0.0
 10
811.227865892272
 20
507.9190918245902
 30
0.0
 10
811.3000857163628
 20
507.6966702837868
 30
0.0
 10
811.3367624011174
 20
507.5911599710856
 30
0.0
 10
811.4091125723653
 20
507.4017080135624
 30
0.0
 10
811.4449965788293
 20
507.3169404736901
 30
0.0
 10
811.5174634628975
 20
507.1676431604051
 30
0.0
 10
811.5540829761543
 20
507.1033776239795
 30
0.0
 10
811.6623173074968
 20
506.9497714829558
 30
0.0
 10
811.7348984390896
 20
506.8955562929705
 30
0.0
 10
811.8080213622974
 20
506.8955562929705
 30
0.0
  0
LINE
  5
135
330
1F
100
AcDbEntity
  8
0
  6
SLD-Solid
 62
   142
420
    32960
370
     0
100
AcDbLine
 10
811.8080213623
 20
506.895556293
 30
0.0
 11
811.8080213623
 21
507.695556293
 31
0.0
  0
SPLINE
  5
136
330
1F
100
AcDbEntity
  8
0
  6
SLD-Solid
 62
   142
420
    32960
370
     0
100
AcDbSpline
210
0.0
220
0.0
230
1.0
 70
     8
 71
     3
 72
    12
 73
     8
 74
     0
 42
0.00000001
 43
0.00000001
 40
0.0
 40
0.0
 40
0.0
 40
0.0
 40
0.249999999999975
 40
0.249999999999975
 40
0.49999999999995
 40
0.49999999999995
 40
1.0
 40
1.0
 40
1.0
 40
1.0
 10
810.9381947700605
 20
508.9455562929705
 30
0.0
 10
811.0113365766376
 20
508.7804502791222
 30
0.0
 10
811.0827456705379
 20
508.619249334235
 30
0.0
 10
811.2285294492084
 20
508.3152124741579
 30
0.0
 10
811.3003595317831
 20
508.177807329822
 30
0.0
 10
811.5183947974444
 20
507.8297395478477
 30
0.0
 10
811.661737755121
 20
507.6955562929706
 30
0.0
 10
811.8080213622974
 20
507.6955562929706
 30
0.0
  0
SPLINE
  5
137
330
1F
100
AcDbEntity
  8
0
  6
SLD-Solid
 62
     7
370
    15
100
AcDbSpline
210
0.0
220
0.0
230
1.0
 70
     8
 71
     3
 72
    14
 73
    10
 74
     0
 42
0.00000001
 43
0.00000001
 40
0.0
 40
0.0
 40
0.0
 40
0.0
 40
0.25
 40
0.25
 40
0.5
 40
0.5
 40
0.75
 40
0.75
 40
1.0
 40
1.0
 40
1.0
 40
1.0
 10
757.4486361847446
 20
625.5332308201107
 30
0.0
 10
757.4033950831769
 20
625.8015751926047
 30
0.0
 10
757.3581539816091
 20
626.0698139830474
 30
0.0
 10
757.2676717784733
 20
626.5656497298709
 30
0.0
 10
757.2224306769057
 20
626.7930515960594
 30
0.0
 10
757.1319484737701
 20
627.1725478470271
 30
0.0
 10
757.0867073722023
 20
627.324492916237
 30
0.0
 10
756.9962251690667
 20
627.5298748072809
 30
0.0
 10
756.9509840674989
 20
627.5832308201108
 30
0.0
 10
756.9057429659312
 20
627.5832308201105
 30
0.0
  0
LINE
  5
138
330
1F
100
AcDbEntity
  8
0
  6
SLD-Solid
 62
   142
420
    32960
370
     0
100
AcDbLine
 10
756.9057429659
 20
627.5832308201
 30
0.0
 11
756.9057429659
 21
626.7832308201
 31
0.0
  0
SPLINE
  5
139
330
1F
100
AcDbEntity
  8
0
  6
SLD-Solid
 62
   142
420
    32960
370
     0
100
AcDbSpline
210
0.0
220
0.0
230
1.0
 70
     8
 71
     3
 72
    14
 73
    10
 74
     0
 42
0.00000001
 43
0.00000001
 40
0.0
 40
0.0
 40
0.0
 40
0.0
 40
0.25
 40
0.25
 40
0.5
 40
0.5
 40
0.75
 40
0.75
 40
1.0
 40
1.0
 40
1.0
 40
1.0
 10
757.4486361847446
 20
625.5332308201107
 30
0.0
 10
757.4033950831769
 20
625.696855437485
 30
0.0
 10
757.3581539816091
 20
625.8604156755598
 30
0.0
 10
757.2676717784733
 20
626.1627545455741
 30
0.0
 10
757.2224306769057
 20
626.3014142200793
 30
0.0
 10
757.1319484737701
 20
626.5328143731084
 30
0.0
 10
757.0867073722023
 20
626.6254638055535
 30
0.0
 10
756.9962251690667
 20
626.7506966659462
 30
0.0
 10
756.9509840674989
 20
626.7832308201107
 30
0.0
 10
756.9057429659312
 20
626.7832308201107
 30
0.0
  0
SPLINE
  5
13A
330
1F
100
AcDbEntity
  8
0
  6
SLD-Solid
 62
   142
420
    32960
370
     0
100
AcDbSpline
210
0.0
220
0.0
230
1.0
 70
     8
 71
     3
 72
    14
 73
    10
 74
     0
 42
0.00000001
 43
0.00000001
 40
0.0
 40
0.0
 40
0.0
 40
0.0
 40
0.25
 40
0.25
 40
0.5
 40
0.5
 40
0.75
 40
0.75
 40
1.0
 40
1.0
 40
1.0
 40
1.0
 10
756.9057429659312
 20
506.8955562929707
 30
0.0
 10
756.9509840674989
 20
506.8955562929709
 30
0.0
 10
756.9962251690667
 20
506.9489123058008
 30
0.0
 10
757.0867073722022
 20
507.1542941968443
 30
0.0
 10
757.1319484737701
 20
507.3062392660545
 30
0.0
 10
757.2224306769057
 20
507.6857355170224
 30
0.0
 10
757.2676717784734
 20
507.9131373832104
 30
0.0
 10
757.358153981609
 20
508.4089731300343
 30
0.0
 10
757.4033950831769
 20
508.6772119204766
 30
0.0
 10
757.4486361847446
 20
508.9455562929708
 30
0.0
  0
SPLINE
  5
13B
330
1F
100
AcDbEntity
  8
0
  6
SLD-Solid
 62
   142
420
    32960
370
     0
100
AcDbSpline
210
0.0
220
0.0
230
1.0
 70
     8
 71
     3
 72
    14
 73
    10
 74
     0
 42
0.00000001
 43
0.00000001
 40
0.0
 40
0.0
 40
0.0
 40
0.0
 40
0.25
 40
0.25
 40
0.5
 40
0.5
 40
0.75
 40
0.75
 40
1.0
 40
1.0
 40
1.0
 40
1.0
 10
755.3986361847446
 20
626.0761240389241
 30
0.0
 10
755.3986361847446
 20
626.0308829373562
 30
0.0
 10
755.4519921975747
 20
625.9856418357888
 30
0.0
 10
755.6573740886183
 20
625.895159632653
 30
0.0
 10
755.8093191578283
 20
625.8499185310853
 30
0.0
 10
756.1888154087961
 20
625.7594363279497
 30
0.0
 10
756.4162172749843
 20
625.714195226382
 30
0.0
 10
756.9120530218081
 20
625.6237130232463
 30
0.0
 10
757.1802918122505
 20
625.5784719216783
 30
0.0
 10
757.4486361847446
 20
625.5332308201107
 30
0.0
  0
LINE
  5
13C
330
1F
100
AcDbEntity
  8
0
  6
SLD-Solid
 62
   142
420
    32960
370
     0
100
AcDbLine
 10
755.3986361847
 20
626.0761240389
 30
0.0
 11
755.3986361847
 21
508.4026630742
 31
0.0
  0
SPLINE
  5
13D
330
1F
100
AcDbEntity
  8
0
  6
SLD-Solid
 62
   142
420
    32960
370
     0
100
AcDbSpline
210
0.0
220
0.0
230
1.0
 70
     8
 71
     3
 72
    14
 73
    10
 74
     0
 42
0.00000001
 43
0.00000001
 40
0.0
 40
0.0
 40
0.0
 40
0.0
 40
0.25
 40
0.25
 40
0.5
 40
0.5
 40
0.75
 40
0.75
 40
1.0
 40
1.0
 40
1.0
 40
1.0
 10
757.4486361847446
 20
508.9455562929708
 30
0.0
 10
757.1802918122504
 20
508.9003151914029
 30
0.0
 10
756.9120530218081
 20
508.8550740898352
 30
0.0
 10
756.4162172749842
 20
508.7645918866994
 30
0.0
 10
756.188815408796
 20
508.7193507851317
 30
0.0
 10
755.8093191578283
 20
508.6288685819964
 30
0.0
 10
755.6573740886183
 20
508.5836274804285
 30
0.0
 10
755.4519921975746
 20
508.4931452772932
 30
0.0
 10
755.3986361847446
 20
508.4479041757251
 30
0.0
 10
755.3986361847446
 20
508.4026630741574
 30
0.0
  0
SPLINE
  5
13E
330
1F
100
AcDbEntity
  8
0
  6
SLD-Solid
 62
   142
420
    32960
370
     0
100
AcDbSpline
210
0.0
220
0.0
230
1.0
 70
     8
 71
     3
 72
    14
 73
    10
 74
     0
 42
0.00000001
 43
0.00000001
 40
0.0
 40
0.0
 40
0.0
 40
0.0
 40
0.25
 40
0.25
 40
0.5
 40
0.5
 40
0.75
 40
0.75
 40
1.0
 40
1.0
 40
1.0
 40
1.0
 10
773.3467071494565
 20
627.5832308201105
 30
0.0
 10
773.3225284685185
 20
627.5832308201105
 30
0.0
 10
773.2983497875805
 20
627.5298748072809
 30
0.0
 10
773.2499924257042
 20
627.324492916237
 30
0.0
 10
773.2258137447661
 20
627.1725478470269
 30
0.0
 10
773.1774563828901
 20
626.7930515960592
 30
0.0
 10
773.153277701952
 20
626.5656497298711
 30
0.0
 10
773.1049203400758
 20
626.0698139830472
 30
0.0
 10
773.0807416591379
 20
625.8015751926049
 30
0.0
 10
773.0565629781998
 20
625.5332308201107
 30
0.0
  0
LINE
  5
13F
330
1F
100
AcDbEntity
  8
0
  6
SLD-Solid
 62
   142
420
    32960
370
     0
100
AcDbLine
 10
756.9057429659
 20
627.5832308201
 30
0.0
 11
757.3986361847
 21
627.5832308201
 31
0.0
  0
LINE
  5
140
330
1F
100
AcDbEntity
  8
0
  6
SLD-Solid
 62
   142
420
    32960
370
     0
100
AcDbLine
 10
671.2986361847
 20
660.9332308201
 30
0.0
 11
671.2986361847
 21
654.3832308201
 31
0.0
  0
LINE
  5
141
330
1F
100
AcDbEntity
  8
0
  6
SLD-Solid
 62
   142
420
    32960
370
     0
100
AcDbLine
 10
671.2986361847
 20
654.3832308201
 30
0.0
 11
672.4986361847
 21
654.3832308201
 31
0.0
  0
LINE
  5
142
330
1F
100
AcDbEntity
  8
0
  6
SLD-Solid
 62
   142
420
    32960
370
     0
100
AcDbLine
 10
672.4986361847
 20
660.9332308201
 30
0.0
 11
672.4986361847
 21
654.3832308201
 31
0.0
  0
LINE
  5
143
330
1F
100
AcDbEntity
  8
0
  6
SLD-Solid
 62
   142
420
    32960
370
     0
100
AcDbLine
 10
672.4986361847
 20
660.9332308201
 30
0.0
 11
671.2986361847
 21
660.9332308201
 31
0.0
  0
LINE
  5
144
330
1F
100
AcDbEntity
  8
0
  6
SLD-Solid
 62
   142
420
    32960
370
     0
100
AcDbLine
 10
808.2986361848
 20
499.1832305076
 30
0.0
 11
800.4986361848
 21
499.1832305076
 31
0.0
  0
LINE
  5
145
330
1F
100
AcDbEntity
  8
0
  6
SLD-Solid
 62
   142
420
    32960
370
     0
100
AcDbLine
 10
814.3986361848
 20
58.8832308209
 30
0.0
 11
815.9986361848
 21
58.8832308209
 31
0.0
  0
SPLINE
  5
146
330
1F
100
AcDbEntity
  8
0
  6
SLD-Solid
 62
   142
420
    32960
370
     0
100
AcDbSpline
210
0.0
220
0.0
230
1.0
 70
     8
 71
     3
 72
    10
 73
     6
 74
     0
 42
0.00000001
 43
0.00000001
 40
0.0
 40
0.0
 40
0.0
 40
0.0
 40
0.0962885969422667
 40
0.7123867071122287
 40
1.0
 40
1.0
 40
1.0
 40
1.0
 10
763.7242462071647
 20
-28.28922387696553
 30
0.0
 10
763.7379886916592
 20
-28.31070763562849
 30
0.0
 10
763.8396618241743
 20
-28.469654225114
 30
0.0
 10
764.0874959495359
 20
-28.62066442677297
 30
0.0
 10
764.3235197468005
 20
-28.65620498950172
 30
0.0
 10
764.398636184749
 20
-28.6675160543427
 30
0.0
  0
LINE
  5
147
330
1F
100
AcDbEntity
  8
0
  6
SLD-Solid
 62
     7
370
    15
100
AcDbLine
 10
792.8760119485
 20
612.5908484743
 30
0.0
 11
791.3926618709
 21
617.1561305879
 31
0.0
  0
LINE
  5
148
330
1F
100
AcDbEntity
  8
0
  6
SLD-Solid
 62
     7
370
    15
100
AcDbLine
 10
809.0066305503
 20
562.945909159
 30
0.0
 11
807.5232804727
 21
567.5111912726
 31
0.0
  0
SPLINE
  5
149
330
1F
100
AcDbEntity
  8
0
  6
SLD-Solid
 62
   142
420
    32960
370
     0
100
AcDbSpline
210
0.0
220
0.0
230
1.0
 70
     8
 71
     3
 72
     8
 73
     4
 74
     0
 42
0.00000001
 43
0.00000001
 40
0.0
 40
0.0
 40
0.0
 40
0.0
 40
1.0
 40
1.0
 40
1.0
 40
1.0
 10
805.816132130909
 20
564.4842166499216
 30
0.0
 10
805.5770697213477
 20
564.2986602603697
 30
0.0
 10
805.3380145916138
 20
564.1130814658128
 30
0.0
 10
805.09896673193
 20
563.9274802963428
 30
0.0
  0
SPLINE
  5
14A
330
1F
100
AcDbEntity
  8
0
  6
SLD-Solid
 62
   142
420
    32960
370
     0
100
AcDbSpline
210
0.0
220
0.0
230
1.0
 70
     8
 71
     3
 72
     9
 73
     5
 74
     0
 42
0.00000001
 43
0.00000001
 40
0.0
 40
0.0
 40
0.0
 40
0.0
 40
0.4999955739392669
 40
1.0
 40
1.0
 40
1.0
 40
1.0
 10
805.9407654409631
 20
564.1260050721339
 30
0.0
 10
805.9208261620657
 20
564.1847910749813
 30
0.0
 10
805.8809472512581
 20
564.3023641214476
 30
0.0
 10
805.8377425135392
 20
564.4236028311476
 30
0.0
 10
805.8161399534531
 20
564.4842227226077
 30
0.0
  0
LINE
  5
14B
330
1F
100
AcDbEntity
  8
0
  6
SLD-Solid
 62
   142
420
    32960
370
     0
100
AcDbLine
 10
805.940765441
 20
564.1260050721
 30
0.0
 11
805.2234611913
 21
563.56942156
 31
0.0
  0
SPLINE
  5
14C
330
1F
100
AcDbEntity
  8
0
  6
SLD-Solid
 62
   142
420
    32960
370
     0
100
AcDbSpline
210
0.0
220
0.0
230
1.0
 70
     8
 71
     3
 72
    11
 73
     7
 74
     0
 42
0.00000001
 43
0.00000001
 40
0.0
 40
0.0
 40
0.0
 40
0.0
 40
0.2500151131446705
 40
0.5000078356072698
 40
0.7499966392901822
 40
1.0
 40
1.0
 40
1.0
 40
1.0
 10
805.4628783892756
 20
562.7871547331908
 30
0.0
 10
805.4455358614198
 20
562.8494137375249
 30
0.0
 10
805.4108523588586
 20
562.9739261704439
 30
0.0
 10
805.3529416722437
 20
563.1673313326846
 30
0.0
 10
805.2911202987498
 20
563.365117877259
 30
0.0
 10
805.2460094489093
 20
563.5013149631313
 30
0.0
 10
805.2234533672988
 20
563.5694154887229
 30
0.0
  0
SPLINE
  5
14D
330
1F
100
AcDbEntity
  8
0
  6
SLD-Solid
 62
   142
420
    32960
370
     0
100
AcDbSpline
210
0.0
220
0.0
230
1.0
 70
     8
 71
     3
 72
     8
 73
     4
 74
     0
 42
0.00000001
 43
0.00000001
 40
0.0
 40
0.0
 40
0.0
 40
0.0
 40
1.0
 40
1.0
 40
1.0
 40
1.0
 10
804.8489479338461
 20
562.3100106512577
 30
0.0
 10
805.0535975833631
 20
562.4690397065771
 30
0.0
 10
805.2582410650662
 20
562.6280877444754
 30
0.0
 10
805.4628783892756
 20
562.7871547331908
 30
0.0
  0
SPLINE
  5
14E
330
1F
100
AcDbEntity
  8
0
  6
SLD-Solid
 62
   142
420
    32960
370
     0
100
AcDbSpline
210
0.0
220
0.0
230
1.0
 70
     8
 71
     3
 72
    11
 73
     7
 74
     0
 42
0.00000001
 43
0.00000001
 40
0.0
 40
0.0
 40
0.0
 40
0.0
 40
0.2528456380631486
 40
0.5037920205482155
 40
0.7528423195117129
 40
1.0
 40
1.0
 40
1.0
 40
1.0
 10
802.3632961704728
 20
561.339855080431
 30
0.0
 10
802.5753311319148
 20
561.4187811736498
 30
0.0
 10
802.9978083495168
 20
561.5760405050005
 30
0.0
 10
803.6235302727307
 20
561.8172867155342
 30
0.0
 10
804.2407188239604
 20
562.0609787324595
 30
0.0
 10
804.6467210835813
 20
562.2272113578082
 30
0.0
 10
804.8489479338461
 20
562.3100106512577
 30
0.0
  0
SPLINE
  5
14F
330
1F
100
AcDbEntity
  8
0
  6
SLD-Solid
 62
   142
420
    32960
370
     0
100
AcDbSpline
210
0.0
220
0.0
230
1.0
 70
     8
 71
     3
 72
     9
 73
     5
 74
     0
 42
0.00000001
 43
0.00000001
 40
0.0
 40
0.0
 40
0.0
 40
0.0
 40
0.5000039696611854
 40
1.0
 40
1.0
 40
1.0
 40
1.0
 10
802.2368326007175
 20
561.7050286209477
 30
0.0
 10
802.2587311705747
 20
561.6432602263266
 30
0.0
 10
802.3025279625717
 20
561.519724417875
 30
0.0
 10
802.3430402083857
 20
561.3998112089021
 30
0.0
 10
802.3632961704727
 20
561.3398550804308
 30
0.0
  0
SPLINE
  5
150
330
1F
100
AcDbEntity
  8
0
  6
SLD-Solid
 62
   142
420
    32960
370
     0
100
AcDbSpline
210
0.0
220
0.0
230
1.0
 70
     8
 71
     3
 72
     8
 73
     4
 74
     0
 42
0.00000001
 43
0.00000001
 40
0.0
 40
0.0
 40
0.0
 40
0.0
 40
1.0
 40
1.0
 40
1.0
 40
1.0
 10
804.4849606704156
 20
563.4504249051586
 30
0.0
 10
803.7355171681286
 20
562.8688338229298
 30
0.0
 10
802.9861412345703
 20
562.2870347855369
 30
0.0
 10
802.2368326007175
 20
561.7050286209477
 30
0.0
  0
SPLINE
  5
151
330
1F
100
AcDbEntity
  8
0
  6
SLD-Solid
 62
   142
420
    32960
370
     0
100
AcDbSpline
210
0.0
220
0.0
230
1.0
 70
     8
 71
     3
 72
     8
 73
     4
 74
     0
 42
0.00000001
 43
0.00000001
 40
0.0
 40
0.0
 40
0.0
 40
0.0
 40
1.0
 40
1.0
 40
1.0
 40
1.0
 10
804.4211142728967
 20
563.6272595028094
 30
0.0
 10
804.4426375621644
 20
563.5675724327316
 30
0.0
 10
804.4639202480903
 20
563.5086258635976
 30
0.0
 10
804.4849606704156
 20
563.4504249051583
 30
0.0
  0
SPLINE
  5
152
330
1F
100
AcDbEntity
  8
0
  6
SLD-Solid
 62
   142
420
    32960
370
     0
100
AcDbSpline
210
0.0
220
0.0
230
1.0
 70
     8
 71
     3
 72
     8
 73
     4
 74
     0
 42
0.00000001
 43
0.00000001
 40
0.0
 40
0.0
 40
0.0
 40
0.0
 40
1.0
 40
1.0
 40
1.0
 40
1.0
 10
805.035014367534
 20
564.1044307032921
 30
0.0
 10
804.830373603604
 20
563.9453964084021
 30
0.0
 10
804.6257402425642
 20
563.7863393297582
 30
0.0
 10
804.4211142728967
 20
563.6272595028094
 30
0.0
  0
SPLINE
  5
153
330
1F
100
AcDbEntity
  8
0
  6
SLD-Solid
 62
   142
420
    32960
370
     0
100
AcDbSpline
210
0.0
220
0.0
230
1.0
 70
     8
 71
     3
 72
     8
 73
     4
 74
     0
 42
0.00000001
 43
0.00000001
 40
0.0
 40
0.0
 40
0.0
 40
0.0
 40
1.0
 40
1.0
 40
1.0
 40
1.0
 10
805.0989667319299
 20
563.9274802963428
 30
0.0
 10
805.0778933129224
 20
563.9857127003891
 30
0.0
 10
805.0565752935111
 20
564.0446979070715
 30
0.0
 10
805.035014367534
 20
564.1044307032921
 30
0.0
  0
SPLINE
  5
154
330
1F
100
AcDbEntity
  8
0
  6
SLD-Solid
 62
   142
420
    32960
370
     0
100
AcDbSpline
210
0.0
220
0.0
230
1.0
 70
     8
 71
     3
 72
     9
 73
     5
 74
     0
 42
0.00000001
 43
0.00000001
 40
0.0
 40
0.0
 40
0.0
 40
0.0
 40
0.7193044035259107
 40
1.0
 40
1.0
 40
1.0
 40
1.0
 10
802.5479409081422
 20
561.977568772436
 30
0.0
 10
802.4656802390862
 20
561.8334778661615
 30
0.0
 10
802.3513188245686
 20
561.6331580772544
 30
0.0
 10
802.3591915888129
 20
561.499066089193
 30
0.0
 10
802.3614014390683
 20
561.4614270586218
 30
0.0
  0
SPLINE
  5
155
330
1F
100
AcDbEntity
  8
0
  6
SLD-Solid
 62
   142
420
    32960
370
     0
100
AcDbSpline
210
0.0
220
0.0
230
1.0
 70
     8
 71
     3
 72
    18
 73
    14
 74
     0
 42
0.00000001
 43
0.00000001
 40
0.0
 40
0.0
 40
0.0
 40
0.0
 40
0.0625457692087058
 40
0.1250799684438254
 40
0.2500402054669263
 40
0.3749579694246678
 40
0.4999189686768594
 40
0.5624516703921972
 40
0.6249777403764571
 40
0.749952704929355
 40
0.8749216484550788
 40
0.9374548383199769
 40
1.0
 40
1.0
 40
1.0
 40
1.0
 10
805.0775215170589
 20
562.5995903803552
 30
0.0
 10
805.0523021197482
 20
562.5806441891655
 30
0.0
 10
805.0018679903144
 20
562.5427553115298
 30
0.0
 10
804.9005672270786
 20
562.4713208595948
 30
0.0
 10
804.7738391172245
 20
562.3901073803605
 30
0.0
 10
804.6273085988885
 20
562.3139031550393
 30
0.0
 10
804.5118430471962
 20
562.2661703953382
 30
0.0
 10
804.426867474658
 20
562.2410205787601
 30
0.0
 10
804.3457766820361
 20
562.222204970948
 30
0.0
 10
804.2565716632672
 20
562.2165335273824
 30
0.0
 10
804.1810967058334
 20
562.2281705714703
 30
0.0
 10
804.1302345569925
 20
562.2482949951258
 30
0.0
 10
804.1084094736522
 20
562.2622465577651
 30
0.0
 10
804.0974958874932
 20
562.2692230067682
 30
0.0
  0
SPLINE
  5
156
330
1F
100
AcDbEntity
  8
0
  6
SLD-Solid
 62
   142
420
    32960
370
     0
100
AcDbSpline
210
0.0
220
0.0
230
1.0
 70
     8
 71
     3
 72
    16
 73
    12
 74
     0
 42
0.00000001
 43
0.00000001
 40
0.0
 40
0.0
 40
0.0
 40
0.0
 40
0.1251550241341817
 40
0.2502776384447664
 40
0.3753266900138042
 40
0.5003123172051965
 40
0.6252569473066856
 40
0.7501103526638572
 40
0.8749032999777832
 40
0.937429094246179
 40
1.0
 40
1.0
 40
1.0
 40
1.0
 10
804.2924258478837
 20
562.9364099082447
 30
0.0
 10
804.3016728421502
 20
562.9122070409098
 30
0.0
 10
804.3201644361053
 20
562.8638075737526
 30
0.0
 10
804.361670501802
 20
562.8037734930465
 30
0.0
 10
804.4198619516063
 20
562.760093377672
 30
0.0
 10
804.4953523904068
 20
562.7347119667083
 30
0.0
 10
804.5964436524382
 20
562.7408566392655
 30
0.0
 10
804.7138105124744
 20
562.7717515151697
 30
0.0
 10
804.8265200136003
 20
562.8267231298398
 30
0.0
 10
804.9193248473472
 20
562.8860911049933
 30
0.0
 10
804.9654953262259
 20
562.9201991213439
 30
0.0
 10
804.9885888905006
 20
562.9372592794151
 30
0.0
  0
LINE
  5
157
330
1F
100
AcDbEntity
  8
0
  6
SLD-Solid
 62
   142
420
    32960
370
     0
100
AcDbLine
 10
804.2924258479
 20
562.9364099082
 30
0.0
 11
803.7203458256
 21
562.499495346
 31
0.0
  0
LINE
  5
158
330
1F
100
AcDbEntity
  8
0
  6
SLD-Solid
 62
   142
420
    32960
370
     0
100
AcDbLine
 10
795.5570408096
 20
582.6678230636
 30
0.0
 11
796.2293788701
 21
582.9514203835
 31
0.0
  0
SPLINE
  5
159
330
1F
100
AcDbEntity
  8
0
  6
SLD-Solid
 62
   142
420
    32960
370
     0
100
AcDbSpline
210
0.0
220
0.0
230
1.0
 70
     8
 71
     3
 72
     9
 73
     5
 74
     0
 42
0.00000001
 43
0.00000001
 40
0.0
 40
0.0
 40
0.0
 40
0.0
 40
0.4999969146687411
 40
1.0
 40
1.0
 40
1.0
 40
1.0
 10
796.6758173393447
 20
581.5959081371551
 30
0.0
 10
796.603052754001
 20
581.8215712220576
 30
0.0
 10
796.4575226852968
 20
582.2729001768612
 30
0.0
 10
796.3054271213405
 20
582.7252460508901
 30
0.0
 10
796.2293788700971
 20
582.9514203835417
 30
0.0
  0
LINE
  5
15A
330
1F
100
AcDbEntity
  8
0
  6
SLD-Solid
 62
   142
420
    32960
370
     0
100
AcDbLine
 10
796.6758173393
 20
581.5959081372
 30
0.0
 11
797.4288464317
 21
581.720822456
 31
0.0
  0
SPLINE
  5
15B
330
1F
100
AcDbEntity
  8
0
  6
SLD-Solid
 62
   142
420
    32960
370
     0
100
AcDbSpline
210
0.0
220
0.0
230
1.0
 70
     8
 71
     3
 72
     9
 73
     5
 74
     0
 42
0.00000001
 43
0.00000001
 40
0.0
 40
0.0
 40
0.0
 40
0.0
 40
0.499905991303784
 40
1.0
 40
1.0
 40
1.0
 40
1.0
 10
797.3071821162612
 20
581.973749697333
 30
0.0
 10
797.3234762681052
 20
581.9291247526335
 30
0.0
 10
797.3560707001135
 20
581.8398580795474
 30
0.0
 10
797.4045848140153
 20
581.7605059703426
 30
0.0
 10
797.4288464317148
 20
581.7208224559517
 30
0.0
  0
SPLINE
  5
15C
330
1F
100
AcDbEntity
  8
0
  6
SLD-Solid
 62
   142
420
    32960
370
     0
100
AcDbSpline
210
0.0
220
0.0
230
1.0
 70
     8
 71
     3
 72
    19
 73
    15
 74
     0
 42
0.00000001
 43
0.00000001
 40
0.0
 40
0.0
 40
0.0
 40
0.0
 40
0.062558346505141
 40
0.1251001633860352
 40
0.2500501157123698
 40
0.3749255740713232
 40
0.4998063905395651
 40
0.5999962464121528
 40
0.6748725249125278
 40
0.7498430831687739
 40
0.8123758319883272
 40
0.874911136246444
 40
0.9374468170257458
 40
1.0
 40
1.0
 40
1.0
 40
1.0
 10
798.1403299083543
 20
583.8221292206445
 30
0.0
 10
798.0997594780073
 20
583.8037560527558
 30
0.0
 10
798.0186293371291
 20
583.7670145716716
 30
0.0
 10
797.8623153731847
 20
583.6790017035469
 30
0.0
 10
797.680880204105
 20
583.5410017008735
 30
0.0
 10
797.4964880307971
 20
583.332083642717
 30
0.0
 10
797.3647588476412
 20
583.102395421698
 30
0.0
 10
797.2857067539825
 20
582.8881008108968
 30
0.0
 10
797.2421347880967
 20
582.70207634253
 30
0.0
 10
797.2266604197745
 20
582.5404962193596
 30
0.0
 10
797.2257966179626
 20
582.3880836600259
 30
0.0
 10
797.2413032333161
 20
582.2468107805503
 30
0.0
 10
797.2668251449439
 20
582.1077069456437
 30
0.0
 10
797.2937285377315
 20
582.0184062783629
 30
0.0
 10
797.3071821162612
 20
581.973749697333
 30
0.0
  0
SPLINE
  5
15D
330
1F
100
AcDbEntity
  8
0
  6
SLD-Solid
 62
   142
420
    32960
370
     0
100
AcDbSpline
210
0.0
220
0.0
230
1.0
 70
     8
 71
     3
 72
    17
 73
    13
 74
     0
 42
0.00000001
 43
0.00000001
 40
0.0
 40
0.0
 40
0.0
 40
0.0
 40
0.0625713784685262
 40
0.1251215088470992
 40
0.2500656599897287
 40
0.3750200963255934
 40
0.4999716825898461
 40
0.6277208470488891
 40
0.7499098671822558
 40
0.8748726880329711
 40
0.9374260668416231
 40
1.0
 40
1.0
 40
1.0
 40
1.0
 10
799.9382865344661
 20
582.9625729649965
 30
0.0
 10
799.9221922031629
 20
583.0090267055846
 30
0.0
 10
799.8900090058955
 20
583.1019184119244
 30
0.0
 10
799.8059871524239
 20
583.2777834068279
 30
0.0
 10
799.6716744461684
 20
583.4793208663102
 30
0.0
 10
799.4627512704244
 20
583.6734994051914
 30
0.0
 10
799.2202285954712
 20
583.8191753646958
 30
0.0
 10
798.9577074493428
 20
583.913449374987
 30
0.0
 10
798.681488583454
 20
583.9473987963606
 30
0.0
 10
798.451847194493
 20
583.9224011686033
 30
0.0
 10
798.2717155117123
 20
583.8731287198458
 30
0.0
 10
798.1841299052963
 20
583.8391309152897
 30
0.0
 10
798.1403299083543
 20
583.8221292206445
 30
0.0
  0
SPLINE
  5
15E
330
1F
100
AcDbEntity
  8
0
  6
SLD-Solid
 62
   142
420
    32960
370
     0
100
AcDbSpline
210
0.0
220
0.0
230
1.0
 70
     8
 71
     3
 72
    17
 73
    13
 74
     0
 42
0.00000001
 43
0.00000001
 40
0.0
 40
0.0
 40
0.0
 40
0.0
 40
0.0625627776868368
 40
0.1251141196029122
 40
0.2500805960564388
 40
0.3750527100507541
 40
0.5000013317453276
 40
0.6249551927360147
 40
0.7498969439063349
 40
0.8748889489927871
 40
0.9374383434517007
 40
1.0
 40
1.0
 40
1.0
 40
1.0
 10
799.3310871355399
 20
581.1166420003535
 30
0.0
 10
799.3647837067867
 20
581.1420472845625
 30
0.0
 10
799.432170689927
 20
581.1928532091811
 30
0.0
 10
799.5598835523178
 20
581.3053332229323
 30
0.0
 10
799.7051092675293
 20
581.4650653939734
 30
0.0
 10
799.8471412409316
 20
581.6860615267609
 30
0.0
 10
799.9498720405716
 20
581.9302239370365
 30
0.0
 10
800.0118313457123
 20
582.1880511398518
 30
0.0
 10
800.0322371542857
 20
582.4519564258785
 30
0.0
 10
800.0098551869978
 20
582.6693526455743
 30
0.0
 10
799.9750813472799
 20
582.8389039897093
 30
0.0
 10
799.9505522734327
 20
582.9213472798218
 30
0.0
 10
799.9382865344661
 20
582.9625729649965
 30
0.0
  0
SPLINE
  5
15F
330
1F
100
AcDbEntity
  8
0
  6
SLD-Solid
 62
   142
420
    32960
370
     0
100
AcDbSpline
210
0.0
220
0.0
230
1.0
 70
     8
 71
     3
 72
     9
 73
     5
 74
     0
 42
0.00000001
 43
0.00000001
 40
0.0
 40
0.0
 40
0.0
 40
0.0
 40
0.499991515578278
 40
1.0
 40
1.0
 40
1.0
 40
1.0
 10
799.0790943673373
 20
581.9413976296144
 30
0.0
 10
799.1217516616932
 20
581.8037629547131
 30
0.0
 10
799.2070676981195
 20
581.5284889338288
 30
0.0
 10
799.2897468554099
 20
581.253925864518
 30
0.0
 10
799.3310871355399
 20
581.1166420003535
 30
0.0
  0
SPLINE
  5
160
330
1F
100
AcDbEntity
  8
0
  6
SLD-Solid
 62
   142
420
    32960
370
     0
100
AcDbSpline
210
0.0
220
0.0
230
1.0
 70
     8
 71
     3
 72
    13
 73
     9
 74
     0
 42
0.00000001
 43
0.00000001
 40
0.0
 40
0.0
 40
0.0
 40
0.0
 40
0.1252132507906244
 40
0.2503205428081619
 40
0.4999327495225188
 40
0.7496225238635162
 40
0.8747717100022386
 40
0.9999999999999999
 40
0.9999999999999999
 40
0.9999999999999999
 40
0.9999999999999999
 10
799.2551380844783
 20
582.6939413004284
 30
0.0
 10
799.2639818173412
 20
582.6618054679013
 30
0.0
 10
799.281661799266
 20
582.5975609970409
 30
0.0
 10
799.29632408689
 20
582.463305552609
 30
0.0
 10
799.2775755976932
 20
582.2920395689634
 30
0.0
 10
799.2144859781192
 20
582.1324654693001
 30
0.0
 10
799.1428018316255
 20
582.0184177839483
 30
0.0
 10
799.1003346611034
 20
581.967076421295
 30
0.0
 10
799.0790943673373
 20
581.9413976296144
 30
0.0
  0
SPLINE
  5
161
330
1F
100
AcDbEntity
  8
0
  6
SLD-Solid
 62
   142
420
    32960
370
     0
100
AcDbSpline
210
0.0
220
0.0
230
1.0
 70
     8
 71
     3
 72
    17
 73
    13
 74
     0
 42
0.00000001
 43
0.00000001
 40
0.0
 40
0.0
 40
0.0
 40
0.0
 40
0.0625820088414503
 40
0.1251506259510506
 40
0.2501000092854763
 40
0.3750446097038627
 40
0.5000411091552162
 40
0.6250436569435242
 40
0.7499362197475425
 40
0.8748672129464421
 40
0.9374220428777621
 40
1.0
 40
1.0
 40
1.0
 40
1.0
 10
798.4280737919443
 20
583.0597747270418
 30
0.0
 10
798.4480767833451
 20
583.0676059149342
 30
0.0
 10
798.4880784857679
 20
583.0832666149468
 30
0.0
 10
798.5700656243093
 20
583.1069409525112
 30
0.0
 10
798.6751298189085
 20
583.1221747948618
 30
0.0
 10
798.8016802712967
 20
583.1145697628284
 30
0.0
 10
798.9224893188202
 20
583.076076439451
 30
0.0
 10
799.0339607405293
 20
583.0141760811596
 30
0.0
 10
799.13076565049
 20
582.9279690835723
 30
0.0
 10
799.1940913620359
 20
582.8376895890433
 30
0.0
 10
799.2327865802263
 20
582.757520381127
 30
0.0
 10
799.2476866651103
 20
582.7151369384471
 30
0.0
 10
799.2551380844783
 20
582.6939413004282
 30
0.0
  0
SPLINE
  5
162
330
1F
100
AcDbEntity
  8
0
  6
SLD-Solid
 62
   142
420
    32960
370
     0
100
AcDbSpline
210
0.0
220
0.0
230
1.0
 70
     8
 71
     3
 72
    16
 73
    12
 74
     0
 42
0.00000001
 43
0.00000001
 40
0.0
 40
0.0
 40
0.0
 40
0.0
 40
0.0625768915255282
 40
0.1251365117523745
 40
0.2500258664707137
 40
0.3749336302796952
 40
0.4998800117691473
 40
0.6248549835766155
 40
0.7498694666725072
 40
0.874897201854208
 40
1.0
 40
1.0
 40
1.0
 40
1.0
 10
798.0096200705932
 20
582.2189001007976
 30
0.0
 10
798.0035352907929
 20
582.2395779868572
 30
0.0
 10
797.9913674105992
 20
582.2809280518544
 30
0.0
 10
797.9779875523694
 20
582.3670395145468
 30
0.0
 10
797.9760126836313
 20
582.4775481483962
 30
0.0
 10
798.0042535148953
 20
582.6077103270502
 30
0.0
 10
798.0551712376015
 20
582.7293273074176
 30
0.0
 10
798.1245540784755
 20
582.8404206130007
 30
0.0
 10
798.214515859339
 20
582.9319424222958
 30
0.0
 10
798.3156760232702
 20
583.0080719403293
 30
0.0
 10
798.3906003742411
 20
583.0425370172032
 30
0.0
 10
798.4280737919443
 20
583.0597747270418
 30
0.0
  0
SPLINE
  5
163
330
1F
100
AcDbEntity
  8
0
  6
SLD-Solid
 62
   142
420
    32960
370
     0
100
AcDbSpline
210
0.0
220
0.0
230
1.0
 70
     8
 71
     3
 72
    12
 73
     8
 74
     0
 42
0.00000001
 43
0.00000001
 40
0.0
 40
0.0
 40
0.0
 40
0.0
 40
0.2501215802572913
 40
0.500138501349395
 40
0.749860598454181
 40
0.8748990456783214
 40
1.0
 40
1.0
 40
1.0
 40
1.0
 10
798.4088111984653
 20
581.818449818557
 30
0.0
 10
798.3661240971625
 20
581.8388869025655
 30
0.0
 10
798.2807677562556
 20
581.879752519028
 30
0.0
 10
798.165847311242
 20
581.9674619764426
 30
0.0
 10
798.0856544291415
 20
582.0606806997332
 30
0.0
 10
798.0359631210899
 20
582.147454112338
 30
0.0
 10
798.0184025501569
 20
582.1950808041813
 30
0.0
 10
798.0096200705932
 20
582.2189001007976
 30
0.0
  0
SPLINE
  5
164
330
1F
100
AcDbEntity
  8
0
  6
SLD-Solid
 62
   142
420
    32960
370
     0
100
AcDbSpline
210
0.0
220
0.0
230
1.0
 70
     8
 71
     3
 72
     9
 73
     5
 74
     0
 42
0.00000001
 43
0.00000001
 40
0.0
 40
0.0
 40
0.0
 40
0.0
 40
0.5001021414443555
 40
1.0
 40
1.0
 40
1.0
 40
1.0
 10
798.4737568444835
 20
581.1218118917434
 30
0.0
 10
798.463318490973
 20
581.2378435825199
 30
0.0
 10
798.4424460478352
 20
581.4698595671774
 30
0.0
 10
798.4200212879235
 20
581.7022688938467
 30
0.0
 10
798.4088111984653
 20
581.818449818557
 30
0.0
  0
SPLINE
  5
165
330
1F
100
AcDbEntity
  8
0
  6
SLD-Solid
 62
   142
420
    32960
370
     0
100
AcDbSpline
210
0.0
220
0.0
230
1.0
 70
     8
 71
     3
 72
     9
 73
     5
 74
     0
 42
0.00000001
 43
0.00000001
 40
0.0
 40
0.0
 40
0.0
 40
0.0
 40
0.5036675688378676
 40
1.0
 40
1.0
 40
1.0
 40
1.0
 10
796.1903625974925
 20
580.7225524364335
 30
0.0
 10
796.5739899868664
 20
580.7895136145218
 30
0.0
 10
797.3356578271429
 20
580.9224607849004
 30
0.0
 10
798.0962501885987
 20
581.05568726766
 30
0.0
 10
798.4737568444834
 20
581.1218118917434
 30
0.0
  0
SPLINE
  5
166
330
1F
100
AcDbEntity
  8
0
  6
SLD-Solid
 62
   142
420
    32960
370
     0
100
AcDbSpline
210
0.0
220
0.0
230
1.0
 70
     8
 71
     3
 72
    11
 73
     7
 74
     0
 42
0.00000001
 43
0.00000001
 40
0.0
 40
0.0
 40
0.0
 40
0.0
 40
0.2500102014516369
 40
0.5000006436975332
 40
0.7499907640102914
 40
1.0
 40
1.0
 40
1.0
 40
1.0
 10
795.5570408096041
 20
582.6678230635696
 30
0.0
 10
795.6117407730845
 20
582.5054018247007
 30
0.0
 10
795.7211363769105
 20
582.1805721836984
 30
0.0
 10
795.8809419309321
 20
581.6939180496339
 30
0.0
 10
796.0378508295955
 20
581.2077721382432
 30
0.0
 10
796.1395240458236
 20
580.8842964593462
 30
0.0
 10
796.1903625974925
 20
580.7225524364335
 30
0.0
  0
SPLINE
  5
167
330
1F
100
AcDbEntity
  8
0
  6
SLD-Solid
 62
   142
420
    32960
370
     0
100
AcDbSpline
210
0.0
220
0.0
230
1.0
 70
     8
 71
     3
 72
    10
 73
     6
 74
     0
 42
0.00000001
 43
0.00000001
 40
0.0
 40
0.0
 40
0.0
 40
0.0
 40
0.5010051170741611
 40
0.9997633210941116
 40
0.9999999999999999
 40
0.9999999999999999
 40
0.9999999999999999
 40
0.9999999999999999
 10
786.4102831072784
 20
617.4513495797567
 30
0.0
 10
786.6744732539798
 20
617.43397970989
 30
0.0
 10
787.2016687046154
 20
617.3993178707331
 30
0.0
 10
787.7488820949277
 20
617.3682435527683
 30
0.0
 10
787.9726424328359
 20
617.3584860973344
 30
0.0
 10
787.97274856489
 20
617.3584814692632
 30
0.0
  0
SPLINE
  5
168
330
1F
100
AcDbEntity
  8
0
  6
SLD-Solid
 62
   142
420
    32960
370
     0
100
AcDbSpline
210
0.0
220
0.0
230
1.0
 70
     8
 71
     3
 72
    18
 73
    14
 74
     0
 42
0.00000001
 43
0.00000001
 40
0.0
 40
0.0
 40
0.0
 40
0.0
 40
0.1251615752902261
 40
0.2503026028558609
 40
0.3753841869036799
 40
0.5003399629435603
 40
0.6302195788122421
 40
0.7498108645913382
 40
0.8125874632032485
 40
0.8748654797413269
 40
0.9374191148115159
 40
0.968707365034376
 40
1.0
 40
1.0
 40
1.0
 40
1.0
 10
786.4693514654564
 20
617.4433761626946
 30
0.0
 10
786.6015719784968
 20
617.4346584948058
 30
0.0
 10
786.86599129799
 20
617.4172245902046
 30
0.0
 10
787.26112453917
 20
617.3927091431202
 30
0.0
 10
787.6509518847689
 20
617.3704866570695
 30
0.0
 10
788.0251151281077
 20
617.3523163363643
 30
0.0
 10
788.3556106923606
 20
617.3391320747708
 30
0.0
 10
788.5643421649045
 20
617.3332648475478
 30
0.0
 10
788.6737437262832
 20
617.3311857442753
 30
0.0
 10
788.7295675977757
 20
617.330572664339
 30
0.0
 10
788.7533212606551
 20
617.3306241612702
 30
0.0
 10
788.7631593840822
 20
617.3306919325938
 30
0.0
 10
788.7634878770107
 20
617.3307697186503
 30
0.0
 10
788.7636521349827
 20
617.3308086144036
 30
0.0
  0
SPLINE
  5
169
330
1F
100
AcDbEntity
  8
0
  6
SLD-Solid
 62
   142
420
    32960
370
     0
100
AcDbSpline
210
0.0
220
0.0
230
1.0
 70
     8
 71
     3
 72
    14
 73
    10
 74
     0
 42
0.00000001
 43
0.00000001
 40
0.0
 40
0.0
 40
0.0
 40
0.0
 40
0.0625271511718598
 40
0.1250385665834229
 40
0.2500185759795783
 40
0.4998671003519169
 40
0.7498915699466281
 40
0.8749419633117549
 40
1.0
 40
1.0
 40
1.0
 40
1.0
 10
784.6867612693648
 20
617.5785704388505
 30
0.0
 10
784.7193647294806
 20
617.5756231514459
 30
0.0
 10
784.7845634446329
 20
617.5697293183595
 30
0.0
 10
784.9203271567104
 20
617.5577487035517
 30
0.0
 10
785.1722623774959
 20
617.5368223757034
 30
0.0
 10
785.5480891065994
 20
617.5076699107551
 30
0.0
 10
785.9309999519766
 20
617.480088957636
 30
0.0
 10
786.2385022860592
 20
617.4588959036398
 30
0.0
 10
786.3924001712824
 20
617.4485495150717
 30
0.0
 10
786.4693514654564
 20
617.4433761626946
 30
0.0
  0
SPLINE
  5
16A
330
1F
100
AcDbEntity
  8
0
  6
SLD-Solid
 62
   142
420
    32960
370
     0
100
AcDbSpline
210
0.0
220
0.0
230
1.0
 70
     8
 71
     3
 72
    13
 73
     9
 74
     0
 42
0.00000001
 43
0.00000001
 40
0.0
 40
0.0
 40
0.0
 40
0.0
 40
0.1251938662589791
 40
0.2503283849861332
 40
0.500019236971005
 40
0.7496882904451351
 40
0.8748125585586466
 40
0.9999999999999999
 40
0.9999999999999999
 40
0.9999999999999999
 40
0.9999999999999999
 10
784.0751410071896
 20
617.6422728300923
 30
0.0
 10
784.077248951267
 20
617.6419305779073
 30
0.0
 10
784.0814638401619
 20
617.6412462357798
 30
0.0
 10
784.1169422939618
 20
617.6366099738586
 30
0.0
 10
784.2146983591712
 20
617.6253418247675
 30
0.0
 10
784.3819297330231
 20
617.6077872374159
 30
0.0
 10
784.547490954808
 20
617.591572212932
 30
0.0
 10
784.6403300209803
 20
617.5829050926765
 30
0.0
 10
784.6867612693648
 20
617.5785704388505
 30
0.0
  0
SPLINE
  5
16B
330
1F
100
AcDbEntity
  8
0
  6
SLD-Solid
 62
   142
420
    32960
370
     0
100
AcDbSpline
210
0.0
220
0.0
230
1.0
 70
     8
 71
     3
 72
    19
 73
    15
 74
     0
 42
0.00000001
 43
0.00000001
 40
0.0
 40
0.0
 40
0.0
 40
0.0
 40
0.1252636569322486
 40
0.2504606304605607
 40
0.3754117004534051
 40
0.5012496476206949
 40
0.5377354893582937
 40
0.5727333229857011
 40
0.6271094136918909
 40
0.7507320422279229
 40
0.8205725051889275
 40
0.8746429677350767
 40
0.9790193147360862
 40
1.0
 40
1.0
 40
1.0
 40
1.0
 10
786.4102831072784
 20
617.4513495797567
 30
0.0
 10
786.2763587175897
 20
617.4604337063481
 30
0.0
 10
786.0085812321089
 20
617.4785971236477
 30
0.0
 10
785.6089391455927
 20
617.5071788148352
 30
0.0
 10
785.213764139808
 20
617.5370794057571
 30
0.0
 10
784.9265801603265
 20
617.5609203144396
 30
0.0
 10
784.742291311191
 20
617.5769632803863
 30
0.0
 10
784.6302575792821
 20
617.5870204734815
 30
0.0
 10
784.4513460900448
 20
617.6034984760435
 30
0.0
 10
784.2817888284976
 20
617.6204187574175
 30
0.0
 10
784.1696074707291
 20
617.6322598637391
 30
0.0
 10
784.0991617703921
 20
617.6398701267325
 30
0.0
 10
784.0759796721571
 20
617.6424332503339
 30
0.0
 10
784.075261248
 20
617.6422958298128
 30
0.0
 10
784.0751410071896
 20
617.6422728300923
 30
0.0
  0
LINE
  5
16C
330
1F
100
AcDbEntity
  8
0
  6
SLD-Solid
 62
   142
420
    32960
370
     0
100
AcDbLine
 10
789.8367190577
 20
606.2023975603
 30
0.0
 11
792.1965287225
 21
606.3505654072
 31
0.0
  0
SPLINE
  5
16D
330
1F
100
AcDbEntity
  8
0
  6
SLD-Solid
 62
   142
420
    32960
370
     0
100
AcDbSpline
210
0.0
220
0.0
230
1.0
 70
     8
 71
     3
 72
     8
 73
     4
 74
     0
 42
0.00000001
 43
0.00000001
 40
0.0
 40
0.0
 40
0.0
 40
0.0
 40
1.0
 40
1.0
 40
1.0
 40
1.0
 10
788.4983835362593
 20
606.7590946843812
 30
0.0
 10
789.6659309718547
 20
606.8324071303115
 30
0.0
 10
790.8334130168942
 20
606.905920827679
 30
0.0
 10
792.0008296224719
 20
606.9796359270006
 30
0.0
  0
SPLINE
  5
16E
330
1F
100
AcDbEntity
  8
0
  6
SLD-Solid
 62
   142
420
    32960
370
     0
100
AcDbSpline
210
0.0
220
0.0
230
1.0
 70
     8
 71
     3
 72
     9
 73
     5
 74
     0
 42
0.00000001
 43
0.00000001
 40
0.0
 40
0.0
 40
0.0
 40
0.0
 40
0.5000002533571682
 40
1.0
 40
1.0
 40
1.0
 40
1.0
 10
788.2805717098247
 20
607.4279328405752
 30
0.0
 10
788.31714081096
 20
607.3175412334908
 30
0.0
 10
788.3902789761707
 20
607.0967581311966
 30
0.0
 10
788.4623486950695
 20
606.871649128631
 30
0.0
 10
788.4983835362594
 20
606.7590946843812
 30
0.0
  0
SPLINE
  5
16F
330
1F
100
AcDbEntity
  8
0
  6
SLD-Solid
 62
   142
420
    32960
370
     0
100
AcDbSpline
210
0.0
220
0.0
230
1.0
 70
     8
 71
     3
 72
     9
 73
     5
 74
     0
 42
0.00000001
 43
0.00000001
 40
0.0
 40
0.0
 40
0.0
 40
0.0
 40
0.4978933901262842
 40
1.0
 40
1.0
 40
1.0
 40
1.0
 10
789.4117776861593
 20
606.9308521164261
 30
0.0
 10
789.1408942669425
 20
607.0103751805469
 30
0.0
 10
788.5968351880538
 20
607.1700942402852
 30
0.0
 10
788.0520131959468
 20
607.3267081647389
 30
0.0
 10
787.778454472505
 20
607.4053450514052
 30
0.0
  0
SPLINE
  5
170
330
1F
100
AcDbEntity
  8
0
  6
SLD-Solid
 62
   142
420
    32960
370
     0
100
AcDbSpline
210
0.0
220
0.0
230
1.0
 70
     8
 71
     3
 72
    17
 73
    13
 74
     0
 42
0.00000001
 43
0.00000001
 40
0.0
 40
0.0
 40
0.0
 40
0.0
 40
0.0625828327880201
 40
0.1251475851228482
 40
0.2501263684710551
 40
0.3738523636076384
 40
0.5000343517336162
 40
0.6278306699013688
 40
0.7499469008274673
 40
0.874860432767033
 40
0.9374196577040209
 40
1.0
 40
1.0
 40
1.0
 40
1.0
 10
790.4411133794899
 20
607.9959299452546
 30
0.0
 10
790.3977572843957
 20
607.9923638939739
 30
0.0
 10
790.3110576199718
 20
607.9852328216604
 30
0.0
 10
790.1428192894151
 20
607.959208897644
 30
0.0
 10
789.9459008892608
 20
607.90447133049
 30
0.0
 10
789.7396808290251
 20
607.8029287319042
 30
0.0
 10
789.5736905442715
 20
607.6672531177587
 30
0.0
 10
789.4494812562239
 20
607.5078448181905
 30
0.0
 10
789.3772690584456
 20
607.3270194005711
 30
0.0
 10
789.3642277305854
 20
607.1651348035625
 30
0.0
 10
789.3834311839405
 20
607.0315132731733
 30
0.0
 10
789.4023277891496
 20
606.9644096099329
 30
0.0
 10
789.4117776861593
 20
606.9308521164261
 30
0.0
  0
SPLINE
  5
171
330
1F
100
AcDbEntity
  8
0
  6
SLD-Solid
 62
   142
420
    32960
370
     0
100
AcDbSpline
210
0.0
220
0.0
230
1.0
 70
     8
 71
     3
 72
    17
 73
    13
 74
     0
 42
0.00000001
 43
0.00000001
 40
0.0
 40
0.0
 40
0.0
 40
0.0
 40
0.0625792467947736
 40
0.1251386172827273
 40
0.2500882291406181
 40
0.3750454651190114
 40
0.5000166197721985
 40
0.6275888092705212
 40
0.7499048935735837
 40
0.8748659115759263
 40
0.9374228974929716
 40
1.0
 40
1.0
 40
1.0
 40
1.0
 10
792.1040120211775
 20
607.07789446488
 30
0.0
 10
792.0919938300943
 20
607.111325941512
 30
0.0
 10
792.0679612651238
 20
607.1781782763308
 30
0.0
 10
792.0018804413844
 20
607.3089448179419
 30
0.0
 10
791.8890794246578
 20
607.465576786284
 30
0.0
 10
791.7039977723222
 20
607.6312609879917
 30
0.0
 10
791.4835770749268
 20
607.772650010927
 30
0.0
 10
791.2396843568339
 20
607.8859880083816
 30
0.0
 10
790.9762610015127
 20
607.9639260114083
 30
0.0
 10
790.7519317597511
 20
607.9948830151716
 30
0.0
 10
790.5727673861095
 20
608.0021022194118
 30
0.0
 10
790.4850027513854
 20
607.9979875904633
 30
0.0
 10
790.4411133794899
 20
607.9959299452546
 30
0.0
  0
SPLINE
  5
172
330
1F
100
AcDbEntity
  8
0
  6
SLD-Solid
 62
   142
420
    32960
370
     0
100
AcDbSpline
210
0.0
220
0.0
230
1.0
 70
     8
 71
     3
 72
    16
 73
    12
 74
     0
 42
0.00000001
 43
0.00000001
 40
0.0
 40
0.0
 40
0.0
 40
0.0
 40
0.0626347164105406
 40
0.1252462045551398
 40
0.2503234762037612
 40
0.4994982808584861
 40
0.624590216836552
 40
0.749670597936493
 40
0.8747389694974413
 40
0.9373591468078432
 40
1.0
 40
1.0
 40
1.0
 40
1.0
 10
791.107579248649
 20
605.939791011106
 30
0.0
 10
791.1510066502259
 20
605.9434061913494
 30
0.0
 10
791.2378453482021
 20
605.9506352111366
 30
0.0
 10
791.4042668238966
 20
605.9829388826903
 30
0.0
 10
791.6750063840329
 20
606.0745799688558
 30
0.0
 10
791.9152541287838
 20
606.2588387720076
 30
0.0
 10
792.0783595956009
 20
606.4825524926596
 30
0.0
 10
792.144642796646
 20
606.6732367090373
 30
0.0
 10
792.1538178876693
 20
606.8412653509432
 30
0.0
 10
792.1323663478969
 20
606.9768305215783
 30
0.0
 10
792.1134645034117
 20
607.044202776905
 30
0.0
 10
792.1040120211775
 20
607.07789446488
 30
0.0
  0
SPLINE
  5
173
330
1F
100
AcDbEntity
  8
0
  6
SLD-Solid
 62
   142
420
    32960
370
     0
100
AcDbSpline
210
0.0
220
0.0
230
1.0
 70
     8
 71
     3
 72
    13
 73
     9
 74
     0
 42
0.00000001
 43
0.00000001
 40
0.0
 40
0.0
 40
0.0
 40
0.0
 40
0.2862474508623412
 40
0.5000653653800735
 40
0.627483543065194
 40
0.7500272884545333
 40
0.8750054630897572
 40
1.0
 40
1.0
 40
1.0
 40
1.0
 10
790.0160395885806
 20
606.141926872239
 30
0.0
 10
790.118823168372
 20
606.1110476455136
 30
0.0
 10
790.2983828752923
 20
606.0571025998944
 30
0.0
 10
790.5259254883082
 20
605.9964198267527
 30
0.0
 10
790.6962203728697
 20
605.9619594726147
 30
0.0
 10
790.8346226057887
 20
605.9437990201852
 30
0.0
 10
790.9719865999607
 20
605.9348152913346
 30
0.0
 10
791.0623797268215
 20
605.9381323654744
 30
0.0
 10
791.1075792486491
 20
605.939791011106
 30
0.0
  0
SPLINE
  5
174
330
1F
100
AcDbEntity
  8
0
  6
SLD-Solid
 62
   142
420
    32960
370
     0
100
AcDbSpline
210
0.0
220
0.0
230
1.0
 70
     8
 71
     3
 72
     9
 73
     5
 74
     0
 42
0.00000001
 43
0.00000001
 40
0.0
 40
0.0
 40
0.0
 40
0.0
 40
0.5030935291777824
 40
1.0
 40
1.0
 40
1.0
 40
1.0
 10
787.6041360362547
 20
606.8603069841319
 30
0.0
 10
788.0090563546294
 20
606.7415445649771
 30
0.0
 10
788.8139172699276
 20
606.5054802702348
 30
0.0
 10
789.6169883649391
 20
606.2626104549977
 30
0.0
 10
790.0160395885807
 20
606.1419268722392
 30
0.0
  0
SPLINE
  5
175
330
1F
100
AcDbEntity
  8
0
  6
SLD-Solid
 62
   142
420
    32960
370
     0
100
AcDbSpline
210
0.0
220
0.0
230
1.0
 70
     8
 71
     3
 72
     9
 73
     5
 74
     0
 42
0.00000001
 43
0.00000001
 40
0.0
 40
0.0
 40
0.0
 40
0.0
 40
0.4997022537551656
 40
1.0
 40
1.0
 40
1.0
 40
1.0
 10
787.778454472505
 20
607.4053450514052
 30
0.0
 10
787.749581270601
 20
607.3152233895853
 30
0.0
 10
787.6918004587535
 20
607.1348726684452
 30
0.0
 10
787.6333691088977
 20
606.9518652054262
 30
0.0
 10
787.6041360362547
 20
606.8603069841319
 30
0.0
  0
SPLINE
  5
176
330
1F
100
AcDbEntity
  8
0
  6
SLD-Solid
 62
   142
420
    32960
370
     0
100
AcDbSpline
210
0.0
220
0.0
230
1.0
 70
     8
 71
     3
 72
    10
 73
     6
 74
     0
 42
0.00000001
 43
0.00000001
 40
0.0
 40
0.0
 40
0.0
 40
0.0
 40
0.5
 40
0.5
 40
1.0
 40
1.0
 40
1.0
 40
1.0
 10
807.5232804727299
 20
567.5111912725994
 30
0.0
 10
807.2894666279111
 20
567.5536583283183
 30
0.0
 10
807.0931330179066
 20
567.6486096470614
 30
0.0
 10
806.775192150041
 20
567.9419323698552
 30
0.0
 10
806.6600584474791
 20
568.133692986033
 30
0.0
 10
806.5840628185455
 20
568.3675834820993
 30
0.0
  0
SPLINE
  5
177
330
1F
100
AcDbEntity
  8
0
  6
SLD-Solid
 62
   142
420
    32960
370
     0
100
AcDbSpline
210
0.0
220
0.0
230
1.0
 70
     8
 71
     3
 72
    10
 73
     6
 74
     0
 42
0.00000001
 43
0.00000001
 40
0.0
 40
0.0
 40
0.0
 40
0.0
 40
0.5
 40
0.5
 40
1.0
 40
1.0
 40
1.0
 40
1.0
 10
792.6195436157402
 20
611.3459543371393
 30
0.0
 10
792.5435479868064
 20
611.5798448332057
 30
0.0
 10
792.5239790466447
 20
611.8026563229535
 30
0.0
 10
792.6087878413335
 20
612.2268403437621
 30
0.0
 10
792.7118140835514
 20
612.4190595747536
 30
0.0
 10
792.8760119484701
 20
612.5908484742974
 30
0.0
  0
LINE
  5
178
330
1F
100
AcDbEntity
  8
0
  6
SLD-Solid
 62
   142
420
    32960
370
     0
100
AcDbLine
 10
800.7321333648
 20
556.0515131501
 30
0.0
 11
780.6460287305
 21
617.8701867093
 31
0.0
  0
LINE
  5
179
330
1F
100
AcDbEntity
  8
0
  6
SLD-Solid
 62
     7
370
    15
100
AcDbLine
 10
793.442866253
 20
610.8462503134
 30
0.0
 11
806.9564261682
 21
569.2557894335
 31
0.0
  0
ARC
  5
17A
330
1F
100
AcDbEntity
  8
0
  6
SLD-Solid
 62
   142
420
    32960
370
     0
100
AcDbCircle
 10
792.6904893125
 20
610.5347322522
 30
0.0
 40
0.8143184653801605
100
AcDbArc
 50
22.491765777
 51
94.998104743
  0
ARC
  5
17B
330
1F
100
AcDbEntity
  8
0
  6
SLD-Solid
 62
   142
420
    32960
370
     0
100
AcDbCircle
 10
806.164634715
 20
569.0655767693
 30
0.0
 40
0.8143184653806237
100
AcDbArc
 50
301.001895257
 51
13.508234223
  0
SPLINE
  5
17C
330
1F
100
AcDbEntity
  8
0
  6
SLD-Solid
 62
   142
420
    32960
370
     0
100
AcDbSpline
210
0.0
220
0.0
230
1.0
 70
     8
 71
     3
 72
    10
 73
     6
 74
     0
 42
0.00000001
 43
0.00000001
 40
0.0
 40
0.0
 40
0.0
 40
0.0
 40
0.5
 40
0.5
 40
1.0
 40
1.0
 40
1.0
 40
1.0
 10
806.9564261682459
 20
569.2557894334868
 30
0.0
 10
807.0172776122478
 20
569.0685079460691
 30
0.0
 10
807.1042413535141
 20
568.9151948521832
 30
0.0
 10
807.3404878939489
 20
568.6849260727944
 30
0.0
 10
807.4846770402131
 20
568.613974404716
 30
0.0
 10
807.6536754319751
 20
568.5878223387917
 30
0.0
  0
SPLINE
  5
17D
330
1F
100
AcDbEntity
  8
0
  6
SLD-Solid
 62
   142
420
    32960
370
     0
100
AcDbSpline
210
0.0
220
0.0
230
1.0
 70
     8
 71
     3
 72
    14
 73
    10
 74
     0
 42
0.00000001
 43
0.00000001
 40
0.0
 40
0.0
 40
0.0
 40
0.0
 40
0.25
 40
0.25
 40
0.5
 40
0.5
 40
0.75
 40
0.75
 40
1.0
 40
1.0
 40
1.0
 40
1.0
 10
807.6536754319751
 20
568.5878223387915
 30
0.0
 10
807.8088167726576
 20
568.5718507511488
 30
0.0
 10
807.9782959953972
 20
568.5970912923375
 30
0.0
 10
808.3428389808789
 20
568.7186553979493
 30
0.0
 10
808.5299131201995
 20
568.8122924305594
 30
0.0
 10
808.9086583268664
 20
569.0485866346373
 30
0.0
 10
809.1034828417664
 20
569.1940290514574
 30
0.0
 10
809.4822589980847
 20
569.5165074958437
 30
0.0
 10
809.668015647322
 20
569.6943266265673
 30
0.0
 10
809.8503774673587
 20
569.8878955745137
 30
0.0
  0
SPLINE
  5
17E
330
1F
100
AcDbEntity
  8
0
  6
SLD-Solid
 62
   142
420
    32960
370
     0
100
AcDbSpline
210
0.0
220
0.0
230
1.0
 70
     8
 71
     3
 72
    14
 73
    10
 74
     0
 42
0.00000001
 43
0.00000001
 40
0.0
 40
0.0
 40
0.0
 40
0.0
 40
0.25
 40
0.25
 40
0.5
 40
0.5
 40
0.75
 40
0.75
 40
1.0
 40
1.0
 40
1.0
 40
1.0
 10
796.155664702409
 20
612.0358875975418
 30
0.0
 10
795.89453707758
 20
612.0852639441579
 30
0.0
 10
795.639911481249
 20
612.119923233418
 30
0.0
 10
795.1442554019828
 20
612.1581923033721
 30
0.0
 10
794.9012943969183
 20
612.1613767066129
 30
0.0
 10
794.4562059894871
 20
612.1300488792332
 30
0.0
 10
794.2493380926743
 20
612.0957470877269
 30
0.0
 10
793.8843504772246
 20
611.9805473711159
 30
0.0
 10
793.7314137953198
 20
611.9014499671088
 30
0.0
 10
793.614331549348
 20
611.7964798790936
 30
0.0
  0
SPLINE
  5
17F
330
1F
100
AcDbEntity
  8
0
  6
SLD-Solid
 62
   142
420
    32960
370
     0
100
AcDbSpline
210
0.0
220
0.0
230
1.0
 70
     8
 71
     3
 72
    10
 73
     6
 74
     0
 42
0.00000001
 43
0.00000001
 40
0.0
 40
0.0
 40
0.0
 40
0.0
 40
0.5
 40
0.5
 40
1.0
 40
1.0
 40
1.0
 40
1.0
 10
793.614331549348
 20
611.7964798790936
 30
0.0
 10
793.4929807770577
 20
611.6759876509836
 30
0.0
 10
793.4180336514476
 20
611.5338342920145
 30
0.0
 10
793.3622547779615
 20
611.2086807038421
 30
0.0
 10
793.3820148089526
 20
611.0335318008277
 30
0.0
 10
793.4428662529542
 20
610.84625031341
 30
0.0
  0
SPLINE
  5
180
330
1F
100
AcDbEntity
  8
0
  6
SLD-Solid
 62
   142
420
    32960
370
     0
100
AcDbSpline
210
0.0
220
0.0
230
1.0
 70
     8
 71
     3
 72
    16
 73
    12
 74
     0
 42
0.00000001
 43
0.00000001
 40
0.0
 40
0.0
 40
0.0
 40
0.0
 40
0.2499999999999849
 40
0.2499999999999849
 40
0.4999999999999698
 40
0.4999999999999698
 40
0.6249999999999774
 40
0.6249999999999774
 40
0.7499999999999849
 40
0.7499999999999849
 40
1.0
 40
1.0
 40
1.0
 40
1.0
 10
810.579123240309
 20
568.9165375241179
 30
0.0
 10
810.3135994856742
 20
568.6887029235011
 30
0.0
 10
810.0453763009152
 20
568.4835951890396
 30
0.0
 10
809.5030920928555
 20
568.119814263731
 30
0.0
 10
809.2270355106346
 20
567.9609100066194
 30
0.0
 10
808.8313359076428
 20
567.7757946467974
 30
0.0
 10
808.7015369587756
 20
567.7223037281394
 30
0.0
 10
808.4460485817913
 20
567.6328250067686
 30
0.0
 10
808.3193527234915
 20
567.5966481089714
 30
0.0
 10
807.9537953792808
 20
567.5192379886035
 30
0.0
 10
807.7303691004627
 20
567.5080949683297
 30
0.0
 10
807.5271220048687
 20
567.5416254392416
 30
0.0
  0
SPLINE
  5
181
330
1F
100
AcDbEntity
  8
0
  6
SLD-Solid
 62
   142
420
    32960
370
     0
100
AcDbSpline
210
0.0
220
0.0
230
1.0
 70
     8
 71
     3
 72
    14
 73
    10
 74
     0
 42
0.00000001
 43
0.00000001
 40
0.0
 40
0.0
 40
0.0
 40
0.0
 40
0.0000095361705259
 40
0.0000095361705259
 40
0.0000095361705259
 40
0.0000219642949668
 40
0.0000219642949668
 40
0.0000219642949668
 40
0.0000450544384129
 40
0.0000450544384129
 40
0.0000450544384129
 40
0.0000450544384129
 10
807.5271220048688
 20
567.5416254392416
 30
0.0
 10
807.5254556023879
 20
567.5390816554917
 30
0.0
 10
807.5241556876417
 20
567.536450216521
 30
0.0
 10
807.5232633745226
 20
567.5339808824573
 30
0.0
 10
807.5220996753762
 20
567.5307605309015
 30
0.0
 10
807.5215540811857
 20
567.5277051618906
 30
0.0
 10
807.5213855779632
 20
567.524914764635
 30
0.0
 10
807.521073235288
 20
567.5197423997976
 30
0.0
 10
807.5219616033462
 20
567.515250335188
 30
0.0
 10
807.5232804727294
 20
567.5111912725991
 30
0.0
  0
SPLINE
  5
182
330
1F
100
AcDbEntity
  8
0
  6
SLD-Solid
 62
   142
420
    32960
370
     0
100
AcDbSpline
210
0.0
220
0.0
230
1.0
 70
     8
 71
     3
 72
    17
 73
    13
 74
     0
 42
0.00000001
 43
0.00000001
 40
0.0
 40
0.0
 40
0.0
 40
0.0
 40
0.0000166887075715
 40
0.0000166887075715
 40
0.0000166887075715
 40
0.0000336582619935
 40
0.0000336582619935
 40
0.0000336582619935
 40
0.000042662138224
 40
0.000042662138224
 40
0.000042662138224
 40
0.0000451385286555
 40
0.0000451385286555
 40
0.0000451385286555
 40
0.0000451385286555
 10
792.8760119484701
 20
612.5908484742974
 30
0.0
 10
792.8769667298279
 20
612.5879099594314
 30
0.0
 10
792.8782496471367
 20
612.584939046261
 30
0.0
 10
792.8801104830509
 20
612.582000429846
 30
0.0
 10
792.8819883265533
 20
612.5790349551908
 30
0.0
 10
792.8845102671125
 20
612.5760187430096
 30
0.0
 10
792.8880902118813
 20
612.5733311969657
 30
0.0
 10
792.890005537005
 20
612.571893318788
 30
0.0
 10
792.8922780030774
 20
612.5705297873762
 30
0.0
 10
792.8948196859501
 20
612.5693891569723
 30
0.0
 10
792.8955282111368
 20
612.5690711922969
 30
0.0
 10
792.8962596570894
 20
612.5687687729451
 30
0.0
 10
792.897008567573
 20
612.5684847122119
 30
0.0
  0
SPLINE
  5
183
330
1F
100
AcDbEntity
  8
0
  6
SLD-Solid
 62
   142
420
    32960
370
     0
100
AcDbSpline
210
0.0
220
0.0
230
1.0
 70
     8
 71
     3
 72
    16
 73
    12
 74
     0
 42
0.00000001
 43
0.00000001
 40
0.0
 40
0.0
 40
0.0
 40
0.0
 40
0.2500000000000163
 40
0.2500000000000163
 40
0.3750000000000245
 40
0.3750000000000245
 40
0.5000000000000326
 40
0.5000000000000326
 40
0.7500000000000163
 40
0.7500000000000163
 40
1.0
 40
1.0
 40
1.0
 40
1.0
 10
792.897008567573
 20
612.5684847122119
 30
0.0
 10
793.0417302056613
 20
612.7150770783704
 30
0.0
 10
793.2290355651983
 20
612.837388857264
 30
0.0
 10
793.5702781962137
 20
612.989631970144
 30
0.0
 10
793.6940415456937
 20
613.0348342020575
 30
0.0
 10
793.9533302573551
 20
613.1126166959573
 30
0.0
 10
794.0897809859592
 20
613.1456355416256
 30
0.0
 10
794.5187167679235
 20
613.2284604605858
 30
0.0
 10
794.835452813206
 20
613.2621662039317
 30
0.0
 10
795.4879950162692
 20
613.2866079131765
 30
0.0
 10
795.8255514324721
 20
613.2783299026437
 30
0.0
 10
796.1742824805863
 20
613.2500787859456
 30
0.0
  0
LINE
  5
184
330
1F
100
AcDbEntity
  8
0
  6
SLD-Solid
 62
   142
420
    32960
370
     0
100
AcDbLine
 10
813.6166393462
 20
611.5710205456
 30
0.0
 11
812.5697893037
 21
614.7928936871
 31
0.0
  0
LINE
  5
185
330
1F
100
AcDbEntity
  8
0
  6
SLD-Solid
 62
   142
420
    32960
370
     0
100
AcDbLine
 10
811.0999346642
 20
614.9548523084
 30
0.0
 11
812.5697893037
 21
614.7928936871
 31
0.0
  0
SPLINE
  5
186
330
1F
100
AcDbEntity
  8
0
  6
SLD-Solid
 62
   142
420
    32960
370
     0
100
AcDbSpline
210
0.0
220
0.0
230
1.0
 70
     8
 71
     3
 72
     8
 73
     4
 74
     0
 42
0.00000001
 43
0.00000001
 40
0.0
 40
0.0
 40
0.0
 40
0.0
 40
1.0
 40
1.0
 40
1.0
 40
1.0
 10
792.1220746174403
 20
617.0753902782684
 30
0.0
 10
798.4495147059866
 20
616.3812537212842
 30
0.0
 10
804.7760437860616
 20
615.6793293842735
 30
0.0
 10
811.0999346642202
 20
614.9548523083646
 30
0.0
  0
SPLINE
  5
187
330
1F
100
AcDbEntity
  8
0
  6
SLD-Solid
 62
   142
420
    32960
370
     0
100
AcDbSpline
210
0.0
220
0.0
230
1.0
 70
     8
 71
     3
 72
    10
 73
     6
 74
     0
 42
0.00000001
 43
0.00000001
 40
0.0
 40
0.0
 40
0.0
 40
0.0
 40
0.5
 40
0.5
 40
1.0
 40
1.0
 40
1.0
 40
1.0
 10
792.1220746174403
 20
617.0753902782684
 30
0.0
 10
792.0592710236731
 20
617.0822799950788
 30
0.0
 10
791.9994976581764
 20
617.0890670793627
 30
0.0
 10
791.9143166312617
 20
617.0989169711985
 30
0.0
 10
791.8897072545435
 20
617.101854553565
 30
0.0
 10
791.8897107175699
 20
617.1018862881285
 30
0.0
  0
ARC
  5
188
330
1F
100
AcDbEntity
  8
0
  6
SLD-Solid
 62
   142
420
    32960
370
     0
100
AcDbCircle
 10
807.9687771782
 20
611.3688216172
 30
0.0
 40
5.651480467591627
100
AcDbArc
 50
351.1230991873
 51
2.0503686317
  0
ARC
  5
189
330
1F
100
AcDbEntity
  8
0
  6
SLD-Solid
 62
   142
420
    32960
370
     0
100
AcDbCircle
 10
792.017369756
 20
612.7065803986
 30
0.0
 40
4.192292200789278
100
AcDbArc
 50
350.794127652
 51
7.4489224795
  0
ARC
  5
18A
330
1F
100
AcDbEntity
  8
0
  6
SLD-Solid
 62
   142
420
    32960
370
     0
100
AcDbCircle
 10
819.0152946712
 20
577.3711365859
 30
0.0
 40
5.651480467594329
100
AcDbArc
 50
33.9496313683
 51
44.8769008127
  0
ARC
  5
18B
330
1F
100
AcDbEntity
  8
0
  6
SLD-Solid
 62
   142
420
    32960
370
     0
100
AcDbCircle
 10
806.8966498653
 20
566.9128649613
 30
0.0
 40
4.192292200789748
100
AcDbArc
 50
28.5510775205
 51
45.205872348
  0
LINE
  5
18C
330
1F
100
AcDbEntity
  8
0
  6
SLD-Solid
 62
     7
370
    15
100
AcDbLine
 10
814.4101034866
 20
611.0370890095
 30
0.0
 11
824.0314495864
 21
581.4256305124
 31
0.0
  0
ARC
  5
18D
330
1F
100
AcDbEntity
  8
0
  6
SLD-Solid
 62
   142
420
    32960
370
     0
100
AcDbCircle
 10
813.4069760697
 20
611.6784038456
 30
0.0
 40
1.190608807906713
100
AcDbArc
 50
277.0237736414
 51
327.4085911735
  0
ARC
  5
18E
330
1F
100
AcDbEntity
  8
0
  6
SLD-Solid
 62
   142
420
    32960
370
     0
100
AcDbCircle
 10
823.5968578614
 20
580.3171724095
 30
0.0
 40
1.190608807907505
100
AcDbArc
 50
68.5914088265
 51
118.9762263586
  0
LINE
  5
18F
330
1F
100
AcDbEntity
  8
0
  6
SLD-Solid
 62
     7
370
    15
100
AcDbLine
 10
824.0314495864
 20
581.4256305124
 30
0.0
 11
825.046801985
 21
578.3006971509
 31
0.0
  0
ARC
  5
190
330
1F
100
AcDbEntity
  8
0
  6
SLD-Solid
 62
   142
420
    32960
370
     0
100
AcDbCircle
 10
823.2235673139
 20
581.2115961979
 30
0.0
 40
0.8357538238405449
100
AcDbArc
 50
305.0355498025
 51
14.8386162463
  0
LINE
  5
191
330
1F
100
AcDbEntity
  8
0
  6
SLD-Solid
 62
   142
420
    32960
370
     0
100
AcDbLine
 10
813.4132196797
 20
614.1051818904
 30
0.0
 11
814.4101034866
 21
611.0370890095
 31
0.0
  0
LINE
  5
192
330
1F
100
AcDbEntity
  8
0
  6
SLD-Solid
 62
   142
420
    32960
370
     0
100
AcDbLine
 10
823.7768980164
 20
580.5910257003
 30
0.0
 11
823.4892965843
 21
581.476171893
 31
0.0
  0
SPLINE
  5
193
330
1F
100
AcDbEntity
  8
0
  6
SLD-Solid
 62
     7
370
    15
100
AcDbSpline
210
0.0
220
0.0
230
1.0
 70
     8
 71
     3
 72
    12
 73
     8
 74
     0
 42
0.00000001
 43
0.00000001
 40
0.0
 40
0.0
 40
0.0
 40
0.0
 40
0.250000000000046
 40
0.250000000000046
 40
0.5000000000000919
 40
0.5000000000000919
 40
1.0
 40
1.0
 40
1.0
 40
1.0
 10
813.4132196796675
 20
614.1051818904391
 30
0.0
 10
813.3833426919894
 20
614.197133803557
 30
0.0
 10
813.3412025936982
 20
614.2826589479
 30
0.0
 10
813.2329137061382
 20
614.4411269228181
 30
0.0
 10
813.1674166723277
 20
614.5124250425142
 30
0.0
 10
812.9455631390905
 20
614.6937693200323
 30
0.0
 10
812.7620063936884
 20
614.7717076062447
 30
0.0
 10
812.5697893037216
 20
614.7928936871425
 30
0.0
  0
SPLINE
  5
194
330
1F
100
AcDbEntity
  8
0
  6
SLD-Solid
 62
     7
370
    15
100
AcDbSpline
210
0.0
220
0.0
230
1.0
 70
     8
 71
     3
 72
    12
 73
     8
 74
     0
 42
0.00000001
 43
0.00000001
 40
0.0
 40
0.0
 40
0.0
 40
0.0
 40
0.25
 40
0.25
 40
0.5
 40
0.5
 40
1.0
 40
1.0
 40
1.0
 40
1.0
 10
807.5271220048689
 20
567.5416254392416
 30
0.0
 10
807.5760736487867
 20
567.6163507218495
 30
0.0
 10
807.6159583386018
 20
567.6969308422797
 30
0.0
 10
807.6780456654308
 20
567.8695088636123
 30
0.0
 10
807.6995501776032
 20
567.9605397406884
 30
0.0
 10
807.7328347302035
 20
568.2349253925909
 30
0.0
 10
807.7126253887286
 20
568.4245744110417
 30
0.0
 10
807.6536754319726
 20
568.5878223387981
 30
0.0
  0
SPLINE
  5
195
330
1F
100
AcDbEntity
  8
0
  6
SLD-Solid
 62
   142
420
    32960
370
     0
100
AcDbSpline
210
0.0
220
0.0
230
1.0
 70
     8
 71
     3
 72
    12
 73
     8
 74
     0
 42
0.00000001
 43
0.00000001
 40
0.0
 40
0.0
 40
0.0
 40
0.0
 40
0.25
 40
0.25
 40
0.5
 40
0.5
 40
1.0
 40
1.0
 40
1.0
 40
1.0
 10
792.897008567573
 20
612.5684847122119
 30
0.0
 10
792.9805336984949
 20
612.5368037430434
 30
0.0
 10
793.0601648967881
 20
612.4950566886729
 30
0.0
 10
793.2118334151368
 20
612.3919321516233
 30
0.0
 10
793.2827375379865
 20
612.3309266601668
 30
0.0
 10
793.470945146318
 20
612.1285081739127
 30
0.0
 10
793.5660683417678
 20
611.963200142134
 30
0.0
 10
793.6143315493491
 20
611.7964798790898
 30
0.0
  0
LINE
  5
196
330
1F
100
AcDbEntity
  8
0
  6
SLD-Solid
 62
     7
370
    15
100
AcDbLine
 10
695.5486361847
 20
662.1832308201
 30
0.0
 11
673.7486361847
 21
662.1832308201
 31
0.0
  0
LINE
  5
197
330
1F
100
AcDbEntity
  8
0
  6
SLD-Solid
 62
     7
370
    15
100
AcDbLine
 10
695.5486361847
 20
663.3832308201
 30
0.0
 11
673.7486361847
 21
663.3832308201
 31
0.0
  0
LINE
  5
198
330
1F
100
AcDbEntity
  8
0
  6
SLD-Solid
 62
   142
420
    32960
370
     0
100
AcDbLine
 10
673.7486361847
 20
663.3832308201
 30
0.0
 11
673.7486361847
 21
662.1832308201
 31
0.0
  0
LINE
  5
199
330
1F
100
AcDbEntity
  8
0
  6
SLD-Solid
 62
   142
420
    32960
370
     0
100
AcDbLine
 10
695.5486361847
 20
662.1832308201
 30
0.0
 11
695.5486361847
 21
663.3832308201
 31
0.0
  0
LINE
  5
19A
330
1F
100
AcDbEntity
  8
0
  6
SLD-Solid
 62
   142
420
    32960
370
     0
100
AcDbLine
 10
671.340317269
 20
661.3832308201
 30
0.0
 11
671.2986361847
 21
660.9332308201
 31
0.0
  0
LWPOLYLINE
  5
19B
330
1F
100
AcDbEntity
  8
0
  6
SLD-Solid
 62
   142
420
    32960
370
     0
100
AcDbPolyline
 90
        3
 70
   128
 43
0.0
 10
672.5824458058
 20
661.3832308201
 10
672.5226545842
 20
661.1770937226
 10
672.4986361847
 20
660.9332308201
  0
LINE
  5
19C
330
1F
100
AcDbEntity
  8
0
  6
SLD-Solid
 62
   142
420
    32960
370
     0
100
AcDbLine
 10
49.3986361847
 20
645.273073345
 30
0.0
 11
49.3986361847
 21
644.3023447442
 31
0.0
  0
LINE
  5
19D
330
1F
100
AcDbEntity
  8
0
  6
SLD-Solid
 62
   142
420
    32960
370
     0
100
AcDbLine
 10
49.3986361847
 20
-35.0167691799
 30
0.0
 11
49.3986361847
 21
-35.5696089107
 31
0.0
  0
LINE
  5
19E
330
1F
100
AcDbEntity
  8
0
  6
SLD-Solid
 62
   142
420
    32960
370
     0
100
AcDbLine
 10
48.5986361847
 20
-35.3697466793
 30
0.0
 11
48.5986361847
 21
-36.0167691799
 31
0.0
  0
LINE
  5
19F
330
1F
100
AcDbEntity
  8
0
  6
SLD-Solid
 62
   142
420
    32960
370
     0
100
AcDbLine
 10
48.5986361847
 20
646.1832308201
 30
0.0
 11
48.5986361847
 21
645.312520142
 31
0.0
  0
LINE
  5
1A0
330
1F
100
AcDbEntity
  8
0
  6
SLD-Solid
 62
   142
420
    32960
370
     0
100
AcDbLine
 10
48.9686289775
 20
-36.0167691799
 30
0.0
 11
48.5986361847
 21
-36.0167691799
 31
0.0
  0
LINE
  5
1A1
330
1F
100
AcDbEntity
  8
0
  6
SLD-Solid
 62
     7
370
    15
100
AcDbLine
 10
814.3986361848
 20
-1.1167691791
 30
0.0
 11
815.9986361848
 21
-1.1167691791
 31
0.0
  0
SPLINE
  5
1A2
330
1F
100
AcDbEntity
  8
0
  6
SLD-Solid
 62
   142
420
    32960
370
     0
100
AcDbSpline
210
0.0
220
0.0
230
1.0
 70
    24
 71
     3
 72
     8
 73
     4
 74
     0
 42
0.00000001
 43
0.00000001
 40
5.0
 40
5.0
 40
5.0
 40
5.0
 40
6.0
 40
6.0
 40
6.0
 40
6.0
 10
815.9986361847549
 20
-1.116769179086541
 30
0.0
 10
815.9986361847549
 20
-1.119170619075183
 30
0.0
 10
815.9986361847549
 20
-0.2219570729164455
 30
0.0
 10
815.9986361847549
 20
0.8772141508204268
 30
0.0
  0
LINE
  5
1A3
330
1F
100
AcDbEntity
  8
0
  6
SLD-Solid
 62
   142
420
    32960
370
     0
100
AcDbLine
 10
814.3986361848
 20
0.8772141508
 30
0.0
 11
815.9986361848
 21
0.8772141508
 31
0.0
  0
SPLINE
  5
1A4
330
1F
100
AcDbEntity
  8
0
  6
SLD-Solid
 62
   142
420
    32960
370
     0
100
AcDbSpline
210
0.0
220
0.0
230
1.0
 70
     8
 71
     3
 72
     9
 73
     5
 74
     0
 42
0.00000001
 43
0.00000001
 40
0.0
 40
0.0
 40
0.0
 40
0.0
 40
0.0997528039433483
 40
1.0
 40
1.0
 40
1.0
 40
1.0
 10
798.6914547802919
 20
584.1671970882849
 30
0.0
 10
798.6787258161354
 20
584.1566460662082
 30
0.0
 10
798.5511207398529
 20
584.0508743820079
 30
0.0
 10
798.3961745886199
 20
583.9979298678984
 30
0.0
 10
798.2566847504327
 20
583.9502667175245
 30
0.0
  0
LINE
  5
1A5
330
1F
100
AcDbEntity
  8
0
  6
SLD-Solid
 62
   142
420
    32960
370
     0
100
AcDbLine
 10
755.1486361847
 20
648.2332308201
 30
0.0
 11
755.1486361847
 21
645.7832308201
 31
0.0
  0
LINE
  5
1A6
330
1F
100
AcDbEntity
  8
0
  6
SLD-Solid
 62
   142
420
    32960
370
     0
100
AcDbLine
 10
755.1486361847
 20
645.7832308201
 30
0.0
 11
754.0712549063
 21
645.7832308201
 31
0.0
  0
LINE
  5
1A7
330
1F
100
AcDbEntity
  8
0
  6
SLD-Solid
 62
   142
420
    32960
370
     0
100
AcDbLine
 10
672.5086361847
 20
646.0533005409
 30
0.0
 11
672.5086361847
 21
648.2332308201
 31
0.0
  0
LINE
  5
1A8
330
1F
100
AcDbEntity
  8
0
  6
SLD-Solid
 62
     7
370
    15
100
AcDbLine
 10
775.8427896126
 20
629.6919339138
 30
0.0
 11
799.3379241996
 21
639.9079091836
 31
0.0
  0
LINE
  5
1A9
330
1F
100
AcDbEntity
  8
0
  6
SLD-Solid
 62
   142
420
    32960
370
     0
100
AcDbLine
 10
755.3986361847
 20
628.3832308201
 30
0.0
 11
755.3986361847
 21
630.8332308201
 31
0.0
  0
LINE
  5
1AA
330
1F
100
AcDbEntity
  8
0
  6
SLD-Solid
 62
   142
420
    32960
370
     0
100
AcDbLine
 10
755.3986361847
 20
628.3832308201
 30
0.0
 11
757.3986361847
 21
628.3832308201
 31
0.0
  0
LINE
  5
1AB
330
1F
100
AcDbEntity
  8
0
  6
SLD-Solid
 62
   142
420
    32960
370
     0
100
AcDbLine
 10
773.6377970006
 20
628.3832308201
 30
0.0
 11
775.5927896126
 21
628.3832308201
 31
0.0
  0
LINE
  5
1AC
330
1F
100
AcDbEntity
  8
0
  6
SLD-Solid
 62
   142
420
    32960
370
     0
100
AcDbLine
 10
775.5927896126
 20
630.8332308201
 30
0.0
 11
775.5927896126
 21
628.3832308201
 31
0.0
  0
LINE
  5
1AD
330
1F
100
AcDbEntity
  8
0
  6
SLD-Solid
 62
     7
370
    15
100
AcDbLine
 10
695.5486361847
 20
662.1732308201
 30
0.0
 11
673.7486361847
 21
662.1732308201
 31
0.0
  0
LINE
  5
1AE
330
1F
100
AcDbEntity
  8
0
  6
SLD-Solid
 62
     7
370
    15
100
AcDbLine
 10
698.0086361847
 20
680.8832308201
 30
0.0
 11
698.0086361847
 21
664.6332308201
 31
0.0
  0
ARC
  5
1AF
330
1F
100
AcDbEntity
  8
0
  6
SLD-Solid
 62
     7
370
    15
100
AcDbCircle
 10
790.5654446832
 20
660.0832308201
 30
0.0
 40
22.00000000000014
100
AcDbArc
 50
293.5
 51
88.6977110648
  0
ARC
  5
1B0
330
1F
100
AcDbEntity
  8
0
  6
SLD-Solid
 62
     7
370
    15
100
AcDbCircle
 10
778.0654446832
 20
647.5832308201
 30
0.0
 40
3.100000000000049
100
AcDbArc
 50
279.9421486627
 51
80.0578513373
  0
ARC
  5
1B1
330
1F
100
AcDbEntity
  8
0
  6
SLD-Solid
 62
   142
420
    32960
370
     0
100
AcDbCircle
 10
778.0654446832
 20
647.5832308201
 30
0.0
 40
2.600000000000062
100
AcDbArc
 50
99.9421486627
 51
260.0578513373
  0
ARC
  5
1B2
330
1F
100
AcDbEntity
  8
0
  6
SLD-Solid
 62
   142
420
    32960
370
     0
100
AcDbCircle
 10
777.5733815454
 20
644.7760304588
 30
0.0
 40
0.2500000000000596
100
AcDbArc
 50
260.0578513373
 51
80.0578513373
  0
ARC
  5
1B3
330
1F
100
AcDbEntity
  8
0
  6
SLD-Solid
 62
   142
420
    32960
370
     0
100
AcDbCircle
 10
778.0654446832
 20
647.5832308201
 30
0.0
 40
3.100000000000069
100
AcDbArc
 50
99.9421486627
 51
260.0578513373
  0
ARC
  5
1B4
330
1F
100
AcDbEntity
  8
0
  6
SLD-Solid
 62
   142
420
    32960
370
     0
100
AcDbCircle
 10
777.5733815454
 20
650.3904311814
 30
0.0
 40
0.2500000000000596
100
AcDbArc
 50
279.9421486627
 51
99.9421486627
  0
ARC
  5
1B5
330
1F
100
AcDbEntity
  8
0
  6
SLD-Solid
 62
   142
420
    32960
370
     0
100
AcDbCircle
 10
778.0654446832
 20
647.5832308201
 30
0.0
 40
2.600000000000042
100
AcDbArc
 50
279.9421486627
 51
80.0578513373
  0
ARC
  5
1B6
330
1F
100
AcDbEntity
  8
0
  6
SLD-Solid
 62
   142
420
    32960
370
     0
100
AcDbCircle
 10
778.557507821
 20
650.3904311814
 30
0.0
 40
0.2500000000000793
100
AcDbArc
 50
80.0578513374
 51
260.0578513373
  0
ARC
  5
1B7
330
1F
100
AcDbEntity
  8
0
  6
SLD-Solid
 62
   142
420
    32960
370
     0
100
AcDbCircle
 10
778.557507821
 20
644.7760304588
 30
0.0
 40
0.2500000000000596
100
AcDbArc
 50
99.9421486627
 51
279.9421486627
  0
LINE
  5
1B8
330
1F
100
AcDbEntity
  8
0
  6
SLD-Solid
 62
   142
420
    32960
370
     0
100
AcDbLine
 10
755.1486361847
 20
648.2332308201
 30
0.0
 11
755.1486361847
 21
648.2832308201
 31
0.0
  0
LINE
  5
1B9
330
1F
100
AcDbEntity
  8
0
  6
SLD-Solid
 62
   142
420
    32960
370
     0
100
AcDbLine
 10
755.1486361847
 20
648.2832308201
 30
0.0
 11
755.1590717924
 21
648.2832308201
 31
0.0
  0
ARC
  5
1BA
330
1F
100
AcDbEntity
  8
0
  6
SLD-Solid
 62
   142
420
    32960
370
     0
100
AcDbCircle
 10
755.2736361847
 20
648.2332308201
 30
0.0
 40
0.1249999999999857
100
AcDbArc
 50
23.5781784781
 51
156.4218215219
  0
LINE
  5
1BB
330
1F
100
AcDbEntity
  8
0
  6
SLD-Solid
 62
   142
420
    32960
370
     0
100
AcDbLine
 10
755.3882005771
 20
648.2832308201
 30
0.0
 11
755.3986361847
 21
648.2832308201
 31
0.0
  0
LINE
  5
1BC
330
1F
100
AcDbEntity
  8
0
  6
SLD-Solid
 62
   142
420
    32960
370
     0
100
AcDbLine
 10
755.3986361847
 20
648.2832308201
 30
0.0
 11
755.3986361847
 21
630.8332308201
 31
0.0
  0
ARC
  5
1BD
330
1F
100
AcDbEntity
  8
0
  6
SLD-Solid
 62
   142
420
    32960
370
     0
100
AcDbCircle
 10
775.7177896126
 20
630.8332308201
 30
0.0
 40
0.1250000000001137
100
AcDbArc
 50
0.0
 51
180.0
  0
LINE
  5
1BE
330
1F
100
AcDbEntity
  8
0
  6
SLD-Solid
 62
   142
420
    32960
370
     0
100
AcDbLine
 10
775.8427896126
 20
629.6919339138
 30
0.0
 11
775.8427896126
 21
630.8332308201
 31
0.0
  0
LINE
  5
1BF
330
1F
100
AcDbEntity
  8
0
  6
SLD-Solid
 62
   142
420
    32960
370
     0
100
AcDbLine
 10
791.0654446832
 20
682.077548268
 30
0.0
 11
791.0654446832
 21
680.8832308201
 31
0.0
  0
LINE
  5
1C0
330
1F
100
AcDbEntity
  8
0
  6
SLD-Solid
 62
   142
420
    32960
370
     0
100
AcDbLine
 10
791.0654446832
 20
680.8832308201
 30
0.0
 11
790.5654446832
 21
680.8832308201
 31
0.0
  0
LINE
  5
1C1
330
1F
100
AcDbEntity
  8
0
  6
SLD-Solid
 62
   142
420
    32960
370
     0
100
AcDbLine
 10
790.5654446832
 20
680.8832308201
 30
0.0
 11
790.5654446832
 21
680.9332308201
 31
0.0
  0
LINE
  5
1C2
330
1F
100
AcDbEntity
  8
0
  6
SLD-Solid
 62
   142
420
    32960
370
     0
100
AcDbLine
 10
699.2486361847
 20
680.9332308201
 30
0.0
 11
699.2486361847
 21
680.8832308201
 31
0.0
  0
LINE
  5
1C3
330
1F
100
AcDbEntity
  8
0
  6
SLD-Solid
 62
   142
420
    32960
370
     0
100
AcDbLine
 10
699.2486361847
 20
680.8832308201
 30
0.0
 11
698.0086361847
 21
680.8832308201
 31
0.0
  0
ARC
  5
1C4
330
1F
100
AcDbEntity
  8
0
  6
SLD-Solid
 62
   142
420
    32960
370
     0
100
AcDbCircle
 10
695.5486361847
 20
664.6332308201
 30
0.0
 40
2.460000000000036
100
AcDbArc
 50
270.0
 51
0.0
  0
ARC
  5
1C5
330
1F
100
AcDbEntity
  8
0
  6
SLD-Solid
 62
   142
420
    32960
370
     0
100
AcDbCircle
 10
673.7486361847
 20
660.9332308201
 30
0.0
 40
1.240000000000123
100
AcDbArc
 50
90.0
 51
180.0
  0
LINE
  5
1C6
330
1F
100
AcDbEntity
  8
0
  6
SLD-Solid
 62
   142
420
    32960
370
     0
100
AcDbLine
 10
672.5086361847
 20
660.9332308201
 30
0.0
 11
672.5086361847
 21
648.2332308201
 31
0.0
  0
LINE
  5
1C7
330
1F
100
AcDbEntity
  8
0
  6
SLD-Solid
 62
     7
370
    15
100
AcDbLine
 10
699.2486361847
 20
680.9332308201
 30
0.0
 11
699.2486361847
 21
683.3832308201
 31
0.0
  0
LINE
  5
1C8
330
1F
100
AcDbEntity
  8
0
  6
SLD-Solid
 62
     7
370
    15
100
AcDbLine
 10
699.2486361847
 20
683.3832308201
 30
0.0
 11
790.5654446832
 21
683.3832308201
 31
0.0
  0
LINE
  5
1C9
330
1F
100
AcDbEntity
  8
0
  6
SLD-Solid
 62
   142
420
    32960
370
     0
100
AcDbLine
 10
790.5654446832
 20
683.3832308201
 30
0.0
 11
790.5654446832
 21
680.9332308201
 31
0.0
  0
LINE
  5
1CA
330
1F
100
AcDbEntity
  8
0
  6
SLD-Solid
 62
   142
420
    32960
370
     0
100
AcDbLine
 10
696.7986361847
 20
680.9332308201
 30
0.0
 11
696.7986361847
 21
664.6332308201
 31
0.0
  0
LINE
  5
1CB
330
1F
100
AcDbEntity
  8
0
  6
SLD-Solid
 62
   142
420
    32960
370
     0
100
AcDbLine
 10
777.6022553106
 20
629.0393979374
 30
0.0
 11
799.8562979892
 21
638.7157310869
 31
0.0
  0
LINE
  5
1CC
330
1F
100
AcDbEntity
  8
0
  6
SLD-Solid
 62
   142
420
    32960
370
     0
100
AcDbLine
 10
777.6022553106
 20
629.0393979374
 30
0.0
 11
776.6851952362
 21
628.6406488685
 31
0.0
  0
ARC
  5
1CD
330
1F
100
AcDbEntity
  8
0
  6
SLD-Solid
 62
     7
370
    15
100
AcDbCircle
 10
790.5654446832
 20
660.0832308201
 30
0.0
 40
23.30000000000002
100
AcDbArc
 50
293.5
 51
88.7703824493
  0
ARC
  5
1CE
330
1F
100
AcDbEntity
  8
0
  6
SLD-Solid
 62
   142
420
    32960
370
     0
100
AcDbCircle
 10
790.5654446832
 20
660.0832308201
 30
0.0
 40
23.30000000000002
100
AcDbArc
 50
88.7703824493
 51
90.0
  0
LINE
  5
1CF
330
1F
100
AcDbEntity
  8
0
  6
SLD-Solid
 62
   142
420
    32960
370
     0
100
AcDbLine
 10
791.0654446832
 20
682.1775739875
 30
0.0
 11
791.0654446832
 21
683.3778653955
 31
0.0
  0
ARC
  5
1D0
330
1F
100
AcDbEntity
  8
0
  6
SLD-Solid
 62
   142
420
    32960
370
     0
100
AcDbCircle
 10
790.5654446832
 20
660.0832308201
 30
0.0
 40
22.09999999999997
100
AcDbArc
 50
293.5
 51
88.703604783
  0
LINE
  5
1D1
330
1F
100
AcDbEntity
  8
0
  6
SLD-Solid
 62
   142
420
    32960
370
     0
100
AcDbLine
 10
799.8562979892
 20
638.7157310869
 30
0.0
 11
799.3777991065
 21
639.8162031762
 31
0.0
  0
ARC
  5
1D2
330
1F
100
AcDbEntity
  8
0
  6
SLD-Solid
 62
   142
420
    32960
370
     0
100
AcDbCircle
 10
699.2486361847
 20
680.9332308201
 30
0.0
 40
2.450000000000045
100
AcDbArc
 50
90.0
 51
180.0
  0
LINE
  5
1D3
330
1F
100
AcDbEntity
  8
0
  6
SLD-Solid
 62
   142
420
    32960
370
     0
100
AcDbLine
 10
785.5607091122
 20
633.8083614608
 30
0.0
 11
785.476300884
 21
633.7716597186
 31
0.0
  0
LINE
  5
1D4
330
1F
100
AcDbEntity
  8
0
  6
SLD-Solid
 62
   142
420
    32960
370
     0
100
AcDbLine
 10
781.7533299701
 20
632.1528658936
 30
0.0
 11
779.6915246362
 21
631.2563674196
 31
0.0
  0
ARC
  5
1D5
330
1F
100
AcDbEntity
  8
0
  6
SLD-Solid
 62
   142
420
    32960
370
     0
100
AcDbCircle
 10
699.2486361847
 20
680.9332308201
 30
0.0
 40
1.250000000000114
100
AcDbArc
 50
90.0
 51
180.0
  0
LINE
  5
1D6
330
1F
100
AcDbEntity
  8
0
  6
SLD-Solid
 62
   142
420
    32960
370
     0
100
AcDbLine
 10
696.7986361847
 20
680.9332308201
 30
0.0
 11
697.9986361847
 21
680.9332308201
 31
0.0
  0
LINE
  5
1D7
330
1F
100
AcDbEntity
  8
0
  6
SLD-Solid
 62
   142
420
    32960
370
     0
100
AcDbLine
 10
777.6022553106
 20
629.0393979374
 30
0.0
 11
777.1237564279
 21
630.1398700266
 31
0.0
  0
LINE
  5
1D8
330
1F
100
AcDbEntity
  8
0
  6
SLD-Solid
 62
   142
420
    32960
370
     0
100
AcDbLine
 10
777.1237564279
 20
630.1398700266
 30
0.0
 11
779.6915246362
 21
631.2563674196
 31
0.0
  0
LINE
  5
1D9
330
1F
100
AcDbEntity
  8
0
  6
SLD-Solid
 62
   142
420
    32960
370
     0
100
AcDbLine
 10
785.5607091122
 20
633.8083614608
 30
0.0
 11
799.3777991065
 21
639.8162031762
 31
0.0
  0
LINE
  5
1DA
330
1F
100
AcDbEntity
  8
0
  6
SLD-Solid
 62
   142
420
    32960
370
     0
100
AcDbLine
 10
697.9986361847
 20
680.9332308201
 30
0.0
 11
697.9986361847
 21
664.6332308201
 31
0.0
  0
LINE
  5
1DB
330
1F
100
AcDbEntity
  8
0
  6
SLD-Solid
 62
   142
420
    32960
370
     0
100
AcDbLine
 10
697.9986361847
 20
664.6332308201
 30
0.0
 11
696.7986361847
 21
664.6332308201
 31
0.0
  0
LINE
  5
1DC
330
1F
100
AcDbEntity
  8
0
  6
SLD-Solid
 62
     7
370
    15
100
AcDbLine
 10
817.3986361848
 20
56.3455153128
 30
0.0
 11
817.3986361848
 21
1.420946329
 31
0.0
  0
SPLINE
  5
1DD
330
1F
100
AcDbEntity
  8
0
  6
SLD-Solid
 62
   142
420
    32960
370
     0
100
AcDbSpline
210
0.0
220
0.0
230
1.0
 70
     8
 71
     3
 72
    19
 73
    15
 74
     0
 42
0.00000001
 43
0.00000001
 40
0.0
 40
0.0
 40
0.0
 40
0.0
 40
0.0570993991126189
 40
0.1156579135416848
 40
0.175681405434306
 40
0.2371753153706688
 40
0.3001447001954016
 40
0.3645942668468676
 40
0.4305284026613339
 40
0.497951202566802
 40
0.616222681230533
 40
0.7486233071240641
 40
0.8538653653140834
 40
0.9999999999999999
 40
0.9999999999999999
 40
0.9999999999999999
 40
0.9999999999999999
 10
815.9986361847549
 20
56.88885294118695
 30
0.0
 10
816.0472640510994
 20
56.88203162441724
 30
0.0
 10
816.1457624179615
 20
56.86821467927506
 30
0.0
 10
816.2875478977643
 20
56.84486777471989
 30
0.0
 10
816.4261958161492
 20
56.81929608507552
 30
0.0
 10
816.5601529423681
 20
56.79131665427403
 30
0.0
 10
816.6884977338973
 20
56.76098028997556
 30
0.0
 10
816.8100660325383
 20
56.72827275005815
 30
0.0
 10
816.9237187433771
 20
56.69319818552601
 30
0.0
 10
817.0537090669387
 20
56.64661778130989
 30
0.0
 10
817.1917940058369
 20
56.58451458964506
 30
0.0
 10
817.3032506889406
 20
56.51175421354709
 30
0.0
 10
817.3821071610805
 20
56.43070769278333
 30
0.0
 10
817.3925597218497
 20
56.37683406139809
 30
0.0
 10
817.398636184755
 20
56.34551531282356
 30
0.0
  0
LINE
  5
1DE
330
1F
100
AcDbEntity
  8
0
  6
SLD-Solid
 62
   142
420
    32960
370
     0
100
AcDbLine
 10
815.9986361848
 20
56.8888529412
 30
0.0
 11
815.9986361848
 21
0.8772141508
 31
0.0
  0
SPLINE
  5
1DF
330
1F
100
AcDbEntity
  8
0
  6
SLD-Solid
 62
     7
370
    15
100
AcDbSpline
210
0.0
220
0.0
230
1.0
 70
     8
 71
     3
 72
    19
 73
    15
 74
     0
 42
0.00000001
 43
0.00000001
 40
0.0
 40
0.0
 40
0.0
 40
0.0
 40
0.0571143122037904
 40
0.1156859695386078
 40
0.1757206699038213
 40
0.2372237019665071
 40
0.3001999818643121
 40
0.364654086023463
 40
0.4305902805559935
 40
0.4980125476391917
 40
0.6162771910106102
 40
0.7486631870564205
 40
0.8538896613728936
 40
0.9999999999999999
 40
0.9999999999999999
 40
0.9999999999999999
 40
0.9999999999999999
 10
815.9986361847549
 20
-1.116769179086541
 30
0.0
 10
816.047263699317
 20
-1.084954671859983
 30
0.0
 10
816.1457595220157
 20
-1.020513869338269
 30
0.0
 10
816.2875453340628
 20
-0.9118906967059415
 30
0.0
 10
816.4261931842525
 20
-0.7927882063950564
 30
0.0
 10
816.5601504082433
 20
-0.6622530175284247
 30
0.0
 10
816.6884952947556
 20
-0.5204508985490186
 30
0.0
 10
816.8100637322547
 20
-0.3673547935917343
 30
0.0
 10
816.9237166081199
 20
-0.2031113853074307
 30
0.0
 10
817.0537055341422
 20
0.0147401256410662
 30
0.0
 10
817.1917903809684
 20
0.3042472468375301
 30
0.0
 10
817.3032490071707
 20
0.6446110521434179
 30
0.0
 10
817.3821068226898
 20
1.022326705888754
 30
0.0
 10
817.3925596267042
 20
1.274404963977849
 30
0.0
 10
817.398636184755
 20
1.420946329003359
 30
0.0
  0
SPLINE
  5
1E0
330
1F
100
AcDbEntity
  8
0
  6
SLD-Solid
 62
   142
420
    32960
370
     0
100
AcDbSpline
210
0.0
220
0.0
230
1.0
 70
     8
 71
     3
 72
    10
 73
     6
 74
     0
 42
0.00000001
 43
0.00000001
 40
0.0
 40
0.0
 40
0.0
 40
0.0
 40
0.5
 40
0.5
 40
1.0
 40
1.0
 40
1.0
 40
1.0
 10
815.9986361847549
 20
0.8772141508204268
 30
0.0
 10
815.999178082978
 20
0.3276285389519629
 30
0.0
 10
815.9986361847549
 20
-0.1714676535219395
 30
0.0
 10
815.9986361847549
 20
-0.8942668725383518
 30
0.0
 10
815.9980944806216
 20
-1.117110717218261
 30
0.0
 10
815.9986361847549
 20
-1.116769179086541
 30
0.0
  0
SPLINE
  5
1E1
330
1F
100
AcDbEntity
  8
0
  6
SLD-Solid
 62
   142
420
    32960
370
     0
100
AcDbSpline
210
0.0
220
0.0
230
1.0
 70
     8
 71
     3
 72
    19
 73
    15
 74
     0
 42
0.00000001
 43
0.00000001
 40
0.0
 40
0.0
 40
0.0
 40
0.0
 40
0.0571115640935923
 40
0.115681259286636
 40
0.1757147833893904
 40
0.2372174247608635
 40
0.3001940990521364
 40
0.364649382058448
 40
0.4305875391447074
 40
0.498012551648669
 40
0.616261616538448
 40
0.7486631924159509
 40
0.8538790033185847
 40
1.0
 40
1.0
 40
1.0
 40
1.0
 10
815.9986361847549
 20
58.88323082091348
 30
0.0
 10
816.0472613808158
 20
58.85141788551815
 30
0.0
 10
816.1457532362335
 20
58.78697978989697
 30
0.0
 10
816.2875347015053
 20
58.67836083357827
 30
0.0
 10
816.4261804576436
 20
58.55926143586868
 30
0.0
 10
816.5601376294483
 20
58.42872791873177
 30
0.0
 10
816.6884841995862
 20
58.28692570709792
 30
0.0
 10
816.8100557056001
 20
58.13382743478645
 30
0.0
 10
816.9237126187303
 20
57.96957953191778
 30
0.0
 10
817.0536963264843
 20
57.75173744458046
 30
0.0
 10
817.1917845020216
 20
57.46222916733756
 30
0.0
 10
817.3032424949948
 20
57.12187609299532
 30
0.0
 10
817.382105344487
 20
56.74414567138028
 30
0.0
 10
817.3925588028794
 20
56.49206738621265
 30
0.0
 10
817.398636184755
 20
56.34551531282359
 30
0.0
  0
SPLINE
  5
1E2
330
1F
100
AcDbEntity
  8
0
  6
SLD-Solid
 62
   142
420
    32960
370
     0
100
AcDbSpline
210
0.0
220
0.0
230
1.0
 70
    24
 71
     3
 72
     8
 73
     4
 74
     0
 42
0.00000001
 43
0.00000001
 40
0.0
 40
0.0
 40
0.0
 40
0.0
 40
1.0
 40
1.0
 40
1.0
 40
1.0
 10
815.9986361847549
 20
56.88448238576266
 30
0.0
 10
815.9986361847549
 20
57.98365623467758
 30
0.0
 10
815.9986361847549
 20
58.88323082091348
 30
0.0
 10
815.9986361847549
 20
58.88323082091348
 30
0.0
  0
LINE
  5
1E3
330
1F
100
AcDbEntity
  8
0
  6
SLD-Solid
 62
     7
370
    15
100
AcDbLine
 10
795.8986361848
 20
-33.1167691791
 30
0.0
 11
812.8986361848
 21
-33.1167691791
 31
0.0
  0
LINE
  5
1E4
330
1F
100
AcDbEntity
  8
0
  6
SLD-Solid
 62
   142
420
    32960
370
     0
100
AcDbLine
 10
795.8986361848
 20
-31.6167691791
 30
0.0
 11
812.8986361848
 21
-31.6167691791
 31
0.0
  0
ARC
  5
1E5
330
1F
100
AcDbEntity
  8
0
  6
SLD-Solid
 62
     7
370
    15
100
AcDbCircle
 10
821.2062841237
 20
528.7943001032
 30
0.0
 40
9.999999999999993
100
AcDbArc
 50
320.1368571726
 51
70.1368571726
  0
LINE
  5
1E6
330
1F
100
AcDbEntity
  8
0
  6
SLD-Solid
 62
     7
370
    15
100
AcDbLine
 10
824.6040302458
 20
538.1993690179
 30
0.0
 11
806.8542409833
 21
544.6117917424
 31
0.0
  0
LINE
  5
1E7
330
1F
100
AcDbEntity
  8
0
  6
SLD-Solid
 62
   142
420
    32960
370
     0
100
AcDbLine
 10
807.1260606731
 20
545.3641972556
 30
0.0
 11
806.8542409833
 21
544.6117917424
 31
0.0
  0
LINE
  5
1E8
330
1F
100
AcDbEntity
  8
0
  6
SLD-Solid
 62
     7
370
    15
100
AcDbLine
 10
824.8758499356
 20
538.951774531
 30
0.0
 11
807.1260606731
 21
545.3641972556
 31
0.0
  0
LINE
  5
1E9
330
1F
100
AcDbEntity
  8
0
  6
SLD-Solid
 62
     7
370
    15
100
AcDbLine
 10
823.7429004508
 20
514.9821974021
 30
0.0
 11
829.4961224645
 21
521.8719753286
 31
0.0
  0
LINE
  5
1EA
330
1F
100
AcDbEntity
  8
0
  6
SLD-Solid
 62
     7
370
    15
100
AcDbLine
 10
823.1288383515
 20
515.4949622002
 30
0.0
 11
828.8820603652
 21
522.3847401268
 31
0.0
  0
LINE
  5
1EB
330
1F
100
AcDbEntity
  8
0
  6
SLD-Solid
 62
   142
420
    32960
370
     0
100
AcDbLine
 10
802.4235262157
 20
547.0630703166
 30
0.0
 11
802.151706526
 21
547.1612699476
 31
0.0
  0
LINE
  5
1EC
330
1F
100
AcDbEntity
  8
0
  6
SLD-Solid
 62
   142
420
    32960
370
     0
100
AcDbLine
 10
802.4235262157
 20
547.0630703166
 30
0.0
 11
807.1260606731
 21
545.3641972556
 31
0.0
  0
LINE
  5
1ED
330
1F
100
AcDbEntity
  8
0
  6
SLD-Solid
 62
   142
420
    32960
370
     0
100
AcDbLine
 10
802.151706526
 20
546.3106648035
 30
0.0
 11
801.8798868362
 21
546.4088644344
 31
0.0
  0
LINE
  5
1EE
330
1F
100
AcDbEntity
  8
0
  6
SLD-Solid
 62
   142
420
    32960
370
     0
100
AcDbLine
 10
806.8542409833
 20
544.6117917424
 30
0.0
 11
802.151706526
 21
546.3106648035
 31
0.0
  0
LINE
  5
1EF
330
1F
100
AcDbEntity
  8
0
  6
SLD-Solid
 62
     7
370
    15
100
AcDbLine
 10
823.7429004508
 20
514.9821974021
 30
0.0
 11
822.4609884555
 21
513.4470421538
 31
0.0
  0
LINE
  5
1F0
330
1F
100
AcDbEntity
  8
0
  6
SLD-Solid
 62
     7
370
    15
100
AcDbLine
 10
821.8469263562
 20
513.9598069519
 30
0.0
 11
823.1288383515
 21
515.4949622002
 31
0.0
  0
LINE
  5
1F1
330
1F
100
AcDbEntity
  8
0
  6
SLD-Solid
 62
     7
370
    15
100
AcDbLine
 10
822.4609884555
 20
513.4470421538
 30
0.0
 11
821.8469263562
 21
513.9598069519
 31
0.0
  0
ARC
  5
1F2
330
1F
100
AcDbEntity
  8
0
  6
SLD-Solid
 62
     7
370
    15
100
AcDbCircle
 10
821.2062841237
 20
528.7943001032
 30
0.0
 40
10.79999999999998
100
AcDbArc
 50
320.1368571726
 51
70.1368571726
  0
ARC
  5
1F3
330
1F
100
AcDbEntity
  8
0
  6
SLD-Solid
 62
   142
420
    32960
370
     0
100
AcDbCircle
 10
801.455168571
 20
545.2332308201
 30
0.0
 40
2.050000000000068
100
AcDbArc
 50
70.1368571726
 51
90.0
  0
LINE
  5
1F4
330
1F
100
AcDbEntity
  8
0
  6
SLD-Solid
 62
   142
420
    32960
370
     0
100
AcDbLine
 10
806.4079374016
 20
545.5173062412
 30
0.0
 11
806.4419148628
 21
545.6113569303
 31
0.0
  0
LINE
  5
1F5
330
1F
100
AcDbEntity
  8
0
  6
SLD-Solid
 62
   142
420
    32960
370
     0
100
AcDbLine
 10
802.4235262157
 20
547.0630703166
 30
0.0
 11
802.151706526
 21
546.3106648035
 31
0.0
  0
LINE
  5
1F6
330
1F
100
AcDbEntity
  8
0
  6
SLD-Solid
 62
   142
420
    32960
370
     0
100
AcDbLine
 10
46.8986361848
 20
647.1832308201
 30
0.0
 11
46.8986361848
 21
682.5832308201
 31
0.0
  0
LINE
  5
1F7
330
1F
100
AcDbEntity
  8
0
  6
SLD-Solid
 62
   142
420
    32960
370
     0
100
AcDbLine
 10
46.8986361848
 20
731.3626859799
 30
0.0
 11
46.8986361848
 21
731.3800000777
 31
0.0
  0
LINE
  5
1F8
330
1F
100
AcDbEntity
  8
0
  6
SLD-Solid
 62
   142
420
    32960
370
     0
100
AcDbLine
 10
46.8986361848
 20
647.1832308201
 30
0.0
 11
47.3986361848
 21
647.1832308201
 31
0.0
  0
LINE
  5
1F9
330
1F
100
AcDbEntity
  8
0
  6
SLD-Solid
 62
   142
420
    32960
370
     0
100
AcDbLine
 10
47.3986361848
 20
731.3800000777
 30
0.0
 11
46.8986361848
 21
731.3800000777
 31
0.0
  0
LINE
  5
1FA
330
1F
100
AcDbEntity
  8
0
  6
SLD-Solid
 62
     7
370
    15
100
AcDbLine
 10
848.9831688615
 20
428.233473863
 30
0.0
 11
848.8789757456
 21
428.1926447047
 31
0.0
  0
LINE
  5
1FB
330
1F
100
AcDbEntity
  8
0
  6
SLD-Solid
 62
     7
370
    15
100
AcDbLine
 10
862.3312317001
 20
457.4356613437
 30
0.0
 11
862.6512312684
 21
457.4353584771
 31
0.0
  0
SPLINE
  5
1FC
330
1F
100
AcDbEntity
  8
0
  6
SLD-Solid
 62
     7
370
    15
100
AcDbSpline
210
0.0
220
0.0
230
1.0
 70
     8
 71
     3
 72
    12
 73
     8
 74
     0
 42
0.00000001
 43
0.00000001
 40
0.75
 40
0.75
 40
0.75
 40
0.75
 40
0.8125
 40
0.8125
 40
0.875
 40
0.875
 40
1.0
 40
1.0
 40
1.0
 40
1.0
 10
851.2991320151609
 20
428.4830314610286
 30
0.0
 10
851.102886508582
 20
428.4219797676677
 30
0.0
 10
850.9034234453026
 20
428.3698695765151
 30
0.0
 10
850.5041385304985
 20
428.2847373240024
 30
0.0
 10
850.30345117645
 20
428.2514346308758
 30
0.0
 10
849.6983001631692
 20
428.1789113579286
 30
0.0
 10
849.2907541417118
 20
428.1668506254401
 30
0.0
 10
848.8789757456045
 20
428.1926447047116
 30
0.0
  0
SPLINE
  5
1FD
330
1F
100
AcDbEntity
  8
0
  6
SLD-Solid
 62
     7
370
    15
100
AcDbSpline
210
0.0
220
0.0
230
1.0
 70
     8
 71
     3
 72
    12
 73
     8
 74
     0
 42
0.00000001
 43
0.00000001
 40
0.75
 40
0.75
 40
0.75
 40
0.75
 40
0.8125
 40
0.8125
 40
0.875
 40
0.875
 40
1.0
 40
1.0
 40
1.0
 40
1.0
 10
851.299132015169
 20
457.2993804505863
 30
0.0
 10
851.1028865085901
 20
457.3604281014314
 30
0.0
 10
850.9034234453068
 20
457.4125342166151
 30
0.0
 10
850.5041385304986
 20
457.4976583731876
 30
0.0
 10
850.3034511764502
 20
457.5309570284767
 30
0.0
 10
849.6983001631693
 20
457.6034682178674
 30
0.0
 10
849.2907541417119
 20
457.6155209339788
 30
0.0
 10
848.8789757456046
 20
457.5897188804739
 30
0.0
  0
SPLINE
  5
1FE
330
1F
100
AcDbEntity
  8
0
  6
SLD-Solid
 62
     7
370
    15
100
AcDbSpline
210
0.0
220
0.0
230
1.0
 70
     8
 71
     3
 72
    26
 73
    22
 74
     0
 42
0.00000001
 43
0.00000001
 40
0.0
 40
0.0
 40
0.0
 40
0.0
 40
0.0273633368393524
 40
0.0548360898638812
 40
0.0824191384445243
 40
0.1101133609737313
 40
0.1379196348979021
 40
0.1658388367487739
 40
0.1938718421752589
 40
0.2220195259748662
 40
0.2502827621272821
 40
0.3723728258291897
 40
0.5000672714553522
 40
0.6191344571858235
 40
0.7498737078547919
 40
0.781526186426234
 40
0.8171857489088976
 40
0.8568572283828676
 40
0.9005460197815436
 40
0.9482580922300914
 40
1.0
 40
1.0
 40
1.0
 40
1.0
 10
870.6637502976629
 20
433.7143826438249
 30
0.0
 10
870.644593462651
 20
433.6258649763317
 30
0.0
 10
870.6062031913042
 20
433.4484756908913
 30
0.0
 10
870.5353594091403
 20
433.1850018706165
 30
0.0
 10
870.4546613964927
 20
432.9233069844369
 30
0.0
 10
870.3631575034916
 20
432.6640216000818
 30
0.0
 10
870.261123532319
 20
432.4075310232149
 30
0.0
 10
870.1485261203021
 20
432.1542907939161
 30
0.0
 10
870.025442575798
 20
431.9047462674854
 30
0.0
 10
869.891929196869
 20
431.659332730116
 30
0.0
 10
869.58920062185
 20
431.1524414992493
 30
0.0
 10
869.0330185831709
 20
430.4138387759188
 30
0.0
 10
868.133713277478
 20
429.580401836762
 30
0.0
 10
867.0800507349063
 20
428.9014852624018
 30
0.0
 10
866.2156292822272
 20
428.5408346166732
 30
0.0
 10
865.5863361444525
 20
428.3595300663474
 30
0.0
 10
865.2420073497772
 20
428.2778194136572
 30
0.0
 10
864.8546001628882
 20
428.2072553843436
 30
0.0
 10
864.424066973992
 20
428.1552743763415
 30
0.0
 10
863.9509512786688
 20
428.1265028569189
 30
0.0
 10
863.6219547091575
 20
428.1359876059244
 30
0.0
 10
863.4507910199932
 20
428.1409221395365
 30
0.0
  0
SPLINE
  5
1FF
330
1F
100
AcDbEntity
  8
0
  6
SLD-Solid
 62
     7
370
    15
100
AcDbSpline
210
0.0
220
0.0
230
1.0
 70
     8
 71
     3
 72
    26
 73
    22
 74
     0
 42
0.00000001
 43
0.00000001
 40
0.0
 40
0.0
 40
0.0
 40
0.0
 40
0.0273623823798257
 40
0.0548344195310651
 40
0.0824169908494358
 40
0.1101109747514215
 40
0.1379172487074607
 40
0.1658366892738931
 40
0.1938701721241465
 40
0.2220185720817114
 40
0.2502827631532137
 40
0.3723677889031004
 40
0.5000672726351093
 40
0.6191293059303822
 40
0.7498737071981798
 40
0.7815240527163626
 40
0.817182334173393
 40
0.8568533854067714
 40
0.9005426023345063
 40
0.9482559552932619
 40
1.0
 40
1.0
 40
1.0
 40
1.0
 10
870.663750297663
 20
452.0525342479289
 30
0.0
 10
870.6445941650096
 20
452.1410492108824
 30
0.0
 10
870.6062051314847
 20
452.3184338605815
 30
0.0
 10
870.5353637052114
 20
452.5819021352671
 30
0.0
 10
870.4546677941536
 20
452.8435939415638
 30
0.0
 10
870.3631655260082
 20
453.1028786645267
 30
0.0
 10
870.2611324251501
 20
453.3593709126208
 30
0.0
 10
870.1485348681584
 20
453.6126150419387
 30
0.0
 10
870.0254499069105
 20
453.8621655723936
 30
0.0
 10
869.8919335929392
 20
454.1075870679999
 30
0.0
 10
869.5892110724355
 20
454.61447215031
 30
0.0
 10
869.0330301331358
 20
455.3530841090987
 30
0.0
 10
868.1337398084481
 20
456.1865203468248
 30
0.0
 10
867.0800663119998
 20
456.8654569564629
 30
0.0
 10
866.2156521827111
 20
457.2261137785599
 30
0.0
 10
865.5863538266123
 20
457.4074246502121
 30
0.0
 10
865.2420377325237
 20
457.4891357303692
 30
0.0
 10
864.8546350972086
 20
457.5597031742778
 30
0.0
 10
864.4240979840854
 20
457.6116892245928
 30
0.0
 10
863.9509696788994
 20
457.64046591518
 30
0.0
 10
863.6219617871625
 20
457.6309827534108
 30
0.0
 10
863.4507910199947
 20
457.6260490113456
 30
0.0
  0
LINE
  5
200
330
1F
100
AcDbEntity
  8
0
  6
SLD-Solid
 62
     7
370
    15
100
AcDbLine
 10
870.6637502977
 20
433.7143826438
 30
0.0
 11
870.484744785
 21
433.5647048119
 31
0.0
  0
LINE
  5
201
330
1F
100
AcDbEntity
  8
0
  6
SLD-Solid
 62
     7
370
    15
100
AcDbLine
 10
870.484768808
 20
452.2021002669
 30
0.0
 11
870.6637502977
 21
452.0525342479
 31
0.0
  0
SPLINE
  5
202
330
1F
100
AcDbEntity
  8
0
  6
SLD-Solid
 62
     7
370
    15
100
AcDbSpline
210
0.0
220
0.0
230
1.0
 70
     8
 71
     3
 72
    12
 73
     8
 74
     0
 42
0.00000001
 43
0.00000001
 40
0.0
 40
0.0
 40
0.0
 40
0.0
 40
0.2499999999999955
 40
0.2499999999999955
 40
0.499999999999991
 40
0.499999999999991
 40
1.0
 40
1.0
 40
1.0
 40
1.0
 10
-4.343407362383367
 20
488.6832308201111
 30
0.0
 10
-4.040108714259416
 20
488.6832308201112
 30
0.0
 10
-3.734489808180808
 20
488.7142771525356
 30
0.0
 10
-3.13175412223432
 20
488.8340583624245
 30
0.0
 10
-2.832946857619589
 20
488.9226194360212
 30
0.0
 10
-1.943207487106247
 20
489.2631248968827
 30
0.0
 10
-1.358922404679885
 20
489.5894951565119
 30
0.0
 10
-0.7806537706621097
 20
489.9832308201108
 30
0.0
  0
SPLINE
  5
203
330
1F
100
AcDbEntity
  8
0
  6
SLD-Solid
 62
     7
370
    15
100
AcDbSpline
210
0.0
220
0.0
230
1.0
 70
     8
 71
     3
 72
    10
 73
     6
 74
     0
 42
0.00000001
 43
0.00000001
 40
0.0
 40
0.0
 40
0.0
 40
0.0
 40
0.5
 40
0.5
 40
1.0
 40
1.0
 40
1.0
 40
1.0
 10
-0.7806537706621097
 20
489.983230820111
 30
0.0
 10
0.4415395846135706
 20
489.5880456034591
 30
0.0
 10
1.674570326753111
 20
489.261450286861
 30
0.0
 10
4.17223657071053
 20
488.8082864068645
 30
0.0
 10
5.437111126867233
 20
488.6832308201111
 30
0.0
 10
6.721744798755036
 20
488.6832308201111
 30
0.0
  0
LINE
  5
204
330
1F
100
AcDbEntity
  8
0
  6
SLD-Solid
 62
     7
370
    15
100
AcDbLine
 10
6.7217447988
 20
488.6832308201
 30
0.0
 11
-4.3434073624
 21
488.6832308201
 31
0.0
  0
SPLINE
  5
205
330
1F
100
AcDbEntity
  8
0
  6
SLD-Solid
 62
     7
370
    15
100
AcDbSpline
210
0.0
220
0.0
230
1.0
 70
     8
 71
     3
 72
    12
 73
     8
 74
     0
 42
0.00000001
 43
0.00000001
 40
0.0
 40
0.0
 40
0.0
 40
0.0
 40
0.2500000000000034
 40
0.2500000000000034
 40
0.5000000000000069
 40
0.5000000000000069
 40
1.0
 40
1.0
 40
1.0
 40
1.0
 10
6.721744798755036
 20
488.6832308201111
 30
0.0
 10
7.360427010479508
 20
488.6832308201111
 30
0.0
 10
8.003995190182078
 20
488.7142771525355
 30
0.0
 10
9.273227886624602
 20
488.8340583624245
 30
0.0
 10
9.902452203396638
 20
488.9226194360211
 30
0.0
 10
11.77605339658705
 20
489.2631248968828
 30
0.0
 10
13.00643306042742
 20
489.5894951565118
 30
0.0
 10
14.22414336817224
 20
489.9832308201108
 30
0.0
  0
LINE
  5
206
330
1F
100
AcDbEntity
  8
0
  6
SLD-Solid
 62
     7
370
    15
100
AcDbLine
 10
-0.7806537707
 20
491.9832308201
 30
0.0
 11
-0.7806537707
 21
489.9832308201
 31
0.0
  0
LINE
  5
207
330
1F
100
AcDbEntity
  8
0
  6
SLD-Solid
 62
   142
420
    32960
370
     0
100
AcDbLine
 10
14.2241433682
 20
491.9832308201
 30
0.0
 11
14.2241433682
 21
489.9832308201
 31
0.0
  0
LINE
  5
208
330
1F
100
AcDbEntity
  8
0
  6
SLD-Solid
 62
     7
370
    15
100
AcDbLine
 10
18.1637883459
 20
488.6832308201
 30
0.0
 11
6.7217447988
 21
488.6832308201
 31
0.0
  0
SPLINE
  5
209
330
1F
100
AcDbEntity
  8
0
  6
SLD-Solid
 62
   142
420
    32960
370
     0
100
AcDbSpline
210
0.0
220
0.0
230
1.0
 70
     8
 71
     3
 72
    12
 73
     8
 74
     0
 42
0.00000001
 43
0.00000001
 40
0.0
 40
0.0
 40
0.0
 40
0.0
 40
0.2499999999999972
 40
0.2499999999999972
 40
0.4999999999999944
 40
0.4999999999999944
 40
1.0
 40
1.0
 40
1.0
 40
1.0
 10
14.22414336817224
 20
489.983230820111
 30
0.0
 10
14.54288732202147
 20
489.7869645031922
 30
0.0
 10
14.86514460580762
 20
489.6063104697847
 30
0.0
 10
15.51865046281742
 20
489.2849572498949
 30
0.0
 10
15.84676814350583
 20
489.145935636354
 30
0.0
 10
16.83375030500267
 20
488.8059531776435
 30
0.0
 10
17.49615927525999
 20
488.6832308201111
 30
0.0
 10
18.16378834586818
 20
488.6832308201111
 30
0.0
  0
LINE
  5
20A
330
1F
100
AcDbEntity
  8
0
  6
SLD-Solid
 62
     7
370
    15
100
AcDbLine
 10
-4.3434073624
 20
488.6832308201
 30
0.0
 11
-5.9013638153
 21
488.6832308201
 31
0.0
  0
LINE
  5
20B
330
1F
100
AcDbEntity
  8
0
  6
SLD-Solid
 62
   142
420
    32960
370
     0
100
AcDbLine
 10
20.0986361847
 20
488.6832308201
 30
0.0
 11
18.1637883459
 21
488.6832308201
 31
0.0
  0
SPLINE
  5
20C
330
1F
100
AcDbEntity
  8
0
  6
SLD-Solid
 62
     7
370
    15
100
AcDbSpline
210
0.0
220
0.0
230
1.0
 70
     8
 71
     3
 72
     9
 73
     5
 74
     0
 42
0.00000001
 43
0.00000001
 40
0.0
 40
0.0
 40
0.0
 40
0.0
 40
0.4583164324424118
 40
1.0
 40
1.0
 40
1.0
 40
1.0
 10
-7.672073126982815
 20
489.856560779399
 30
0.0
 10
-7.174344787166886
 20
489.5466489798418
 30
0.0
 10
-6.088352000123532
 20
488.8704528462983
 30
0.0
 10
-4.956508426993523
 20
488.7490128633297
 30
0.0
 10
-4.343407362383312
 20
488.6832308201111
 30
0.0
  0
LINE
  5
20D
330
1F
100
AcDbEntity
  8
0
  6
SLD-Solid
 62
     7
370
    15
100
AcDbLine
 10
-7.9061609541
 20
491.9832308201
 30
0.0
 11
-7.9061609541
 21
489.9832308201
 31
0.0
  0
LINE
  5
20E
330
1F
100
AcDbEntity
  8
0
  6
SLD-Solid
 62
     7
370
    15
100
AcDbLine
 10
737.5986361847
 20
-200.1167691799
 30
0.0
 11
680.5986361847
 21
-200.1167691799
 31
0.0
  0
LINE
  5
20F
330
1F
100
AcDbEntity
  8
0
  6
SLD-Solid
 62
     7
370
    15
100
AcDbLine
 10
735.5986361139
 20
-206.1167691799
 30
0.0
 11
682.5986361847
 21
-206.1167691799
 31
0.0
  0
LINE
  5
210
330
1F
100
AcDbEntity
  8
0
  6
SLD-Solid
 62
   142
420
    32960
370
     0
100
AcDbLine
 10
123.5486361848
 20
682.5832308201
 30
0.0
 11
123.5486361848
 21
682.0832308201
 31
0.0
  0
LINE
  5
211
330
1F
100
AcDbEntity
  8
0
  6
SLD-Solid
 62
     7
370
    15
100
AcDbLine
 10
149.2986361848
 20
646.1832308201
 30
0.0
 11
47.8986361848
 21
646.1832308201
 31
0.0
  0
LINE
  5
212
330
1F
100
AcDbEntity
  8
0
  6
SLD-Solid
 62
   142
420
    32960
370
     0
100
AcDbLine
 10
149.2986361848
 20
646.1832308201
 30
0.0
 11
149.2986361848
 21
646.6832308201
 31
0.0
  0
LINE
  5
213
330
1F
100
AcDbEntity
  8
0
  6
SLD-Solid
 62
   142
420
    32960
370
     0
100
AcDbLine
 10
47.8986361848
 20
646.6832308201
 30
0.0
 11
47.8986361848
 21
646.1832308201
 31
0.0
  0
LINE
  5
214
330
1F
100
AcDbEntity
  8
0
  6
SLD-Solid
 62
   142
420
    32960
370
     0
100
AcDbLine
 10
124.7986361848
 20
664.6332308201
 30
0.0
 11
124.2986361848
 21
664.6332308201
 31
0.0
  0
ARC
  5
215
330
1F
100
AcDbEntity
  8
0
  6
SLD-Solid
 62
   142
420
    32960
370
     0
100
AcDbCircle
 10
126.8486361848
 20
664.6332308201
 30
0.0
 40
2.049999999999997
100
AcDbArc
 50
180.0
 51
270.0
  0
ARC
  5
216
330
1F
100
AcDbEntity
  8
0
  6
SLD-Solid
 62
   142
420
    32960
370
     0
100
AcDbCircle
 10
47.8986361848
 20
647.1832308201
 30
0.0
 40
0.5
100
AcDbArc
 50
180.0
 51
270.0
  0
ARC
  5
217
330
1F
100
AcDbEntity
  8
0
  6
SLD-Solid
 62
   142
420
    32960
370
     0
100
AcDbCircle
 10
149.2986361848
 20
647.1832308201
 30
0.0
 40
0.5000000000000568
100
AcDbArc
 50
270.0
 51
0.0
  0
ARC
  5
218
330
1F
100
AcDbEntity
  8
0
  6
SLD-Solid
 62
   142
420
    32960
370
     0
100
AcDbCircle
 10
149.0486361848
 20
661.3332308201
 30
0.0
 40
0.75
100
AcDbArc
 50
0.0
 51
90.0
  0
LINE
  5
219
330
1F
100
AcDbEntity
  8
0
  6
SLD-Solid
 62
   142
420
    32960
370
     0
100
AcDbLine
 10
124.2986361848
 20
664.6332308201
 30
0.0
 11
124.2986361848
 21
681.3332308201
 31
0.0
  0
ARC
  5
21A
330
1F
100
AcDbEntity
  8
0
  6
SLD-Solid
 62
   142
420
    32960
370
     0
100
AcDbCircle
 10
123.5486361848
 20
681.3332308201
 30
0.0
 40
0.75
100
AcDbArc
 50
0.0
 51
90.0
  0
ARC
  5
21B
330
1F
100
AcDbEntity
  8
0
  6
SLD-Solid
 62
   142
420
    32960
370
     0
100
AcDbCircle
 10
48.1486361848
 20
731.3800000777
 30
0.0
 40
0.7499999999996376
100
AcDbArc
 50
75.0
 51
180.0000000001
  0
LINE
  5
21C
330
1F
100
AcDbEntity
  8
0
  6
SLD-Solid
 62
   142
420
    32960
370
     0
100
AcDbLine
 10
47.3986361848
 20
731.3800000777
 30
0.0
 11
47.3986361848
 21
647.1832308201
 31
0.0
  0
LINE
  5
21D
330
1F
100
AcDbEntity
  8
0
  6
SLD-Solid
 62
     7
370
    15
100
AcDbLine
 10
150.2986361848
 20
661.3332308201
 30
0.0
 11
150.2986361848
 21
647.1832308201
 31
0.0
  0
LINE
  5
21E
330
1F
100
AcDbEntity
  8
0
  6
SLD-Solid
 62
   142
420
    32960
370
     0
100
AcDbLine
 10
150.2986361848
 20
661.3332308201
 30
0.0
 11
149.7986361848
 21
661.3332308201
 31
0.0
  0
LINE
  5
21F
330
1F
100
AcDbEntity
  8
0
  6
SLD-Solid
 62
   142
420
    32960
370
     0
100
AcDbLine
 10
150.2986361848
 20
647.1832308201
 30
0.0
 11
149.7986361848
 21
647.1832308201
 31
0.0
  0
LINE
  5
220
330
1F
100
AcDbEntity
  8
0
  6
SLD-Solid
 62
   142
420
    32960
370
     0
100
AcDbLine
 10
48.4721599911
 20
732.5874073606
 30
0.0
 11
48.4764885156
 21
732.5862475359
 31
0.0
  0
LINE
  5
221
330
1F
100
AcDbEntity
  8
0
  6
SLD-Solid
 62
   142
420
    32960
370
     0
100
AcDbLine
 10
48.3427504686
 20
732.1044444474
 30
0.0
 11
48.4721599911
 21
732.5874073606
 31
0.0
  0
LINE
  5
222
330
1F
100
AcDbEntity
  8
0
  6
SLD-Solid
 62
   142
420
    32960
370
     0
100
AcDbLine
 10
149.0486361848
 20
662.5832308201
 30
0.0
 11
149.0486361848
 21
662.0832308201
 31
0.0
  0
SPLINE
  5
223
330
1F
100
AcDbEntity
  8
0
  6
SLD-Solid
 62
   142
420
    32960
370
     0
100
AcDbSpline
210
0.0
220
0.0
230
1.0
 70
     8
 71
     3
 72
     8
 73
     4
 74
     0
 42
0.00000001
 43
0.00000001
 40
0.0
 40
0.0
 40
0.0
 40
0.0
 40
1.0
 40
1.0
 40
1.0
 40
1.0
 10
41.75205419734951
 20
18.25099994192053
 30
0.0
 10
42.02469858670066
 20
18.45279210071191
 30
0.0
 10
42.19863618473402
 20
18.65761392951917
 30
0.0
 10
42.19863618473402
 20
18.8677745351053
 30
0.0
  0
SPLINE
  5
224
330
1F
100
AcDbEntity
  8
0
  6
SLD-Solid
 62
   142
420
    32960
370
     0
100
AcDbSpline
210
0.0
220
0.0
230
1.0
 70
     8
 71
     3
 72
    12
 73
     8
 74
     0
 42
0.00000001
 43
0.00000001
 40
0.0
 40
0.0
 40
0.0
 40
0.0
 40
0.2500000000000038
 40
0.2500000000000038
 40
0.5000000000000075
 40
0.5000000000000075
 40
1.0
 40
1.0
 40
1.0
 40
1.0
 10
42.19863618473402
 20
18.8677745351053
 30
0.0
 10
42.19863618473391
 20
18.92011830598458
 30
0.0
 10
42.18808062421048
 20
18.97269671162422
 30
0.0
 10
42.14723189765019
 20
19.07670779208059
 30
0.0
 10
42.11697798761027
 20
19.12836545648386
 30
0.0
 10
42.00029186236187
 20
19.28242096381558
 30
0.0
 10
41.88803612463521
 20
19.38390489083133
 30
0.0
 10
41.75205419734917
 20
19.48454912829003
 30
0.0
  0
LINE
  5
225
330
1F
100
AcDbEntity
  8
0
  6
SLD-Solid
 62
   142
420
    32960
370
     0
100
AcDbLine
 10
41.7520541973
 20
19.4845491283
 30
0.0
 11
41.1486361847
 21
19.4845491283
 31
0.0
  0
LINE
  5
226
330
1F
100
AcDbEntity
  8
0
  6
SLD-Solid
 62
   142
420
    32960
370
     0
100
AcDbLine
 10
37.4452181721
 20
18.2509999419
 30
0.0
 11
37.2422530009
 21
18.5313152355
 31
0.0
  0
LINE
  5
227
330
1F
100
AcDbEntity
  8
0
  6
SLD-Solid
 62
   142
420
    32960
370
     0
100
AcDbLine
 10
41.7520541973
 20
18.2509999419
 30
0.0
 11
37.4452181721
 21
18.2509999419
 31
0.0
  0
LINE
  5
228
330
1F
100
AcDbEntity
  8
0
  6
SLD-Solid
 62
   142
420
    32960
370
     0
100
AcDbLine
 10
804.7193045208
 20
563.8772014154
 30
0.0
 11
804.9466752912
 21
564.0512479261
 31
0.0
  0
SPLINE
  5
229
330
1F
100
AcDbEntity
  8
0
  6
SLD-Solid
 62
   142
420
    32960
370
     0
100
AcDbSpline
210
0.0
220
0.0
230
1.0
 70
     8
 71
     3
 72
     9
 73
     5
 74
     0
 42
0.00000001
 43
0.00000001
 40
0.0
 40
0.0
 40
0.0
 40
0.0
 40
0.1142487988472363
 40
1.0
 40
1.0
 40
1.0
 40
1.0
 10
798.693739975269
 20
584.1726759033046
 30
0.0
 10
798.6789370402871
 20
584.1603656505446
 30
0.0
 10
798.5493695075752
 20
584.0526161347124
 30
0.0
 10
798.3920240885232
 20
583.9985442220275
 30
0.0
 10
798.252655194602
 20
583.9506499604179
 30
0.0
  0
LINE
  5
22A
330
1F
100
AcDbEntity
  8
0
  6
SLD-Solid
 62
   142
420
    32960
370
     0
100
AcDbLine
 10
799.7761084532
 20
583.1608330398
 30
0.0
 11
799.6169686011
 21
583.093688515
 31
0.0
  0
LWPOLYLINE
  5
22B
330
1F
100
AcDbEntity
  8
0
  6
SLD-Solid
 62
   142
420
    32960
370
     0
100
AcDbPolyline
 90
        3
 70
   128
 43
0.0
 10
753.7663082162
 20
-35.5143498634
 10
753.993179833
 20
-35.3113128282
 10
754.1272213309
 20
-35.1673201484
  0
LINE
  5
22C
330
1F
100
AcDbEntity
  8
0
  6
SLD-Solid
 62
     7
370
    15
100
AcDbLine
 10
674.0986361847
 20
-38.1167691799
 30
0.0
 11
674.0986361847
 21
-36.9167691799
 31
0.0
  0
LINE
  5
22D
330
1F
100
AcDbEntity
  8
0
  6
SLD-Solid
 62
     7
370
    15
100
AcDbLine
 10
744.0986361847
 20
-38.1167691799
 30
0.0
 11
744.0986361847
 21
-36.9167691799
 31
0.0
  0
LINE
  5
22E
330
1F
100
AcDbEntity
  8
0
  6
SLD-Solid
 62
     7
370
    15
100
AcDbLine
 10
674.0986361847
 20
-38.1167691799
 30
0.0
 11
744.0986361847
 21
-38.1167691799
 31
0.0
  0
LINE
  5
22F
330
1F
100
AcDbEntity
  8
0
  6
SLD-Solid
 62
     7
370
    15
100
AcDbLine
 10
740.0582864051
 20
-132.1167691799
 30
0.0
 11
678.1389859644
 21
-132.1167691799
 31
0.0
  0
ARC
  5
230
330
1F
100
AcDbEntity
  8
0
  6
SLD-Solid
 62
   142
420
    32960
370
     0
100
AcDbCircle
 10
47.8986361848
 20
647.1832308201
 30
0.0
 40
1.0
100
AcDbArc
 50
180.0
 51
270.0
  0
LINE
  5
231
330
1F
100
AcDbEntity
  8
0
  6
SLD-Solid
 62
   142
420
    32960
370
     0
100
AcDbLine
 10
150.0473854025
 20
661.3832308201
 30
0.0
 11
150.0486361848
 21
661.3332308201
 31
0.0
  0
ARC
  5
232
330
1F
100
AcDbEntity
  8
0
  6
SLD-Solid
 62
   142
420
    32960
370
     0
100
AcDbCircle
 10
149.2986361848
 20
647.1832308201
 30
0.0
 40
0.7499999999999716
100
AcDbArc
 50
270.0
 51
0.0
  0
ARC
  5
233
330
1F
100
AcDbEntity
  8
0
  6
SLD-Solid
 62
   142
420
    32960
370
     0
100
AcDbCircle
 10
47.8986361848
 20
647.1832308201
 30
0.0
 40
0.7499999999999716
100
AcDbArc
 50
180.0
 51
270.0
  0
ARC
  5
234
330
1F
100
AcDbEntity
  8
0
  6
SLD-Solid
 62
   142
420
    32960
370
     0
100
AcDbCircle
 10
48.1486361848
 20
731.3800000777
 30
0.0
 40
1.00000000000002
100
AcDbArc
 50
75.0
 51
180.0
  0
ARC
  5
235
330
1F
100
AcDbEntity
  8
0
  6
SLD-Solid
 62
   142
420
    32960
370
     0
100
AcDbCircle
 10
123.5486361848
 20
681.3332308201
 30
0.0
 40
0.9999999999999432
100
AcDbArc
 50
0.0
 51
90.0
  0
LINE
  5
236
330
1F
100
AcDbEntity
  8
0
  6
SLD-Solid
 62
   142
420
    32960
370
     0
100
AcDbLine
 10
124.5486361848
 20
681.3332308201
 30
0.0
 11
124.5486361848
 21
664.6332308201
 31
0.0
  0
LINE
  5
237
330
1F
100
AcDbEntity
  8
0
  6
SLD-Solid
 62
   142
420
    32960
370
     0
100
AcDbLine
 10
812.4780214263
 20
499.3672711068
 30
0.0
 11
810.8471759287
 21
498.7736918889
 31
0.0
  0
LINE
  5
238
330
1F
100
AcDbEntity
  8
0
  6
SLD-Solid
 62
   142
420
    32960
370
     0
100
AcDbLine
 10
812.4780214263
 20
499.3672711068
 30
0.0
 11
817.1764845302
 21
501.0773718234
 31
0.0
  0
ARC
  5
239
330
1F
100
AcDbEntity
  8
0
  6
SLD-Solid
 62
   142
420
    32960
370
     0
100
AcDbCircle
 10
810.3341457137
 20
500.1832308201
 30
0.0
 40
1.499999999999985
100
AcDbArc
 50
270.0
 51
290.0
  0
LINE
  5
23A
330
1F
100
AcDbEntity
  8
0
  6
SLD-Solid
 62
   142
420
    32960
370
     0
100
AcDbLine
 10
817.8605248169
 20
499.1979865818
 30
0.0
 11
813.162061713
 21
497.4878858652
 31
0.0
  0
LINE
  5
23B
330
1F
100
AcDbEntity
  8
0
  6
SLD-Solid
 62
   142
420
    32960
370
     0
100
AcDbLine
 10
812.3986361848
 20
497.2100216968
 30
0.0
 11
813.162061713
 21
497.4878858652
 31
0.0
  0
LINE
  5
23C
330
1F
100
AcDbEntity
  8
0
  6
SLD-Solid
 62
   142
420
    32960
370
     0
100
AcDbLine
 10
817.1764845302
 20
501.0773718234
 30
0.0
 11
817.8605248169
 21
499.1979865818
 31
0.0
  0
LINE
  5
23D
330
1F
100
AcDbEntity
  8
0
  6
SLD-Solid
 62
   142
420
    32960
370
     0
100
AcDbLine
 10
30.4486361847
 20
22.7624983125
 30
0.0
 11
30.4486361847
 21
23.3943342294
 31
0.0
  0
LINE
  5
23E
330
1F
100
AcDbEntity
  8
0
  6
SLD-Solid
 62
   142
420
    32960
370
     0
100
AcDbLine
 10
30.4486361847
 20
23.3943342294
 30
0.0
 11
35.5486361847
 21
23.3943342294
 31
0.0
  0
LINE
  5
23F
330
1F
100
AcDbEntity
  8
0
  6
SLD-Solid
 62
   142
420
    32960
370
     0
100
AcDbLine
 10
35.5486361847
 20
22.941834372
 30
0.0
 11
35.5486361847
 21
22.3681187743
 31
0.0
  0
SPLINE
  5
240
330
1F
100
AcDbEntity
  8
0
  6
SLD-Solid
 62
   142
420
    32960
370
     0
100
AcDbSpline
210
0.0
220
0.0
230
1.0
 70
     8
 71
     3
 72
    16
 73
    12
 74
     0
 42
0.00000001
 43
0.00000001
 40
0.0
 40
0.0
 40
0.0
 40
0.0
 40
0.2500000000000197
 40
0.2500000000000197
 40
0.5000000000000393
 40
0.5000000000000393
 40
0.750000000000059
 40
0.750000000000059
 40
0.8750000000000294
 40
0.8750000000000294
 40
1.0
 40
1.0
 40
1.0
 40
1.0
 10
34.84863618473399
 20
22.03274521793852
 30
0.0
 10
34.84863618473405
 20
22.14592521622782
 30
0.0
 10
34.87809982571649
 20
22.2584126882116
 30
0.0
 10
34.99258708296527
 20
22.46765161192021
 30
0.0
 10
35.07882443492633
 20
22.56565534078086
 30
0.0
 10
35.29699087494353
 20
22.72999673230527
 30
0.0
 10
35.4307113937512
 20
22.79762211391589
 30
0.0
 10
35.65168206867602
 20
22.86636002378056
 30
0.0
 10
35.7297476033715
 20
22.88412696928596
 30
0.0
 10
35.88703518920344
 20
22.90756101067831
 30
0.0
 10
35.96709433867512
 20
22.91355565112854
 30
0.0
 10
36.04863618473397
 20
22.91355565112852
 30
0.0
  0
LINE
  5
241
330
1F
100
AcDbEntity
  8
0
  6
SLD-Solid
 62
   142
420
    32960
370
     0
100
AcDbLine
 10
36.0486361847
 20
22.9536708545
 30
0.0
 11
36.0486361847
 21
22.9837472645
 31
0.0
  0
SPLINE
  5
242
330
1F
100
AcDbEntity
  8
0
  6
SLD-Solid
 62
   142
420
    32960
370
     0
100
AcDbSpline
210
0.0
220
0.0
230
1.0
 70
     8
 71
     3
 72
    16
 73
    12
 74
     0
 42
0.00000001
 43
0.00000001
 40
0.0
 40
0.0
 40
0.0
 40
0.0
 40
0.1250000000000074
 40
0.1250000000000074
 40
0.2500000000000148
 40
0.2500000000000148
 40
0.5000000000000099
 40
0.5000000000000099
 40
0.7500000000000049
 40
0.7500000000000049
 40
1.0
 40
1.0
 40
1.0
 40
1.0
 10
36.04863618473397
 20
22.95367085454913
 30
0.0
 10
35.95094237171159
 20
22.95367085454911
 30
0.0
 10
35.85496520617737
 20
22.94632571651234
 30
0.0
 10
35.66629587174458
 20
22.91757137810921
 30
0.0
 10
35.57261019422098
 20
22.89577183779634
 30
0.0
 10
35.30679299942269
 20
22.81117262289897
 30
0.0
 10
35.14533552452331
 20
22.72775665466909
 30
0.0
 10
34.8806382025898
 20
22.52358270519228
 30
0.0
 10
34.77530964077913
 20
22.40119463246584
 30
0.0
 10
34.63504772559306
 20
22.13840580932708
 30
0.0
 10
34.59863618473397
 20
21.99637699748327
 30
0.0
 10
34.59863618473402
 20
21.85299669502511
 30
0.0
  0
ARC
  5
243
330
1F
100
AcDbEntity
  8
0
  6
SLD-Solid
 62
   142
420
    32960
370
     0
100
AcDbCircle
 10
34.8184457162
 20
21.8110068249
 30
0.0
 40
0.2237842249233613
100
AcDbArc
 50
82.2466518528
 51
169.1851719208
  0
LINE
  5
244
330
1F
100
AcDbEntity
  8
0
  6
SLD-Solid
 62
     7
370
    15
100
AcDbLine
 10
48.6693468629
 20
645.3832308201
 30
0.0
 11
49.3467938101
 21
645.3832308201
 31
0.0
  0
LINE
  5
245
330
1F
100
AcDbEntity
  8
0
  6
SLD-Solid
 62
   142
420
    32960
370
     0
100
AcDbLine
 10
753.8498126281
 20
645.3832308201
 30
0.0
 11
754.5279255066
 21
645.3832308201
 31
0.0
  0
LINE
  5
246
330
1F
100
AcDbEntity
  8
0
  6
SLD-Solid
 62
   142
420
    32960
370
     0
100
AcDbLine
 10
48.6693468629
 20
646.1832308201
 30
0.0
 11
48.6693468629
 21
645.3832308201
 31
0.0
  0
SPLINE
  5
247
330
1F
100
AcDbEntity
  8
0
  6
SLD-Solid
 62
   142
420
    32960
370
     0
100
AcDbSpline
210
0.0
220
0.0
230
1.0
 70
     8
 71
     3
 72
    22
 73
    18
 74
     0
 42
0.00000001
 43
0.00000001
 40
0.0
 40
0.0
 40
0.0
 40
0.0
 40
0.125
 40
0.125
 40
0.25
 40
0.25
 40
0.375
 40
0.375
 40
0.5
 40
0.5
 40
0.625
 40
0.625
 40
0.75
 40
0.75
 40
0.875
 40
0.875
 40
1.0
 40
1.0
 40
1.0
 40
1.0
 10
48.66934686287239
 20
646.1832308201081
 30
0.0
 10
48.7189206656683
 20
646.1832308201081
 30
0.0
 10
48.7677234720239
 20
646.1699350875256
 30
0.0
 10
48.86547238615463
 20
646.1179168110134
 30
0.0
 10
48.91480599617582
 20
646.0787609825383
 30
0.0
 10
49.01347625844566
 20
645.9756653931905
 30
0.0
 10
49.06218990138584
 20
645.9126038624789
 30
0.0
 10
49.16003126628443
 20
645.7643079098103
 30
0.0
 10
49.20967783737395
 20
645.677993791046
 30
0.0
 10
49.30797365079237
 20
645.4882457578104
 30
0.0
 10
49.35664390169087
 20
645.385052685632
 30
0.0
 10
49.4546724105821
 20
645.1626267108479
 30
0.0
 10
49.50441875813444
 20
645.0423152105134
 30
0.0
 10
49.60243781725499
 20
644.795093646004
 30
0.0
 10
49.65110925876603
 20
644.6673534644334
 30
0.0
 10
49.74942037792024
 20
644.4041205235385
 30
0.0
 10
49.79906237999887
 20
644.2685955820773
 30
0.0
 10
49.84863618475377
 20
644.1332308201082
 30
0.0
  0
LINE
  5
248
330
1F
100
AcDbEntity
  8
0
  6
SLD-Solid
 62
     7
370
    15
100
AcDbLine
 10
672.5086361847
 20
646.1832308201
 30
0.0
 11
668.6986361847
 21
646.1832308201
 31
0.0
  0
LINE
  5
249
330
1F
100
AcDbEntity
  8
0
  6
SLD-Solid
 62
     7
370
    15
100
AcDbLine
 10
153.6986361847
 20
646.1832308201
 30
0.0
 11
149.2986361848
 21
646.1832308201
 31
0.0
  0
SPLINE
  5
24A
330
1F
100
AcDbEntity
  8
0
  6
SLD-Solid
 62
   142
420
    32960
370
     0
100
AcDbSpline
210
0.0
220
0.0
230
1.0
 70
     8
 71
     3
 72
    11
 73
     7
 74
     0
 42
0.00000001
 43
0.00000001
 40
0.0
 40
0.0
 40
0.0
 40
0.0
 40
0.3237812528862774
 40
0.6475625057725557
 40
0.971343758658834
 40
1.0
 40
1.0
 40
1.0
 40
1.0
 10
753.3486361847534
 20
644.1332308201104
 30
0.0
 10
753.4469102949101
 20
644.4032055256845
 30
0.0
 10
753.6434585152238
 20
644.9431549368331
 30
0.0
 10
753.9382808456938
 20
645.6005405713101
 30
0.0
 10
754.1435268105286
 20
645.9840879154722
 30
0.0
 10
754.2504986652059
 20
646.0367156918156
 30
0.0
 10
754.2591964097268
 20
646.0409947889176
 30
0.0
  0
LINE
  5
24B
330
1F
100
AcDbEntity
  8
0
  6
SLD-Solid
 62
     7
370
    15
100
AcDbLine
 10
47.7986361848
 20
645.312520142
 30
0.0
 11
47.7986361848
 21
-36.0460585018
 31
0.0
  0
SPLINE
  5
24C
330
1F
100
AcDbEntity
  8
0
  6
SLD-Solid
 62
   142
420
    32960
370
     0
100
AcDbSpline
210
0.0
220
0.0
230
1.0
 70
     8
 71
     3
 72
    14
 73
    10
 74
     0
 42
0.00000001
 43
0.00000001
 40
0.0
 40
0.0
 40
0.0
 40
0.0
 40
0.25
 40
0.25
 40
0.5
 40
0.5
 40
0.75
 40
0.75
 40
1.0
 40
1.0
 40
1.0
 40
1.0
 10
49.84863618475388
 20
644.1332308201085
 30
0.0
 10
49.5802918122597
 20
644.2315049302651
 30
0.0
 10
49.31205302181707
 20
644.3297790404218
 30
0.0
 10
48.81621727499297
 20
644.5263272607353
 30
0.0
 10
48.5888154088045
 20
644.6246013708923
 30
0.0
 10
48.2093191578365
 20
644.821149591206
 30
0.0
 10
48.0573740886266
 20
644.9194237013627
 30
0.0
 10
47.85199219758274
 20
645.1159719216762
 30
0.0
 10
47.79863618475277
 20
645.2142460318329
 30
0.0
 10
47.79863618475283
 20
645.3125201419896
 30
0.0
  0
SPLINE
  5
24D
330
1F
100
AcDbEntity
  8
0
  6
SLD-Solid
 62
   142
420
    32960
370
     0
100
AcDbSpline
210
0.0
220
0.0
230
1.0
 70
     8
 71
     3
 72
    14
 73
    10
 74
     0
 42
0.00000001
 43
0.00000001
 40
0.0
 40
0.0
 40
0.0
 40
0.0
 40
0.25
 40
0.25
 40
0.5
 40
0.5
 40
0.75
 40
0.75
 40
1.0
 40
1.0
 40
1.0
 40
1.0
 10
47.7986361847551
 20
-36.04605850177295
 30
0.0
 10
47.7986361847551
 20
-35.94778439161622
 30
0.0
 10
47.85199219758496
 20
-35.84951028145955
 30
0.0
 10
48.05737408862887
 20
-35.65296206114604
 30
0.0
 10
48.20931915783883
 20
-35.55468795098915
 30
0.0
 10
48.5888154088065
 20
-35.35813973067559
 30
0.0
 10
48.81621727499491
 20
-35.25986562051875
 30
0.0
 10
49.31205302181885
 20
-35.06331740020519
 30
0.0
 10
49.58029181226136
 20
-34.96504329004857
 30
0.0
 10
49.84863618475555
 20
-34.86676917989179
 30
0.0
  0
LINE
  5
24E
330
1F
100
AcDbEntity
  8
0
  6
SLD-Solid
 62
     7
370
    15
100
AcDbLine
 10
755.3986361848
 20
-36.0460585018
 30
0.0
 11
755.3986361848
 21
508.4026630742
 31
0.0
  0
LINE
  5
24F
330
1F
100
AcDbEntity
  8
0
  6
SLD-Solid
 62
     7
370
    15
100
AcDbLine
 10
755.3986361848
 20
626.0761240389
 30
0.0
 11
755.3986361848
 21
628.4161044271
 31
0.0
  0
SPLINE
  5
250
330
1F
100
AcDbEntity
  8
0
  6
SLD-Solid
 62
   142
420
    32960
370
     0
100
AcDbSpline
210
0.0
220
0.0
230
1.0
 70
     8
 71
     3
 72
    22
 73
    18
 74
     0
 42
0.00000001
 43
0.00000001
 40
0.0
 40
0.0
 40
0.0
 40
0.0
 40
0.125
 40
0.125
 40
0.25
 40
0.25
 40
0.375
 40
0.375
 40
0.5
 40
0.5
 40
0.625
 40
0.625
 40
0.75
 40
0.75
 40
0.875
 40
0.875
 40
1.0
 40
1.0
 40
1.0
 40
1.0
 10
753.348636184755
 20
-34.86676917988923
 30
0.0
 10
753.4840009431435
 20
-34.9163429833328
 30
0.0
 10
753.617239488259
 20
-34.96514578852883
 30
0.0
 10
753.8790449970651
 20
-35.06289469689888
 30
0.0
 10
754.0086058292617
 20
-35.11222829614419
 30
0.0
 10
754.2575269508746
 20
-35.21089857046872
 30
0.0
 10
754.3753675553075
 20
-35.25961221570395
 30
0.0
 10
754.5976090606645
 20
-35.35745357833159
 30
0.0
 10
754.7029690183095
 20
-35.4071001448617
 30
0.0
 10
754.8928008884526
 20
-35.50539596777092
 30
0.0
 10
754.9775487360588
 20
-35.55406621982848
 30
0.0
 10
755.1264883045
 20
-35.65209472410108
 30
0.0
 10
755.1909104258264
 20
-35.7018410724616
 30
0.0
 10
755.2934617385921
 20
-35.79986013860137
 30
0.0
 10
755.3323777256404
 20
-35.84853158015039
 30
0.0
 10
755.3850880630332
 20
-35.94684269231396
 30
0.0
 10
755.3986361847552
 20
-35.99648469636807
 30
0.0
 10
755.3986361847552
 20
-36.04605850177056
 30
0.0
  0
SPLINE
  5
251
330
1F
100
AcDbEntity
  8
0
  6
SLD-Solid
 62
   142
420
    32960
370
     0
100
AcDbSpline
210
0.0
220
0.0
230
1.0
 70
     8
 71
     3
 72
    22
 73
    18
 74
     0
 42
0.00000001
 43
0.00000001
 40
0.0
 40
0.0
 40
0.0
 40
0.0
 40
0.125
 40
0.125
 40
0.25
 40
0.25
 40
0.375
 40
0.375
 40
0.5
 40
0.5
 40
0.625
 40
0.625
 40
0.75
 40
0.75
 40
0.875
 40
0.875
 40
1.0
 40
1.0
 40
1.0
 40
1.0
 10
755.398636184753
 20
645.3125201419921
 30
0.0
 10
755.398636184753
 20
645.2629463391961
 30
0.0
 10
755.3853404521711
 20
645.2141435328409
 30
0.0
 10
755.333322175659
 20
645.1163946187097
 30
0.0
 10
755.294166347183
 20
645.0670610086886
 30
0.0
 10
755.1910707578355
 20
644.9683907464188
 30
0.0
 10
755.1280092271242
 20
644.9196771034784
 30
0.0
 10
754.9797132744553
 20
644.82183573858
 30
0.0
 10
754.8933991556912
 20
644.7721891674904
 30
0.0
 10
754.7036511224558
 20
644.6738933540721
 30
0.0
 10
754.6004580502768
 20
644.6252231031735
 30
0.0
 10
754.3780320754927
 20
644.5271945942823
 30
0.0
 10
754.2577205751586
 20
644.4774482467298
 30
0.0
 10
754.010499010649
 20
644.3794291876095
 30
0.0
 10
753.8827588290784
 20
644.3307577460981
 30
0.0
 10
753.6195258881833
 20
644.232446626944
 30
0.0
 10
753.4840009467221
 20
644.1828046248654
 30
0.0
 10
753.348636184753
 20
644.1332308201106
 30
0.0
  0
LINE
  5
252
330
1F
100
AcDbEntity
  8
0
  6
SLD-Solid
 62
     7
370
    15
100
AcDbLine
 10
48.6693468629
 20
-36.9167691799
 30
0.0
 11
754.5279255066
 21
-36.9167691799
 31
0.0
  0
SPLINE
  5
253
330
1F
100
AcDbEntity
  8
0
  6
SLD-Solid
 62
   142
420
    32960
370
     0
100
AcDbSpline
210
0.0
220
0.0
230
1.0
 70
     8
 71
     3
 72
    22
 73
    18
 74
     0
 42
0.00000001
 43
0.00000001
 40
0.0
 40
0.0
 40
0.0
 40
0.0
 40
0.125
 40
0.125
 40
0.25
 40
0.25
 40
0.375
 40
0.375
 40
0.5
 40
0.5
 40
0.625
 40
0.625
 40
0.75
 40
0.75
 40
0.875
 40
0.875
 40
1.0
 40
1.0
 40
1.0
 40
1.0
 10
49.84863618475605
 20
-34.86676917989185
 30
0.0
 10
49.79906238131243
 20
-35.00213393828033
 30
0.0
 10
49.7502595761164
 20
-35.13537248339576
 30
0.0
 10
49.65251066774645
 20
-35.39717799220188
 30
0.0
 10
49.60317706850104
 20
-35.52673882439833
 30
0.0
 10
49.50450679417667
 20
-35.77565994601129
 30
0.0
 10
49.45579314894138
 20
-35.89350055044427
 30
0.0
 10
49.35795178631375
 20
-36.11574205580115
 30
0.0
 10
49.30830521978374
 20
-36.22110201344603
 30
0.0
 10
49.21000939687442
 20
-36.4109338835889
 30
0.0
 10
49.16133914481674
 20
-36.49568173119533
 30
0.0
 10
49.06331064054415
 20
-36.64462129963647
 30
0.0
 10
49.01356429218362
 20
-36.70904342096281
 30
0.0
 10
48.91554522604385
 20
-36.81159473372858
 30
0.0
 10
48.86687378449489
 20
-36.85051072077689
 30
0.0
 10
48.76856267233121
 20
-36.90322105816962
 30
0.0
 10
48.71892066827721
 20
-36.91676917989179
 30
0.0
 10
48.66934686287466
 20
-36.91676917989179
 30
0.0
  0
SPLINE
  5
254
330
1F
100
AcDbEntity
  8
0
  6
SLD-Solid
 62
   142
420
    32960
370
     0
100
AcDbSpline
210
0.0
220
0.0
230
1.0
 70
     8
 71
     3
 72
    14
 73
    10
 74
     0
 42
0.00000001
 43
0.00000001
 40
0.0
 40
0.0
 40
0.0
 40
0.0
 40
0.25
 40
0.25
 40
0.5
 40
0.5
 40
0.75
 40
0.75
 40
1.0
 40
1.0
 40
1.0
 40
1.0
 10
754.5279255066368
 20
-36.91676917988929
 30
0.0
 10
754.4296513964803
 20
-36.91676917988929
 30
0.0
 10
754.3313772863233
 20
-36.86341316705932
 30
0.0
 10
754.1348290660097
 20
-36.65803127601552
 30
0.0
 10
754.036554955853
 20
-36.50608620680556
 30
0.0
 10
753.8400067355393
 20
-36.12658995583789
 30
0.0
 10
753.7417326253826
 20
-35.89918808964965
 30
0.0
 10
753.5451844050689
 20
-35.40335234282582
 30
0.0
 10
753.4469102949121
 20
-35.13511355238347
 30
0.0
 10
753.3486361847553
 20
-34.86676917988935
 30
0.0
  0
LINE
  5
255
330
1F
100
AcDbEntity
  8
0
  6
SLD-Solid
 62
     7
370
    15
100
AcDbLine
 10
754.5279255066
 20
-36.1167691799
 30
0.0
 11
753.8498126281
 21
-36.1167691799
 31
0.0
  0
LINE
  5
256
330
1F
100
AcDbEntity
  8
0
  6
SLD-Solid
 62
     7
370
    15
100
AcDbLine
 10
49.3518520549
 20
-36.1167691799
 30
0.0
 11
48.6693468629
 21
-36.1167691799
 31
0.0
  0
SPLINE
  5
257
330
1F
100
AcDbEntity
  8
0
  6
SLD-Solid
 62
   142
420
    32960
370
     0
100
AcDbSpline
210
0.0
220
0.0
230
1.0
 70
     8
 71
     3
 72
    14
 73
    10
 74
     0
 42
0.00000001
 43
0.00000001
 40
0.0
 40
0.0
 40
0.0
 40
0.0
 40
0.25
 40
0.25
 40
0.5
 40
0.5
 40
0.75
 40
0.75
 40
1.0
 40
1.0
 40
1.0
 40
1.0
 10
754.5279255066368
 20
-36.11676917988926
 30
0.0
 10
754.4296513964803
 20
-36.11676917988926
 30
0.0
 10
754.3313772863233
 20
-36.08423502572467
 30
0.0
 10
754.1348290660097
 20
-35.9590021653321
 30
0.0
 10
754.036554955853
 20
-35.86635273288697
 30
0.0
 10
753.8400067355393
 20
-35.63495257985794
 30
0.0
 10
753.7417326253826
 20
-35.49629290535295
 30
0.0
 10
753.5451844050689
 20
-35.19395403533843
 30
0.0
 10
753.4469102949121
 20
-35.03039379726375
 30
0.0
 10
753.3486361847553
 20
-34.86676917988929
 30
0.0
  0
SPLINE
  5
258
330
1F
100
AcDbEntity
  8
0
  6
SLD-Solid
 62
   142
420
    32960
370
     0
100
AcDbSpline
210
0.0
220
0.0
230
1.0
 70
     8
 71
     3
 72
    14
 73
    10
 74
     0
 42
0.00000001
 43
0.00000001
 40
0.0
 40
0.0
 40
0.0
 40
0.0
 40
0.25
 40
0.25
 40
0.5
 40
0.5
 40
0.75
 40
0.75
 40
1.0
 40
1.0
 40
1.0
 40
1.0
 10
49.84863618475605
 20
-34.86676917989185
 30
0.0
 10
49.74942582356034
 20
-35.03195263832576
 30
0.0
 10
49.65303114907588
 20
-35.19250129168339
 30
0.0
 10
49.45464183062636
 20
-35.4976760105844
 30
0.0
 10
49.35821728682743
 20
-35.63382439047819
 30
0.0
 10
49.15986610954598
 20
-35.86736277574693
 30
0.0
 10
49.06340338647986
 20
-35.95837469243313
 30
0.0
 10
48.86509007423784
 20
-36.084763679192
 30
0.0
 10
48.76855722398565
 20
-36.11676917989182
 30
0.0
 10
48.66934686287466
 20
-36.11676917989176
 30
0.0
  0
LINE
  5
259
330
1F
100
AcDbEntity
  8
0
  6
SLD-Solid
 62
   142
420
    32960
370
     0
100
AcDbLine
 10
48.6693468629
 20
-36.9167691799
 30
0.0
 11
48.6693468629
 21
-36.1167691799
 31
0.0
  0
LINE
  5
25A
330
1F
100
AcDbEntity
  8
0
  6
SLD-Solid
 62
   142
420
    32960
370
     0
100
AcDbLine
 10
48.5986361848
 20
-36.0460585018
 30
0.0
 11
47.7986361848
 21
-36.0460585018
 31
0.0
  0
LINE
  5
25B
330
1F
100
AcDbEntity
  8
0
  6
SLD-Solid
 62
   142
420
    32960
370
     0
100
AcDbLine
 10
754.5986361848
 20
645.312520142
 30
0.0
 11
754.5986361848
 21
644.6350731948
 31
0.0
  0
LINE
  5
25C
330
1F
100
AcDbEntity
  8
0
  6
SLD-Solid
 62
   142
420
    32960
370
     0
100
AcDbLine
 10
754.5986361848
 20
-35.3635533098
 30
0.0
 11
754.5986361848
 21
-36.0460585018
 31
0.0
  0
LINE
  5
25D
330
1F
100
AcDbEntity
  8
0
  6
SLD-Solid
 62
   142
420
    32960
370
     0
100
AcDbLine
 10
754.5986361848
 20
-36.0460585018
 30
0.0
 11
755.3986361848
 21
-36.0460585018
 31
0.0
  0
LINE
  5
25E
330
1F
100
AcDbEntity
  8
0
  6
SLD-Solid
 62
   142
420
    32960
370
     0
100
AcDbLine
 10
47.7986361848
 20
645.312520142
 30
0.0
 11
48.5986361848
 21
645.312520142
 31
0.0
  0
LINE
  5
25F
330
1F
100
AcDbEntity
  8
0
  6
SLD-Solid
 62
   142
420
    32960
370
     0
100
AcDbLine
 10
48.5986361848
 20
645.312520142
 30
0.0
 11
48.5986361848
 21
644.6344072634
 31
0.0
  0
LINE
  5
260
330
1F
100
AcDbEntity
  8
0
  6
SLD-Solid
 62
   142
420
    32960
370
     0
100
AcDbLine
 10
754.5279255066
 20
-36.9167691799
 30
0.0
 11
754.5279255066
 21
-36.1167691799
 31
0.0
  0
LINE
  5
261
330
1F
100
AcDbEntity
  8
0
  6
SLD-Solid
 62
   142
420
    32960
370
     0
100
AcDbLine
 10
757.8986361848
 20
501.6832305076
 30
0.0
 11
757.8986361848
 21
506.095556293
 31
0.0
  0
LINE
  5
262
330
1F
100
AcDbEntity
  8
0
  6
SLD-Solid
 62
   142
420
    32960
370
     0
100
AcDbLine
 10
36.0486361847
 20
18.5313152355
 30
0.0
 11
36.0486361847
 21
18.2400940554
 31
0.0
  0
LINE
  5
263
330
1F
100
AcDbEntity
  8
0
  6
SLD-Solid
 62
   142
420
    32960
370
     0
100
AcDbLine
 10
36.0486361847
 20
17.7278916332
 30
0.0
 11
36.0486361847
 21
9.9211036503
 31
0.0
  0
LINE
  5
264
330
1F
100
AcDbEntity
  8
0
  6
SLD-Solid
 62
   142
420
    32960
370
     0
100
AcDbLine
 10
36.0486361847
 20
9.9211036503
 30
0.0
 11
36.7486361847
 21
9.9211036503
 31
0.0
  0
LINE
  5
265
330
1F
100
AcDbEntity
  8
0
  6
SLD-Solid
 62
   142
420
    32960
370
     0
100
AcDbLine
 10
36.7486361847
 20
9.9211036503
 30
0.0
 11
36.7486361847
 21
17.7278916332
 31
0.0
  0
LINE
  5
266
330
1F
100
AcDbEntity
  8
0
  6
SLD-Solid
 62
   142
420
    32960
370
     0
100
AcDbLine
 10
36.7486361847
 20
18.2400940554
 30
0.0
 11
36.7486361847
 21
18.5313152355
 31
0.0
  0
LINE
  5
267
330
1F
100
AcDbEntity
  8
0
  6
SLD-Solid
 62
   142
420
    32960
370
     0
100
AcDbLine
 10
41.1486361847
 20
22.9536708545
 30
0.0
 11
36.0486361847
 21
22.9536708545
 31
0.0
  0
LINE
  5
268
330
1F
100
AcDbEntity
  8
0
  6
SLD-Solid
 62
   142
420
    32960
370
     0
100
AcDbLine
 10
41.1486361847
 20
18.5313152355
 30
0.0
 11
41.1486361847
 21
22.9536708545
 31
0.0
  0
LINE
  5
269
330
1F
100
AcDbEntity
  8
0
  6
SLD-Solid
 62
   142
420
    32960
370
     0
100
AcDbLine
 10
36.0486361847
 20
18.5313152355
 30
0.0
 11
41.1486361847
 21
18.5313152355
 31
0.0
  0
LINE
  5
26A
330
1F
100
AcDbEntity
  8
0
  6
SLD-Solid
 62
   142
420
    32960
370
     0
100
AcDbLine
 10
36.0486361847
 20
22.9536708545
 30
0.0
 11
36.0486361847
 21
18.5313152355
 31
0.0
  0
LINE
  5
26B
330
1F
100
AcDbEntity
  8
0
  6
SLD-Solid
 62
     7
370
    15
100
AcDbLine
 10
148.5986361847
 20
-200.1167691799
 30
0.0
 11
91.5986361847
 21
-200.1167691799
 31
0.0
  0
LINE
  5
26C
330
1F
100
AcDbEntity
  8
0
  6
SLD-Solid
 62
     7
370
    15
100
AcDbLine
 10
146.5986361139
 20
-206.1167691799
 30
0.0
 11
93.5986361847
 21
-206.1167691799
 31
0.0
  0
LINE
  5
26D
330
1F
100
AcDbEntity
  8
0
  6
SLD-Solid
 62
   142
420
    32960
370
     0
100
AcDbLine
 10
757.3986361847
 20
628.3832308201
 30
0.0
 11
773.6377970006
 21
628.3832308201
 31
0.0
  0
LINE
  5
26E
330
1F
100
AcDbEntity
  8
0
  6
SLD-Solid
 62
   142
420
    32960
370
     0
100
AcDbLine
 10
757.3986361847
 20
628.3832308201
 30
0.0
 11
757.3986361847
 21
627.5832308201
 31
0.0
  0
LINE
  5
26F
330
1F
100
AcDbEntity
  8
0
  6
SLD-Solid
 62
   142
420
    32960
370
     0
100
AcDbLine
 10
757.3986361847
 20
627.5832308201
 30
0.0
 11
773.6377970006
 21
627.5832308201
 31
0.0
  0
LINE
  5
270
330
1F
100
AcDbEntity
  8
0
  6
SLD-Solid
 62
   142
420
    32960
370
     0
100
AcDbLine
 10
773.6377970006
 20
627.5832308201
 30
0.0
 11
773.6377970006
 21
628.3832308201
 31
0.0
  0
LINE
  5
271
330
1F
100
AcDbEntity
  8
0
  6
SLD-Solid
 62
     7
370
    15
100
AcDbLine
 10
760.8986361848
 20
496.1832305076
 30
0.0
 11
804.3986361848
 21
496.1832305076
 31
0.0
  0
LINE
  5
272
330
1F
100
AcDbEntity
  8
0
  6
SLD-Solid
 62
     7
370
    15
100
AcDbLine
 10
804.3986361848
 20
496.1832305076
 30
0.0
 11
812.3986361848
 21
496.1832305076
 31
0.0
  0
LINE
  5
273
330
1F
100
AcDbEntity
  8
0
  6
SLD-Solid
 62
     7
370
    15
100
AcDbLine
 10
760.8986361848
 20
498.6832305076
 30
0.0
 11
804.3986361848
 21
498.6832305076
 31
0.0
  0
LINE
  5
274
330
1F
100
AcDbEntity
  8
0
  6
SLD-Solid
 62
   142
420
    32960
370
     0
100
AcDbLine
 10
760.8986361848
 20
498.6832305076
 30
0.0
 11
760.8986361848
 21
496.1832305076
 31
0.0
  0
LINE
  5
275
330
1F
100
AcDbEntity
  8
0
  6
SLD-Solid
 62
     7
370
    15
100
AcDbLine
 10
804.3986361848
 20
498.6832305076
 30
0.0
 11
812.3986361848
 21
498.6832305076
 31
0.0
  0
LINE
  5
276
330
1F
100
AcDbEntity
  8
0
  6
SLD-Solid
 62
   142
420
    32960
370
     0
100
AcDbLine
 10
34.5986361847
 20
18.5976698535
 30
0.0
 11
35.5486361847
 21
18.5976698535
 31
0.0
  0
LINE
  5
277
330
1F
100
AcDbEntity
  8
0
  6
SLD-Solid
 62
   142
420
    32960
370
     0
100
AcDbLine
 10
30.4486361847
 20
22.3681187743
 30
0.0
 11
30.4486361847
 21
19.4217841939
 31
0.0
  0
LINE
  5
278
330
1F
100
AcDbEntity
  8
0
  6
SLD-Solid
 62
   142
420
    32960
370
     0
100
AcDbLine
 10
35.5486361847
 20
22.3681187743
 30
0.0
 11
34.9546910752
 21
22.3681187743
 31
0.0
  0
LINE
  5
279
330
1F
100
AcDbEntity
  8
0
  6
SLD-Solid
 62
   142
420
    32960
370
     0
100
AcDbLine
 10
34.7854531833
 20
22.3681187743
 30
0.0
 11
30.4486361847
 21
22.3681187743
 31
0.0
  0
LINE
  5
27A
330
1F
100
AcDbEntity
  8
0
  6
SLD-Solid
 62
   142
420
    32960
370
     0
100
AcDbLine
 10
35.5486361847
 20
18.5976698535
 30
0.0
 11
35.5486361847
 21
22.3681187743
 31
0.0
  0
LINE
  5
27B
330
1F
100
AcDbEntity
  8
0
  6
SLD-Solid
 62
   142
420
    32960
370
     0
100
AcDbLine
 10
34.8486361847
 20
17.3592836222
 30
0.0
 11
34.8486361847
 21
17.2553925873
 31
0.0
  0
SPLINE
  5
27C
330
1F
100
AcDbEntity
  8
0
  6
SLD-Solid
 62
   142
420
    32960
370
     0
100
AcDbSpline
210
0.0
220
0.0
230
1.0
 70
     8
 71
     3
 72
    16
 73
    12
 74
     0
 42
0.00000001
 43
0.00000001
 40
0.0
 40
0.0
 40
0.0
 40
0.0
 40
0.250000000000059
 40
0.250000000000059
 40
0.3750000000000491
 40
0.3750000000000491
 40
0.5000000000000393
 40
0.5000000000000393
 40
0.7500000000000197
 40
0.7500000000000197
 40
1.0
 40
1.0
 40
1.0
 40
1.0
 10
36.04863618473397
 20
18.24009405538002
 30
0.0
 10
35.88537439023859
 20
18.24009405538004
 30
0.0
 10
35.72407317493881
 20
18.21552468684798
 30
0.0
 10
35.5035971597627
 20
18.14677907777387
 30
0.0
 10
35.4323849039716
 20
18.11806062553034
 30
0.0
 10
35.3019709388942
 20
18.05232905282028
 30
0.0
 10
35.24202234416607
 20
18.01519392425485
 30
0.0
 10
35.07768136002743
 20
17.8912000228984
 30
0.0
 10
34.99254338278801
 20
17.79436027583603
 30
0.0
 10
34.8774097582813
 20
17.58343818865179
 30
0.0
 10
34.84863618473394
 20
17.47255315146393
 30
0.0
 10
34.84863618473399
 20
17.35928362219005
 30
0.0
  0
LINE
  5
27D
330
1F
100
AcDbEntity
  8
0
  6
SLD-Solid
 62
   142
420
    32960
370
     0
100
AcDbLine
 10
41.1486361847
 20
18.2400940554
 30
0.0
 11
36.0486361847
 21
18.2400940554
 31
0.0
  0
LINE
  5
27E
330
1F
100
AcDbEntity
  8
0
  6
SLD-Solid
 62
   142
420
    32960
370
     0
100
AcDbLine
 10
41.1486361847
 20
17.7278916332
 30
0.0
 11
41.1486361847
 21
18.2400940554
 31
0.0
  0
LINE
  5
27F
330
1F
100
AcDbEntity
  8
0
  6
SLD-Solid
 62
   142
420
    32960
370
     0
100
AcDbLine
 10
36.0486361847
 20
17.7278916332
 30
0.0
 11
41.1486361847
 21
17.7278916332
 31
0.0
  0
SPLINE
  5
280
330
1F
100
AcDbEntity
  8
0
  6
SLD-Solid
 62
   142
420
    32960
370
     0
100
AcDbSpline
210
0.0
220
0.0
230
1.0
 70
     8
 71
     3
 72
    10
 73
     6
 74
     0
 42
0.00000001
 43
0.00000001
 40
0.0
 40
0.0
 40
0.0
 40
0.0
 40
0.5
 40
0.5
 40
1.0
 40
1.0
 40
1.0
 40
1.0
 10
36.04863618473397
 20
17.72789163315988
 30
0.0
 10
35.91228968730703
 20
17.72789163315988
 30
0.0
 10
35.78073592229664
 20
17.68532902858436
 30
0.0
 10
35.59839520947211
 20
17.54680058273103
 30
0.0
 10
35.54863618473392
 20
17.45387011618982
 30
0.0
 10
35.54863618473403
 20
17.35928362219005
 30
0.0
  0
LINE
  5
281
330
1F
100
AcDbEntity
  8
0
  6
SLD-Solid
 62
   142
420
    32960
370
     0
100
AcDbLine
 10
35.5486361847
 20
17.2553925873
 30
0.0
 11
35.5486361847
 21
17.3592836222
 31
0.0
  0
LINE
  5
282
330
1F
100
AcDbEntity
  8
0
  6
SLD-Solid
 62
   142
420
    32960
370
     0
100
AcDbLine
 10
35.5486361847
 20
17.2553925873
 30
0.0
 11
34.8486361847
 21
17.2553925873
 31
0.0
  0
LINE
  5
283
330
1F
100
AcDbEntity
  8
0
  6
SLD-Solid
 62
     7
370
    15
100
AcDbLine
 10
34.5986361847
 20
9.3687917868
 30
0.0
 11
34.5986361847
 21
17.3165464769
 31
0.0
  0
SPLINE
  5
284
330
1F
100
AcDbEntity
  8
0
  6
SLD-Solid
 62
   142
420
    32960
370
     0
100
AcDbSpline
210
0.0
220
0.0
230
1.0
 70
     8
 71
     3
 72
    10
 73
     6
 74
     0
 42
0.00000001
 43
0.00000001
 40
0.0
 40
0.0
 40
0.0
 40
0.0
 40
0.5
 40
0.5
 40
1.0
 40
1.0
 40
1.0
 40
1.0
 10
34.84863618473399
 20
17.25539258732719
 30
0.0
 10
34.77532520818527
 20
17.25539258732722
 30
0.0
 10
34.7072445154219
 20
17.26385410096556
 30
0.0
 10
34.61978437086016
 20
17.28759586782661
 30
0.0
 10
34.59863618473397
 20
17.30231540521926
 30
0.0
 10
34.59863618473402
 20
17.3165464769266
 30
0.0
  0
LINE
  5
285
330
1F
100
AcDbEntity
  8
0
  6
SLD-Solid
 62
   142
420
    32960
370
     0
100
AcDbLine
 10
35.5486361847
 20
9.3687917868
 30
0.0
 11
35.5486361847
 21
17.2553925873
 31
0.0
  0
LINE
  5
286
330
1F
100
AcDbEntity
  8
0
  6
SLD-Solid
 62
   142
420
    32960
370
     0
100
AcDbLine
 10
34.5986361847
 20
17.5390321451
 30
0.0
 11
34.5986361847
 21
21.852996695
 31
0.0
  0
LINE
  5
287
330
1F
100
AcDbEntity
  8
0
  6
SLD-Solid
 62
   142
420
    32960
370
     0
100
AcDbLine
 10
34.5986361847
 20
17.3165464769
 30
0.0
 11
34.5986361847
 21
17.5390321451
 31
0.0
  0
SPLINE
  5
288
330
1F
100
AcDbEntity
  8
0
  6
SLD-Solid
 62
   142
420
    32960
370
     0
100
AcDbSpline
210
0.0
220
0.0
230
1.0
 70
     8
 71
     3
 72
     9
 73
     5
 74
     0
 42
0.00000001
 43
0.00000001
 40
0.0
 40
0.0
 40
0.0
 40
0.0
 40
0.5293405648540382
 40
0.9999999999999999
 40
0.9999999999999999
 40
0.9999999999999999
 40
0.9999999999999999
 10
35.54863618473403
 20
9.511110008411649
 30
0.0
 10
35.63307484161865
 20
9.48638875101382
 30
0.0
 10
35.79259153557901
 20
9.439686761710142
 30
0.0
 10
35.96669346770282
 20
9.436599468420958
 30
0.0
 10
36.04863618473409
 20
9.43514640470533
 30
0.0
  0
LINE
  5
289
330
1F
100
AcDbEntity
  8
0
  6
SLD-Solid
 62
   142
420
    32960
370
     0
100
AcDbLine
 10
41.1486361847
 20
9.4351464047
 30
0.0
 11
41.1486361847
 21
5.0127907857
 31
0.0
  0
LINE
  5
28A
330
1F
100
AcDbEntity
  8
0
  6
SLD-Solid
 62
   142
420
    32960
370
     0
100
AcDbLine
 10
41.1486361847
 20
5.0127907857
 30
0.0
 11
36.6551919741
 21
5.0127907857
 31
0.0
  0
LINE
  5
28B
330
1F
100
AcDbEntity
  8
0
  6
SLD-Solid
 62
   142
420
    32960
370
     0
100
AcDbLine
 10
36.9986361847
 20
9.4351464047
 30
0.0
 11
41.1486361847
 21
9.4351464047
 31
0.0
  0
LINE
  5
28C
330
1F
100
AcDbEntity
  8
0
  6
SLD-Solid
 62
   142
420
    32960
370
     0
100
AcDbLine
 10
41.2986361847
 20
595.9832308201
 30
0.0
 11
41.2986361847
 21
608.4832308201
 31
0.0
  0
LINE
  5
28D
330
1F
100
AcDbEntity
  8
0
  6
SLD-Solid
 62
   142
420
    32960
370
     0
100
AcDbLine
 10
41.2986361847
 20
583.4832308201
 30
0.0
 11
41.2986361847
 21
595.9832308201
 31
0.0
  0
LINE
  5
28E
330
1F
100
AcDbEntity
  8
0
  6
SLD-Solid
 62
   142
420
    32960
370
     0
100
AcDbLine
 10
756.9057429659
 20
627.5832308201
 30
0.0
 11
755.3986361847
 21
627.5832308201
 31
0.0
  0
LINE
  5
28F
330
1F
100
AcDbEntity
  8
0
  6
SLD-Solid
 62
     7
370
    15
100
AcDbLine
 10
47.2020541973
 20
17.751649826
 30
0.0
 11
42.8952181721
 21
17.751649826
 31
0.0
  0
LINE
  5
290
330
1F
100
AcDbEntity
  8
0
  6
SLD-Solid
 62
     7
370
    15
100
AcDbLine
 10
47.2020541973
 20
12.0793981313
 30
0.0
 11
42.8952181721
 21
12.0793981313
 31
0.0
  0
SPLINE
  5
291
330
1F
100
AcDbEntity
  8
0
  6
SLD-Solid
 62
   142
420
    32960
370
     0
100
AcDbSpline
210
0.0
220
0.0
230
1.0
 70
     8
 71
     3
 72
    10
 73
     6
 74
     0
 42
0.00000001
 43
0.00000001
 40
0.0
 40
0.0
 40
0.0
 40
0.0
 40
0.5
 40
0.5
 40
1.0
 40
1.0
 40
1.0
 40
1.0
 10
42.89521817211922
 20
12.07939813125025
 30
0.0
 10
42.7596832568119
 20
12.54067102308148
 30
0.0
 10
42.64600535797891
 20
13.01310495451619
 30
0.0
 10
42.49056662358608
 20
13.96011173755615
 30
0.0
 10
42.44863618473404
 20
14.43626535242748
 30
0.0
 10
42.44863618473404
 20
14.91552397863366
 30
0.0
  0
SPLINE
  5
292
330
1F
100
AcDbEntity
  8
0
  6
SLD-Solid
 62
   142
420
    32960
370
     0
100
AcDbSpline
210
0.0
220
0.0
230
1.0
 70
     8
 71
     3
 72
    10
 73
     6
 74
     0
 42
0.00000001
 43
0.00000001
 40
0.0
 40
0.0
 40
0.0
 40
0.0
 40
0.5
 40
0.5
 40
1.0
 40
1.0
 40
1.0
 40
1.0
 10
47.20205419734885
 20
12.07939813125025
 30
0.0
 10
47.33758911265629
 20
12.54067102308148
 30
0.0
 10
47.45126701148911
 20
13.01310495451624
 30
0.0
 10
47.60670574588194
 20
13.96011173755618
 30
0.0
 10
47.64863618473403
 20
14.43626535242748
 30
0.0
 10
47.64863618473403
 20
14.91552397863366
 30
0.0
  0
SPLINE
  5
293
330
1F
100
AcDbEntity
  8
0
  6
SLD-Solid
 62
   142
420
    32960
370
     0
100
AcDbSpline
210
0.0
220
0.0
230
1.0
 70
     8
 71
     3
 72
    10
 73
     6
 74
     0
 42
0.00000001
 43
0.00000001
 40
0.0
 40
0.0
 40
0.0
 40
0.0
 40
0.5
 40
0.5
 40
1.0
 40
1.0
 40
1.0
 40
1.0
 10
47.64863618473403
 20
14.91552397863366
 30
0.0
 10
47.64863618473403
 20
15.39506734929125
 30
0.0
 10
47.60554583769944
 20
15.88113116835802
 30
0.0
 10
47.44901547761432
 20
16.8284630035605
 30
0.0
 10
47.33679955146375
 20
17.2930640880728
 30
0.0
 10
47.20205419734885
 20
17.75164982601699
 30
0.0
  0
SPLINE
  5
294
330
1F
100
AcDbEntity
  8
0
  6
SLD-Solid
 62
   142
420
    32960
370
     0
100
AcDbSpline
210
0.0
220
0.0
230
1.0
 70
     8
 71
     3
 72
    10
 73
     6
 74
     0
 42
0.00000001
 43
0.00000001
 40
0.0
 40
0.0
 40
0.0
 40
0.0
 40
0.5
 40
0.5
 40
1.0
 40
1.0
 40
1.0
 40
1.0
 10
42.44863618473404
 20
14.91552397863366
 30
0.0
 10
42.44863618473399
 20
15.39506734929125
 30
0.0
 10
42.49172653176853
 20
15.88113116835799
 30
0.0
 10
42.64825689185386
 20
16.82846300356053
 30
0.0
 10
42.76047281800432
 20
17.29306408807285
 30
0.0
 10
42.89521817211928
 20
17.75164982601704
 30
0.0
  0
LINE
  5
295
330
1F
100
AcDbEntity
  8
0
  6
SLD-Solid
 62
     7
370
    15
100
AcDbLine
 10
47.2020541973
 20
8.3109791254
 30
0.0
 11
42.8952181721
 21
8.3109791254
 31
0.0
  0
SPLINE
  5
296
330
1F
100
AcDbEntity
  8
0
  6
SLD-Solid
 62
     7
370
    15
100
AcDbSpline
210
0.0
220
0.0
230
1.0
 70
     8
 71
     3
 72
    12
 73
     8
 74
     0
 42
0.00000001
 43
0.00000001
 40
0.0
 40
0.0
 40
0.0
 40
0.0
 40
0.2499999999999977
 40
0.2499999999999977
 40
0.4999999999999954
 40
0.4999999999999954
 40
1.0
 40
1.0
 40
1.0
 40
1.0
 10
42.44863618473404
 20
10.1951886283016
 30
0.0
 10
42.44863618473394
 20
10.03528153809297
 30
0.0
 10
42.45919174525747
 20
9.874657652720774
 30
0.0
 10
42.50004047181788
 20
9.556910021133124
 30
0.0
 10
42.53029438185785
 20
9.399098945183649
 30
0.0
 10
42.64698050710619
 20
8.928468581832993
 30
0.0
 10
42.75923624483296
 20
8.618441252898624
 30
0.0
 10
42.89521817211889
 20
8.31097912535289
 30
0.0
  0
SPLINE
  5
297
330
1F
100
AcDbEntity
  8
0
  6
SLD-Solid
 62
   142
420
    32960
370
     0
100
AcDbSpline
210
0.0
220
0.0
230
1.0
 70
     8
 71
     3
 72
     8
 73
     4
 74
     0
 42
0.00000001
 43
0.00000001
 40
0.0
 40
0.0
 40
0.0
 40
0.0
 40
1.0
 40
1.0
 40
1.0
 40
1.0
 10
42.89521817211855
 20
12.07939813125036
 30
0.0
 10
42.6225737827674
 20
11.46293515204111
 30
0.0
 10
42.44863618473404
 20
10.83721671208843
 30
0.0
 10
42.44863618473404
 20
10.1951886283016
 30
0.0
  0
SPLINE
  5
298
330
1F
100
AcDbEntity
  8
0
  6
SLD-Solid
 62
   142
420
    32960
370
     0
100
AcDbSpline
210
0.0
220
0.0
230
1.0
 70
     8
 71
     3
 72
    12
 73
     8
 74
     0
 42
0.00000001
 43
0.00000001
 40
0.0
 40
0.0
 40
0.0
 40
0.0
 40
0.2499999999999977
 40
0.2499999999999977
 40
0.4999999999999953
 40
0.4999999999999953
 40
1.0
 40
1.0
 40
1.0
 40
1.0
 10
47.64863618473403
 20
10.1951886283016
 30
0.0
 10
47.64863618473403
 20
10.03528153809297
 30
0.0
 10
47.6380806242106
 20
9.87465765272072
 30
0.0
 10
47.59723189765025
 20
9.556910021133069
 30
0.0
 10
47.56697798761017
 20
9.399098945183649
 30
0.0
 10
47.45029186236188
 20
8.928468581832938
 30
0.0
 10
47.33803612463517
 20
8.618441252898624
 30
0.0
 10
47.20205419734918
 20
8.310979125352947
 30
0.0
  0
SPLINE
  5
299
330
1F
100
AcDbEntity
  8
0
  6
SLD-Solid
 62
   142
420
    32960
370
     0
100
AcDbSpline
210
0.0
220
0.0
230
1.0
 70
     8
 71
     3
 72
     8
 73
     4
 74
     0
 42
0.00000001
 43
0.00000001
 40
0.0
 40
0.0
 40
0.0
 40
0.0
 40
1.0
 40
1.0
 40
1.0
 40
1.0
 10
47.20205419734952
 20
12.07939813125036
 30
0.0
 10
47.47469858670067
 20
11.46293515204111
 30
0.0
 10
47.64863618473403
 20
10.83721671208843
 30
0.0
 10
47.64863618473403
 20
10.1951886283016
 30
0.0
  0
LINE
  5
29A
330
1F
100
AcDbEntity
  8
0
  6
SLD-Solid
 62
     7
370
    15
100
AcDbLine
 10
47.2020541973
 20
19.6554825149
 30
0.0
 11
42.8952181721
 21
19.6554825149
 31
0.0
  0
SPLINE
  5
29B
330
1F
100
AcDbEntity
  8
0
  6
SLD-Solid
 62
   142
420
    32960
370
     0
100
AcDbSpline
210
0.0
220
0.0
230
1.0
 70
     8
 71
     3
 72
     8
 73
     4
 74
     0
 42
0.00000001
 43
0.00000001
 40
0.0
 40
0.0
 40
0.0
 40
0.0
 40
1.0
 40
1.0
 40
1.0
 40
1.0
 10
42.89521817211855
 20
19.65548251488644
 30
0.0
 10
42.6225737827674
 20
19.34404093435632
 30
0.0
 10
42.44863618473404
 20
19.02792342774518
 30
0.0
 10
42.44863618473404
 20
18.70356617045169
 30
0.0
  0
SPLINE
  5
29C
330
1F
100
AcDbEntity
  8
0
  6
SLD-Solid
 62
   142
420
    32960
370
     0
100
AcDbSpline
210
0.0
220
0.0
230
1.0
 70
     8
 71
     3
 72
    12
 73
     8
 74
     0
 42
0.00000001
 43
0.00000001
 40
0.0
 40
0.0
 40
0.0
 40
0.0
 40
0.249999999999989
 40
0.249999999999989
 40
0.499999999999978
 40
0.499999999999978
 40
1.0
 40
1.0
 40
1.0
 40
1.0
 10
42.44863618473404
 20
18.70356617045169
 30
0.0
 10
42.44863618473404
 20
18.62277994550038
 30
0.0
 10
42.45919174525753
 20
18.54163159041936
 30
0.0
 10
42.50004047181793
 20
18.3811031760151
 30
0.0
 10
42.53029438185796
 20
18.3013758727115
 30
0.0
 10
42.64698050710614
 20
18.06360999032969
 30
0.0
 10
42.75923624483302
 20
17.90698192897441
 30
0.0
 10
42.89521817211889
 20
17.75164982601699
 30
0.0
  0
SPLINE
  5
29D
330
1F
100
AcDbEntity
  8
0
  6
SLD-Solid
 62
   142
420
    32960
370
     0
100
AcDbSpline
210
0.0
220
0.0
230
1.0
 70
     8
 71
     3
 72
    12
 73
     8
 74
     0
 42
0.00000001
 43
0.00000001
 40
0.0
 40
0.0
 40
0.0
 40
0.0
 40
0.249999999999989
 40
0.249999999999989
 40
0.499999999999978
 40
0.499999999999978
 40
1.0
 40
1.0
 40
1.0
 40
1.0
 10
47.64863618473403
 20
18.70356617045169
 30
0.0
 10
47.64863618473408
 20
18.62277994550038
 30
0.0
 10
47.6380806242106
 20
18.54163159041936
 30
0.0
 10
47.5972318976502
 20
18.3811031760151
 30
0.0
 10
47.56697798761034
 20
18.3013758727115
 30
0.0
 10
47.45029186236182
 20
18.06360999032969
 30
0.0
 10
47.33803612463511
 20
17.90698192897441
 30
0.0
 10
47.20205419734918
 20
17.75164982601699
 30
0.0
  0
SPLINE
  5
29E
330
1F
100
AcDbEntity
  8
0
  6
SLD-Solid
 62
   142
420
    32960
370
     0
100
AcDbSpline
210
0.0
220
0.0
230
1.0
 70
     8
 71
     3
 72
     8
 73
     4
 74
     0
 42
0.00000001
 43
0.00000001
 40
0.0
 40
0.0
 40
0.0
 40
0.0
 40
1.0
 40
1.0
 40
1.0
 40
1.0
 10
47.20205419734952
 20
19.65548251488644
 30
0.0
 10
47.47469858670067
 20
19.34404093435632
 30
0.0
 10
47.64863618473403
 20
19.02792342774518
 30
0.0
 10
47.64863618473403
 20
18.70356617045169
 30
0.0
  0
LINE
  5
29F
330
1F
100
AcDbEntity
  8
0
  6
SLD-Solid
 62
   142
420
    32960
370
     0
100
AcDbLine
 10
42.4486361847
 20
8.9832308201
 30
0.0
 11
42.4486361847
 21
10.1951886283
 31
0.0
  0
SPLINE
  5
2A0
330
1F
100
AcDbEntity
  8
0
  6
SLD-Solid
 62
   142
420
    32960
370
     0
100
AcDbSpline
210
0.0
220
0.0
230
1.0
 70
     8
 71
     3
 72
     8
 73
     4
 74
     0
 42
0.00000001
 43
0.00000001
 40
0.0
 40
0.0
 40
0.0
 40
0.0
 40
1.0
 40
1.0
 40
1.0
 40
1.0
 10
47.64863618473403
 20
9.262895469787647
 30
0.0
 10
47.64863618473403
 20
9.285412560178008
 30
0.0
 10
47.64782823278219
 20
9.307967924769622
 30
0.0
 10
47.64620608661608
 20
9.330561859270336
 30
0.0
  0
SPLINE
  5
2A1
330
1F
100
AcDbEntity
  8
0
  6
SLD-Solid
 62
   142
420
    32960
370
     0
100
AcDbSpline
210
0.0
220
0.0
230
1.0
 70
     8
 71
     3
 72
     8
 73
     4
 74
     0
 42
0.00000001
 43
0.00000001
 40
0.0
 40
0.0
 40
0.0
 40
0.0
 40
1.0
 40
1.0
 40
1.0
 40
1.0
 10
47.20205419734952
 20
8.31097912535289
 30
0.0
 10
47.47469858670067
 20
8.622420705883037
 30
0.0
 10
47.64863618473403
 20
8.93853821249413
 30
0.0
 10
47.64863618473403
 20
9.262895469787647
 30
0.0
  0
LINE
  5
2A2
330
1F
100
AcDbEntity
  8
0
  6
SLD-Solid
 62
     7
370
    15
100
AcDbLine
 10
42.6934181652
 20
16.7384939328
 30
0.0
 11
42.4486361847
 21
17.7712730119
 31
0.0
  0
SPLINE
  5
2A3
330
1F
100
AcDbEntity
  8
0
  6
SLD-Solid
 62
   142
420
    32960
370
     0
100
AcDbSpline
210
0.0
220
0.0
230
1.0
 70
     8
 71
     3
 72
     9
 73
     5
 74
     0
 42
0.00000001
 43
0.00000001
 40
0.0
 40
0.0
 40
0.0
 40
0.0
 40
0.1507861721879772
 40
1.0
 40
1.0
 40
1.0
 40
1.0
 10
42.44863618473404
 20
17.77127301193773
 30
0.0
 10
42.44866454912161
 20
17.81596398088667
 30
0.0
 10
42.44885265912646
 20
18.11235036897829
 30
0.0
 10
42.55217925033594
 20
18.40279783962592
 30
0.0
 10
42.63992562037178
 20
18.64944984795289
 30
0.0
  0
SPLINE
  5
2A4
330
1F
100
AcDbEntity
  8
0
  6
SLD-Solid
 62
   142
420
    32960
370
     0
100
AcDbSpline
210
0.0
220
0.0
230
1.0
 70
     8
 71
     3
 72
     9
 73
     5
 74
     0
 42
0.00000001
 43
0.00000001
 40
0.0
 40
0.0
 40
0.0
 40
0.0
 40
0.150786172187967
 40
1.0
 40
1.0
 40
1.0
 40
1.0
 10
47.64863618473403
 20
17.77127301193773
 30
0.0
 10
47.64860782034636
 20
17.8159639808867
 30
0.0
 10
47.64841971034161
 20
18.11235036897824
 30
0.0
 10
47.54509311913213
 20
18.40279783962592
 30
0.0
 10
47.45734674909635
 20
18.64944984795292
 30
0.0
  0
LINE
  5
2A5
330
1F
100
AcDbEntity
  8
0
  6
SLD-Solid
 62
   142
420
    32960
370
     0
100
AcDbLine
 10
47.4788713697
 20
17.0550048084
 30
0.0
 11
47.6486361847
 21
17.7712730119
 31
0.0
  0
LINE
  5
2A6
330
1F
100
AcDbEntity
  8
0
  6
SLD-Solid
 62
   142
420
    32960
370
     0
100
AcDbLine
 10
42.4486361847
 20
17.7712730119
 30
0.0
 11
42.4486361847
 21
14.9363280704
 31
0.0
  0
LINE
  5
2A7
330
1F
100
AcDbEntity
  8
0
  6
SLD-Solid
 62
   142
420
    32960
370
     0
100
AcDbLine
 10
42.6778536298
 20
11.1622981413
 30
0.0
 11
42.4486361847
 21
13.0509376616
 31
0.0
  0
LINE
  5
2A8
330
1F
100
AcDbEntity
  8
0
  6
SLD-Solid
 62
   142
420
    32960
370
     0
100
AcDbLine
 10
47.6486361847
 20
13.0509376616
 30
0.0
 11
47.6213574685
 21
13.6454416637
 31
0.0
  0
LINE
  5
2A9
330
1F
100
AcDbEntity
  8
0
  6
SLD-Solid
 62
   142
420
    32960
370
     0
100
AcDbLine
 10
47.4785839129
 20
11.6497902008
 30
0.0
 11
47.6486361847
 21
13.0509376616
 31
0.0
  0
LINE
  5
2AA
330
1F
100
AcDbEntity
  8
0
  6
SLD-Solid
 62
   142
420
    32960
370
     0
100
AcDbLine
 10
36.9986361847
 20
9.6455167639
 30
0.0
 11
36.9986361847
 21
5.7703331509
 31
0.0
  0
SPLINE
  5
2AB
330
1F
100
AcDbEntity
  8
0
  6
SLD-Solid
 62
   142
420
    32960
370
     0
100
AcDbSpline
210
0.0
220
0.0
230
1.0
 70
     8
 71
     3
 72
    18
 73
    14
 74
     0
 42
0.00000001
 43
0.00000001
 40
0.0
 40
0.0
 40
0.0
 40
0.0
 40
0.2499999999999938
 40
0.2499999999999938
 40
0.3749999999999907
 40
0.3749999999999907
 40
0.4999999999999876
 40
0.4999999999999876
 40
0.6249999999999845
 40
0.6249999999999845
 40
0.7499999999999813
 40
0.7499999999999813
 40
1.0
 40
1.0
 40
1.0
 40
1.0
 10
36.99863618473403
 20
9.64551676394737
 30
0.0
 10
36.99863618473387
 20
9.503750245029085
 30
0.0
 10
36.96305706461761
 20
9.364639198366831
 30
0.0
 10
36.85727076118256
 20
9.166461004457616
 30
0.0
 10
36.81399334519691
 20
9.10363935981251
 30
0.0
 10
36.71152639350706
 20
8.984470194137007
 30
0.0
 10
36.65150123200394
 20
8.927530428872455
 30
0.0
 10
36.51863420694662
 20
8.824372843724504
 30
0.0
 10
36.44607231838004
 20
8.77807027894334
 30
0.0
 10
36.28854612137922
 20
8.69618893295887
 30
0.0
 10
36.20276448816728
 20
8.66049415474135
 30
0.0
 10
35.93764183054526
 20
8.575106198133565
 30
0.0
 10
35.74423744010641
 20
8.544677446328365
 30
0.0
 10
35.54863618473409
 20
8.544677446328365
 30
0.0
  0
SPLINE
  5
2AC
330
1F
100
AcDbEntity
  8
0
  6
SLD-Solid
 62
   142
420
    32960
370
     0
100
AcDbSpline
210
0.0
220
0.0
230
1.0
 70
     8
 71
     3
 72
    16
 73
    12
 74
     0
 42
0.00000001
 43
0.00000001
 40
0.0
 40
0.0
 40
0.0
 40
0.0
 40
0.1250000000000066
 40
0.1250000000000066
 40
0.2500000000000132
 40
0.2500000000000132
 40
0.5000000000000088
 40
0.5000000000000088
 40
0.7500000000000043
 40
0.7500000000000043
 40
1.0
 40
1.0
 40
1.0
 40
1.0
 10
35.54863618473409
 20
4.572127410825133
 30
0.0
 10
35.64632999775652
 20
4.572127410825133
 30
0.0
 10
35.74230716329075
 20
4.580131656292785
 30
0.0
 10
35.93097649772353
 20
4.611464564101442
 30
0.0
 10
36.02466217524697
 20
4.635218539195796
 30
0.0
 10
36.29047937004531
 20
4.727394313614186
 30
0.0
 10
36.45193684494485
 20
4.818272812091962
 30
0.0
 10
36.71663416687815
 20
5.040637940813553
 30
0.0
 10
36.82196272868882
 20
5.17389815373509
 30
0.0
 10
36.96222464387488
 20
5.45990565636767
 30
0.0
 10
36.99863618473403
 20
5.614424279166197
 30
0.0
 10
36.99863618473403
 20
5.770333150882934
 30
0.0
  0
LINE
  5
2AD
330
1F
100
AcDbEntity
  8
0
  6
SLD-Solid
 62
   142
420
    32960
370
     0
100
AcDbLine
 10
35.5486361847
 20
8.5446774463
 30
0.0
 11
30.4486361847
 21
8.5446774463
 31
0.0
  0
LINE
  5
2AE
330
1F
100
AcDbEntity
  8
0
  6
SLD-Solid
 62
   142
420
    32960
370
     0
100
AcDbLine
 10
30.4486361847
 20
8.5446774463
 30
0.0
 11
30.4486361847
 21
4.5721274108
 31
0.0
  0
LINE
  5
2AF
330
1F
100
AcDbEntity
  8
0
  6
SLD-Solid
 62
   142
420
    32960
370
     0
100
AcDbLine
 10
30.4486361847
 20
4.5721274108
 30
0.0
 11
35.5486361847
 21
4.5721274108
 31
0.0
  0
LWPOLYLINE
  5
2B0
330
1F
100
AcDbEntity
  8
0
  6
SLD-Solid
 62
   142
420
    32960
370
     0
100
AcDbPolyline
 90
        3
 70
   128
 43
0.0
 10
-14.3013638153
 20
491.5332308201
 10
-14.3253822148
 20
491.7770937226
 10
-14.3851734363
 20
491.9832308201
  0
LINE
  5
2B1
330
1F
100
AcDbEntity
  8
0
  6
SLD-Solid
 62
   142
420
    32960
370
     0
100
AcDbLine
 10
-14.3013638153
 20
486.7832308201
 30
0.0
 11
-14.3013638153
 21
491.5332308201
 31
0.0
  0
LINE
  5
2B2
330
1F
100
AcDbEntity
  8
0
  6
SLD-Solid
 62
   142
420
    32960
370
     0
100
AcDbLine
 10
-13.5013638153
 20
486.7832308201
 30
0.0
 11
-14.3013638153
 21
486.7832308201
 31
0.0
  0
LINE
  5
2B3
330
1F
100
AcDbEntity
  8
0
  6
SLD-Solid
 62
     7
370
    15
100
AcDbLine
 10
800.4986361848
 20
-36.6167691791
 30
0.0
 11
808.2986361848
 21
-36.6167691791
 31
0.0
  0
LWPOLYLINE
  5
2B4
330
1F
100
AcDbEntity
  8
0
  6
SLD-Solid
 62
   142
420
    32960
370
     0
100
AcDbPolyline
 90
        9
 70
   128
 43
0.0
 10
30.4486361847
 20
22.7624983125
 10
30.3998636042
 20
22.7593957889
 10
30.3529653266
 20
22.7502074463
 10
30.3097436265
 20
22.7352863876
 10
30.2718594894
 20
22.7152060207
 10
30.2407687817
 20
22.6907380229
 10
30.2176663016
 20
22.6628226855
 10
30.2034398646
 20
22.6325327794
 10
30.1986361847
 20
22.6010323286
  0
ARC
  5
2B5
330
1F
100
AcDbEntity
  8
0
  6
SLD-Solid
 62
   142
420
    32960
370
     0
100
AcDbCircle
 10
30.4403849085
 20
22.6098889152
 30
0.0
 40
0.2419109021303459
100
AcDbArc
 50
182.0981214799
 51
271.9546660229
  0
LINE
  5
2B6
330
1F
100
AcDbEntity
  8
0
  6
SLD-Solid
 62
   142
420
    32960
370
     0
100
AcDbLine
 10
30.4486361847
 20
22.7624983125
 30
0.0
 11
30.4486361847
 21
22.3681187743
 31
0.0
  0
LINE
  5
2B7
330
1F
100
AcDbEntity
  8
0
  6
SLD-Solid
 62
   142
420
    32960
370
     0
100
AcDbLine
 10
155.0986361847
 20
-38.1167691799
 30
0.0
 11
155.0986361847
 21
-36.9167691799
 31
0.0
  0
LINE
  5
2B8
330
1F
100
AcDbEntity
  8
0
  6
SLD-Solid
 62
     7
370
    15
100
AcDbLine
 10
85.0986361847
 20
-38.1167691799
 30
0.0
 11
155.0986361847
 21
-38.1167691799
 31
0.0
  0
LINE
  5
2B9
330
1F
100
AcDbEntity
  8
0
  6
SLD-Solid
 62
     7
370
    15
100
AcDbLine
 10
85.0986361847
 20
-38.1167691799
 30
0.0
 11
85.0986361847
 21
-36.9167691799
 31
0.0
  0
LINE
  5
2BA
330
1F
100
AcDbEntity
  8
0
  6
SLD-Solid
 62
     7
370
    15
100
AcDbLine
 10
151.0582864051
 20
-132.1167691799
 30
0.0
 11
89.1389859644
 21
-132.1167691799
 31
0.0
  0
LINE
  5
2BB
330
1F
100
AcDbEntity
  8
0
  6
SLD-Solid
 62
   142
420
    32960
370
     0
100
AcDbLine
 10
786.4659814242
 20
633.8844644997
 30
0.0
 11
780.0711632207
 21
631.0373079982
 31
0.0
  0
LINE
  5
2BC
330
1F
100
AcDbEntity
  8
0
  6
SLD-Solid
 62
   142
420
    32960
370
     0
100
AcDbLine
 10
43.6796096752
 20
651.5474521064
 30
0.0
 11
38.7530046845
 21
651.9784741927
 31
0.0
  0
SPLINE
  5
2BD
330
1F
100
AcDbEntity
  8
0
  6
SLD-Solid
 62
   142
420
    32960
370
     0
100
AcDbSpline
210
0.0
220
0.0
230
1.0
 70
     8
 71
     3
 72
    11
 73
     7
 74
     0
 42
0.00000001
 43
0.00000001
 40
0.0
 40
0.0
 40
0.0
 40
0.0
 40
0.2500033754366648
 40
0.4999921878808961
 40
0.7499849073600477
 40
1.0
 40
1.0
 40
1.0
 40
1.0
 10
805.2295544811313
 20
563.5626566458607
 30
0.0
 10
805.2521176050458
 20
563.4945349680065
 30
0.0
 10
805.2972425385465
 20
563.3582955804666
 30
0.0
 10
805.3590838406259
 20
563.1604480935468
 30
0.0
 10
805.4170136516301
 20
562.9669836817985
 30
0.0
 10
805.451709096712
 20
562.8424334494306
 30
0.0
 10
805.4690575954877
 20
562.7801555467078
 30
0.0
  0
SPLINE
  5
2BE
330
1F
100
AcDbEntity
  8
0
  6
SLD-Solid
 62
   142
420
    32960
370
     0
100
AcDbSpline
210
0.0
220
0.0
230
1.0
 70
     8
 71
     3
 72
     8
 73
     4
 74
     0
 42
0.00000001
 43
0.00000001
 40
0.0
 40
0.0
 40
0.0
 40
0.0
 40
1.0
 40
1.0
 40
1.0
 40
1.0
 10
805.4690575954877
 20
562.7801555467078
 30
0.0
 10
805.2644200870723
 20
562.6210891249203
 30
0.0
 10
805.059776421053
 20
562.4620416542884
 30
0.0
 10
804.8551265871102
 20
562.303013166574
 30
0.0
  0
SPLINE
  5
2BF
330
1F
100
AcDbEntity
  8
0
  6
SLD-Solid
 62
   142
420
    32960
370
     0
100
AcDbSpline
210
0.0
220
0.0
230
1.0
 70
     8
 71
     3
 72
    11
 73
     7
 74
     0
 42
0.00000001
 43
0.00000001
 40
0.0
 40
0.0
 40
0.0
 40
0.0
 40
0.2471585206977104
 40
0.4962090954966826
 40
0.7471551958245228
 40
1.0
 40
1.0
 40
1.0
 40
1.0
 10
804.8551265871102
 20
562.303013166574
 30
0.0
 10
804.6528939563475
 20
562.220232825138
 30
0.0
 10
804.2468805585194
 20
562.0540384401215
 30
0.0
 10
803.6296732064021
 20
561.8104045016119
 30
0.0
 10
803.0039319637681
 20
561.5692174346262
 30
0.0
 10
802.5814405669307
 20
561.4119978715632
 30
0.0
 10
802.3693987187268
 20
561.3330918228834
 30
0.0
  0
SPLINE
  5
2C0
330
1F
100
AcDbEntity
  8
0
  6
SLD-Solid
 62
   142
420
    32960
370
     0
100
AcDbSpline
210
0.0
220
0.0
230
1.0
 70
     8
 71
     3
 72
     9
 73
     5
 74
     0
 42
0.00000001
 43
0.00000001
 40
0.0
 40
0.0
 40
0.0
 40
0.0
 40
0.4999960425239235
 40
1.0
 40
1.0
 40
1.0
 40
1.0
 10
802.3693986680751
 20
561.3330919740997
 30
0.0
 10
802.3491369593075
 20
561.3930661128978
 30
0.0
 10
802.3086132210291
 20
561.5130153398866
 30
0.0
 10
802.2648041263313
 20
561.6365883673764
 30
0.0
 10
802.2428994056091
 20
561.6983753701584
 30
0.0
  0
SPLINE
  5
2C1
330
1F
100
AcDbEntity
  8
0
  6
SLD-Solid
 62
   142
420
    32960
370
     0
100
AcDbSpline
210
0.0
220
0.0
230
1.0
 70
     8
 71
     3
 72
     8
 73
     4
 74
     0
 42
0.00000001
 43
0.00000001
 40
0.0
 40
0.0
 40
0.0
 40
0.0
 40
1.0
 40
1.0
 40
1.0
 40
1.0
 10
802.2428994056091
 20
561.6983753701584
 30
0.0
 10
802.9922074334916
 20
562.2803833997323
 30
0.0
 10
803.7415827603072
 20
562.862184304487
 30
0.0
 10
804.4910256550797
 20
563.4437772564534
 30
0.0
  0
SPLINE
  5
2C2
330
1F
100
AcDbEntity
  8
0
  6
SLD-Solid
 62
   142
420
    32960
370
     0
100
AcDbSpline
210
0.0
220
0.0
230
1.0
 70
     8
 71
     3
 72
     8
 73
     4
 74
     0
 42
0.00000001
 43
0.00000001
 40
0.0
 40
0.0
 40
0.0
 40
0.0
 40
1.0
 40
1.0
 40
1.0
 40
1.0
 10
804.4910256550797
 20
563.4437772564534
 30
0.0
 10
804.4699792800184
 20
563.5019965355299
 30
0.0
 10
804.4486905672499
 20
563.5609616533785
 30
0.0
 10
804.427161177562
 20
563.6206674986192
 30
0.0
  0
SPLINE
  5
2C3
330
1F
100
AcDbEntity
  8
0
  6
SLD-Solid
 62
   142
420
    32960
370
     0
100
AcDbSpline
210
0.0
220
0.0
230
1.0
 70
     8
 71
     3
 72
     8
 73
     4
 74
     0
 42
0.00000001
 43
0.00000001
 40
0.0
 40
0.0
 40
0.0
 40
0.0
 40
1.0
 40
1.0
 40
1.0
 40
1.0
 10
804.427161177562
 20
563.6206674986192
 30
0.0
 10
804.6317869001844
 20
563.7797480858945
 30
0.0
 10
804.8364200140583
 20
563.9388059252361
 30
0.0
 10
805.0410605307021
 20
564.0978409811952
 30
0.0
  0
SPLINE
  5
2C4
330
1F
100
AcDbEntity
  8
0
  6
SLD-Solid
 62
   142
420
    32960
370
     0
100
AcDbSpline
210
0.0
220
0.0
230
1.0
 70
     8
 71
     3
 72
     8
 73
     4
 74
     0
 42
0.00000001
 43
0.00000001
 40
0.0
 40
0.0
 40
0.0
 40
0.0
 40
1.0
 40
1.0
 40
1.0
 40
1.0
 10
805.0410605307021
 20
564.0978409811952
 30
0.0
 10
805.0626276228508
 20
564.0380892074497
 30
0.0
 10
805.0839517334302
 20
563.9790852540793
 30
0.0
 10
805.1050311680572
 20
563.9208343358599
 30
0.0
  0
SPLINE
  5
2C5
330
1F
100
AcDbEntity
  8
0
  6
SLD-Solid
 62
   142
420
    32960
370
     0
100
AcDbSpline
210
0.0
220
0.0
230
1.0
 70
     8
 71
     3
 72
     8
 73
     4
 74
     0
 42
0.00000001
 43
0.00000001
 40
0.0
 40
0.0
 40
0.0
 40
0.0
 40
1.0
 40
1.0
 40
1.0
 40
1.0
 10
805.1050311680573
 20
563.9208343358599
 30
0.0
 10
805.3440814299057
 20
564.1064381615417
 30
0.0
 10
805.583138961875
 20
564.2920196120926
 30
0.0
 10
805.8222037737423
 20
564.4775786574205
 30
0.0
  0
SPLINE
  5
2C6
330
1F
100
AcDbEntity
  8
0
  6
SLD-Solid
 62
   142
420
    32960
370
     0
100
AcDbSpline
210
0.0
220
0.0
230
1.0
 70
     8
 71
     3
 72
     9
 73
     5
 74
     0
 42
0.00000001
 43
0.00000001
 40
0.0
 40
0.0
 40
0.0
 40
0.0
 40
0.500004411788755
 40
1.0
 40
1.0
 40
1.0
 40
1.0
 10
805.8222037735103
 20
564.4775786581939
 30
0.0
 10
805.843812733053
 20
564.4169393998449
 30
0.0
 10
805.8870302708052
 20
564.2956619532475
 30
0.0
 10
805.926921130595
 20
564.1780514740992
 30
0.0
 10
805.9468663845
 20
564.1192467533978
 30
0.0
  0
LINE
  5
2C7
330
1F
100
AcDbEntity
  8
0
  6
SLD-Solid
 62
   142
420
    32960
370
     0
100
AcDbLine
 10
805.9468663845
 20
564.1192467534
 30
0.0
 11
805.2295623052
 21
563.5626627169
 31
0.0
  0
SPLINE
  5
2C8
330
1F
100
AcDbEntity
  8
0
  6
SLD-Solid
 62
   142
420
    32960
370
     0
100
AcDbSpline
210
0.0
220
0.0
230
1.0
 70
     8
 71
     3
 72
     9
 73
     5
 74
     0
 42
0.00000001
 43
0.00000001
 40
0.0
 40
0.0
 40
0.0
 40
0.0
 40
0.5000008151763755
 40
1.0
 40
1.0
 40
1.0
 40
1.0
 10
804.7500629199553
 20
562.6665744927952
 30
0.0
 10
804.7288542991173
 20
562.7350619120436
 30
0.0
 10
804.6864371265963
 20
562.8720365272242
 30
0.0
 10
804.6390929024914
 20
563.0145065115726
 30
0.0
 10
804.6154208290328
 20
563.0857413876084
 30
0.0
  0
LINE
  5
2C9
330
1F
100
AcDbEntity
  8
0
  6
SLD-Solid
 62
   142
420
    32960
370
     0
100
AcDbLine
 10
804.615420829
 20
563.0857413876
 30
0.0
 11
803.4446420063
 21
562.1773165871
 31
0.0
  0
SPLINE
  5
2CA
330
1F
100
AcDbEntity
  8
0
  6
SLD-Solid
 62
   142
420
    32960
370
     0
100
AcDbSpline
210
0.0
220
0.0
230
1.0
 70
     8
 71
     3
 72
     9
 73
     5
 74
     0
 42
0.00000001
 43
0.00000001
 40
0.0
 40
0.0
 40
0.0
 40
0.0
 40
0.5019979753639476
 40
1.0
 40
1.0
 40
1.0
 40
1.0
 10
803.4446420063308
 20
562.1773165871256
 30
0.0
 10
803.6643132991289
 20
562.2578122008928
 30
0.0
 10
804.1019072807356
 20
562.4181626758298
 30
0.0
 10
804.5345873629788
 20
562.5839914349904
 30
0.0
 10
804.7500629199553
 20
562.6665744927955
 30
0.0
  0
LINE
  5
2CB
330
1F
100
AcDbEntity
  8
0
  6
SLD-Solid
 62
   142
420
    32960
370
     0
100
AcDbLine
 10
30.4486361847
 20
8.5446774463
 30
0.0
 11
30.4486361847
 21
9.3687917868
 31
0.0
  0
LINE
  5
2CC
330
1F
100
AcDbEntity
  8
0
  6
SLD-Solid
 62
   142
420
    32960
370
     0
100
AcDbLine
 10
30.4486361847
 20
9.3687917868
 30
0.0
 11
35.5486361847
 21
9.3687917868
 31
0.0
  0
LINE
  5
2CD
330
1F
100
AcDbEntity
  8
0
  6
SLD-Solid
 62
   142
420
    32960
370
     0
100
AcDbLine
 10
35.5486361847
 20
9.3687917868
 30
0.0
 11
35.5486361847
 21
8.5446774463
 31
0.0
  0
LINE
  5
2CE
330
1F
100
AcDbEntity
  8
0
  6
SLD-Solid
 62
     7
370
    15
100
AcDbLine
 10
41.2986361847
 20
595.9832308201
 30
0.0
 11
39.0986361847
 21
595.9832308201
 31
0.0
  0
LINE
  5
2CF
330
1F
100
AcDbEntity
  8
0
  6
SLD-Solid
 62
   142
420
    32960
370
     0
100
AcDbLine
 10
42.0986361847
 20
612.4832308201
 30
0.0
 11
39.0986361847
 21
612.4832308201
 31
0.0
  0
LINE
  5
2D0
330
1F
100
AcDbEntity
  8
0
  6
SLD-Solid
 62
   142
420
    32960
370
     0
100
AcDbLine
 10
42.0986361847
 20
608.4832308201
 30
0.0
 11
42.0986361847
 21
612.4832308201
 31
0.0
  0
LINE
  5
2D1
330
1F
100
AcDbEntity
  8
0
  6
SLD-Solid
 62
   142
420
    32960
370
     0
100
AcDbLine
 10
42.0986361847
 20
579.4832308201
 30
0.0
 11
42.0986361847
 21
583.4832308201
 31
0.0
  0
LINE
  5
2D2
330
1F
100
AcDbEntity
  8
0
  6
SLD-Solid
 62
   142
420
    32960
370
     0
100
AcDbLine
 10
42.0986361847
 20
579.4832308201
 30
0.0
 11
39.0986361847
 21
579.4832308201
 31
0.0
  0
LINE
  5
2D3
330
1F
100
AcDbEntity
  8
0
  6
SLD-Solid
 62
   142
420
    32960
370
     0
100
AcDbLine
 10
806.4079374016
 20
545.5173062412
 30
0.0
 11
807.0920832119
 21
545.2701465664
 31
0.0
  0
LINE
  5
2D4
330
1F
100
AcDbEntity
  8
0
  6
SLD-Solid
 62
     7
370
    15
100
AcDbLine
 10
37.0486361847
 20
493.4903376013
 30
0.0
 11
-24.9013638153
 21
493.4903376013
 31
0.0
  0
LINE
  5
2D5
330
1F
100
AcDbEntity
  8
0
  6
SLD-Solid
 62
   142
420
    32960
370
     0
100
AcDbLine
 10
-23.4442927475
 20
649.9332308201
 30
0.0
 11
-23.4584348831
 21
649.9332308201
 31
0.0
  0
LINE
  5
2D6
330
1F
100
AcDbEntity
  8
0
  6
SLD-Solid
 62
   142
420
    32960
370
     0
100
AcDbLine
 10
-24.9013638153
 20
493.5832308201
 30
0.0
 11
-24.9013638153
 21
493.4903376013
 31
0.0
  0
LINE
  5
2D7
330
1F
100
AcDbEntity
  8
0
  6
SLD-Solid
 62
   142
420
    32960
370
     0
100
AcDbLine
 10
39.0986361847
 20
651.1832308201
 30
0.0
 11
39.0986361847
 21
649.9332308201
 31
0.0
  0
LINE
  5
2D8
330
1F
100
AcDbEntity
  8
0
  6
SLD-Solid
 62
   142
420
    32960
370
     0
100
AcDbLine
 10
38.6986361847
 20
651.1832308201
 30
0.0
 11
39.0986361847
 21
651.1832308201
 31
0.0
  0
SPLINE
  5
2D9
330
1F
100
AcDbEntity
  8
0
  6
SLD-Solid
 62
   142
420
    32960
370
     0
100
AcDbSpline
210
0.0
220
0.0
230
1.0
 70
     8
 71
     3
 72
    14
 73
    10
 74
     0
 42
0.00000001
 43
0.00000001
 40
0.0
 40
0.0
 40
0.0
 40
0.0
 40
0.25
 40
0.25
 40
0.5
 40
0.5
 40
0.75
 40
0.75
 40
1.0
 40
1.0
 40
1.0
 40
1.0
 10
39.09863618473031
 20
494.0332308201185
 30
0.0
 10
39.09863618473031
 20
493.9879897185507
 30
0.0
 10
39.04528017190029
 20
493.942748616983
 30
0.0
 10
38.83989828085654
 20
493.8522664138472
 30
0.0
 10
38.68795321164653
 20
493.8070253122796
 30
0.0
 10
38.3084569606788
 20
493.716543109144
 30
0.0
 10
38.0810550944905
 20
493.6713020075762
 30
0.0
 10
37.58521934766673
 20
493.5808198044406
 30
0.0
 10
37.31698055722438
 20
493.535578702873
 30
0.0
 10
37.04863618473026
 20
493.490337601305
 30
0.0
  0
LINE
  5
2DA
330
1F
100
AcDbEntity
  8
0
  6
SLD-Solid
 62
   142
420
    32960
370
     0
100
AcDbLine
 10
39.0986361847
 20
649.9332308201
 30
0.0
 11
39.0986361847
 21
494.0332308201
 31
0.0
  0
SPLINE
  5
2DB
330
1F
100
AcDbEntity
  8
0
  6
SLD-Solid
 62
   142
420
    32960
370
     0
100
AcDbSpline
210
0.0
220
0.0
230
1.0
 70
     8
 71
     3
 72
     9
 73
     5
 74
     0
 42
0.00000001
 43
0.00000001
 40
0.0
 40
0.0
 40
0.0
 40
0.0
 40
0.4963320672236769
 40
1.0
 40
1.0
 40
1.0
 40
1.0
 10
798.4780436042076
 20
581.1206370566613
 30
0.0
 10
798.1005285767935
 20
581.0545399749986
 30
0.0
 10
797.3399187908377
 20
580.9213688864727
 30
0.0
 10
796.578233569465
 20
580.7884734518256
 30
0.0
 10
796.1945971485902
 20
580.7215382829816
 30
0.0
  0
SPLINE
  5
2DC
330
1F
100
AcDbEntity
  8
0
  6
SLD-Solid
 62
   142
420
    32960
370
     0
100
AcDbSpline
210
0.0
220
0.0
230
1.0
 70
     8
 71
     3
 72
     9
 73
     5
 74
     0
 42
0.00000001
 43
0.00000001
 40
0.0
 40
0.0
 40
0.0
 40
0.0
 40
0.4998981072624304
 40
1.0
 40
1.0
 40
1.0
 40
1.0
 10
798.4130346386429
 20
581.8174698610014
 30
0.0
 10
798.4242553883332
 20
581.7012563727158
 30
0.0
 10
798.4467014618979
 20
581.4687820212481
 30
0.0
 10
798.4675948041845
 20
581.2367011430944
 30
0.0
 10
798.4780436042076
 20
581.1206370566613
 30
0.0
  0
SPLINE
  5
2DD
330
1F
100
AcDbEntity
  8
0
  6
SLD-Solid
 62
   142
420
    32960
370
     0
100
AcDbSpline
210
0.0
220
0.0
230
1.0
 70
     8
 71
     3
 72
    12
 73
     8
 74
     0
 42
0.00000001
 43
0.00000001
 40
0.0
 40
0.0
 40
0.0
 40
0.0
 40
0.1251099641819544
 40
0.2501560287773554
 40
0.4998854219305857
 40
0.7498967401005114
 40
0.9999999999999999
 40
0.9999999999999999
 40
0.9999999999999999
 40
0.9999999999999999
 10
798.0137934332171
 20
582.218074266104
 30
0.0
 10
798.0225783012916
 20
582.1942475937329
 30
0.0
 10
798.0401435505919
 20
582.1466064184018
 30
0.0
 10
798.0898434587335
 20
582.0598051359474
 30
0.0
 10
798.1700457600731
 20
581.9665531167875
 30
0.0
 10
798.2849776801105
 20
581.878805920673
 30
0.0
 10
798.3703434192679
 20
581.83791787495
 30
0.0
 10
798.4130341357223
 20
581.8174700936324
 30
0.0
  0
SPLINE
  5
2DE
330
1F
100
AcDbEntity
  8
0
  6
SLD-Solid
 62
   142
420
    32960
370
     0
100
AcDbSpline
210
0.0
220
0.0
230
1.0
 70
     8
 71
     3
 72
    16
 73
    12
 74
     0
 42
0.00000001
 43
0.00000001
 40
0.0
 40
0.0
 40
0.0
 40
0.0
 40
0.1250863805377301
 40
0.2500995968202287
 40
0.3751035203423623
 40
0.5000746512834529
 40
0.6250242473268783
 40
0.7499427910612587
 40
0.8748498777441129
 40
0.9374198567272911
 40
1.0
 40
1.0
 40
1.0
 40
1.0
 10
798.4321887360151
 20
583.0591286861677
 30
0.0
 10
798.3947153730737
 20
583.0418904746095
 30
0.0
 10
798.3197905657296
 20
583.0074241342924
 30
0.0
 10
798.2186326986957
 20
582.9312846265804
 30
0.0
 10
798.1286749236195
 20
582.8397466302504
 30
0.0
 10
798.0592998942407
 20
582.7286306613639
 30
0.0
 10
798.0083913593121
 20
582.6069860436895
 30
0.0
 10
797.9801618447162
 20
582.476791975269
 30
0.0
 10
797.9821469804731
 20
582.3662560207441
 30
0.0
 10
797.9955342762095
 20
582.2801233655665
 30
0.0
 10
798.0077052434453
 20
582.238763410198
 30
0.0
 10
798.0137912213066
 20
582.2180817529526
 30
0.0
  0
SPLINE
  5
2DF
330
1F
100
AcDbEntity
  8
0
  6
SLD-Solid
 62
   142
420
    32960
370
     0
100
AcDbSpline
210
0.0
220
0.0
230
1.0
 70
     8
 71
     3
 72
    17
 73
    13
 74
     0
 42
0.00000001
 43
0.00000001
 40
0.0
 40
0.0
 40
0.0
 40
0.0
 40
0.0625881928242011
 40
0.1251529137078048
 40
0.2501008805885818
 40
0.3750040730281566
 40
0.5000096249505049
 40
0.6250016255043193
 40
0.7499345076397124
 40
0.8748676060177201
 40
0.9374272079982157
 40
1.0
 40
1.0
 40
1.0
 40
1.0
 10
799.2593164698371
 20
582.6931000073463
 30
0.0
 10
799.2518628889222
 20
582.714302305507
 30
0.0
 10
799.236958522348
 20
582.7566989505035
 30
0.0
 10
799.1982551548862
 20
582.836893766602
 30
0.0
 10
799.1349207049252
 20
582.9272038065459
 30
0.0
 10
799.0381055248131
 20
583.0134459387879
 30
0.0
 10
798.9266246404094
 20
583.0753768506061
 30
0.0
 10
798.8058079118288
 20
583.1138954210891
 30
0.0
 10
798.6792506710805
 20
583.12151785392
 30
0.0
 10
798.574182293851
 20
583.106291799863
 30
0.0
 10
798.492193660108
 20
583.0826201889914
 30
0.0
 10
798.4521917828924
 20
583.0669597373573
 30
0.0
 10
798.4321887360151
 20
583.0591286861677
 30
0.0
  0
SPLINE
  5
2E0
330
1F
100
AcDbEntity
  8
0
  6
SLD-Solid
 62
   142
420
    32960
370
     0
100
AcDbSpline
210
0.0
220
0.0
230
1.0
 70
     8
 71
     3
 72
    13
 73
     9
 74
     0
 42
0.00000001
 43
0.00000001
 40
0.0
 40
0.0
 40
0.0
 40
0.0
 40
0.1252129687240443
 40
0.2503508891030043
 40
0.5000341053572644
 40
0.7496609058298898
 40
0.8747812225092346
 40
1.0
 40
1.0
 40
1.0
 40
1.0
 10
799.0833326954261
 20
581.9403718517794
 30
0.0
 10
799.1045716582756
 20
581.9660552753094
 30
0.0
 10
799.1470368540713
 20
582.0174067286092
 30
0.0
 10
799.218715162295
 20
582.131479987776
 30
0.0
 10
799.2817926859685
 20
582.2910945019814
 30
0.0
 10
799.3005242438512
 20
582.4623999706291
 30
0.0
 10
799.2858499427642
 20
582.5966883769127
 30
0.0
 10
799.2681645655767
 20
582.6609497032316
 30
0.0
 10
799.2593183990671
 20
582.6930930036947
 30
0.0
  0
SPLINE
  5
2E1
330
1F
100
AcDbEntity
  8
0
  6
SLD-Solid
 62
   142
420
    32960
370
     0
100
AcDbSpline
210
0.0
220
0.0
230
1.0
 70
     8
 71
     3
 72
     9
 73
     5
 74
     0
 42
0.00000001
 43
0.00000001
 40
0.0
 40
0.0
 40
0.0
 40
0.0
 40
0.5000084574256498
 40
0.9999999999999999
 40
0.9999999999999999
 40
0.9999999999999999
 40
0.9999999999999999
 10
799.3354079649157
 20
581.1153623096654
 30
0.0
 10
799.2940540830014
 20
581.2526884063136
 30
0.0
 10
799.2113477181387
 20
581.5273359539874
 30
0.0
 10
799.1260038884709
 20
581.8026947717334
 30
0.0
 10
799.0833326954261
 20
581.9403718517794
 30
0.0
  0
SPLINE
  5
2E2
330
1F
100
AcDbEntity
  8
0
  6
SLD-Solid
 62
   142
420
    32960
370
     0
100
AcDbSpline
210
0.0
220
0.0
230
1.0
 70
     8
 71
     3
 72
    17
 73
    13
 74
     0
 42
0.00000001
 43
0.00000001
 40
0.0
 40
0.0
 40
0.0
 40
0.0
 40
0.0625702169189186
 40
0.1251279424568645
 40
0.2501349728727793
 40
0.3750873360729475
 40
0.50004577961819
 40
0.6249919778469012
 40
0.7499544397767176
 40
0.8749053120345801
 40
0.9374472680349378
 40
0.9999999999999999
 40
0.9999999999999999
 40
0.9999999999999999
 40
0.9999999999999999
 10
799.9424670259087
 20
582.961725190055
 30
0.0
 10
799.9547369360938
 20
582.9204866804438
 30
0.0
 10
799.979274306926
 20
582.8380178939874
 30
0.0
 10
800.0140645128399
 20
582.6684165796563
 30
0.0
 10
800.0364669414852
 20
582.4509611887391
 30
0.0
 10
800.0160850835165
 20
582.1869873002132
 30
0.0
 10
799.9541476524694
 20
581.9290975677449
 30
0.0
 10
799.8514358506172
 20
581.6848805533264
 30
0.0
 10
799.7094181060453
 20
581.463839511376
 30
0.0
 10
799.564198684847
 20
581.304078417783
 30
0.0
 10
799.4364893721664
 20
581.1915822444613
 30
0.0
 10
799.369103702255
 20
581.140770413616
 30
0.0
 10
799.3354079649157
 20
581.1153623096654
 30
0.0
  0
SPLINE
  5
2E3
330
1F
100
AcDbEntity
  8
0
  6
SLD-Solid
 62
   142
420
    32960
370
     0
100
AcDbSpline
210
0.0
220
0.0
230
1.0
 70
     8
 71
     3
 72
    17
 73
    13
 74
     0
 42
0.00000001
 43
0.00000001
 40
0.0
 40
0.0
 40
0.0
 40
0.0
 40
0.0625643078841345
 40
0.125108284799412
 40
0.2500544378946243
 40
0.3722205946401395
 40
0.4999775367649837
 40
0.6249324855517936
 40
0.7498976924322562
 40
0.8748587485723925
 40
0.9374185882520442
 40
1.0
 40
1.0
 40
1.0
 40
1.0
 10
798.1443668494163
 20
583.8217232483458
 30
0.0
 10
798.1881669320454
 20
583.8387247466736
 30
0.0
 10
798.2757528639787
 20
583.8727222185032
 30
0.0
 10
798.4558882142874
 20
583.9219887258951
 30
0.0
 10
798.6855310588766
 20
583.9469653670286
 30
0.0
 10
798.9617655842914
 20
583.9129808779837
 30
0.0
 10
799.2243048213683
 20
583.818647853686
 30
0.0
 10
799.4668566909603
 20
583.6728989203534
 30
0.0
 10
799.6758028963307
 20
583.4786416459579
 30
0.0
 10
799.8101352203834
 20
583.277036418111
 30
0.0
 10
799.8941752580091
 20
583.101114537049
 30
0.0
 10
799.926367920133
 20
583.0081936450084
 30
0.0
 10
799.9424670259087
 20
582.961725190055
 30
0.0
  0
SPLINE
  5
2E4
330
1F
100
AcDbEntity
  8
0
  6
SLD-Solid
 62
   142
420
    32960
370
     0
100
AcDbSpline
210
0.0
220
0.0
230
1.0
 70
     8
 71
     3
 72
    19
 73
    15
 74
     0
 42
0.00000001
 43
0.00000001
 40
0.0
 40
0.0
 40
0.0
 40
0.0
 40
0.0625636241951511
 40
0.1251094395618542
 40
0.1876542639276366
 40
0.2501954071452469
 40
0.3216525366447062
 40
0.3931172035824066
 40
0.5002367421284852
 40
0.6251150582598782
 40
0.7499809907806572
 40
0.8749164961190362
 40
0.9374501041531719
 40
1.0
 40
1.0
 40
1.0
 40
1.0
 10
797.3113507523356
 20
581.9729384094632
 30
0.0
 10
797.2978926768728
 20
582.0176083732514
 30
0.0
 10
797.2709803568088
 20
582.106935585456
 30
0.0
 10
797.2454475766675
 20
582.246079210766
 30
0.0
 10
797.2299201136162
 20
582.387390451822
 30
0.0
 10
797.2307868573085
 20
582.537161276544
 30
0.0
 10
797.2452486188059
 20
582.693500215157
 30
0.0
 10
797.2873296590839
 20
582.8798685788288
 30
0.0
 10
797.3662168062328
 20
583.0973511361186
 30
0.0
 10
797.5005417679715
 20
583.3316019944905
 30
0.0
 10
797.6849210742213
 20
583.5405681952603
 30
0.0
 10
797.866353659795
 20
583.6785863323308
 30
0.0
 10
798.0226665650773
 20
583.7666069266927
 30
0.0
 10
798.1037965665085
 20
583.8033495463084
 30
0.0
 10
798.1443668494163
 20
583.8217232483458
 30
0.0
  0
SPLINE
  5
2E5
330
1F
100
AcDbEntity
  8
0
  6
SLD-Solid
 62
   142
420
    32960
370
     0
100
AcDbSpline
210
0.0
220
0.0
230
1.0
 70
     8
 71
     3
 72
     9
 73
     5
 74
     0
 42
0.00000001
 43
0.00000001
 40
0.0
 40
0.0
 40
0.0
 40
0.0
 40
0.5000907651095733
 40
1.0
 40
1.0
 40
1.0
 40
1.0
 10
797.4330413428441
 20
581.7199301128733
 30
0.0
 10
797.4087753947867
 20
581.75962703145
 30
0.0
 10
797.3602523070786
 20
581.8390064588383
 30
0.0
 10
797.3276492977727
 20
581.92829982907
 30
0.0
 10
797.3113507523356
 20
581.9729384094632
 30
0.0
  0
LINE
  5
2E6
330
1F
100
AcDbEntity
  8
0
  6
SLD-Solid
 62
   142
420
    32960
370
     0
100
AcDbLine
 10
796.6799953209
 20
581.5950680868
 30
0.0
 11
797.433040945
 21
581.7199298106
 31
0.0
  0
SPLINE
  5
2E7
330
1F
100
AcDbEntity
  8
0
  6
SLD-Solid
 62
   142
420
    32960
370
     0
100
AcDbSpline
210
0.0
220
0.0
230
1.0
 70
     8
 71
     3
 72
     9
 73
     5
 74
     0
 42
0.00000001
 43
0.00000001
 40
0.0
 40
0.0
 40
0.0
 40
0.0
 40
0.5000030761515154
 40
1.0
 40
1.0
 40
1.0
 40
1.0
 10
796.2334242395614
 20
582.950988471289
 30
0.0
 10
796.3094948609872
 20
582.724745948429
 30
0.0
 10
796.4616351678255
 20
582.2722636865171
 30
0.0
 10
796.6072089017613
 20
581.8207990275129
 30
0.0
 10
796.6799953209222
 20
581.5950680867843
 30
0.0
  0
LINE
  5
2E8
330
1F
100
AcDbEntity
  8
0
  6
SLD-Solid
 62
   142
420
    32960
370
     0
100
AcDbLine
 10
795.5610870929
 20
582.667388339
 30
0.0
 11
796.2334242396
 21
582.9509884713
 31
0.0
  0
SPLINE
  5
2E9
330
1F
100
AcDbEntity
  8
0
  6
SLD-Solid
 62
   142
420
    32960
370
     0
100
AcDbSpline
210
0.0
220
0.0
230
1.0
 70
     8
 71
     3
 72
    11
 73
     7
 74
     0
 42
0.00000001
 43
0.00000001
 40
0.0
 40
0.0
 40
0.0
 40
0.0
 40
0.2500092344260267
 40
0.4999993581482144
 40
0.7499898028806384
 40
1.0
 40
1.0
 40
1.0
 40
1.0
 10
796.1945971485902
 20
580.7215382829816
 30
0.0
 10
796.1437431615699
 20
580.8833303461277
 30
0.0
 10
796.0420390748077
 20
581.2069021050354
 30
0.0
 10
795.8850832885743
 20
581.6931927227394
 30
0.0
 10
795.725230471031
 20
582.1799919178285
 30
0.0
 10
795.6158029932113
 20
582.5049185865532
 30
0.0
 10
795.5610870928504
 20
582.6673883389846
 30
0.0
  0
LINE
  5
2EA
330
1F
100
AcDbEntity
  8
0
  6
SLD-Solid
 62
   142
420
    32960
370
     0
100
AcDbLine
 10
36.9986361847
 20
9.5650740879
 30
0.0
 11
36.9986361847
 21
17.7278916332
 31
0.0
  0
LINE
  5
2EB
330
1F
100
AcDbEntity
  8
0
  6
SLD-Solid
 62
   142
420
    32960
370
     0
100
AcDbLine
 10
36.0486361847
 20
8.6097963552
 30
0.0
 11
36.0486361847
 21
9.9211036503
 31
0.0
  0
LINE
  5
2EC
330
1F
100
AcDbEntity
  8
0
  6
SLD-Solid
 62
     7
370
    15
100
AcDbLine
 10
663.6986361847
 20
671.3832308201
 30
0.0
 11
158.6986361847
 21
671.3832308201
 31
0.0
  0
LINE
  5
2ED
330
1F
100
AcDbEntity
  8
0
  6
SLD-Solid
 62
   142
420
    32960
370
     0
100
AcDbLine
 10
668.6986361847
 20
647.6332308201
 30
0.0
 11
668.6986361847
 21
645.8832308201
 31
0.0
  0
LINE
  5
2EE
330
1F
100
AcDbEntity
  8
0
  6
SLD-Solid
 62
   142
420
    32960
370
     0
100
AcDbLine
 10
153.6986361847
 20
645.8832308201
 30
0.0
 11
153.6986361847
 21
647.6332308201
 31
0.0
  0
ARC
  5
2EF
330
1F
100
AcDbEntity
  8
0
  6
SLD-Solid
 62
     7
370
    15
100
AcDbCircle
 10
158.6986361847
 20
666.3832308201
 30
0.0
 40
5.000000000000114
100
AcDbArc
 50
90.0
 51
180.0
  0
ARC
  5
2F0
330
1F
100
AcDbEntity
  8
0
  6
SLD-Solid
 62
     7
370
    15
100
AcDbCircle
 10
663.6986361847
 20
666.3832308201
 30
0.0
 40
5.000000000000114
100
AcDbArc
 50
0.0
 51
90.0
  0
LINE
  5
2F1
330
1F
100
AcDbEntity
  8
0
  6
SLD-Solid
 62
   142
420
    32960
370
     0
100
AcDbLine
 10
668.6986361847
 20
647.6332308201
 30
0.0
 11
668.6986361847
 21
666.3832308201
 31
0.0
  0
LINE
  5
2F2
330
1F
100
AcDbEntity
  8
0
  6
SLD-Solid
 62
   142
420
    32960
370
     0
100
AcDbLine
 10
153.6986361847
 20
666.3832308201
 30
0.0
 11
153.6986361847
 21
647.6332308201
 31
0.0
  0
LINE
  5
2F3
330
1F
100
AcDbEntity
  8
0
  6
SLD-Solid
 62
   142
420
    32960
370
     0
100
AcDbLine
 10
-25.7013638153
 20
481.9832308201
 30
0.0
 11
-25.7013638153
 21
486.9832308201
 31
0.0
  0
LINE
  5
2F4
330
1F
100
AcDbEntity
  8
0
  6
SLD-Solid
 62
   142
420
    32960
370
     0
100
AcDbLine
 10
-25.7013638153
 20
486.9832308201
 30
0.0
 11
-25.7013638153
 21
490.7332308201
 31
0.0
  0
SPLINE
  5
2F5
330
1F
100
AcDbEntity
  8
0
  6
SLD-Solid
 62
   142
420
    32960
370
     0
100
AcDbSpline
210
0.0
220
0.0
230
1.0
 70
     8
 71
     3
 72
    14
 73
    10
 74
     0
 42
0.00000001
 43
0.00000001
 40
0.0
 40
0.0
 40
0.0
 40
0.0
 40
0.25
 40
0.25
 40
0.5
 40
0.5
 40
0.75
 40
0.75
 40
1.0
 40
1.0
 40
1.0
 40
1.0
 10
37.04863618473026
 20
491.9832308201185
 30
0.0
 10
37.31698055722438
 20
491.9832308201186
 30
0.0
 10
37.58521934766662
 20
492.0365868329483
 30
0.0
 10
38.08105509449067
 20
492.2419687239922
 30
0.0
 10
38.30845696067886
 20
492.3939137932022
 30
0.0
 10
38.68795321164653
 20
492.77341004417
 30
0.0
 10
38.83989828085643
 20
493.0008119103582
 30
0.0
 10
39.04528017190029
 20
493.496647657182
 30
0.0
 10
39.0986361847302
 20
493.7648864476242
 30
0.0
 10
39.09863618473025
 20
494.0332308201185
 30
0.0
  0
LINE
  5
2F6
330
1F
100
AcDbEntity
  8
0
  6
SLD-Solid
 62
   142
420
    32960
370
     0
100
AcDbLine
 10
37.0486361847
 20
491.9832308201
 30
0.0
 11
-23.6513638153
 21
491.9832308201
 31
0.0
  0
LINE
  5
2F7
330
1F
100
AcDbEntity
  8
0
  6
SLD-Solid
 62
   142
420
    32960
370
     0
100
AcDbLine
 10
-23.6513638153
 20
491.9832308201
 30
0.0
 11
-23.6513638153
 21
492.7832308201
 31
0.0
  0
LINE
  5
2F8
330
1F
100
AcDbEntity
  8
0
  6
SLD-Solid
 62
   142
420
    32960
370
     0
100
AcDbLine
 10
37.0486361847
 20
491.9832308201
 30
0.0
 11
37.0486361847
 21
492.7832308201
 31
0.0
  0
LINE
  5
2F9
330
1F
100
AcDbEntity
  8
0
  6
SLD-Solid
 62
   142
420
    32960
370
     0
100
AcDbLine
 10
37.0486361847
 20
492.7832308201
 30
0.0
 11
-23.6513638153
 21
492.7832308201
 31
0.0
  0
ARC
  5
2FA
330
1F
100
AcDbEntity
  8
0
  6
SLD-Solid
 62
   142
420
    32960
370
     0
100
AcDbCircle
 10
-23.6513638153
 20
490.7332308201
 30
0.0
 40
2.050000000000239
100
AcDbArc
 50
90.0
 51
180.0
  0
LINE
  5
2FB
330
1F
100
AcDbEntity
  8
0
  6
SLD-Solid
 62
   142
420
    32960
370
     0
100
AcDbLine
 10
-25.7013638153
 20
481.9832308201
 30
0.0
 11
-24.9013638153
 21
481.9832308201
 31
0.0
  0
ARC
  5
2FC
330
1F
100
AcDbEntity
  8
0
  6
SLD-Solid
 62
   142
420
    32960
370
     0
100
AcDbCircle
 10
-23.6513638153
 20
490.7332308201
 30
0.0
 40
1.249999999999972
100
AcDbArc
 50
90.0
 51
180.0
  0
LINE
  5
2FD
330
1F
100
AcDbEntity
  8
0
  6
SLD-Solid
 62
   142
420
    32960
370
     0
100
AcDbLine
 10
-24.9013638153
 20
490.7332308201
 30
0.0
 11
-25.7013638153
 21
490.7332308201
 31
0.0
  0
LINE
  5
2FE
330
1F
100
AcDbEntity
  8
0
  6
SLD-Solid
 62
   142
420
    32960
370
     0
100
AcDbLine
 10
761.2986361848
 20
490.8332308209
 30
0.0
 11
761.2986361848
 21
44.3832308209
 31
0.0
  0
LINE
  5
2FF
330
1F
100
AcDbEntity
  8
0
  6
SLD-Solid
 62
   142
420
    32960
370
     0
100
AcDbLine
 10
47.6486361847
 20
18.0386617456
 30
0.0
 11
47.6486361847
 21
17.4483459416
 31
0.0
  0
LINE
  5
300
330
1F
100
AcDbEntity
  8
0
  6
SLD-Solid
 62
   142
420
    32960
370
     0
100
AcDbLine
 10
47.6486361847
 20
9.3352777491
 30
0.0
 11
47.6486361847
 21
9.3082308201
 31
0.0
  0
LINE
  5
301
330
1F
100
AcDbEntity
  8
0
  6
SLD-Solid
 62
   142
420
    32960
370
     0
100
AcDbLine
 10
47.6486361847
 20
11.6806576084
 30
0.0
 11
47.6486361847
 21
10.5181156986
 31
0.0
  0
LINE
  5
302
330
1F
100
AcDbEntity
  8
0
  6
SLD-Solid
 62
   142
420
    32960
370
     0
100
AcDbLine
 10
47.6486361847
 20
12.0693588146
 30
0.0
 11
47.6486361847
 21
11.6806576084
 31
0.0
  0
LINE
  5
303
330
1F
100
AcDbEntity
  8
0
  6
SLD-Solid
 62
   142
420
    32960
370
     0
100
AcDbLine
 10
47.6486361847
 20
13.0245098496
 30
0.0
 11
47.6486361847
 21
12.0693588146
 31
0.0
  0
LINE
  5
304
330
1F
100
AcDbEntity
  8
0
  6
SLD-Solid
 62
   142
420
    32960
370
     0
100
AcDbLine
 10
47.6486361847
 20
13.4685613458
 30
0.0
 11
47.6486361847
 21
13.0245098496
 31
0.0
  0
LINE
  5
305
330
1F
100
AcDbEntity
  8
0
  6
SLD-Solid
 62
   142
420
    32960
370
     0
100
AcDbLine
 10
47.6486361847
 20
14.9419517906
 30
0.0
 11
47.6486361847
 21
14.9155239786
 31
0.0
  0
LINE
  5
306
330
1F
100
AcDbEntity
  8
0
  6
SLD-Solid
 62
   142
420
    32960
370
     0
100
AcDbLine
 10
47.6486361847
 20
15.8971028256
 30
0.0
 11
47.6486361847
 21
14.9419517906
 31
0.0
  0
LINE
  5
307
330
1F
100
AcDbEntity
  8
0
  6
SLD-Solid
 62
   142
420
    32960
370
     0
100
AcDbLine
 10
47.6486361847
 20
17.4483459416
 30
0.0
 11
47.6486361847
 21
16.2858040318
 31
0.0
  0
LINE
  5
308
330
1F
100
AcDbEntity
  8
0
  6
SLD-Solid
 62
   142
420
    32960
370
     0
100
AcDbLine
 10
47.6486361847
 20
7.8832308201
 30
0.0
 11
47.6486361847
 21
20.0387549521
 31
0.0
  0
LINE
  5
309
330
1F
100
AcDbEntity
  8
0
  6
SLD-Solid
 62
   142
420
    32960
370
     0
100
AcDbLine
 10
30.1986361847
 20
22.6010323286
 30
0.0
 11
30.1986361847
 21
23.1636699302
 31
0.0
  0
LINE
  5
30A
330
1F
100
AcDbEntity
  8
0
  6
SLD-Solid
 62
   142
420
    32960
370
     0
100
AcDbLine
 10
30.1986361847
 20
19.2884863171
 30
0.0
 11
30.1986361847
 21
22.6010323286
 31
0.0
  0
LINE
  5
30B
330
1F
100
AcDbEntity
  8
0
  6
SLD-Solid
 62
     7
370
    15
100
AcDbLine
 10
130.1486361847
 20
683.3832308201
 30
0.0
 11
692.1486361847
 21
683.3832308201
 31
0.0
  0
LINE
  5
30C
330
1F
100
AcDbEntity
  8
0
  6
SLD-Solid
 62
     7
370
    15
100
AcDbLine
 10
692.1486361847
 20
662.1732308201
 30
0.0
 11
692.1486361847
 21
662.1832308201
 31
0.0
  0
LINE
  5
30D
330
1F
100
AcDbEntity
  8
0
  6
SLD-Solid
 62
     7
370
    15
100
AcDbLine
 10
692.1486361847
 20
663.3832308201
 30
0.0
 11
692.1486361847
 21
683.3832308201
 31
0.0
  0
LINE
  5
30E
330
1F
100
AcDbEntity
  8
0
  6
SLD-Solid
 62
     7
370
    15
100
AcDbLine
 10
149.7969676621
 20
661.3832308201
 30
0.0
 11
153.6986361847
 21
661.3832308201
 31
0.0
  0
LINE
  5
30F
330
1F
100
AcDbEntity
  8
0
  6
SLD-Solid
 62
     7
370
    15
100
AcDbLine
 10
668.6986361847
 20
661.3832308201
 30
0.0
 11
672.5931709105
 21
661.3832308201
 31
0.0
  0
LINE
  5
310
330
1F
100
AcDbEntity
  8
0
  6
SLD-Solid
 62
     7
370
    15
100
AcDbLine
 10
130.1486361847
 20
663.3832308201
 30
0.0
 11
130.1486361847
 21
683.3832308201
 31
0.0
  0
ENDSEC
  0
SECTION
  2
OBJECTS
  0
DICTIONARY
  5
C
330
0
100
AcDbDictionary
281
     1
  3
ACAD_GROUP
350
D
  3
ACAD_LAYOUT
350
1A
  3
ACAD_MATERIAL
350
3B
  3
ACAD_MLEADERSTYLE
350
312
  3
ACAD_MLINESTYLE
350
17
  3
ACAD_PLOTSETTINGS
350
19
  3
ACAD_PLOTSTYLENAME
350
E
  3
ACAD_TABLESTYLE
350
311
  3
ACAD_VISUALSTYLE
350
2A
  0
DICTIONARY
  5
D
102
{ACAD_REACTORS
330
C
102
}
330
C
100
AcDbDictionary
281
     1
  0
DICTIONARY
  5
1A
102
{ACAD_REACTORS
330
C
102
}
330
C
100
AcDbDictionary
281
     1
  3
Layout1
350
1E
  3
Layout2
350
26
  3
Model
350
22
  0
DICTIONARY
  5
3B
102
{ACAD_REACTORS
330
C
102
}
330
C
100
AcDbDictionary
281
     1
  3
ByBlock
350
3D
  3
ByLayer
350
3C
  3
Global
350
3E
  0
DICTIONARY
  5
312
102
{ACAD_REACTORS
330
C
102
}
330
C
100
AcDbDictionary
281
     1
  0
DICTIONARY
  5
17
102
{ACAD_REACTORS
330
C
102
}
330
C
100
AcDbDictionary
281
     1
  3
Standard
350
18
  0
DICTIONARY
  5
19
102
{ACAD_REACTORS
330
C
102
}
330
C
100
AcDbDictionary
281
     1
  0
ACDBDICTIONARYWDFLT
  5
E
102
{ACAD_REACTORS
330
C
102
}
330
C
100
AcDbDictionary
281
     1
  3
Normal
350
F
100
AcDbDictionaryWithDefault
340
F
  0
DICTIONARY
  5
311
102
{ACAD_REACTORS
330
C
102
}
330
C
100
AcDbDictionary
281
     1
  0
DICTIONARY
  5
2A
102
{ACAD_REACTORS
330
C
102
}
330
C
100
AcDbDictionary
281
     1
  3
2dWireframe
350
2F
  3
3D Hidden
350
31
  3
3dWireframe
350
30
  3
Basic
350
32
  3
Brighten
350
36
  3
ColorChange
350
3A
  3
Conceptual
350
34
  3
Dim
350
35
  3
Facepattern
350
39
  3
Flat
350
2B
  3
FlatWithEdges
350
2C
  3
Gouraud
350
2D
  3
GouraudWithEdges
350
2E
  3
Linepattern
350
38
  3
Realistic
350
33
  3
Thicken
350
37
  0
LAYOUT
  5
1E
102
{ACAD_REACTORS
330
1A
102
}
330
1A
100
AcDbPlotSettings
  1

  2
none_device
  4

  6

 40
0.0
 41
0.0
 42
0.0
 43
0.0
 44
0.0
 45
0.0
 46
0.0
 47
0.0
 48
0.0
 49
0.0
140
0.0
141
0.0
142
1.0
143
1.0
 70
   688
 72
     0
 73
     0
 74
     5
  7

 75
    16
 76
     0
 77
     2
 78
   300
147
1.0
148
0.0
149
0.0
100
AcDbLayout
  1
Layout1
 70
     1
 71
     1
 10
0.0
 20
0.0
 11
420.0
 21
297.0
 12
0.0
 22
0.0
 32
0.0
 14
1.0000000000E+20
 24
1.0000000000E+20
 34
1.0000000000E+20
 15
-1.0000000000E+20
 25
-1.0000000000E+20
 35
-1.0000000000E+20
146
0.0
 13
0.0
 23
0.0
 33
0.0
 16
1.0
 26
0.0
 36
0.0
 17
0.0
 27
1.0
 37
0.0
 76
     0
330
1B
  0
LAYOUT
  5
26
102
{ACAD_REACTORS
330
1A
102
}
330
1A
100
AcDbPlotSettings
  1

  2
none_device
  4

  6

 40
0.0
 41
0.0
 42
0.0
 43
0.0
 44
0.0
 45
0.0
 46
0.0
 47
0.0
 48
0.0
 49
0.0
140
0.0
141
0.0
142
1.0
143
1.0
 70
   688
 72
     0
 73
     0
 74
     5
  7

 75
    16
 76
     0
 77
     2
 78
   300
147
1.0
148
0.0
149
0.0
100
AcDbLayout
  1
Layout2
 70
     1
 71
     2
 10
0.0
 20
0.0
 11
0.0
 21
0.0
 12
0.0
 22
0.0
 32
0.0
 14
0.0
 24
0.0
 34
0.0
 15
0.0
 25
0.0
 35
0.0
146
0.0
 13
0.0
 23
0.0
 33
0.0
 16
1.0
 26
0.0
 36
0.0
 17
0.0
 27
1.0
 37
0.0
 76
     0
330
23
  0
LAYOUT
  5
22
102
{ACAD_REACTORS
330
1A
102
}
330
1A
100
AcDbPlotSettings
  1

  2
none_device
  4

  6

 40
0.0
 41
0.0
 42
0.0
 43
0.0
 44
0.0
 45
0.0
 46
0.0
 47
0.0
 48
0.0
 49
0.0
140
0.0
141
0.0
142
1.0
143
1.0
 70
  1712
 72
     0
 73
     0
 74
     0
  7

 75
     0
 76
     0
 77
     2
 78
   300
147
1.0
148
0.0
149
0.0
100
AcDbLayout
  1
Model
 70
     1
 71
     0
 10
0.0
 20
0.0
 11
841.0
 21
594.0
 12
0.0
 22
0.0
 32
0.0
 14
0.0
 24
0.0
 34
0.0
 15
841.0
 25
594.0
 35
0.0
146
0.0
 13
0.0
 23
0.0
 33
0.0
 16
1.0
 26
0.0
 36
0.0
 17
0.0
 27
1.0
 37
0.0
 76
     0
330
1F
331
29
  0
MATERIAL
  5
3D
102
{ACAD_REACTORS
330
3B
102
}
330
3B
100
AcDbMaterial
  1
ByBlock
 72
     1
 94
      127
  0
MATERIAL
  5
3C
102
{ACAD_REACTORS
330
3B
102
}
330
3B
100
AcDbMaterial
  1
ByLayer
 72
     1
 94
      127
  0
MATERIAL
  5
3E
102
{ACAD_REACTORS
330
3B
102
}
330
3B
100
AcDbMaterial
  1
Global
 72
     1
 94
      127
  0
MLINESTYLE
  5
18
102
{ACAD_REACTORS
330
17
102
}
330
17
100
AcDbMlineStyle
  2
Standard
 70
     0
  3

 62
   256
 51
90.0
 52
90.0
 71
     2
 49
0.5
 62
   256
  6
BYLAYER
 49
-0.5
 62
   256
  6
BYLAYER
  0
ACDBPLACEHOLDER
  5
F
102
{ACAD_REACTORS
330
E
102
}
330
E
  0
VISUALSTYLE
  5
2F
102
{ACAD_REACTORS
330
2A
102
}
330
2A
100
AcDbVisualStyle
  2
2dWireframe
 70
     4
 71
     0
 72
     2
 73
     0
 90
        0
 40
-0.6
 41
-30.0
 62
     5
 63
     7
421
 16777215
 74
     1
 91
        4
 64
     7
 65
   257
 75
     1
175
     1
 42
1.0
 92
        0
 66
   257
 43
1.0
 76
     1
 77
     6
 78
     2
 67
     7
 79
     5
170
     0
171
     0
290
     0
174
     0
 93
        1
 44
0.0
173
     0
291
     0
 45
0.0
  0
VISUALSTYLE
  5
31
102
{ACAD_REACTORS
330
2A
102
}
330
2A
100
AcDbVisualStyle
  2
3D Hidden
 70
     6
 71
     1
 72
     2
 73
     2
 90
        0
 40
-0.6
 41
-30.0
 62
     5
 63
     7
421
 16777215
 74
     2
 91
        2
 64
     7
 65
   257
 75
     2
175
     1
 42
40.0
 92
        0
 66
   257
 43
1.0
 76
     1
 77
     6
 78
     2
 67
     7
 79
     3
170
     0
171
     0
290
     0
174
     0
 93
        1
 44
0.0
173
     0
291
     0
 45
0.0
  0
VISUALSTYLE
  5
30
102
{ACAD_REACTORS
330
2A
102
}
330
2A
100
AcDbVisualStyle
  2
3dWireframe
 70
     5
 71
     0
 72
     2
 73
     0
 90
        0
 40
-0.6
 41
-30.0
 62
     5
 63
     7
421
 16777215
 74
     1
 91
        4
 64
     7
 65
   257
 75
     1
175
     1
 42
1.0
 92
        0
 66
   257
 43
1.0
 76
     1
 77
     6
 78
     2
 67
     7
 79
     5
170
     0
171
     0
290
     0
174
     0
 93
        1
 44
0.0
173
     0
291
     0
 45
0.0
  0
VISUALSTYLE
  5
32
102
{ACAD_REACTORS
330
2A
102
}
330
2A
100
AcDbVisualStyle
  2
Basic
 70
     7
 71
     1
 72
     0
 73
     1
 90
        0
 40
-0.6
 41
-30.0
 62
     5
 63
     7
421
 16777215
 74
     0
 91
        4
 64
     7
 65
   257
 75
     1
175
     1
 42
1.0
 92
        8
 66
     7
 43
1.0
 76
     1
 77
     6
 78
     2
 67
     7
 79
     5
170
     0
171
     0
290
     0
174
     0
 93
        1
 44
0.0
173
     0
291
     1
 45
0.0
  0
VISUALSTYLE
  5
36
102
{ACAD_REACTORS
330
2A
102
}
330
2A
100
AcDbVisualStyle
  2
Brighten
 70
    12
 71
     2
 72
     2
 73
     0
 90
        0
 40
-0.6
 41
-30.0
 62
     5
 63
     7
421
 16777215
 74
     1
 91
        4
 64
     7
 65
   257
 75
     1
175
     1
 42
1.0
 92
        8
 66
     7
 43
1.0
 76
     1
 77
     6
 78
     2
 67
     7
 79
     5
170
     0
171
     0
290
     0
174
     0
 93
        1
 44
50.0
173
     0
291
     1
 45
0.0
  0
VISUALSTYLE
  5
3A
102
{ACAD_REACTORS
330
2A
102
}
330
2A
100
AcDbVisualStyle
  2
ColorChange
 70
    16
 71
     2
 72
     2
 73
     3
 90
        0
 40
-0.6
 41
-30.0
 62
     5
 63
     8
421
  8421504
 74
     1
 91
        4
 64
     7
 65
   257
 75
     1
175
     1
 42
1.0
 92
        8
 66
     8
424
  8421504
 43
1.0
 76
     1
 77
     6
 78
     2
 67
     7
 79
     5
170
     0
171
     0
290
     0
174
     0
 93
        1
 44
0.0
173
     0
291
     1
 45
0.0
  0
VISUALSTYLE
  5
34
102
{ACAD_REACTORS
330
2A
102
}
330
2A
100
AcDbVisualStyle
  2
Conceptual
 70
     9
 71
     3
 72
     2
 73
     0
 90
        0
 40
-0.6
 41
-30.0
 62
     5
 63
     7
421
 16777215
 74
     2
 91
        2
 64
     7
 65
   257
 75
     1
175
     1
 42
40.0
 92
        8
 66
     7
 43
1.0
 76
     1
 77
     6
 78
     2
 67
     7
 79
     3
170
     0
171
     0
290
     0
174
     0
 93
        1
 44
0.0
173
     0
291
     0
 45
0.0
  0
VISUALSTYLE
  5
35
102
{ACAD_REACTORS
330
2A
102
}
330
2A
100
AcDbVisualStyle
  2
Dim
 70
    11
 71
     2
 72
     2
 73
     0
 90
        0
 40
-0.6
 41
-30.0
 62
     5
 63
     7
421
 16777215
 74
     1
 91
        4
 64
     7
 65
   257
 75
     1
175
     1
 42
1.0
 92
        8
 66
     7
 43
1.0
 76
     1
 77
     6
 78
     2
 67
     7
 79
     5
170
     0
171
     0
290
     0
174
     0
 93
        1
 44
-50.0
173
     0
291
     1
 45
0.0
  0
VISUALSTYLE
  5
39
102
{ACAD_REACTORS
330
2A
102
}
330
2A
100
AcDbVisualStyle
  2
Facepattern
 70
    15
 71
     2
 72
     2
 73
     0
 90
        0
 40
-0.6
 41
-30.0
 62
     5
 63
     7
421
 16777215
 74
     1
 91
        4
 64
     7
 65
   257
 75
     1
175
     1
 42
1.0
 92
        8
 66
     7
 43
1.0
 76
     1
 77
     6
 78
     2
 67
     7
 79
     5
170
     0
171
     0
290
     0
174
     0
 93
        1
 44
0.0
173
     0
291
     1
 45
0.0
  0
VISUALSTYLE
  5
2B
102
{ACAD_REACTORS
330
2A
102
}
330
2A
100
AcDbVisualStyle
  2
Flat
 70
     0
 71
     2
 72
     1
 73
     1
 90
        2
 40
-0.6
 41
30.0
 62
     5
 63
     7
421
 16777215
 74
     0
 91
        4
 64
     7
 65
   257
 75
     1
175
     1
 42
1.0
 92
        8
 66
     7
 43
1.0
 76
     1
 77
     6
 78
     2
 67
     7
 79
     5
170
     0
171
     0
290
     0
174
     0
 93
       13
 44
0.0
173
     0
291
     1
 45
0.0
  0
VISUALSTYLE
  5
2C
102
{ACAD_REACTORS
330
2A
102
}
330
2A
100
AcDbVisualStyle
  2
FlatWithEdges
 70
     1
 71
     2
 72
     1
 73
     1
 90
        2
 40
-0.6
 41
30.0
 62
     5
 63
     7
421
 16777215
 74
     1
 91
        4
 64
     7
 65
   257
 75
     1
175
     1
 42
1.0
 92
        0
 66
   257
 43
1.0
 76
     1
 77
     6
 78
     2
 67
     7
 79
     5
170
     0
171
     0
290
     0
174
     0
 93
       13
 44
0.0
173
     0
291
     1
 45
0.0
  0
VISUALSTYLE
  5
2D
102
{ACAD_REACTORS
330
2A
102
}
330
2A
100
AcDbVisualStyle
  2
Gouraud
 70
     2
 71
     2
 72
     2
 73
     1
 90
        2
 40
-0.6
 41
30.0
 62
     5
 63
     7
421
 16777215
 74
     0
 91
        4
 64
     7
 65
   257
 75
     1
175
     1
 42
1.0
 92
        0
 66
     7
 43
1.0
 76
     1
 77
     6
 78
     2
 67
     7
 79
     5
170
     0
171
     0
290
     0
174
     0
 93
       13
 44
0.0
173
     0
291
     1
 45
0.0
  0
VISUALSTYLE
  5
2E
102
{ACAD_REACTORS
330
2A
102
}
330
2A
100
AcDbVisualStyle
  2
GouraudWithEdges
 70
     3
 71
     2
 72
     2
 73
     1
 90
        2
 40
-0.6
 41
30.0
 62
     5
 63
     7
421
 16777215
 74
     1
 91
        4
 64
     7
 65
   257
 75
     1
175
     1
 42
1.0
 92
        0
 66
   257
 43
1.0
 76
     1
 77
     6
 78
     2
 67
     7
 79
     5
170
     0
171
     0
290
     0
174
     0
 93
       13
 44
0.0
173
     0
291
     1
 45
0.0
  0
VISUALSTYLE
  5
38
102
{ACAD_REACTORS
330
2A
102
}
330
2A
100
AcDbVisualStyle
  2
Linepattern
 70
    14
 71
     2
 72
     2
 73
     0
 90
        0
 40
-0.6
 41
-30.0
 62
     5
 63
     7
421
 16777215
 74
     1
 91
        4
 64
     7
 65
   257
 75
     7
175
     7
 42
1.0
 92
        8
 66
     7
 43
1.0
 76
     1
 77
     6
 78
     2
 67
     7
 79
     5
170
     0
171
     0
290
     0
174
     0
 93
        1
 44
0.0
173
     0
291
     1
 45
0.0
  0
VISUALSTYLE
  5
33
102
{ACAD_REACTORS
330
2A
102
}
330
2A
100
AcDbVisualStyle
  2
Realistic
 70
     8
 71
     2
 72
     2
 73
     0
 90
        0
 40
-0.6
 41
-30.0
 62
     5
 63
     7
421
 16777215
 74
     1
 91
        0
 64
     7
 65
   257
 75
     1
175
     1
 42
1.0
 92
        8
 66
     8
424
  7895160
 43
1.0
 76
     1
 77
     6
 78
     2
 67
     7
 79
     5
170
     0
171
     0
290
     0
174
     0
 93
       13
 44
0.0
173
     0
291
     0
 45
0.0
  0
VISUALSTYLE
  5
37
102
{ACAD_REACTORS
330
2A
102
}
330
2A
100
AcDbVisualStyle
  2
Thicken
 70
    13
 71
     2
 72
     2
 73
     0
 90
        0
 40
-0.6
 41
-30.0
 62
     5
 63
     7
421
 16777215
 74
     1
 91
        4
 64
     7
 65
   257
 75
     1
175
     1
 42
1.0
 92
       12
 66
     7
 43
1.0
 76
     1
 77
     6
 78
     2
 67
     7
 79
     5
170
     0
171
     0
290
     0
174
     0
 93
        1
 44
0.0
173
     0
291
     1
 45
0.0
  0
ENDSEC
  0
EOF
