  0
SECTION
  2
HEADER
  9
$LIMMIN
 10
0.000000
 20
0.000000
  9
$LIMMAX
 10
840.896415
 20
594.603558
  9
$EXTMIN
 10
0.000000
 20
0.000000
  9
$EXTMAX
 10
420.448208
 20
297.301779
  9
$ANGBASE
 50
0.0
  9
$ANGDIR
 70
0
  9
$DIMRND
 40
0.100000
  9
$DIMSE1
 70
0
  9
$DIMSE2
 70
0
  9
$DIMTXT
 40
3.500000
  9
$LTSCALE
 40
1.000000
  9
$LUPREC
 70
0
  9
$AUPREC
 70
0
  9
$PDMODE
 70
2
  9
$PDSIZE
 40
2.102241
  0
ENDSEC
  0
SECTION
  2
TABLES
  0
TABLE
  2
VPORT
  70
1
  0
VPORT
  2
*ACTIVE
 70
0
  10
0.0
 20
0.0
 11
1.0
 21
1.0
 12
594.0
 22
420.0
 13
0.0
 23
0.0
 14
10.0
 24
10.0
 15
10.0
 25
10.0
 16
0.0
 26
0.0
 36
1.0
 17
594.0
 27
420.0
 37
100.0
 40
1000.0
 41
1.0
 42
50.0
 43
0.0
 44
0.0
 50
0.0
 51
0.0
 71
0
 72
2000
 73
1
 74
3
 75
0
 76
0
 77
0
 78
1
  0
ENDTAB
  0
TABLE
  2
LTYPE
 70
6
  0
LTYPE
  2
CONTINUOUS
 70
0
  3
Solid line
 72
65
 73
0
 40
0.0
  0
LTYPE
  2
DASHED
 70
0
  3
Dashed line
 72
65
 73
2
 40
6.000000
 49
3.000000
 49
-3.000000
  0
LTYPE
  2
CENTER
 70
0
  3
Chain line
 72
65
 73
4
 40
24.000000
 49
15.000000
 49
-3.000000
 49
3.000000
 49
-3.000000
  0
LTYPE
  2
RANDOM
 70
0
  3
Random line
 72
65
 73
4
 40
22.500000
 49
6.000000
 49
-3.000000
 49
4.500000
 49
-9.000000
  0
LTYPE
  2
DD_CHAIN67372168
  3
DD_CHAIN67372168
 70
0
 72
65
 73
6
 40
12.000000
 49
6.000000
 49
-1.200000
 49
1.200000
 49
-1.200000
 49
1.200000
 49
-1.200000
  0
LTYPE
  2
CHAIN_2_134744198
  3
CHAIN_2_134744198
 70
0
 72
65
 73
4
 40
19.200000
 49
12.000000
 49
-2.400000
 49
2.400000
 49
-2.400000
  0
ENDTAB
  0
TABLE
  2
STYLE
 70
9
  0
STYLE
  2
STANDARD
 40
0
 41
1.0
 50
0.0
 71
0
 42
0
  3
simplex
  4

 70
0
  0
ENDTAB
  0
TABLE
  2
LAYER
 70
2
  0
LAYER
  2
0
 70
0
 62
7
  6
CONTINUOUS
  0
LAYER
  2
0
 62
1
  6
CONTINUOUS
 70
0
  0
ENDTAB
  0
ENDSEC
  0
SECTION
  2
BLOCKS
  0
ENDSEC
  0
SECTION
  2
ENTITIES
  0
LINE
  8
0
  6
CONTINUOUS
 62
1
 10
214.069194
 20
182.103989
 11
214.069102
 21
182.103998
  0
LINE
  8
0
  6
CONTINUOUS
 62
1
 10
214.048195
 20
182.105386
 11
213.999397
 21
182.108629
  0
LINE
  8
0
  6
CONTINUOUS
 62
1
 10
213.904555
 20
182.114929
 11
213.857964
 21
182.118026
  0
LINE
  8
0
  6
CONTINUOUS
 62
1
 10
193.398467
 20
185.826457
 11
193.398467
 21
185.901457
  0
LINE
  8
0
  6
CONTINUOUS
 62
1
 10
184.048467
 20
185.901457
 11
184.048467
 21
185.826457
  0
LINE
  8
0
  6
CONTINUOUS
 62
1
 10
193.398467
 20
185.901457
 11
193.298467
 21
186.001456
  0
LINE
  8
0
  6
CONTINUOUS
 62
1
 10
184.148467
 20
186.001456
 11
184.048467
 21
185.901457
  0
LINE
  8
0
  6
CONTINUOUS
 62
1
 10
206.648466
 20
185.901457
 11
206.548468
 21
186.001456
  0
LINE
  8
0
  6
CONTINUOUS
 62
1
 10
197.398467
 20
186.001456
 11
197.298467
 21
185.901457
  0
LINE
  8
0
  6
CONTINUOUS
 62
1
 10
206.648466
 20
185.826457
 11
206.648466
 21
185.901457
  0
LINE
  8
0
  6
CONTINUOUS
 62
1
 10
197.298467
 20
185.901457
 11
197.298467
 21
185.826457
  0
LINE
  8
0
  6
CONTINUOUS
 62
1
 10
197.068496
 20
185.417113
 11
197.087987
 21
185.401458
  0
LINE
  8
0
  6
CONTINUOUS
 62
1
 10
206.858948
 20
185.401458
 11
206.878437
 21
185.417113
  0
LINE
  8
0
  6
CONTINUOUS
 62
1
 10
206.878437
 20
185.417113
 11
206.553358
 21
185.821787
  0
LINE
  8
0
  6
CONTINUOUS
 62
1
 10
197.393575
 20
185.821787
 11
197.068496
 21
185.417113
  0
ARC
  8
0
  6
CONTINUOUS
 62
1
 10
206.543614
 20
185.813957
 40
0.012500
 50
38.775449
 51
90.000000
  0
ARC
  8
0
  6
CONTINUOUS
 62
1
 10
197.403320
 20
185.813957
 40
0.012500
 50
90.000000
 51
141.224551
  0
LINE
  8
0
  6
CONTINUOUS
 62
1
 10
183.818496
 20
185.417113
 11
183.837986
 21
185.401458
  0
LINE
  8
0
  6
CONTINUOUS
 62
1
 10
193.608947
 20
185.401458
 11
193.628438
 21
185.417113
  0
LINE
  8
0
  6
CONTINUOUS
 62
1
 10
193.628438
 20
185.417113
 11
193.303359
 21
185.821787
  0
LINE
  8
0
  6
CONTINUOUS
 62
1
 10
184.143576
 20
185.821787
 11
183.818496
 21
185.417113
  0
ARC
  8
0
  6
CONTINUOUS
 62
1
 10
193.293614
 20
185.813957
 40
0.012500
 50
38.775449
 51
90.000000
  0
ARC
  8
0
  6
CONTINUOUS
 62
1
 10
184.153320
 20
185.813957
 40
0.012500
 50
90.000000
 51
141.224551
  0
LINE
  8
0
  6
CONTINUOUS
 62
1
 10
173.450342
 20
180.985594
 11
173.450966
 21
180.985594
  0
LINE
  8
0
  6
CONTINUOUS
 62
1
 10
173.455967
 20
183.313337
 11
173.450966
 21
183.313337
  0
LINE
  8
0
  6
CONTINUOUS
 62
1
 10
177.085968
 20
173.543957
 11
177.080967
 21
173.543957
  0
LINE
  8
0
  6
CONTINUOUS
 62
1
 10
177.080967
 20
172.368124
 11
177.085968
 21
172.368124
  0
LINE
  8
0
  6
CONTINUOUS
 62
1
 10
177.085968
 20
172.293958
 11
177.080967
 21
172.293958
  0
LINE
  8
0
  6
CONTINUOUS
 62
1
 10
177.080967
 20
171.118124
 11
177.085968
 21
171.118124
  0
ARC
  8
0
  6
CONTINUOUS
 62
1
 10
182.335874
 20
149.144572
 40
0.075000
 50
90.000000
 51
180.000000
  0
ARC
  8
0
  6
CONTINUOUS
 62
1
 10
178.995874
 20
149.144572
 40
0.075000
 50
0.000000
 51
90.000000
  0
LINE
  8
0
  6
CONTINUOUS
 62
1
 10
182.260873
 20
144.821200
 11
182.260873
 21
149.144572
  0
LINE
  8
0
  6
CONTINUOUS
 62
1
 10
179.070874
 20
149.144572
 11
179.070874
 21
144.821200
  0
ARC
  8
0
  6
CONTINUOUS
 62
1
 10
182.025874
 20
144.821200
 40
0.235000
 50
350.540298
 51
0.000000
  0
ARC
  8
0
  6
CONTINUOUS
 62
1
 10
179.305874
 20
144.821200
 40
0.235000
 50
180.000000
 51
189.459702
  0
LINE
  8
0
  6
CONTINUOUS
 62
1
 10
179.074069
 20
144.782577
 11
179.117891
 21
144.519572
  0
LINE
  8
0
  6
CONTINUOUS
 62
1
 10
182.213856
 20
144.519572
 11
182.257678
 21
144.782577
  0
ARC
  8
0
  6
CONTINUOUS
 62
1
 10
211.810874
 20
149.144572
 40
0.075000
 50
90.000000
 51
180.000000
  0
ARC
  8
0
  6
CONTINUOUS
 62
1
 10
208.470874
 20
149.144572
 40
0.075000
 50
0.000000
 51
90.000000
  0
LINE
  8
0
  6
CONTINUOUS
 62
1
 10
211.735873
 20
144.821200
 11
211.735873
 21
149.144572
  0
LINE
  8
0
  6
CONTINUOUS
 62
1
 10
208.545874
 20
149.144572
 11
208.545874
 21
144.821200
  0
ARC
  8
0
  6
CONTINUOUS
 62
1
 10
211.500874
 20
144.821200
 40
0.235000
 50
350.540298
 51
0.000000
  0
ARC
  8
0
  6
CONTINUOUS
 62
1
 10
208.780874
 20
144.821200
 40
0.235000
 50
180.000000
 51
189.459702
  0
LINE
  8
0
  6
CONTINUOUS
 62
1
 10
208.549069
 20
144.782577
 11
208.592890
 21
144.519572
  0
LINE
  8
0
  6
CONTINUOUS
 62
1
 10
211.688856
 20
144.519572
 11
211.732678
 21
144.782577
  0
ARC
  8
0
  6
CONTINUOUS
 62
1
 10
211.465874
 20
140.919572
 40
0.100000
 50
270.000000
 51
0.000000
  0
ARC
  8
0
  6
CONTINUOUS
 62
1
 10
208.815874
 20
140.919572
 40
0.100000
 50
180.000000
 51
270.000000
  0
LINE
  8
0
  6
CONTINUOUS
 62
1
 10
211.565873
 20
140.919572
 11
211.565873
 21
141.119572
  0
LINE
  8
0
  6
CONTINUOUS
 62
1
 10
208.715874
 20
141.119572
 11
208.715874
 21
140.919572
  0
ARC
  8
0
  6
CONTINUOUS
 62
1
 10
181.990874
 20
140.919572
 40
0.100000
 50
270.000000
 51
0.000000
  0
ARC
  8
0
  6
CONTINUOUS
 62
1
 10
179.340874
 20
140.919572
 40
0.100000
 50
180.000000
 51
270.000000
  0
LINE
  8
0
  6
CONTINUOUS
 62
1
 10
182.090874
 20
140.919572
 11
182.090874
 21
141.119572
  0
LINE
  8
0
  6
CONTINUOUS
 62
1
 10
179.240874
 20
141.119572
 11
179.240874
 21
140.919572
  0
LINE
  8
0
  6
CONTINUOUS
 62
1
 10
211.555873
 20
141.119572
 11
211.555873
 21
144.519572
  0
LINE
  8
0
  6
CONTINUOUS
 62
1
 10
208.725873
 20
144.519572
 11
208.725873
 21
141.119572
  0
LINE
  8
0
  6
CONTINUOUS
 62
1
 10
182.080873
 20
141.119572
 11
182.080873
 21
144.519572
  0
LINE
  8
0
  6
CONTINUOUS
 62
1
 10
179.250874
 20
144.519572
 11
179.250874
 21
141.119572
  0
LINE
  8
0
  6
CONTINUOUS
 62
1
 10
177.033466
 20
180.376458
 11
177.090967
 21
180.376458
  0
LINE
  8
0
  6
CONTINUOUS
 62
1
 10
177.090967
 20
181.626457
 11
176.890967
 21
181.626457
  0
LINE
  8
0
  6
CONTINUOUS
 62
1
 10
174.515967
 20
175.651458
 11
174.515967
 21
175.041458
  0
LINE
  8
0
  6
CONTINUOUS
 62
1
 10
175.765968
 20
175.041458
 11
175.765968
 21
175.651458
  0
LINE
  8
0
  6
CONTINUOUS
 62
1
 10
174.515967
 20
175.041458
 11
174.565967
 21
174.991456
  0
LINE
  8
0
  6
CONTINUOUS
 62
1
 10
175.715967
 20
174.991456
 11
175.765968
 21
175.041458
  0
LINE
  8
0
  6
CONTINUOUS
 62
1
 10
214.260900
 20
180.178523
 11
214.335448
 21
180.233064
  0
LINE
  8
0
  6
CONTINUOUS
 62
1
 10
214.125125
 20
180.920002
 11
214.019867
 21
180.920348
  0
LINE
  8
0
  6
CONTINUOUS
 62
1
 10
215.329992
 20
181.974486
 11
215.328645
 21
181.974650
  0
LINE
  8
0
  6
CONTINUOUS
 62
1
 10
214.901188
 20
179.170490
 11
215.023034
 21
179.272011
  0
LINE
  8
0
  6
CONTINUOUS
 62
1
 10
214.122667
 20
180.927569
 11
214.100918
 21
180.920080
  0
LINE
  8
0
  6
CONTINUOUS
 62
1
 10
214.737642
 20
179.034871
 11
215.151367
 21
179.379592
  0
LINE
  8
0
  6
CONTINUOUS
 62
1
 10
213.904943
 20
182.114402
 11
213.733337
 21
182.125804
  0
LINE
  8
0
  6
CONTINUOUS
 62
1
 10
214.270668
 20
182.090101
 11
214.139343
 21
182.098827
  0
LINE
  8
0
  6
CONTINUOUS
 62
1
 10
214.524749
 20
182.062376
 11
214.270668
 21
182.090101
  0
LINE
  8
0
  6
CONTINUOUS
 62
1
 10
215.151367
 20
179.379592
 11
215.939427
 21
180.094856
  0
ARC
  8
0
  6
CONTINUOUS
 62
1
 10
215.905822
 20
180.131879
 40
0.050000
 50
312.227745
 51
18.000000
  0
LINE
  8
0
  6
CONTINUOUS
 62
1
 10
214.161966
 20
180.483011
 11
214.257612
 21
180.512253
  0
LINE
  8
0
  6
CONTINUOUS
 62
1
 10
214.251517
 20
180.207402
 11
214.347162
 21
180.236644
  0
LINE
  8
0
  6
CONTINUOUS
 62
1
 10
213.999397
 20
182.108629
 11
213.904555
 21
182.114929
  0
LINE
  8
0
  6
CONTINUOUS
 62
1
 10
214.139520
 20
182.099319
 11
214.088753
 21
182.102689
  0
LINE
  8
0
  6
CONTINUOUS
 62
1
 10
214.013346
 20
182.107198
 11
213.999364
 21
182.108128
  0
LINE
  8
0
  6
CONTINUOUS
 62
1
 10
215.345967
 20
176.001457
 11
215.320967
 21
176.026458
  0
LINE
  8
0
  6
CONTINUOUS
 62
1
 10
214.520967
 20
176.026458
 11
214.495968
 21
176.001457
  0
LINE
  8
0
  6
CONTINUOUS
 62
1
 10
215.345967
 20
175.926456
 11
215.345967
 21
176.001457
  0
LINE
  8
0
  6
CONTINUOUS
 62
1
 10
214.495968
 20
176.001457
 11
214.495968
 21
175.926456
  0
LINE
  8
0
  6
CONTINUOUS
 62
1
 10
214.495968
 20
175.926456
 11
214.520967
 21
175.901458
  0
LINE
  8
0
  6
CONTINUOUS
 62
1
 10
215.320967
 20
175.901458
 11
215.345967
 21
175.926456
  0
LINE
  8
0
  6
CONTINUOUS
 62
1
 10
214.495968
 20
149.601457
 11
214.520967
 21
149.576457
  0
LINE
  8
0
  6
CONTINUOUS
 62
1
 10
215.320967
 20
149.576457
 11
215.345967
 21
149.601457
  0
LINE
  8
0
  6
CONTINUOUS
 62
1
 10
214.495968
 20
149.676457
 11
214.495968
 21
149.601457
  0
LINE
  8
0
  6
CONTINUOUS
 62
1
 10
215.345967
 20
149.601457
 11
215.345967
 21
149.676457
  0
LINE
  8
0
  6
CONTINUOUS
 62
1
 10
215.345967
 20
149.676457
 11
215.320967
 21
149.701457
  0
LINE
  8
0
  6
CONTINUOUS
 62
1
 10
214.520967
 20
149.701457
 11
214.495968
 21
149.676457
  0
LINE
  8
0
  6
CONTINUOUS
 62
1
 10
215.421026
 20
172.672770
 11
215.631219
 21
172.672796
  0
LINE
  8
0
  6
CONTINUOUS
 62
1
 10
215.631219
 20
172.672796
 11
216.403660
 21
172.677855
  0
LINE
  8
0
  6
CONTINUOUS
 62
1
 10
216.403660
 20
172.677855
 11
216.880386
 21
172.674142
  0
LINE
  8
0
  6
CONTINUOUS
 62
1
 10
216.880386
 20
172.674142
 11
217.150168
 21
172.664474
  0
ARC
  8
0
  6
CONTINUOUS
 62
1
 10
216.007728
 20
233.911123
 40
59.784431
 50
269.437655
 51
271.094753
  0
LINE
  8
0
  6
CONTINUOUS
 62
1
 10
217.227169
 20
172.673784
 11
217.226361
 21
172.673728
  0
LINE
  8
0
  6
CONTINUOUS
 62
1
 10
217.226361
 20
172.673728
 11
217.236035
 21
172.673503
  0
LINE
  8
0
  6
CONTINUOUS
 62
1
 10
217.236035
 20
172.673503
 11
217.262124
 21
172.672527
  0
LINE
  8
0
  6
CONTINUOUS
 62
1
 10
217.262124
 20
172.672527
 11
217.287056
 21
172.672056
  0
LINE
  8
0
  6
CONTINUOUS
 62
1
 10
217.287056
 20
172.672056
 11
217.300047
 21
172.672048
  0
LINE
  8
0
  6
CONTINUOUS
 62
1
 10
217.300047
 20
172.672048
 11
217.311172
 21
172.672045
  0
LINE
  8
0
  6
CONTINUOUS
 62
1
 10
217.311172
 20
172.672045
 11
217.452164
 21
172.672016
  0
LINE
  8
0
  6
CONTINUOUS
 62
1
 10
217.452164
 20
172.672016
 11
217.577447
 21
172.671992
  0
LINE
  8
0
  6
CONTINUOUS
 62
1
 10
217.577447
 20
172.671992
 11
217.687004
 21
172.671975
  0
LINE
  8
0
  6
CONTINUOUS
 62
1
 10
217.687004
 20
172.671975
 11
217.780839
 21
172.671963
  0
LINE
  8
0
  6
CONTINUOUS
 62
1
 10
217.780839
 20
172.671963
 11
217.858951
 21
172.671960
  0
LINE
  8
0
  6
CONTINUOUS
 62
1
 10
217.858951
 20
172.671960
 11
217.867856
 21
172.671960
  0
LINE
  8
0
  6
CONTINUOUS
 62
1
 10
217.867856
 20
172.671960
 11
217.876809
 21
172.672038
  0
LINE
  8
0
  6
CONTINUOUS
 62
1
 10
217.876809
 20
172.672038
 11
217.876043
 21
172.672031
  0
LINE
  8
0
  6
CONTINUOUS
 62
1
 10
217.885851
 20
174.128376
 11
217.886721
 21
174.128311
  0
LINE
  8
0
  6
CONTINUOUS
 62
1
 10
217.886721
 20
174.128311
 11
217.876022
 21
174.129290
  0
LINE
  8
0
  6
CONTINUOUS
 62
1
 10
217.876022
 20
174.129290
 11
217.849674
 21
174.130784
  0
LINE
  8
0
  6
CONTINUOUS
 62
1
 10
217.849674
 20
174.130784
 11
217.838972
 21
174.130951
  0
LINE
  8
0
  6
CONTINUOUS
 62
1
 10
217.838972
 20
174.130951
 11
217.835661
 21
174.130954
  0
LINE
  8
0
  6
CONTINUOUS
 62
1
 10
217.835661
 20
174.130954
 11
217.833524
 21
174.130954
  0
LINE
  8
0
  6
CONTINUOUS
 62
1
 10
217.833524
 20
174.130954
 11
217.749872
 21
174.130948
  0
LINE
  8
0
  6
CONTINUOUS
 62
1
 10
217.749872
 20
174.130948
 11
217.650475
 21
174.130933
  0
LINE
  8
0
  6
CONTINUOUS
 62
1
 10
217.650475
 20
174.130933
 11
217.535357
 21
174.130914
  0
LINE
  8
0
  6
CONTINUOUS
 62
1
 10
217.535357
 20
174.130914
 11
217.404573
 21
174.130888
  0
LINE
  8
0
  6
CONTINUOUS
 62
1
 10
217.404573
 20
174.130888
 11
217.258062
 21
174.130856
  0
LINE
  8
0
  6
CONTINUOUS
 62
1
 10
217.258062
 20
174.130856
 11
217.208492
 21
174.130699
  0
LINE
  8
0
  6
CONTINUOUS
 62
1
 10
217.208492
 20
174.130699
 11
217.204406
 21
174.130623
  0
LINE
  8
0
  6
CONTINUOUS
 62
1
 10
217.204406
 20
174.130623
 11
217.215063
 21
174.130304
  0
LINE
  8
0
  6
CONTINUOUS
 62
1
 10
217.215063
 20
174.130304
 11
217.241757
 21
174.127342
  0
LINE
  8
0
  6
CONTINUOUS
 62
1
 10
217.241757
 20
174.127342
 11
217.258899
 21
174.123830
  0
LINE
  8
0
  6
CONTINUOUS
 62
1
 10
217.258899
 20
174.123830
 11
217.264892
 21
174.122203
  0
LINE
  8
0
  6
CONTINUOUS
 62
1
 10
217.420779
 20
172.735621
 11
217.419590
 21
172.735897
  0
ARC
  8
0
  6
CONTINUOUS
 62
1
 10
217.328471
 20
191.727362
 40
17.596905
 50
269.434387
 51
271.788741
  0
LINE
  8
0
  6
CONTINUOUS
 62
1
 10
216.945212
 20
174.131273
 11
216.256258
 21
174.131283
  0
LINE
  8
0
  6
CONTINUOUS
 62
1
 10
216.256258
 20
174.131283
 11
215.421030
 21
174.131294
  0
LINE
  8
0
  6
CONTINUOUS
 62
1
 10
215.420962
 20
172.671621
 11
216.606741
 21
172.671636
  0
LINE
  8
0
  6
CONTINUOUS
 62
1
 10
216.606741
 20
172.671636
 11
216.952582
 21
172.671554
  0
LINE
  8
0
  6
CONTINUOUS
 62
1
 10
217.146845
 20
172.671509
 11
217.473476
 21
172.671431
  0
LINE
  8
0
  6
CONTINUOUS
 62
1
 10
217.473476
 20
172.671431
 11
217.884152
 21
172.663631
  0
LINE
  8
0
  6
CONTINUOUS
 62
1
 10
217.884152
 20
172.663631
 11
217.888440
 21
172.663489
  0
ARC
  8
0
  6
CONTINUOUS
 62
1
 10
217.892623
 20
173.794032
 40
0.345079
 50
12.440445
 51
93.164177
  0
ARC
  8
0
  6
CONTINUOUS
 62
1
 10
217.892622
 20
173.008882
 40
0.345080
 50
266.835950
 51
347.559733
  0
ARC
  8
0
  6
CONTINUOUS
 62
1
 10
215.967959
 20
173.401457
 40
2.312500
 50
348.511185
 51
11.494566
  0
LINE
  8
0
  6
CONTINUOUS
 62
1
 10
215.320967
 20
149.451457
 11
215.320967
 21
149.576457
  0
LINE
  8
0
  6
CONTINUOUS
 62
1
 10
215.320967
 20
176.051456
 11
215.320967
 21
176.176456
  0
LINE
  8
0
  6
CONTINUOUS
 62
1
 10
214.670967
 20
176.051456
 11
214.670967
 21
176.026458
  0
LINE
  8
0
  6
CONTINUOUS
 62
1
 10
215.170966
 20
176.026458
 11
215.170966
 21
176.051456
  0
LINE
  8
0
  6
CONTINUOUS
 62
1
 10
214.725967
 20
176.201457
 11
214.725967
 21
176.176456
  0
LINE
  8
0
  6
CONTINUOUS
 62
1
 10
215.115968
 20
176.176456
 11
215.115968
 21
176.201457
  0
LINE
  8
0
  6
CONTINUOUS
 62
1
 10
215.115968
 20
149.426457
 11
215.115968
 21
149.451457
  0
LINE
  8
0
  6
CONTINUOUS
 62
1
 10
214.725967
 20
149.451457
 11
214.725967
 21
149.426457
  0
LINE
  8
0
  6
CONTINUOUS
 62
1
 10
214.685966
 20
176.201457
 11
214.685966
 21
176.176456
  0
LINE
  8
0
  6
CONTINUOUS
 62
1
 10
176.740967
 20
178.251457
 11
177.090967
 21
178.251457
  0
LINE
  8
0
  6
CONTINUOUS
 62
1
 10
177.090967
 20
178.751457
 11
177.033466
 21
178.751457
  0
LINE
  8
0
  6
CONTINUOUS
 62
1
 10
176.740967
 20
182.751456
 11
177.090967
 21
182.751456
  0
LINE
  8
0
  6
CONTINUOUS
 62
1
 10
177.090967
 20
183.251456
 11
176.740967
 21
183.251456
  0
ARC
  8
0
  6
CONTINUOUS
 62
1
 10
176.753467
 20
179.028957
 40
0.012500
 50
180.000000
 51
270.000000
  0
ARC
  8
0
  6
CONTINUOUS
 62
1
 10
176.753467
 20
179.373957
 40
0.012500
 50
90.000000
 51
180.000000
  0
LINE
  8
0
  6
CONTINUOUS
 62
1
 10
176.753468
 20
179.016456
 11
176.778467
 21
179.016456
  0
LINE
  8
0
  6
CONTINUOUS
 62
1
 10
176.778467
 20
179.386458
 11
176.753468
 21
179.386458
  0
ARC
  8
0
  6
CONTINUOUS
 62
1
 10
176.778467
 20
179.028957
 40
0.012500
 50
270.000000
 51
0.000000
  0
ARC
  8
0
  6
CONTINUOUS
 62
1
 10
176.778467
 20
179.373957
 40
0.012500
 50
0.000000
 51
90.000000
  0
ARC
  8
0
  6
CONTINUOUS
 62
1
 10
176.803467
 20
179.033957
 40
0.012500
 50
90.000000
 51
180.000000
  0
ARC
  8
0
  6
CONTINUOUS
 62
1
 10
176.803467
 20
179.368957
 40
0.012500
 50
180.000000
 51
270.000000
  0
LINE
  8
0
  6
CONTINUOUS
 62
1
 10
176.803467
 20
179.046458
 11
177.010967
 21
179.046458
  0
LINE
  8
0
  6
CONTINUOUS
 62
1
 10
177.010967
 20
179.356456
 11
176.803467
 21
179.356456
  0
LINE
  8
0
  6
CONTINUOUS
 62
1
 10
177.010967
 20
179.046458
 11
177.040968
 21
179.058957
  0
LINE
  8
0
  6
CONTINUOUS
 62
1
 10
177.040968
 20
179.343957
 11
177.010967
 21
179.356456
  0
ARC
  8
0
  6
CONTINUOUS
 62
1
 10
176.778467
 20
180.158957
 40
0.012500
 50
270.000000
 51
0.000000
  0
ARC
  8
0
  6
CONTINUOUS
 62
1
 10
176.778467
 20
180.443957
 40
0.012500
 50
0.000000
 51
90.000000
  0
LINE
  8
0
  6
CONTINUOUS
 62
1
 10
176.753468
 20
180.146456
 11
176.778467
 21
180.146456
  0
LINE
  8
0
  6
CONTINUOUS
 62
1
 10
176.778467
 20
180.456457
 11
176.753468
 21
180.456457
  0
ARC
  8
0
  6
CONTINUOUS
 62
1
 10
176.753467
 20
180.158957
 40
0.012500
 50
180.000000
 51
270.000000
  0
ARC
  8
0
  6
CONTINUOUS
 62
1
 10
176.753467
 20
180.443957
 40
0.012500
 50
90.000000
 51
180.000000
  0
ARC
  8
0
  6
CONTINUOUS
 62
1
 10
176.803467
 20
180.168957
 40
0.012500
 50
90.000000
 51
180.000000
  0
ARC
  8
0
  6
CONTINUOUS
 62
1
 10
176.803467
 20
180.433957
 40
0.012500
 50
180.000000
 51
270.000000
  0
LINE
  8
0
  6
CONTINUOUS
 62
1
 10
176.803467
 20
180.181456
 11
177.003467
 21
180.181456
  0
LINE
  8
0
  6
CONTINUOUS
 62
1
 10
177.003467
 20
180.421457
 11
176.803467
 21
180.421457
  0
LINE
  8
0
  6
CONTINUOUS
 62
1
 10
177.003467
 20
180.181456
 11
177.033466
 21
180.193958
  0
LINE
  8
0
  6
CONTINUOUS
 62
1
 10
177.033466
 20
180.408958
 11
177.003467
 21
180.421457
  0
ARC
  8
0
  6
CONTINUOUS
 62
1
 10
176.753467
 20
181.108957
 40
0.012500
 50
180.000000
 51
270.000000
  0
ARC
  8
0
  6
CONTINUOUS
 62
1
 10
176.753467
 20
181.393957
 40
0.012500
 50
90.000000
 51
180.000000
  0
ARC
  8
0
  6
CONTINUOUS
 62
1
 10
176.778467
 20
181.108957
 40
0.012500
 50
270.000000
 51
0.000000
  0
ARC
  8
0
  6
CONTINUOUS
 62
1
 10
176.778467
 20
181.393957
 40
0.012500
 50
0.000000
 51
90.000000
  0
LINE
  8
0
  6
CONTINUOUS
 62
1
 10
176.753468
 20
181.096456
 11
176.778467
 21
181.096456
  0
LINE
  8
0
  6
CONTINUOUS
 62
1
 10
176.778467
 20
181.406456
 11
176.753468
 21
181.406456
  0
ARC
  8
0
  6
CONTINUOUS
 62
1
 10
176.803467
 20
181.118957
 40
0.012500
 50
90.000000
 51
180.000000
  0
ARC
  8
0
  6
CONTINUOUS
 62
1
 10
176.803467
 20
181.383957
 40
0.012500
 50
180.000000
 51
270.000000
  0
LINE
  8
0
  6
CONTINUOUS
 62
1
 10
176.803467
 20
181.131458
 11
177.003467
 21
181.131458
  0
LINE
  8
0
  6
CONTINUOUS
 62
1
 10
177.003467
 20
181.371457
 11
176.803467
 21
181.371457
  0
LINE
  8
0
  6
CONTINUOUS
 62
1
 10
177.003467
 20
181.131458
 11
177.033466
 21
181.143958
  0
LINE
  8
0
  6
CONTINUOUS
 62
1
 10
177.033466
 20
181.358957
 11
177.003467
 21
181.371457
  0
ARC
  8
0
  6
CONTINUOUS
 62
1
 10
176.778467
 20
178.608957
 40
0.012500
 50
270.000000
 51
0.000000
  0
ARC
  8
0
  6
CONTINUOUS
 62
1
 10
176.778467
 20
178.893957
 40
0.012500
 50
0.000000
 51
90.000000
  0
LINE
  8
0
  6
CONTINUOUS
 62
1
 10
176.753468
 20
178.596458
 11
176.778467
 21
178.596458
  0
LINE
  8
0
  6
CONTINUOUS
 62
1
 10
176.778467
 20
178.906456
 11
176.753468
 21
178.906456
  0
ARC
  8
0
  6
CONTINUOUS
 62
1
 10
176.753467
 20
178.608957
 40
0.012500
 50
180.000000
 51
270.000000
  0
ARC
  8
0
  6
CONTINUOUS
 62
1
 10
176.753467
 20
178.893957
 40
0.012500
 50
90.000000
 51
180.000000
  0
ARC
  8
0
  6
CONTINUOUS
 62
1
 10
176.803467
 20
178.618957
 40
0.012500
 50
90.000000
 51
180.000000
  0
ARC
  8
0
  6
CONTINUOUS
 62
1
 10
176.803467
 20
178.883957
 40
0.012500
 50
180.000000
 51
270.000000
  0
LINE
  8
0
  6
CONTINUOUS
 62
1
 10
177.003467
 20
178.631458
 11
177.033466
 21
178.643957
  0
LINE
  8
0
  6
CONTINUOUS
 62
1
 10
177.033466
 20
178.858957
 11
177.003467
 21
178.871456
  0
LINE
  8
0
  6
CONTINUOUS
 62
1
 10
176.803467
 20
178.631458
 11
177.003467
 21
178.631458
  0
LINE
  8
0
  6
CONTINUOUS
 62
1
 10
177.003467
 20
178.871456
 11
176.803467
 21
178.871456
  0
LINE
  8
0
  6
CONTINUOUS
 62
1
 10
211.775874
 20
149.379572
 11
211.775874
 21
149.386457
  0
LINE
  8
0
  6
CONTINUOUS
 62
1
 10
211.255874
 20
149.386457
 11
211.255874
 21
149.379572
  0
LINE
  8
0
  6
CONTINUOUS
 62
1
 10
215.944828
 20
178.179884
 11
215.057338
 21
178.500506
  0
LINE
  8
0
  6
CONTINUOUS
 62
1
 10
215.931237
 20
178.142265
 11
215.043748
 21
178.462884
  0
LINE
  8
0
  6
CONTINUOUS
 62
1
 10
215.824084
 20
176.904649
 11
216.175841
 21
177.325896
  0
LINE
  8
0
  6
CONTINUOUS
 62
1
 10
215.793382
 20
176.930285
 11
216.145139
 21
177.351532
  0
ARC
  8
0
  6
CONTINUOUS
 62
1
 10
215.761349
 20
177.672010
 40
0.540000
 50
320.136857
 51
70.136857
  0
ARC
  8
0
  6
CONTINUOUS
 62
1
 10
215.761349
 20
177.672010
 40
0.500000
 50
320.136857
 51
70.136857
  0
LINE
  8
0
  6
CONTINUOUS
 62
1
 10
215.824084
 20
176.904649
 11
215.792823
 21
176.867211
  0
LINE
  8
0
  6
CONTINUOUS
 62
1
 10
215.792823
 20
176.867211
 11
215.762765
 21
176.831213
  0
LINE
  8
0
  6
CONTINUOUS
 62
1
 10
215.762765
 20
176.831213
 11
215.735060
 21
176.798037
  0
LINE
  8
0
  6
CONTINUOUS
 62
1
 10
215.735060
 20
176.798037
 11
215.710779
 21
176.768959
  0
LINE
  8
0
  6
CONTINUOUS
 62
1
 10
215.710779
 20
176.768959
 11
215.690850
 21
176.745093
  0
LINE
  8
0
  6
CONTINUOUS
 62
1
 10
215.690850
 20
176.745093
 11
215.676043
 21
176.727361
  0
LINE
  8
0
  6
CONTINUOUS
 62
1
 10
215.676043
 20
176.727361
 11
215.666925
 21
176.716441
  0
LINE
  8
0
  6
CONTINUOUS
 62
1
 10
215.666925
 20
176.716441
 11
215.663846
 21
176.712755
  0
LINE
  8
0
  6
CONTINUOUS
 62
1
 10
215.663846
 20
176.712755
 11
215.633142
 21
176.738391
  0
LINE
  8
0
  6
CONTINUOUS
 62
1
 10
215.633142
 20
176.738391
 11
215.636221
 21
176.742080
  0
LINE
  8
0
  6
CONTINUOUS
 62
1
 10
215.636221
 20
176.742080
 11
215.645340
 21
176.753000
  0
LINE
  8
0
  6
CONTINUOUS
 62
1
 10
215.645340
 20
176.753000
 11
215.660148
 21
176.770732
  0
LINE
  8
0
  6
CONTINUOUS
 62
1
 10
215.660148
 20
176.770732
 11
215.680075
 21
176.794595
  0
LINE
  8
0
  6
CONTINUOUS
 62
1
 10
215.680075
 20
176.794595
 11
215.704358
 21
176.823676
  0
LINE
  8
0
  6
CONTINUOUS
 62
1
 10
215.704358
 20
176.823676
 11
215.732061
 21
176.856852
  0
LINE
  8
0
  6
CONTINUOUS
 62
1
 10
215.732061
 20
176.856852
 11
215.762121
 21
176.892850
  0
LINE
  8
0
  6
CONTINUOUS
 62
1
 10
215.762121
 20
176.892850
 11
215.793382
 21
176.930285
  0
LINE
  8
0
  6
CONTINUOUS
 62
1
 10
214.808621
 20
178.547830
 11
214.822212
 21
178.585449
  0
LINE
  8
0
  6
CONTINUOUS
 62
1
 10
214.822212
 20
178.585449
 11
214.826729
 21
178.583816
  0
LINE
  8
0
  6
CONTINUOUS
 62
1
 10
214.826729
 20
178.583816
 11
214.840110
 21
178.578982
  0
LINE
  8
0
  6
CONTINUOUS
 62
1
 10
214.840110
 20
178.578982
 11
214.861837
 21
178.571132
  0
LINE
  8
0
  6
CONTINUOUS
 62
1
 10
214.861837
 20
178.571132
 11
214.891078
 21
178.560570
  0
LINE
  8
0
  6
CONTINUOUS
 62
1
 10
214.891078
 20
178.560570
 11
214.926710
 21
178.547698
  0
LINE
  8
0
  6
CONTINUOUS
 62
1
 10
214.926710
 20
178.547698
 11
214.967358
 21
178.533012
  0
LINE
  8
0
  6
CONTINUOUS
 62
1
 10
214.967358
 20
178.533012
 11
215.011467
 21
178.517077
  0
LINE
  8
0
  6
CONTINUOUS
 62
1
 10
215.011467
 20
178.517077
 11
215.057338
 21
178.500506
  0
LINE
  8
0
  6
CONTINUOUS
 62
1
 10
215.043748
 20
178.462884
 11
214.997876
 21
178.479457
  0
LINE
  8
0
  6
CONTINUOUS
 62
1
 10
214.997876
 20
178.479457
 11
214.953769
 21
178.495392
  0
LINE
  8
0
  6
CONTINUOUS
 62
1
 10
214.953769
 20
178.495392
 11
214.913118
 21
178.510076
  0
LINE
  8
0
  6
CONTINUOUS
 62
1
 10
214.913118
 20
178.510076
 11
214.877488
 21
178.522951
  0
LINE
  8
0
  6
CONTINUOUS
 62
1
 10
214.877488
 20
178.522951
 11
214.848246
 21
178.533513
  0
LINE
  8
0
  6
CONTINUOUS
 62
1
 10
214.848246
 20
178.533513
 11
214.826519
 21
178.541362
  0
LINE
  8
0
  6
CONTINUOUS
 62
1
 10
214.826519
 20
178.541362
 11
214.813139
 21
178.546196
  0
LINE
  8
0
  6
CONTINUOUS
 62
1
 10
214.813139
 20
178.546196
 11
214.808621
 21
178.547830
  0
LINE
  8
0
  6
CONTINUOUS
 62
1
 10
214.822212
 20
178.585449
 11
214.808621
 21
178.590357
  0
LINE
  8
0
  6
CONTINUOUS
 62
1
 10
214.808621
 20
178.547830
 11
214.795029
 21
178.552738
  0
ARC
  8
0
  6
CONTINUOUS
 62
1
 10
214.773794
 20
178.493957
 40
0.102500
 50
70.136857
 51
90.000000
  0
ARC
  8
0
  6
CONTINUOUS
 62
1
 10
214.773794
 20
178.493957
 40
0.062500
 50
70.136857
 51
76.378289
  0
LINE
  8
0
  6
CONTINUOUS
 62
1
 10
208.325874
 20
149.319572
 11
208.325874
 21
149.379572
  0
LINE
  8
0
  6
CONTINUOUS
 62
1
 10
208.325874
 20
149.379572
 11
212.263374
 21
149.379572
  0
LINE
  8
0
  6
CONTINUOUS
 62
1
 10
208.325874
 20
149.319572
 11
212.263374
 21
149.319572
  0
LINE
  8
0
  6
CONTINUOUS
 62
1
 10
212.385874
 20
148.569572
 11
212.325874
 21
148.569572
  0
LINE
  8
0
  6
CONTINUOUS
 62
1
 10
212.325874
 20
148.569572
 11
212.325874
 21
149.257072
  0
LINE
  8
0
  6
CONTINUOUS
 62
1
 10
212.385874
 20
148.569572
 11
212.385874
 21
149.257072
  0
ARC
  8
0
  6
CONTINUOUS
 62
1
 10
212.263374
 20
149.257072
 40
0.122500
 50
0.000000
 51
90.000000
  0
ARC
  8
0
  6
CONTINUOUS
 62
1
 10
212.263374
 20
149.257072
 40
0.062500
 50
0.000000
 51
90.000000
  0
LINE
  8
0
  6
CONTINUOUS
 62
1
 10
212.570967
 20
176.537073
 11
212.470967
 21
176.537073
  0
LINE
  8
0
  6
CONTINUOUS
 62
1
 10
212.470967
 20
176.537073
 11
212.470967
 21
176.577074
  0
LINE
  8
0
  6
CONTINUOUS
 62
1
 10
212.470967
 20
176.577074
 11
212.570967
 21
176.577074
  0
LINE
  8
0
  6
CONTINUOUS
 62
1
 10
212.570967
 20
176.537073
 11
215.303000
 21
176.537073
  0
LINE
  8
0
  6
CONTINUOUS
 62
1
 10
212.570967
 20
176.577074
 11
215.303000
 21
176.577074
  0
LINE
  8
0
  6
CONTINUOUS
 62
1
 10
212.570967
 20
182.651457
 11
213.382925
 21
182.651457
  0
LINE
  8
0
  6
CONTINUOUS
 62
1
 10
212.570967
 20
182.611457
 11
213.382925
 21
182.611457
  0
LINE
  8
0
  6
CONTINUOUS
 62
1
 10
212.470967
 20
182.611457
 11
212.470967
 21
182.651457
  0
LINE
  8
0
  6
CONTINUOUS
 62
1
 10
212.470967
 20
182.651457
 11
212.570967
 21
182.651457
  0
LINE
  8
0
  6
CONTINUOUS
 62
1
 10
212.570967
 20
182.611457
 11
212.470967
 21
182.611457
  0
ARC
  8
0
  6
CONTINUOUS
 62
1
 10
213.382925
 20
182.548957
 40
0.102500
 50
18.000000
 51
90.000000
  0
ARC
  8
0
  6
CONTINUOUS
 62
1
 10
213.382925
 20
182.548957
 40
0.062500
 50
18.000000
 51
90.000000
  0
LINE
  8
0
  6
CONTINUOUS
 62
1
 10
215.362442
 20
176.658887
 11
213.442366
 21
182.568270
  0
LINE
  8
0
  6
CONTINUOUS
 62
1
 10
215.400483
 20
176.671249
 11
213.480409
 21
182.580632
  0
ARC
  8
0
  6
CONTINUOUS
 62
1
 10
215.303000
 20
176.639573
 40
0.062500
 50
270.000000
 51
18.000000
  0
ARC
  8
0
  6
CONTINUOUS
 62
1
 10
215.303000
 20
176.639573
 40
0.102500
 50
270.000000
 51
18.000000
  0
LINE
  8
0
  6
CONTINUOUS
 62
1
 10
213.519749
 20
182.627136
 11
213.925112
 21
182.807616
  0
LINE
  8
0
  6
CONTINUOUS
 62
1
 10
213.536018
 20
182.590595
 11
213.941381
 21
182.771075
  0
ARC
  8
0
  6
CONTINUOUS
 62
1
 10
213.561439
 20
182.533498
 40
0.102500
 50
114.000000
 51
145.984564
  0
ARC
  8
0
  6
CONTINUOUS
 62
1
 10
213.561439
 20
182.533498
 40
0.062500
 50
114.000000
 51
198.000000
  0
LINE
  8
0
  6
CONTINUOUS
 62
1
 10
214.153497
 20
182.909301
 11
214.169768
 21
182.872758
  0
LINE
  8
0
  6
CONTINUOUS
 62
1
 10
213.941381
 20
182.771075
 11
213.985937
 21
182.790911
  0
LINE
  8
0
  6
CONTINUOUS
 62
1
 10
213.985937
 20
182.790911
 11
214.028780
 21
182.809988
  0
LINE
  8
0
  6
CONTINUOUS
 62
1
 10
214.028780
 20
182.809988
 11
214.068266
 21
182.827565
  0
LINE
  8
0
  6
CONTINUOUS
 62
1
 10
214.068266
 20
182.827565
 11
214.102875
 21
182.842976
  0
LINE
  8
0
  6
CONTINUOUS
 62
1
 10
214.102875
 20
182.842976
 11
214.131277
 21
182.855621
  0
LINE
  8
0
  6
CONTINUOUS
 62
1
 10
214.131277
 20
182.855621
 11
214.152383
 21
182.865018
  0
LINE
  8
0
  6
CONTINUOUS
 62
1
 10
214.152383
 20
182.865018
 11
214.165379
 21
182.870805
  0
LINE
  8
0
  6
CONTINUOUS
 62
1
 10
214.165379
 20
182.870805
 11
214.169768
 21
182.872758
  0
LINE
  8
0
  6
CONTINUOUS
 62
1
 10
213.925112
 20
182.807616
 11
213.969668
 21
182.827452
  0
LINE
  8
0
  6
CONTINUOUS
 62
1
 10
213.969668
 20
182.827452
 11
214.012511
 21
182.846528
  0
LINE
  8
0
  6
CONTINUOUS
 62
1
 10
214.012511
 20
182.846528
 11
214.051996
 21
182.864109
  0
LINE
  8
0
  6
CONTINUOUS
 62
1
 10
214.051996
 20
182.864109
 11
214.086604
 21
182.879517
  0
LINE
  8
0
  6
CONTINUOUS
 62
1
 10
214.086604
 20
182.879517
 11
214.115008
 21
182.892162
  0
LINE
  8
0
  6
CONTINUOUS
 62
1
 10
214.115008
 20
182.892162
 11
214.136114
 21
182.901558
  0
LINE
  8
0
  6
CONTINUOUS
 62
1
 10
214.136114
 20
182.901558
 11
214.149109
 21
182.907346
  0
LINE
  8
0
  6
CONTINUOUS
 62
1
 10
214.149109
 20
182.907346
 11
214.153497
 21
182.909301
  0
LINE
  8
0
  6
CONTINUOUS
 62
1
 10
213.518247
 20
182.725620
 11
213.478129
 21
182.646886
  0
LINE
  8
0
  6
CONTINUOUS
 62
1
 10
213.460577
 20
182.700545
 11
213.442488
 21
182.665044
  0
ARC
  8
0
  6
CONTINUOUS
 62
1
 10
213.533817
 20
182.618510
 40
0.102500
 50
153.000000
 51
168.891075
  0
ARC
  8
0
  6
CONTINUOUS
 62
1
 10
213.533817
 20
182.618510
 40
0.062500
 50
153.000000
 51
198.000000
  0
LINE
  8
0
  6
CONTINUOUS
 62
1
 10
213.476894
 20
182.591447
 11
213.474377
 21
182.599196
  0
LINE
  8
0
  6
CONTINUOUS
 62
1
 10
212.578467
 20
149.501457
 11
212.470967
 21
149.501457
  0
LINE
  8
0
  6
CONTINUOUS
 62
1
 10
212.640614
 20
150.101457
 11
212.595967
 21
150.101457
  0
LINE
  8
0
  6
CONTINUOUS
 62
1
 10
212.640614
 20
149.619683
 11
212.640614
 21
150.101457
  0
LINE
  8
0
  6
CONTINUOUS
 62
1
 10
212.680967
 20
149.603957
 11
212.659401
 21
149.603957
  0
LINE
  8
0
  6
CONTINUOUS
 62
1
 10
212.578467
 20
149.501457
 11
212.593331
 21
149.504174
  0
LINE
  8
0
  6
CONTINUOUS
 62
1
 10
212.680346
 20
149.593930
 11
212.680967
 21
149.603957
  0
LINE
  8
0
  6
CONTINUOUS
 62
1
 10
212.680967
 20
149.603957
 11
212.680967
 21
150.151457
  0
LINE
  8
0
  6
CONTINUOUS
 62
1
 10
212.640967
 20
149.619336
 11
212.640967
 21
150.151457
  0
LINE
  8
0
  6
CONTINUOUS
 62
1
 10
212.640967
 20
150.401457
 11
212.680967
 21
150.401457
  0
LINE
  8
0
  6
CONTINUOUS
 62
1
 10
212.680967
 20
150.401457
 11
212.680967
 21
150.151457
  0
LINE
  8
0
  6
CONTINUOUS
 62
1
 10
212.640967
 20
150.151457
 11
212.640967
 21
150.401457
  0
LINE
  8
0
  6
CONTINUOUS
 62
1
 10
212.385558
 20
149.461851
 11
212.390694
 21
149.466730
  0
LINE
  8
0
  6
CONTINUOUS
 62
1
 10
212.390694
 20
149.466730
 11
212.395594
 21
149.471890
  0
ARC
  8
0
  6
CONTINUOUS
 62
1
 10
212.945918
 20
175.645079
 40
0.145303
 50
99.887669
 51
142.289510
  0
ARC
  8
0
  6
CONTINUOUS
 62
1
 10
212.934542
 20
149.938923
 40
0.124992
 50
214.039352
 51
263.765143
  0
LINE
  8
0
  6
CONTINUOUS
 62
1
 10
212.830967
 20
149.868957
 11
212.830967
 21
175.733957
  0
ARC
  8
0
  6
CONTINUOUS
 62
1
 10
212.922273
 20
175.751996
 40
0.041988
 50
91.782132
 51
146.700131
  0
ARC
  8
0
  6
CONTINUOUS
 62
1
 10
212.929619
 20
175.735897
 40
0.098671
 50
95.030354
 51
181.126751
  0
ARC
  8
0
  6
CONTINUOUS
 62
1
 10
212.928952
 20
149.866630
 40
0.098012
 50
178.639549
 51
265.327154
  0
ARC
  8
0
  6
CONTINUOUS
 62
1
 10
212.922313
 20
149.850936
 40
0.042014
 50
213.301737
 51
268.164474
  0
LINE
  8
0
  6
CONTINUOUS
 62
1
 10
212.920967
 20
175.901458
 11
212.920967
 21
149.701457
  0
CIRCLE
  8
0
  6
CONTINUOUS
 62
1
 10
213.920967
 20
162.801457
 40
0.080000
  0
CIRCLE
  8
0
  6
CONTINUOUS
 62
1
 10
213.920967
 20
151.201457
 40
0.080000
  0
CIRCLE
  8
0
  6
CONTINUOUS
 62
1
 10
213.920967
 20
174.401457
 40
0.080000
  0
LINE
  8
0
  6
CONTINUOUS
 62
1
 10
215.318467
 20
175.901458
 11
212.920967
 21
175.901458
  0
LINE
  8
0
  6
CONTINUOUS
 62
1
 10
215.318467
 20
149.701457
 11
212.920967
 21
149.701457
  0
ARC
  8
0
  6
CONTINUOUS
 62
1
 10
215.252119
 20
149.870306
 40
0.181417
 50
291.452015
 51
338.547640
  0
LINE
  8
0
  6
CONTINUOUS
 62
1
 10
215.420968
 20
175.798956
 11
215.420968
 21
149.803957
  0
ARC
  8
0
  6
CONTINUOUS
 62
1
 10
215.252111
 20
175.732602
 40
0.181426
 50
21.452781
 51
68.546386
  0
ARC
  8
0
  6
CONTINUOUS
 62
1
 10
215.318466
 20
149.803958
 40
0.102501
 50
270.000290
 51
359.999365
  0
ARC
  8
0
  6
CONTINUOUS
 62
1
 10
215.318464
 20
175.798955
 40
0.102503
 50
0.000573
 51
89.998594
  0
LINE
  8
0
  6
CONTINUOUS
 62
1
 10
212.830967
 20
153.476457
 11
212.807748
 21
153.476457
  0
ARC
  8
0
  6
CONTINUOUS
 62
1
 10
176.995840
 20
183.393477
 40
0.202793
 50
12.959913
 51
46.861738
  0
ARC
  8
0
  6
CONTINUOUS
 62
1
 10
177.092282
 20
183.402561
 40
0.107532
 50
19.783181
 51
66.881862
  0
LINE
  8
0
  6
CONTINUOUS
 62
1
 10
177.134502
 20
183.541456
 11
177.134502
 21
183.501458
  0
ARC
  8
0
  6
CONTINUOUS
 62
1
 10
177.217534
 20
149.328549
 40
0.162203
 50
98.532437
 51
141.287727
  0
LINE
  8
0
  6
CONTINUOUS
 62
1
 10
177.090967
 20
183.497921
 11
177.090967
 21
149.429993
  0
ARC
  8
0
  6
CONTINUOUS
 62
1
 10
177.217533
 20
183.599365
 40
0.162203
 50
218.712532
 51
261.467789
  0
LINE
  8
0
  6
CONTINUOUS
 62
1
 10
177.130968
 20
183.497921
 11
177.090967
 21
183.497921
  0
ARC
  8
0
  6
CONTINUOUS
 62
1
 10
177.229679
 20
183.539946
 40
0.107285
 50
203.061241
 51
250.273797
  0
LINE
  8
0
  6
CONTINUOUS
 62
1
 10
208.331468
 20
183.541456
 11
208.223467
 21
183.541456
  0
LINE
  8
0
  6
CONTINUOUS
 62
1
 10
182.473467
 20
183.541456
 11
182.335967
 21
183.541456
  0
LINE
  8
0
  6
CONTINUOUS
 62
1
 10
177.265968
 20
183.541456
 11
177.134502
 21
183.541456
  0
ARC
  8
0
  6
CONTINUOUS
 62
1
 10
212.593092
 20
183.390302
 40
0.229835
 50
141.191165
 51
167.778377
  0
ARC
  8
0
  6
CONTINUOUS
 62
1
 10
212.528882
 20
149.513029
 40
0.162211
 50
188.534115
 51
231.287111
  0
LINE
  8
0
  6
CONTINUOUS
 62
1
 10
177.134502
 20
149.386457
 11
212.427432
 21
149.386457
  0
LINE
  8
0
  6
CONTINUOUS
 62
1
 10
177.193468
 20
149.488957
 11
177.179979
 21
149.452914
  0
LINE
  8
0
  6
CONTINUOUS
 62
1
 10
177.179979
 20
149.452914
 11
177.166486
 21
149.421466
  0
LINE
  8
0
  6
CONTINUOUS
 62
1
 10
177.166486
 20
149.421466
 11
177.152995
 21
149.398644
  0
LINE
  8
0
  6
CONTINUOUS
 62
1
 10
177.152995
 20
149.398644
 11
177.139502
 21
149.387365
  0
LINE
  8
0
  6
CONTINUOUS
 62
1
 10
177.139502
 20
149.387365
 11
177.134502
 21
149.386457
  0
ARC
  8
0
  6
CONTINUOUS
 62
1
 10
177.229680
 20
149.387968
 40
0.107285
 50
109.726522
 51
156.938998
  0
LINE
  8
0
  6
CONTINUOUS
 62
1
 10
177.130968
 20
149.429993
 11
177.090967
 21
149.429993
  0
LINE
  8
0
  6
CONTINUOUS
 62
1
 10
177.134502
 20
149.386457
 11
177.134502
 21
149.426457
  0
ARC
  8
0
  6
CONTINUOUS
 62
1
 10
177.092617
 20
149.525039
 40
0.107111
 50
293.019707
 51
340.313945
  0
ARC
  8
0
  6
CONTINUOUS
 62
1
 10
212.323010
 20
183.636550
 40
0.202754
 50
282.955502
 51
316.864177
  0
LINE
  8
0
  6
CONTINUOUS
 62
1
 10
212.470967
 20
149.429993
 11
212.470967
 21
176.537073
  0
LINE
  8
0
  6
CONTINUOUS
 62
1
 10
212.470967
 20
176.577074
 11
212.470967
 21
182.611457
  0
LINE
  8
0
  6
CONTINUOUS
 62
1
 10
212.470967
 20
182.651457
 11
212.470967
 21
183.497921
  0
LINE
  8
0
  6
CONTINUOUS
 62
1
 10
212.368466
 20
149.488957
 11
212.404509
 21
149.475469
  0
LINE
  8
0
  6
CONTINUOUS
 62
1
 10
212.404509
 20
149.475469
 11
212.435958
 21
149.461977
  0
LINE
  8
0
  6
CONTINUOUS
 62
1
 10
212.435958
 20
149.461977
 11
212.458781
 21
149.448484
  0
LINE
  8
0
  6
CONTINUOUS
 62
1
 10
212.458781
 20
149.448484
 11
212.470059
 21
149.434992
  0
LINE
  8
0
  6
CONTINUOUS
 62
1
 10
212.470059
 20
149.434992
 11
212.470967
 21
149.429993
  0
LINE
  8
0
  6
CONTINUOUS
 62
1
 10
212.427432
 20
183.501458
 11
212.427432
 21
183.521456
  0
ARC
  8
0
  6
CONTINUOUS
 62
1
 10
212.469480
 20
183.402723
 40
0.107316
 50
113.067822
 51
160.267135
  0
ARC
  8
0
  6
CONTINUOUS
 62
1
 10
212.332080
 20
183.540134
 40
0.107521
 50
289.780192
 51
336.883406
  0
LINE
  8
0
  6
CONTINUOUS
 62
1
 10
212.430968
 20
183.497921
 11
212.470967
 21
183.497921
  0
LINE
  8
0
  6
CONTINUOUS
 62
1
 10
212.430968
 20
149.429993
 11
212.470967
 21
149.429993
  0
ARC
  8
0
  6
CONTINUOUS
 62
1
 10
212.332384
 20
149.388103
 40
0.107114
 50
23.021378
 51
70.314465
  0
ARC
  8
0
  6
CONTINUOUS
 62
1
 10
212.469465
 20
149.525178
 40
0.107297
 50
199.729435
 51
246.936913
  0
LINE
  8
0
  6
CONTINUOUS
 62
1
 10
212.427432
 20
149.426457
 11
212.427432
 21
149.386457
  0
ARC
  8
0
  6
CONTINUOUS
 62
1
 10
212.670967
 20
175.043372
 40
0.200000
 50
36.869898
 51
180.000000
  0
ARC
  8
0
  6
CONTINUOUS
 62
1
 10
212.420967
 20
153.706457
 40
0.450000
 50
276.379370
 51
335.659353
  0
LINE
  8
0
  6
CONTINUOUS
 62
1
 10
212.522304
 20
176.166457
 11
212.470967
 21
176.166457
  0
LINE
  8
0
  6
CONTINUOUS
 62
1
 10
212.540967
 20
175.516457
 11
212.540967
 21
176.143155
  0
LINE
  8
0
  6
CONTINUOUS
 62
1
 10
212.540967
 20
175.516457
 11
212.470967
 21
175.516457
  0
LINE
  8
0
  6
CONTINUOUS
 62
1
 10
176.638466
 20
175.876811
 11
173.540967
 21
175.876811
  0
LINE
  8
0
  6
CONTINUOUS
 62
1
 10
173.540967
 20
175.881458
 11
173.540967
 21
175.876811
  0
LINE
  8
0
  6
CONTINUOUS
 62
1
 10
173.540967
 20
183.738700
 11
173.540967
 21
183.797267
  0
LINE
  8
0
  6
CONTINUOUS
 62
1
 10
176.740967
 20
183.698958
 11
176.740967
 21
175.903958
  0
ARC
  8
0
  6
CONTINUOUS
 62
1
 10
176.630888
 20
176.112510
 40
0.235820
 50
271.841658
 51
297.826366
  0
LINE
  8
0
  6
CONTINUOUS
 62
1
 10
176.710967
 20
183.761457
 11
176.740967
 21
183.761457
  0
LINE
  8
0
  6
CONTINUOUS
 62
1
 10
176.740967
 20
183.761457
 11
176.740967
 21
183.698958
  0
LINE
  8
0
  6
CONTINUOUS
 62
1
 10
173.500967
 20
175.301457
 11
173.540967
 21
175.301457
  0
LINE
  8
0
  6
CONTINUOUS
 62
1
 10
173.540967
 20
175.301457
 11
173.540967
 21
175.551456
  0
LINE
  8
0
  6
CONTINUOUS
 62
1
 10
173.500967
 20
175.301457
 11
173.500967
 21
175.551456
  0
LINE
  8
0
  6
CONTINUOUS
 62
1
 10
173.540967
 20
175.551456
 11
173.540967
 21
175.738958
  0
LINE
  8
0
  6
CONTINUOUS
 62
1
 10
173.500967
 20
175.551456
 11
173.500967
 21
175.738958
  0
LINE
  8
0
  6
CONTINUOUS
 62
1
 10
176.638466
 20
175.841457
 11
173.603466
 21
175.841457
  0
LINE
  8
0
  6
CONTINUOUS
 62
1
 10
176.638466
 20
175.801456
 11
176.638466
 21
175.841457
  0
LINE
  8
0
  6
CONTINUOUS
 62
1
 10
176.638466
 20
175.801456
 11
173.603466
 21
175.801456
  0
ARC
  8
0
  6
CONTINUOUS
 62
1
 10
173.603467
 20
175.738957
 40
0.062500
 50
90.000000
 51
180.000000
  0
ARC
  8
0
  6
CONTINUOUS
 62
1
 10
173.603467
 20
175.738957
 40
0.102500
 50
90.000000
 51
180.000000
  0
ARC
  8
0
  6
CONTINUOUS
 62
1
 10
176.638466
 20
175.903957
 40
0.102501
 50
270.000177
 51
0.000656
  0
ARC
  8
0
  6
CONTINUOUS
 62
1
 10
176.641178
 20
175.899082
 40
0.057689
 50
267.305762
 51
348.609578
  0
LINE
  8
0
  6
CONTINUOUS
 62
1
 10
176.718511
 20
183.761457
 11
176.715255
 21
183.766851
  0
LINE
  8
0
  6
CONTINUOUS
 62
1
 10
176.715255
 20
183.766851
 11
176.710967
 21
183.770222
  0
LINE
  8
0
  6
CONTINUOUS
 62
1
 10
177.255968
 20
183.542466
 11
177.255968
 21
183.541456
  0
LINE
  8
0
  6
CONTINUOUS
 62
1
 10
177.215967
 20
183.591458
 11
177.215967
 21
183.541456
  0
LINE
  8
0
  6
CONTINUOUS
 62
1
 10
209.398467
 20
184.340957
 11
209.398467
 21
184.341458
  0
LINE
  8
0
  6
CONTINUOUS
 62
1
 10
209.398467
 20
184.401456
 11
209.398467
 21
185.401458
  0
LINE
  8
0
  6
CONTINUOUS
 62
1
 10
182.425937
 20
184.301457
 11
182.473467
 21
184.301457
  0
LINE
  8
0
  6
CONTINUOUS
 62
1
 10
208.223467
 20
184.301457
 11
208.273050
 21
184.301457
  0
LINE
  8
0
  6
CONTINUOUS
 62
1
 10
208.335157
 20
184.301457
 11
208.335693
 21
184.301457
  0
LINE
  8
0
  6
CONTINUOUS
 62
1
 10
181.298467
 20
185.401458
 11
209.398467
 21
185.401458
  0
LINE
  8
0
  6
CONTINUOUS
 62
1
 10
181.298467
 20
184.401456
 11
181.298467
 21
185.401458
  0
LINE
  8
0
  6
CONTINUOUS
 62
1
 10
184.890724
 20
185.826457
 11
193.398467
 21
185.826457
  0
LINE
  8
0
  6
CONTINUOUS
 62
1
 10
184.048467
 20
185.826457
 11
184.890724
 21
185.826457
  0
LINE
  8
0
  6
CONTINUOUS
 62
1
 10
184.890724
 20
185.901457
 11
184.048467
 21
185.901457
  0
LINE
  8
0
  6
CONTINUOUS
 62
1
 10
193.398467
 20
185.901457
 11
184.890724
 21
185.901457
  0
LINE
  8
0
  6
CONTINUOUS
 62
1
 10
184.972708
 20
186.001456
 11
193.298467
 21
186.001456
  0
LINE
  8
0
  6
CONTINUOUS
 62
1
 10
184.148467
 20
186.001456
 11
184.972708
 21
186.001456
  0
LINE
  8
0
  6
CONTINUOUS
 62
1
 10
197.398467
 20
186.001456
 11
206.548468
 21
186.001456
  0
LINE
  8
0
  6
CONTINUOUS
 62
1
 10
206.648466
 20
185.901457
 11
197.298467
 21
185.901457
  0
LINE
  8
0
  6
CONTINUOUS
 62
1
 10
197.298467
 20
185.826457
 11
206.648466
 21
185.826457
  0
LINE
  8
0
  6
CONTINUOUS
 62
1
 10
206.878437
 20
185.417113
 11
197.068496
 21
185.417113
  0
LINE
  8
0
  6
CONTINUOUS
 62
1
 10
193.628438
 20
185.417113
 11
183.818496
 21
185.417113
  0
LINE
  8
0
  6
CONTINUOUS
 62
1
 10
207.973467
 20
184.801457
 11
182.723467
 21
184.801457
  0
ARC
  8
0
  6
CONTINUOUS
 62
1
 10
207.973467
 20
184.551457
 40
0.250000
 50
0.000000
 51
90.000000
  0
LINE
  8
0
  6
CONTINUOUS
 62
1
 10
208.223467
 20
183.613956
 11
208.223467
 21
184.551457
  0
LINE
  8
0
  6
CONTINUOUS
 62
1
 10
182.473467
 20
184.551457
 11
182.473467
 21
183.613956
  0
ARC
  8
0
  6
CONTINUOUS
 62
1
 10
182.723467
 20
184.551457
 40
0.250000
 50
90.000000
 51
180.000000
  0
LINE
  8
0
  6
CONTINUOUS
 62
1
 10
182.473467
 20
183.523426
 11
182.473467
 21
183.613956
  0
LINE
  8
0
  6
CONTINUOUS
 62
1
 10
208.223467
 20
183.613956
 11
208.223467
 21
183.523426
  0
LINE
  8
0
  6
CONTINUOUS
 62
1
 10
173.455967
 20
179.343507
 11
173.460967
 21
179.343507
  0
LINE
  8
0
  6
CONTINUOUS
 62
1
 10
173.455967
 20
181.843507
 11
173.460967
 21
181.843507
  0
LINE
  8
0
  6
CONTINUOUS
 62
1
 10
173.455967
 20
179.343507
 11
173.455967
 21
181.843507
  0
LINE
  8
0
  6
CONTINUOUS
 62
1
 10
173.450966
 20
181.576839
 11
173.455967
 21
181.576839
  0
LINE
  8
0
  6
CONTINUOUS
 62
1
 10
173.450966
 20
181.629443
 11
173.455967
 21
181.629443
  0
LINE
  8
0
  6
CONTINUOUS
 62
1
 10
173.450966
 20
181.681967
 11
173.455967
 21
181.681967
  0
LINE
  8
0
  6
CONTINUOUS
 62
1
 10
173.450966
 20
180.065382
 11
173.455967
 21
180.065382
  0
LINE
  8
0
  6
CONTINUOUS
 62
1
 10
173.450966
 20
180.117986
 11
173.455967
 21
180.117986
  0
LINE
  8
0
  6
CONTINUOUS
 62
1
 10
173.450966
 20
180.170509
 11
173.455967
 21
180.170509
  0
LINE
  8
0
  6
CONTINUOUS
 62
1
 10
173.450966
 20
179.901317
 11
173.455967
 21
179.901317
  0
LINE
  8
0
  6
CONTINUOUS
 62
1
 10
173.450966
 20
179.953841
 11
173.455967
 21
179.953841
  0
LINE
  8
0
  6
CONTINUOUS
 62
1
 10
173.450966
 20
179.848713
 11
173.455967
 21
179.848713
  0
LINE
  8
0
  6
CONTINUOUS
 62
1
 10
173.450966
 20
181.143505
 11
173.455967
 21
181.143505
  0
LINE
  8
0
  6
CONTINUOUS
 62
1
 10
173.450966
 20
181.196109
 11
173.455967
 21
181.196109
  0
LINE
  8
0
  6
CONTINUOUS
 62
1
 10
173.450966
 20
181.248635
 11
173.455967
 21
181.248635
  0
LINE
  8
0
  6
CONTINUOUS
 62
1
 10
173.450966
 20
181.452480
 11
173.455967
 21
181.452480
  0
LINE
  8
0
  6
CONTINUOUS
 62
1
 10
173.450966
 20
181.462735
 11
173.450966
 21
181.452480
  0
LINE
  8
0
  6
CONTINUOUS
 62
1
 10
173.450966
 20
181.462735
 11
173.455967
 21
181.462735
  0
LINE
  8
0
  6
CONTINUOUS
 62
1
 10
173.450966
 20
181.411454
 11
173.455967
 21
181.411454
  0
LINE
  8
0
  6
CONTINUOUS
 62
1
 10
173.450966
 20
181.421712
 11
173.455967
 21
181.421712
  0
LINE
  8
0
  6
CONTINUOUS
 62
1
 10
173.450966
 20
181.421712
 11
173.450966
 21
181.411454
  0
LINE
  8
0
  6
CONTINUOUS
 62
1
 10
173.450966
 20
181.372994
 11
173.455967
 21
181.372994
  0
LINE
  8
0
  6
CONTINUOUS
 62
1
 10
173.450966
 20
181.362736
 11
173.455967
 21
181.362736
  0
LINE
  8
0
  6
CONTINUOUS
 62
1
 10
173.450966
 20
181.372994
 11
173.450966
 21
181.362736
  0
LINE
  8
0
  6
CONTINUOUS
 62
1
 10
173.450966
 20
180.374354
 11
173.455967
 21
180.374354
  0
LINE
  8
0
  6
CONTINUOUS
 62
1
 10
173.450966
 20
180.384612
 11
173.450966
 21
180.374354
  0
LINE
  8
0
  6
CONTINUOUS
 62
1
 10
173.450966
 20
180.384612
 11
173.455967
 21
180.384612
  0
LINE
  8
0
  6
CONTINUOUS
 62
1
 10
173.450966
 20
180.294869
 11
173.455967
 21
180.294869
  0
LINE
  8
0
  6
CONTINUOUS
 62
1
 10
173.450966
 20
180.284611
 11
173.455967
 21
180.284611
  0
LINE
  8
0
  6
CONTINUOUS
 62
1
 10
173.450966
 20
180.294869
 11
173.450966
 21
180.284611
  0
LINE
  8
0
  6
CONTINUOUS
 62
1
 10
173.450966
 20
180.333328
 11
173.455967
 21
180.333328
  0
LINE
  8
0
  6
CONTINUOUS
 62
1
 10
173.450966
 20
180.343586
 11
173.455967
 21
180.343586
  0
LINE
  8
0
  6
CONTINUOUS
 62
1
 10
173.450966
 20
180.343586
 11
173.450966
 21
180.333328
  0
LINE
  8
0
  6
CONTINUOUS
 62
1
 10
173.450966
 20
181.411454
 11
173.450966
 21
181.372994
  0
LINE
  8
0
  6
CONTINUOUS
 62
1
 10
173.450966
 20
181.452480
 11
173.450966
 21
181.421712
  0
LINE
  8
0
  6
CONTINUOUS
 62
1
 10
173.450966
 20
180.333328
 11
173.450966
 21
180.294869
  0
LINE
  8
0
  6
CONTINUOUS
 62
1
 10
173.450966
 20
180.374354
 11
173.450966
 21
180.343586
  0
LINE
  8
0
  6
CONTINUOUS
 62
1
 10
173.450966
 20
179.641661
 11
173.455967
 21
179.641661
  0
LINE
  8
0
  6
CONTINUOUS
 62
1
 10
173.450966
 20
179.649997
 11
173.450966
 21
179.641661
  0
LINE
  8
0
  6
CONTINUOUS
 62
1
 10
173.450966
 20
179.649997
 11
173.455967
 21
179.649997
  0
LINE
  8
0
  6
CONTINUOUS
 62
1
 10
173.450966
 20
179.633329
 11
173.455967
 21
179.633329
  0
LINE
  8
0
  6
CONTINUOUS
 62
1
 10
173.450966
 20
179.641661
 11
173.450966
 21
179.633329
  0
LINE
  8
0
  6
CONTINUOUS
 62
1
 10
173.450966
 20
179.734612
 11
173.455967
 21
179.734612
  0
LINE
  8
0
  6
CONTINUOUS
 62
1
 10
173.450966
 20
179.734612
 11
173.450966
 21
179.724354
  0
LINE
  8
0
  6
CONTINUOUS
 62
1
 10
173.450966
 20
179.724354
 11
173.455967
 21
179.724354
  0
LINE
  8
0
  6
CONTINUOUS
 62
1
 10
173.450966
 20
179.683328
 11
173.455967
 21
179.683328
  0
LINE
  8
0
  6
CONTINUOUS
 62
1
 10
173.450966
 20
179.693586
 11
173.455967
 21
179.693586
  0
LINE
  8
0
  6
CONTINUOUS
 62
1
 10
173.450966
 20
179.693586
 11
173.450966
 21
179.683328
  0
LINE
  8
0
  6
CONTINUOUS
 62
1
 10
173.450966
 20
179.644868
 11
173.450966
 21
179.642794
  0
LINE
  8
0
  6
CONTINUOUS
 62
1
 10
173.450966
 20
181.349915
 11
173.455967
 21
181.349915
  0
LINE
  8
0
  6
CONTINUOUS
 62
1
 10
173.450966
 20
181.362736
 11
173.450966
 21
181.349915
  0
LINE
  8
0
  6
CONTINUOUS
 62
1
 10
173.450966
 20
181.465301
 11
173.455967
 21
181.465301
  0
LINE
  8
0
  6
CONTINUOUS
 62
1
 10
173.450966
 20
181.465301
 11
173.450966
 21
181.464800
  0
LINE
  8
0
  6
CONTINUOUS
 62
1
 10
173.450966
 20
179.683328
 11
173.450966
 21
179.651129
  0
LINE
  8
0
  6
CONTINUOUS
 62
1
 10
173.450966
 20
179.724354
 11
173.450966
 21
179.693586
  0
LINE
  8
0
  6
CONTINUOUS
 62
1
 10
173.450966
 20
179.737175
 11
173.455967
 21
179.737175
  0
LINE
  8
0
  6
CONTINUOUS
 62
1
 10
173.450966
 20
179.632047
 11
173.455967
 21
179.632047
  0
LINE
  8
0
  6
CONTINUOUS
 62
1
 10
173.450966
 20
180.055124
 11
173.455967
 21
180.055124
  0
LINE
  8
0
  6
CONTINUOUS
 62
1
 10
173.450966
 20
180.067945
 11
173.450966
 21
180.055124
  0
LINE
  8
0
  6
CONTINUOUS
 62
1
 10
173.450966
 20
180.719787
 11
173.455967
 21
180.719787
  0
LINE
  8
0
  6
CONTINUOUS
 62
1
 10
173.450966
 20
180.728120
 11
173.455967
 21
180.728120
  0
LINE
  8
0
  6
CONTINUOUS
 62
1
 10
173.450966
 20
180.728120
 11
173.450966
 21
180.719787
  0
LINE
  8
0
  6
CONTINUOUS
 62
1
 10
173.450966
 20
180.711454
 11
173.455967
 21
180.711454
  0
LINE
  8
0
  6
CONTINUOUS
 62
1
 10
173.450966
 20
180.719787
 11
173.450966
 21
180.711454
  0
LINE
  8
0
  6
CONTINUOUS
 62
1
 10
173.450966
 20
180.928120
 11
173.455967
 21
180.928120
  0
LINE
  8
0
  6
CONTINUOUS
 62
1
 10
173.450966
 20
180.936456
 11
173.450966
 21
180.928120
  0
LINE
  8
0
  6
CONTINUOUS
 62
1
 10
173.450966
 20
180.936456
 11
173.455967
 21
180.936456
  0
LINE
  8
0
  6
CONTINUOUS
 62
1
 10
173.450966
 20
180.944789
 11
173.455967
 21
180.944789
  0
LINE
  8
0
  6
CONTINUOUS
 62
1
 10
173.450966
 20
180.944789
 11
173.450966
 21
180.936456
  0
LINE
  8
0
  6
CONTINUOUS
 62
1
 10
173.450966
 20
180.684531
 11
173.455967
 21
180.684531
  0
LINE
  8
0
  6
CONTINUOUS
 62
1
 10
173.450966
 20
180.754525
 11
173.455967
 21
180.754525
  0
LINE
  8
0
  6
CONTINUOUS
 62
1
 10
173.450966
 20
180.816582
 11
173.455967
 21
180.816582
  0
LINE
  8
0
  6
CONTINUOUS
 62
1
 10
173.450966
 20
180.939660
 11
173.450966
 21
180.937585
  0
LINE
  8
0
  6
CONTINUOUS
 62
1
 10
173.450966
 20
181.029403
 11
173.455967
 21
181.029403
  0
LINE
  8
0
  6
CONTINUOUS
 62
1
 10
173.450966
 20
181.029403
 11
173.450966
 21
180.945921
  0
LINE
  8
0
  6
CONTINUOUS
 62
1
 10
173.450966
 20
180.387175
 11
173.455967
 21
180.387175
  0
LINE
  8
0
  6
CONTINUOUS
 62
1
 10
173.450966
 20
180.282048
 11
173.455967
 21
180.282048
  0
LINE
  8
0
  6
CONTINUOUS
 62
1
 10
173.450966
 20
180.926839
 11
173.455967
 21
180.926839
  0
LINE
  8
0
  6
CONTINUOUS
 62
1
 10
173.450966
 20
181.031966
 11
173.455967
 21
181.031966
  0
LINE
  8
0
  6
CONTINUOUS
 62
1
 10
173.450966
 20
180.271790
 11
173.455967
 21
180.271790
  0
LINE
  8
0
  6
CONTINUOUS
 62
1
 10
173.450966
 20
180.273298
 11
173.450966
 21
180.271790
  0
LINE
  8
0
  6
CONTINUOUS
 62
1
 10
173.450966
 20
179.626918
 11
173.455967
 21
179.626918
  0
LINE
  8
0
  6
CONTINUOUS
 62
1
 10
173.455967
 20
182.200176
 11
173.460967
 21
182.200176
  0
LINE
  8
0
  6
CONTINUOUS
 62
1
 10
173.455967
 20
183.400175
 11
173.460967
 21
183.400175
  0
LINE
  8
0
  6
CONTINUOUS
 62
1
 10
173.455967
 20
182.200176
 11
173.455967
 21
183.400175
  0
LINE
  8
0
  6
CONTINUOUS
 62
1
 10
173.450966
 20
182.288337
 11
173.455967
 21
182.288337
  0
LINE
  8
0
  6
CONTINUOUS
 62
1
 10
173.450966
 20
182.288337
 11
173.450966
 21
182.325837
  0
LINE
  8
0
  6
CONTINUOUS
 62
1
 10
173.450966
 20
182.325837
 11
173.450966
 21
183.300838
  0
LINE
  8
0
  6
CONTINUOUS
 62
1
 10
173.450966
 20
183.300838
 11
173.450966
 21
183.313337
  0
LINE
  8
0
  6
CONTINUOUS
 62
1
 10
177.085968
 20
171.081041
 11
177.090967
 21
171.081041
  0
LINE
  8
0
  6
CONTINUOUS
 62
1
 10
177.085968
 20
171.081041
 11
177.085968
 21
173.581042
  0
LINE
  8
0
  6
CONTINUOUS
 62
1
 10
177.085968
 20
173.581042
 11
177.090967
 21
173.581042
  0
LINE
  8
0
  6
CONTINUOUS
 62
1
 10
177.080967
 20
171.684390
 11
177.080967
 21
171.727692
  0
LINE
  8
0
  6
CONTINUOUS
 62
1
 10
177.080967
 20
172.934391
 11
177.080967
 21
172.977692
  0
LINE
  8
0
  6
CONTINUOUS
 62
1
 10
177.080967
 20
171.121474
 11
177.080967
 21
171.684390
  0
LINE
  8
0
  6
CONTINUOUS
 62
1
 10
177.080967
 20
171.727692
 11
177.080967
 21
172.290608
  0
LINE
  8
0
  6
CONTINUOUS
 62
1
 10
177.080967
 20
172.371474
 11
177.080967
 21
172.934391
  0
LINE
  8
0
  6
CONTINUOUS
 62
1
 10
177.080967
 20
172.977692
 11
177.080967
 21
173.540609
  0
LINE
  8
0
  6
CONTINUOUS
 62
1
 10
177.080967
 20
173.540609
 11
177.080967
 21
173.543957
  0
LINE
  8
0
  6
CONTINUOUS
 62
1
 10
177.080967
 20
172.368124
 11
177.080967
 21
172.371474
  0
LINE
  8
0
  6
CONTINUOUS
 62
1
 10
177.080967
 20
172.290608
 11
177.080967
 21
172.293958
  0
LINE
  8
0
  6
CONTINUOUS
 62
1
 10
177.080967
 20
171.118124
 11
177.080967
 21
171.121474
  0
LINE
  8
0
  6
CONTINUOUS
 62
1
 10
182.415874
 20
149.219572
 11
182.415874
 21
149.319572
  0
LINE
  8
0
  6
CONTINUOUS
 62
1
 10
178.915873
 20
149.219572
 11
182.415874
 21
149.219572
  0
LINE
  8
0
  6
CONTINUOUS
 62
1
 10
178.915873
 20
149.219572
 11
178.915873
 21
149.319572
  0
LINE
  8
0
  6
CONTINUOUS
 62
1
 10
178.915873
 20
149.319572
 11
182.415874
 21
149.319572
  0
LINE
  8
0
  6
CONTINUOUS
 62
1
 10
182.213856
 20
144.519572
 11
179.117891
 21
144.519572
  0
LINE
  8
0
  6
CONTINUOUS
 62
1
 10
211.890874
 20
149.219572
 11
211.890874
 21
149.319572
  0
LINE
  8
0
  6
CONTINUOUS
 62
1
 10
208.390874
 20
149.219572
 11
211.890874
 21
149.219572
  0
LINE
  8
0
  6
CONTINUOUS
 62
1
 10
208.390874
 20
149.219572
 11
208.390874
 21
149.319572
  0
LINE
  8
0
  6
CONTINUOUS
 62
1
 10
211.688856
 20
144.519572
 11
208.592890
 21
144.519572
  0
LINE
  8
0
  6
CONTINUOUS
 62
1
 10
211.465873
 20
140.819572
 11
208.815873
 21
140.819572
  0
LINE
  8
0
  6
CONTINUOUS
 62
1
 10
211.565873
 20
141.119572
 11
208.715874
 21
141.119572
  0
LINE
  8
0
  6
CONTINUOUS
 62
1
 10
181.990873
 20
140.819572
 11
179.340874
 21
140.819572
  0
LINE
  8
0
  6
CONTINUOUS
 62
1
 10
182.090874
 20
141.119572
 11
179.240874
 21
141.119572
  0
LINE
  8
0
  6
CONTINUOUS
 62
1
 10
176.890967
 20
181.001458
 11
176.740967
 21
181.001458
  0
LINE
  8
0
  6
CONTINUOUS
 62
1
 10
176.890967
 20
181.001458
 11
176.890967
 21
180.421457
  0
LINE
  8
0
  6
CONTINUOUS
 62
1
 10
176.890967
 20
180.181456
 11
176.890967
 21
180.176458
  0
LINE
  8
0
  6
CONTINUOUS
 62
1
 10
176.890967
 20
180.176458
 11
176.793467
 21
180.176458
  0
LINE
  8
0
  6
CONTINUOUS
 62
1
 10
176.890967
 20
181.826458
 11
176.740967
 21
181.826458
  0
LINE
  8
0
  6
CONTINUOUS
 62
1
 10
176.890967
 20
181.826458
 11
176.890967
 21
181.371457
  0
LINE
  8
0
  6
CONTINUOUS
 62
1
 10
176.890967
 20
181.131458
 11
176.890967
 21
181.001458
  0
LINE
  8
0
  6
CONTINUOUS
 62
1
 10
175.140967
 20
175.651458
 11
175.140967
 21
175.801456
  0
LINE
  8
0
  6
CONTINUOUS
 62
1
 10
175.140967
 20
175.651458
 11
174.315967
 21
175.651458
  0
LINE
  8
0
  6
CONTINUOUS
 62
1
 10
174.315967
 20
175.651458
 11
174.315967
 21
175.801456
  0
LINE
  8
0
  6
CONTINUOUS
 62
1
 10
175.965967
 20
175.651458
 11
175.965967
 21
175.801456
  0
LINE
  8
0
  6
CONTINUOUS
 62
1
 10
175.965967
 20
175.651458
 11
175.140967
 21
175.651458
  0
LINE
  8
0
  6
CONTINUOUS
 62
1
 10
174.730455
 20
175.841457
 11
174.730455
 21
175.876811
  0
LINE
  8
0
  6
CONTINUOUS
 62
1
 10
175.479871
 20
175.841457
 11
175.479871
 21
175.876811
  0
LINE
  8
0
  6
CONTINUOUS
 62
1
 10
174.799127
 20
175.041458
 11
175.765968
 21
175.041458
  0
LINE
  8
0
  6
CONTINUOUS
 62
1
 10
174.515967
 20
175.041458
 11
174.799127
 21
175.041458
  0
LINE
  8
0
  6
CONTINUOUS
 62
1
 10
174.826475
 20
174.991456
 11
174.565967
 21
174.991456
  0
LINE
  8
0
  6
CONTINUOUS
 62
1
 10
175.715967
 20
174.991456
 11
174.826475
 21
174.991456
  0
LINE
  8
0
  6
CONTINUOUS
 62
1
 10
175.890383
 20
175.841457
 11
175.890383
 21
175.876811
  0
LINE
  8
0
  6
CONTINUOUS
 62
1
 10
174.391552
 20
175.841457
 11
174.391552
 21
175.876811
  0
LINE
  8
0
  6
CONTINUOUS
 62
1
 10
214.212314
 20
180.651668
 11
214.117207
 21
180.620766
  0
LINE
  8
0
  6
CONTINUOUS
 62
1
 10
214.901187
 20
179.170492
 11
214.928612
 21
179.193390
  0
LINE
  8
0
  6
CONTINUOUS
 62
1
 10
214.928612
 20
179.193390
 11
214.959394
 21
179.219073
  0
LINE
  8
0
  6
CONTINUOUS
 62
1
 10
214.959394
 20
179.219073
 11
214.990102
 21
179.244644
  0
LINE
  8
0
  6
CONTINUOUS
 62
1
 10
214.990102
 20
179.244644
 11
215.019673
 21
179.269216
  0
LINE
  8
0
  6
CONTINUOUS
 62
1
 10
215.019673
 20
179.269216
 11
215.023029
 21
179.272017
  0
ARC
  8
0
  6
CONTINUOUS
 62
1
 10
214.145323
 20
182.927307
 40
0.828493
 50
266.931611
 51
269.577784
  0
LINE
  8
0
  6
CONTINUOUS
 62
1
 10
214.968971
 20
179.389331
 11
214.974489
 21
179.371304
  0
LINE
  8
0
  6
CONTINUOUS
 62
1
 10
214.310950
 20
181.550151
 11
214.303853
 21
181.572968
  0
LINE
  8
0
  6
CONTINUOUS
 62
1
 10
213.733445
 20
182.125470
 11
213.733337
 21
182.125804
  0
LINE
  8
0
  6
CONTINUOUS
 62
1
 10
214.737642
 20
179.034871
 11
214.735873
 21
179.040313
  0
LINE
  8
0
  6
CONTINUOUS
 62
1
 10
214.735873
 20
179.040313
 11
214.728733
 21
179.062292
  0
LINE
  8
0
  6
CONTINUOUS
 62
1
 10
214.728733
 20
179.062292
 11
214.716186
 21
179.100904
  0
LINE
  8
0
  6
CONTINUOUS
 62
1
 10
214.716186
 20
179.100904
 11
214.698373
 21
179.155725
  0
LINE
  8
0
  6
CONTINUOUS
 62
1
 10
214.698373
 20
179.155725
 11
214.675489
 21
179.226157
  0
LINE
  8
0
  6
CONTINUOUS
 62
1
 10
214.675489
 20
179.226157
 11
214.647785
 21
179.311422
  0
LINE
  8
0
  6
CONTINUOUS
 62
1
 10
214.647785
 20
179.311422
 11
214.615563
 21
179.410592
  0
LINE
  8
0
  6
CONTINUOUS
 62
1
 10
214.615563
 20
179.410592
 11
214.579177
 21
179.522577
  0
LINE
  8
0
  6
CONTINUOUS
 62
1
 10
214.579177
 20
179.522577
 11
214.539026
 21
179.646149
  0
LINE
  8
0
  6
CONTINUOUS
 62
1
 10
214.539026
 20
179.646149
 11
214.495547
 21
179.779959
  0
LINE
  8
0
  6
CONTINUOUS
 62
1
 10
214.495547
 20
179.779959
 11
214.449221
 21
179.922536
  0
LINE
  8
0
  6
CONTINUOUS
 62
1
 10
214.449221
 20
179.922536
 11
214.400554
 21
180.072323
  0
LINE
  8
0
  6
CONTINUOUS
 62
1
 10
214.400554
 20
180.072323
 11
214.350076
 21
180.227673
  0
LINE
  8
0
  6
CONTINUOUS
 62
1
 10
214.350076
 20
180.227673
 11
214.298345
 21
180.386889
  0
LINE
  8
0
  6
CONTINUOUS
 62
1
 10
214.298345
 20
180.386889
 11
214.245925
 21
180.548224
  0
LINE
  8
0
  6
CONTINUOUS
 62
1
 10
214.245925
 20
180.548224
 11
214.193389
 21
180.709911
  0
LINE
  8
0
  6
CONTINUOUS
 62
1
 10
214.193389
 20
180.709911
 11
214.141316
 21
180.870176
  0
LINE
  8
0
  6
CONTINUOUS
 62
1
 10
214.141316
 20
180.870176
 11
214.090273
 21
181.027267
  0
LINE
  8
0
  6
CONTINUOUS
 62
1
 10
214.090273
 20
181.027267
 11
214.040822
 21
181.179461
  0
LINE
  8
0
  6
CONTINUOUS
 62
1
 10
214.040822
 20
181.179461
 11
213.993503
 21
181.325093
  0
LINE
  8
0
  6
CONTINUOUS
 62
1
 10
213.993503
 20
181.325093
 11
213.948837
 21
181.462562
  0
LINE
  8
0
  6
CONTINUOUS
 62
1
 10
213.948837
 20
181.462562
 11
213.907311
 21
181.590367
  0
LINE
  8
0
  6
CONTINUOUS
 62
1
 10
213.907311
 20
181.590367
 11
213.869380
 21
181.707105
  0
LINE
  8
0
  6
CONTINUOUS
 62
1
 10
213.869380
 20
181.707105
 11
213.835460
 21
181.811500
  0
LINE
  8
0
  6
CONTINUOUS
 62
1
 10
213.835460
 20
181.811500
 11
213.805923
 21
181.902406
  0
LINE
  8
0
  6
CONTINUOUS
 62
1
 10
213.805923
 20
181.902406
 11
213.781093
 21
181.978825
  0
LINE
  8
0
  6
CONTINUOUS
 62
1
 10
213.781093
 20
181.978825
 11
213.761242
 21
182.039923
  0
LINE
  8
0
  6
CONTINUOUS
 62
1
 10
213.761242
 20
182.039923
 11
213.746585
 21
182.085028
  0
LINE
  8
0
  6
CONTINUOUS
 62
1
 10
213.746585
 20
182.085028
 11
213.737285
 21
182.113651
  0
LINE
  8
0
  6
CONTINUOUS
 62
1
 10
213.737285
 20
182.113651
 11
213.733445
 21
182.125470
  0
LINE
  8
0
  6
CONTINUOUS
 62
1
 10
214.349997
 20
181.845951
 11
214.322873
 21
181.929437
  0
LINE
  8
0
  6
CONTINUOUS
 62
1
 10
214.322873
 20
181.929437
 11
214.301125
 21
181.996367
  0
LINE
  8
0
  6
CONTINUOUS
 62
1
 10
214.301125
 20
181.996367
 11
214.285055
 21
182.045824
  0
LINE
  8
0
  6
CONTINUOUS
 62
1
 10
214.285055
 20
182.045824
 11
214.274888
 21
182.077113
  0
LINE
  8
0
  6
CONTINUOUS
 62
1
 10
214.274888
 20
182.077113
 11
214.270763
 21
182.089809
  0
LINE
  8
0
  6
CONTINUOUS
 62
1
 10
214.270763
 20
182.089809
 11
214.270668
 21
182.090101
  0
LINE
  8
0
  6
CONTINUOUS
 62
1
 10
215.151367
 20
179.379592
 11
215.149297
 21
179.385960
  0
LINE
  8
0
  6
CONTINUOUS
 62
1
 10
215.149297
 20
179.385960
 11
215.141250
 21
179.410726
  0
LINE
  8
0
  6
CONTINUOUS
 62
1
 10
215.141250
 20
179.410726
 11
215.127243
 21
179.453835
  0
LINE
  8
0
  6
CONTINUOUS
 62
1
 10
215.127243
 20
179.453835
 11
215.107470
 21
179.514694
  0
LINE
  8
0
  6
CONTINUOUS
 62
1
 10
215.107470
 20
179.514694
 11
215.082203
 21
179.592458
  0
LINE
  8
0
  6
CONTINUOUS
 62
1
 10
214.209651
 20
181.515345
 11
214.089035
 21
181.551326
  0
LINE
  8
0
  6
CONTINUOUS
 62
1
 10
214.264196
 20
181.505332
 11
214.236741
 21
181.507805
  0
LINE
  8
0
  6
CONTINUOUS
 62
1
 10
214.236741
 20
181.507805
 11
214.209651
 21
181.515345
  0
ARC
  8
0
  6
CONTINUOUS
 62
1
 10
214.265844
 20
181.556605
 40
0.051300
 50
268.159552
 51
344.598893
  0
LINE
  8
0
  6
CONTINUOUS
 62
1
 10
214.179255
 20
181.555349
 11
214.177893
 21
181.575468
  0
LINE
  8
0
  6
CONTINUOUS
 62
1
 10
214.177893
 20
181.575468
 11
214.178261
 21
181.576431
  0
ARC
  8
0
  6
CONTINUOUS
 62
1
 10
213.952330
 20
182.339362
 40
0.230273
 50
258.118029
 51
265.902178
  0
LINE
  8
0
  6
CONTINUOUS
 62
1
 10
214.025121
 20
182.102561
 11
213.979104
 21
182.105851
  0
LINE
  8
0
  6
CONTINUOUS
 62
1
 10
213.979104
 20
182.105851
 11
213.935875
 21
182.109678
  0
ARC
  8
0
  6
CONTINUOUS
 62
1
 10
214.109839
 20
182.879858
 40
0.781900
 50
263.779799
 51
272.160903
  0
LINE
  8
0
  6
CONTINUOUS
 62
1
 10
214.520234
 20
180.238629
 11
214.488717
 21
180.335432
  0
ARC
  8
0
  6
CONTINUOUS
 62
1
 10
214.645370
 20
180.330506
 40
0.028814
 50
15.902098
 51
92.360703
  0
ARC
  8
0
  6
CONTINUOUS
 62
1
 10
214.636112
 20
180.327207
 40
0.038627
 50
316.820873
 51
16.845097
  0
LINE
  8
0
  6
CONTINUOUS
 62
1
 10
214.676804
 20
180.259770
 11
214.664279
 21
180.300775
  0
LINE
  8
0
  6
CONTINUOUS
 62
1
 10
214.617533
 20
180.394224
 11
214.644604
 21
180.400187
  0
LINE
  8
0
  6
CONTINUOUS
 62
1
 10
214.644604
 20
180.400187
 11
214.653457
 21
180.398163
  0
ARC
  8
0
  6
CONTINUOUS
 62
1
 10
214.646000
 20
180.325791
 40
0.074117
 50
112.586455
 51
199.073205
  0
LINE
  8
0
  6
CONTINUOUS
 62
1
 10
214.582008
 20
180.289006
 11
214.575951
 21
180.301571
  0
LINE
  8
0
  6
CONTINUOUS
 62
1
 10
214.544465
 20
180.282426
 11
214.582008
 21
180.289006
  0
LINE
  8
0
  6
CONTINUOUS
 62
1
 10
214.488717
 20
180.335432
 11
214.522243
 21
180.349893
  0
LINE
  8
0
  6
CONTINUOUS
 62
1
 10
214.926665
 20
179.399583
 11
214.957319
 21
179.423562
  0
LINE
  8
0
  6
CONTINUOUS
 62
1
 10
214.929743
 20
179.391089
 11
214.926665
 21
179.399583
  0
LINE
  8
0
  6
CONTINUOUS
 62
1
 10
214.817483
 20
179.303369
 11
214.929743
 21
179.391089
  0
LINE
  8
0
  6
CONTINUOUS
 62
1
 10
214.823561
 20
179.285866
 11
214.817483
 21
179.303369
  0
LINE
  8
0
  6
CONTINUOUS
 62
1
 10
214.960404
 20
179.415065
 11
214.996215
 21
179.443047
  0
LINE
  8
0
  6
CONTINUOUS
 62
1
 10
214.520449
 20
180.238569
 11
214.488922
 21
180.335403
  0
LINE
  8
0
  6
CONTINUOUS
 62
1
 10
214.488922
 20
180.335403
 11
214.522448
 21
180.349863
  0
LINE
  8
0
  6
CONTINUOUS
 62
1
 10
214.522448
 20
180.349863
 11
214.544677
 21
180.282375
  0
LINE
  8
0
  6
CONTINUOUS
 62
1
 10
214.544677
 20
180.282375
 11
214.582220
 21
180.288953
  0
LINE
  8
0
  6
CONTINUOUS
 62
1
 10
214.582220
 20
180.288953
 11
214.576163
 21
180.301520
  0
ARC
  8
0
  6
CONTINUOUS
 62
1
 10
214.646218
 20
180.325755
 40
0.074129
 50
112.594995
 51
199.081971
  0
ARC
  8
0
  6
CONTINUOUS
 62
1
 10
214.644504
 20
180.334742
 40
0.065199
 50
15.410806
 51
114.238525
  0
ARC
  8
0
  6
CONTINUOUS
 62
1
 10
214.630650
 20
180.326095
 40
0.080986
 50
304.930461
 51
18.705606
  0
LINE
  8
0
  6
CONTINUOUS
 62
1
 10
214.677021
 20
180.259699
 11
214.664494
 21
180.300716
  0
ARC
  8
0
  6
CONTINUOUS
 62
1
 10
214.636305
 20
180.327154
 40
0.038647
 50
316.836004
 51
16.840306
  0
ARC
  8
0
  6
CONTINUOUS
 62
1
 10
214.645204
 20
180.330067
 40
0.029286
 50
16.429484
 51
116.643984
  0
ARC
  8
0
  6
CONTINUOUS
 62
1
 10
214.643979
 20
180.324091
 40
0.034287
 50
110.324156
 51
196.983917
  0
ARC
  8
0
  6
CONTINUOUS
 62
1
 10
214.641806
 20
180.324937
 40
0.032487
 50
199.530302
 51
250.714910
  0
LINE
  8
0
  6
CONTINUOUS
 62
1
 10
214.631076
 20
180.294272
 11
214.634288
 21
180.259550
  0
LINE
  8
0
  6
CONTINUOUS
 62
1
 10
214.634288
 20
180.259550
 11
214.520449
 21
180.238569
  0
LINE
  8
0
  6
CONTINUOUS
 62
1
 10
214.522448
 20
180.349863
 11
214.522243
 21
180.349893
  0
LINE
  8
0
  6
CONTINUOUS
 62
1
 10
214.488922
 20
180.335403
 11
214.488717
 21
180.335432
  0
LINE
  8
0
  6
CONTINUOUS
 62
1
 10
214.520449
 20
180.238569
 11
214.520234
 21
180.238629
  0
LINE
  8
0
  6
CONTINUOUS
 62
1
 10
214.617737
 20
180.394194
 11
214.617636
 21
180.394209
  0
LINE
  8
0
  6
CONTINUOUS
 62
1
 10
214.617636
 20
180.394209
 11
214.617533
 21
180.394224
  0
LINE
  8
0
  6
CONTINUOUS
 62
1
 10
214.576163
 20
180.301520
 11
214.575951
 21
180.301571
  0
LINE
  8
0
  6
CONTINUOUS
 62
1
 10
214.582220
 20
180.288953
 11
214.582008
 21
180.289006
  0
LINE
  8
0
  6
CONTINUOUS
 62
1
 10
214.673294
 20
180.338350
 11
214.673189
 21
180.338377
  0
LINE
  8
0
  6
CONTINUOUS
 62
1
 10
214.673189
 20
180.338377
 11
214.673081
 21
180.338401
  0
LINE
  8
0
  6
CONTINUOUS
 62
1
 10
214.378776
 20
181.757382
 11
214.411660
 21
181.656176
  0
LINE
  8
0
  6
CONTINUOUS
 62
1
 10
214.411660
 20
181.656176
 11
214.448363
 21
181.543213
  0
LINE
  8
0
  6
CONTINUOUS
 62
1
 10
214.448363
 20
181.543213
 11
214.488417
 21
181.419939
  0
LINE
  8
0
  6
CONTINUOUS
 62
1
 10
214.488417
 20
181.419939
 11
214.531312
 21
181.287924
  0
LINE
  8
0
  6
CONTINUOUS
 62
1
 10
214.531312
 20
181.287924
 11
214.576499
 21
181.148851
  0
LINE
  8
0
  6
CONTINUOUS
 62
1
 10
214.576499
 20
181.148851
 11
214.623402
 21
181.004498
  0
LINE
  8
0
  6
CONTINUOUS
 62
1
 10
214.623402
 20
181.004498
 11
214.671424
 21
180.856702
  0
LINE
  8
0
  6
CONTINUOUS
 62
1
 10
214.671424
 20
180.856702
 11
214.719950
 21
180.707354
  0
LINE
  8
0
  6
CONTINUOUS
 62
1
 10
214.719950
 20
180.707354
 11
214.768364
 21
180.558354
  0
LINE
  8
0
  6
CONTINUOUS
 62
1
 10
214.768364
 20
180.558354
 11
214.816045
 21
180.411607
  0
LINE
  8
0
  6
CONTINUOUS
 62
1
 10
214.816045
 20
180.411607
 11
214.862386
 21
180.268985
  0
LINE
  8
0
  6
CONTINUOUS
 62
1
 10
214.862386
 20
180.268985
 11
214.906794
 21
180.132306
  0
LINE
  8
0
  6
CONTINUOUS
 62
1
 10
214.906794
 20
180.132306
 11
214.948707
 21
180.003315
  0
LINE
  8
0
  6
CONTINUOUS
 62
1
 10
214.948707
 20
180.003315
 11
214.987585
 21
179.883656
  0
LINE
  8
0
  6
CONTINUOUS
 62
1
 10
214.987585
 20
179.883656
 11
215.022937
 21
179.774857
  0
LINE
  8
0
  6
CONTINUOUS
 62
1
 10
215.022937
 20
179.774857
 11
215.054308
 21
179.678309
  0
LINE
  8
0
  6
CONTINUOUS
 62
1
 10
214.664494
 20
180.300716
 11
214.664279
 21
180.300775
  0
LINE
  8
0
  6
CONTINUOUS
 62
1
 10
214.677021
 20
180.259699
 11
214.676804
 21
180.259770
  0
LINE
  8
0
  6
CONTINUOUS
 62
1
 10
214.089123
 20
181.551659
 11
214.097655
 21
181.579474
  0
LINE
  8
0
  6
CONTINUOUS
 62
1
 10
214.097655
 20
181.579474
 11
214.179343
 21
181.555680
  0
LINE
  8
0
  6
CONTINUOUS
 62
1
 10
214.179343
 20
181.555680
 11
214.177980
 21
181.575805
  0
LINE
  8
0
  6
CONTINUOUS
 62
1
 10
214.177980
 20
181.575805
 11
214.181403
 21
181.584776
  0
LINE
  8
0
  6
CONTINUOUS
 62
1
 10
214.181403
 20
181.584776
 11
214.187575
 21
181.593076
  0
LINE
  8
0
  6
CONTINUOUS
 62
1
 10
214.187575
 20
181.593076
 11
214.195845
 21
181.599966
  0
LINE
  8
0
  6
CONTINUOUS
 62
1
 10
214.195845
 20
181.599966
 11
214.205922
 21
181.605122
  0
LINE
  8
0
  6
CONTINUOUS
 62
1
 10
214.205922
 20
181.605122
 11
214.230393
 21
181.610218
  0
ARC
  8
0
  6
CONTINUOUS
 62
1
 10
214.240568
 20
181.530504
 40
0.080361
 50
24.484999
 51
97.274313
  0
ARC
  8
0
  6
CONTINUOUS
 62
1
 10
214.267958
 20
181.552602
 40
0.047098
 50
265.534130
 51
13.766119
  0
LINE
  8
0
  6
CONTINUOUS
 62
1
 10
214.264290
 20
181.505647
 11
214.236833
 21
181.508121
  0
LINE
  8
0
  6
CONTINUOUS
 62
1
 10
214.236833
 20
181.508121
 11
214.209742
 21
181.515664
  0
LINE
  8
0
  6
CONTINUOUS
 62
1
 10
214.209742
 20
181.515664
 11
214.089123
 21
181.551659
  0
ARC
  8
0
  6
CONTINUOUS
 62
1
 10
214.244280
 20
181.544874
 40
0.035390
 50
26.436830
 51
97.063699
  0
LINE
  8
0
  6
CONTINUOUS
 62
1
 10
214.239928
 20
181.579995
 11
214.229498
 21
181.577817
  0
LINE
  8
0
  6
CONTINUOUS
 62
1
 10
214.229498
 20
181.577817
 11
214.225105
 21
181.575558
  0
LINE
  8
0
  6
CONTINUOUS
 62
1
 10
214.225105
 20
181.575558
 11
214.221618
 21
181.572643
  0
LINE
  8
0
  6
CONTINUOUS
 62
1
 10
214.221618
 20
181.572643
 11
214.219033
 21
181.569082
  0
LINE
  8
0
  6
CONTINUOUS
 62
1
 10
214.219033
 20
181.569082
 11
214.217608
 21
181.565166
  0
LINE
  8
0
  6
CONTINUOUS
 62
1
 10
214.217608
 20
181.565166
 11
214.217405
 21
181.560901
  0
LINE
  8
0
  6
CONTINUOUS
 62
1
 10
214.217405
 20
181.560901
 11
214.218271
 21
181.556538
  0
ARC
  8
0
  6
CONTINUOUS
 62
1
 10
214.248928
 20
181.571069
 40
0.033927
 50
205.360647
 51
277.864040
  0
LINE
  8
0
  6
CONTINUOUS
 62
1
 10
214.253570
 20
181.537461
 11
214.263913
 21
181.539625
  0
LINE
  8
0
  6
CONTINUOUS
 62
1
 10
214.263913
 20
181.539625
 11
214.271792
 21
181.544802
  0
LINE
  8
0
  6
CONTINUOUS
 62
1
 10
214.271792
 20
181.544802
 11
214.276290
 21
181.552103
  0
LINE
  8
0
  6
CONTINUOUS
 62
1
 10
214.276290
 20
181.552103
 11
214.275970
 21
181.560630
  0
LINE
  8
0
  6
CONTINUOUS
 62
1
 10
214.089123
 20
181.551659
 11
214.089035
 21
181.551326
  0
LINE
  8
0
  6
CONTINUOUS
 62
1
 10
214.264290
 20
181.505647
 11
214.264243
 21
181.505490
  0
LINE
  8
0
  6
CONTINUOUS
 62
1
 10
214.264243
 20
181.505490
 11
214.264196
 21
181.505332
  0
LINE
  8
0
  6
CONTINUOUS
 62
1
 10
214.239842
 20
181.579659
 11
214.229411
 21
181.577480
  0
LINE
  8
0
  6
CONTINUOUS
 62
1
 10
214.229411
 20
181.577480
 11
214.225018
 21
181.575221
  0
LINE
  8
0
  6
CONTINUOUS
 62
1
 10
214.225018
 20
181.575221
 11
214.221531
 21
181.572309
  0
LINE
  8
0
  6
CONTINUOUS
 62
1
 10
214.221531
 20
181.572309
 11
214.218946
 21
181.568748
  0
LINE
  8
0
  6
CONTINUOUS
 62
1
 10
214.218946
 20
181.568748
 11
214.217522
 21
181.564832
  0
LINE
  8
0
  6
CONTINUOUS
 62
1
 10
214.217522
 20
181.564832
 11
214.217317
 21
181.560570
  0
LINE
  8
0
  6
CONTINUOUS
 62
1
 10
214.217317
 20
181.560570
 11
214.218183
 21
181.556207
  0
ARC
  8
0
  6
CONTINUOUS
 62
1
 10
214.244196
 20
181.544539
 40
0.035389
 50
26.445419
 51
97.067841
  0
LINE
  8
0
  6
CONTINUOUS
 62
1
 10
214.276202
 20
181.551776
 11
214.275882
 21
181.560299
  0
LINE
  8
0
  6
CONTINUOUS
 62
1
 10
214.275882
 20
181.560299
 11
214.275925
 21
181.560463
  0
LINE
  8
0
  6
CONTINUOUS
 62
1
 10
214.275925
 20
181.560463
 11
214.275970
 21
181.560630
  0
LINE
  8
0
  6
CONTINUOUS
 62
1
 10
214.239842
 20
181.579659
 11
214.239885
 21
181.579828
  0
LINE
  8
0
  6
CONTINUOUS
 62
1
 10
214.239885
 20
181.579828
 11
214.239928
 21
181.579995
  0
ARC
  8
0
  6
CONTINUOUS
 62
1
 10
214.329505
 20
181.788816
 40
0.059993
 50
16.883791
 51
68.946662
  0
ARC
  8
0
  6
CONTINUOUS
 62
1
 10
214.351692
 20
181.846453
 40
0.001767
 50
196.498560
 51
248.938760
  0
ARC
  8
0
  6
CONTINUOUS
 62
1
 10
215.032523
 20
179.626520
 40
0.059574
 50
326.855409
 51
19.365506
  0
ARC
  8
0
  6
CONTINUOUS
 62
1
 10
215.083772
 20
179.593004
 40
0.001662
 50
145.410534
 51
199.212571
  0
LINE
  8
0
  6
CONTINUOUS
 62
1
 10
214.307148
 20
182.086039
 11
215.255618
 21
181.981310
  0
ARC
  8
0
  6
CONTINUOUS
 62
1
 10
214.280953
 20
181.867525
 40
0.220078
 50
83.164224
 51
86.181435
  0
POLYLINE
  8
0
  6
CONTINUOUS
 62
1
 66
1
 70
2
  0
VERTEX
  8
0
 10
214.295620
 20
182.087083
 70
0
 42
0.000000
  0
VERTEX
  8
0
 10
214.295610
 20
182.087114
 70
0
  0
SEQEND
  0
ARC
  8
0
  6
CONTINUOUS
 62
1
 10
214.315668
 20
182.192050
 40
0.106862
 50
259.187144
 51
265.518402
  0
LINE
  8
0
  6
CONTINUOUS
 62
1
 10
214.307317
 20
182.085514
 11
215.256581
 21
181.978348
  0
LINE
  8
0
  6
CONTINUOUS
 62
1
 10
215.256581
 20
181.978348
 11
215.330072
 21
181.970257
  0
LINE
  8
0
  6
CONTINUOUS
 62
1
 10
214.966694
 20
179.397559
 11
214.978096
 21
179.360196
  0
LINE
  8
0
  6
CONTINUOUS
 62
1
 10
214.978096
 20
179.360196
 11
214.947440
 21
179.336217
  0
LINE
  8
0
  6
CONTINUOUS
 62
1
 10
214.947440
 20
179.336217
 11
214.823868
 21
179.285523
  0
LINE
  8
0
  6
CONTINUOUS
 62
1
 10
214.823868
 20
179.285523
 11
214.817788
 21
179.303032
  0
LINE
  8
0
  6
CONTINUOUS
 62
1
 10
214.817788
 20
179.303032
 11
214.930047
 21
179.390753
  0
LINE
  8
0
  6
CONTINUOUS
 62
1
 10
214.930047
 20
179.390753
 11
214.926969
 21
179.399249
  0
LINE
  8
0
  6
CONTINUOUS
 62
1
 10
214.926969
 20
179.399249
 11
214.957623
 21
179.423228
  0
LINE
  8
0
  6
CONTINUOUS
 62
1
 10
214.957623
 20
179.423228
 11
214.960708
 21
179.414728
  0
LINE
  8
0
  6
CONTINUOUS
 62
1
 10
214.960708
 20
179.414728
 11
214.996520
 21
179.442710
  0
LINE
  8
0
  6
CONTINUOUS
 62
1
 10
214.996520
 20
179.442710
 11
215.002513
 21
179.425532
  0
LINE
  8
0
  6
CONTINUOUS
 62
1
 10
215.002513
 20
179.425532
 11
214.966695
 21
179.397559
  0
LINE
  8
0
  6
CONTINUOUS
 62
1
 10
214.942462
 20
179.353550
 11
214.936027
 21
179.373589
  0
LINE
  8
0
  6
CONTINUOUS
 62
1
 10
214.936027
 20
179.373589
 11
214.877565
 21
179.327935
  0
LINE
  8
0
  6
CONTINUOUS
 62
1
 10
214.877565
 20
179.327935
 11
214.942462
 21
179.353550
  0
LINE
  8
0
  6
CONTINUOUS
 62
1
 10
214.817483
 20
179.303369
 11
214.817788
 21
179.303032
  0
LINE
  8
0
  6
CONTINUOUS
 62
1
 10
214.929743
 20
179.391089
 11
214.930047
 21
179.390753
  0
LINE
  8
0
  6
CONTINUOUS
 62
1
 10
214.823561
 20
179.285866
 11
214.823868
 21
179.285523
  0
LINE
  8
0
  6
CONTINUOUS
 62
1
 10
214.926665
 20
179.399583
 11
214.926969
 21
179.399249
  0
LINE
  8
0
  6
CONTINUOUS
 62
1
 10
214.957319
 20
179.423562
 11
214.957623
 21
179.423228
  0
LINE
  8
0
  6
CONTINUOUS
 62
1
 10
214.996216
 20
179.443047
 11
214.996520
 21
179.442710
  0
LINE
  8
0
  6
CONTINUOUS
 62
1
 10
214.877259
 20
179.328278
 11
214.942153
 21
179.353896
  0
LINE
  8
0
  6
CONTINUOUS
 62
1
 10
214.942153
 20
179.353896
 11
214.942462
 21
179.353550
  0
LINE
  8
0
  6
CONTINUOUS
 62
1
 10
214.942153
 20
179.353896
 11
214.935722
 21
179.373932
  0
LINE
  8
0
  6
CONTINUOUS
 62
1
 10
215.425007
 20
181.773481
 11
215.484014
 21
181.591875
  0
LINE
  8
0
  6
CONTINUOUS
 62
1
 10
215.484014
 20
181.591875
 11
215.543816
 21
181.407821
  0
LINE
  8
0
  6
CONTINUOUS
 62
1
 10
215.543816
 20
181.407821
 11
215.604177
 21
181.222052
  0
LINE
  8
0
  6
CONTINUOUS
 62
1
 10
215.604177
 20
181.222052
 11
215.664856
 21
181.035301
  0
LINE
  8
0
  6
CONTINUOUS
 62
1
 10
215.664856
 20
181.035301
 11
215.725616
 21
180.848304
  0
LINE
  8
0
  6
CONTINUOUS
 62
1
 10
215.725616
 20
180.848304
 11
215.786213
 21
180.661801
  0
LINE
  8
0
  6
CONTINUOUS
 62
1
 10
215.786213
 20
180.661801
 11
215.846411
 21
180.476532
  0
LINE
  8
0
  6
CONTINUOUS
 62
1
 10
215.846411
 20
180.476532
 11
215.905971
 21
180.293229
  0
LINE
  8
0
  6
CONTINUOUS
 62
1
 10
215.372241
 20
181.935880
 11
215.374747
 21
181.928164
  0
LINE
  8
0
  6
CONTINUOUS
 62
1
 10
215.374747
 20
181.928164
 11
215.378467
 21
181.916717
  0
LINE
  8
0
  6
CONTINUOUS
 62
1
 10
215.378467
 20
181.916717
 11
215.383382
 21
181.901589
  0
LINE
  8
0
  6
CONTINUOUS
 62
1
 10
215.383382
 20
181.901589
 11
215.389473
 21
181.882844
  0
LINE
  8
0
  6
CONTINUOUS
 62
1
 10
215.389473
 20
181.882844
 11
215.396715
 21
181.860557
  0
LINE
  8
0
  6
CONTINUOUS
 62
1
 10
215.396715
 20
181.860557
 11
215.405074
 21
181.834829
  0
LINE
  8
0
  6
CONTINUOUS
 62
1
 10
215.405074
 20
181.834829
 11
215.414518
 21
181.805763
  0
LINE
  8
0
  6
CONTINUOUS
 62
1
 10
215.414518
 20
181.805763
 11
215.425007
 21
181.773481
  0
ARC
  8
0
  6
CONTINUOUS
 62
1
 10
215.324527
 20
181.920403
 40
0.050161
 50
17.971362
 51
83.653206
  0
LINE
  8
0
  6
CONTINUOUS
 62
1
 10
215.905971
 20
180.293229
 11
215.927014
 21
180.228463
  0
LINE
  8
0
  6
CONTINUOUS
 62
1
 10
215.927014
 20
180.228463
 11
215.942121
 21
180.181968
  0
LINE
  8
0
  6
CONTINUOUS
 62
1
 10
215.942121
 20
180.181968
 11
215.950953
 21
180.154786
  0
LINE
  8
0
  6
CONTINUOUS
 62
1
 10
215.950953
 20
180.154786
 11
215.953376
 21
180.147329
  0
ARC
  8
0
  6
CONTINUOUS
 62
1
 10
213.208311
 20
183.597631
 40
3.132221
 50
286.984897
 51
288.814224
  0
LINE
  8
0
  6
CONTINUOUS
 62
1
 10
214.121977
 20
180.606088
 11
214.217082
 21
180.636990
  0
LINE
  8
0
  6
CONTINUOUS
 62
1
 10
214.302902
 20
180.372861
 11
214.207726
 21
180.342177
  0
LINE
  8
0
  6
CONTINUOUS
 62
1
 10
213.904952
 20
182.114521
 11
213.906965
 21
182.114694
  0
LINE
  8
0
  6
CONTINUOUS
 62
1
 10
213.906965
 20
182.114694
 11
213.913051
 21
182.114351
  0
LINE
  8
0
  6
CONTINUOUS
 62
1
 10
214.132197
 20
182.099778
 11
214.137018
 21
182.099441
  0
LINE
  8
0
  6
CONTINUOUS
 62
1
 10
214.137018
 20
182.099441
 11
214.139356
 21
182.099015
  0
ARC
  8
0
  6
CONTINUOUS
 62
1
 10
214.109805
 20
182.878988
 40
0.780533
 50
263.773945
 51
272.169744
  0
LINE
  8
0
  6
CONTINUOUS
 62
1
 10
214.025155
 20
182.103059
 11
213.979137
 21
182.106349
  0
LINE
  8
0
  6
CONTINUOUS
 62
1
 10
213.979137
 20
182.106349
 11
213.935909
 21
182.110179
  0
ARC
  8
0
  6
CONTINUOUS
 62
1
 10
213.942282
 20
182.268135
 40
0.158085
 50
256.341333
 51
267.689694
  0
ARC
  8
0
  6
CONTINUOUS
 62
1
 10
214.076044
 20
181.915870
 40
0.187280
 50
82.684798
 51
87.486034
  0
LINE
  8
0
  6
CONTINUOUS
 62
1
 10
214.084259
 20
182.102969
 11
214.053941
 21
182.105002
  0
LINE
  8
0
  6
CONTINUOUS
 62
1
 10
214.053941
 20
182.105002
 11
214.022234
 21
182.107109
  0
ARC
  8
0
  6
CONTINUOUS
 62
1
 10
213.885203
 20
180.516344
 40
1.596657
 50
85.076589
 51
87.842605
  0
ARC
  8
0
  6
CONTINUOUS
 62
1
 10
214.056707
 20
182.993137
 40
0.888282
 50
262.795622
 51
267.996906
  0
ARC
  8
0
  6
CONTINUOUS
 62
1
 10
214.101703
 20
182.869418
 40
0.767794
 50
264.315945
 51
269.864713
  0
LINE
  8
0
  6
CONTINUOUS
 62
1
 10
213.935909
 20
182.110179
 11
213.935891
 21
182.109928
  0
LINE
  8
0
  6
CONTINUOUS
 62
1
 10
213.935891
 20
182.109928
 11
213.935875
 21
182.109678
  0
LINE
  8
0
  6
CONTINUOUS
 62
1
 10
214.025155
 20
182.103059
 11
214.025139
 21
182.102809
  0
LINE
  8
0
  6
CONTINUOUS
 62
1
 10
214.025139
 20
182.102809
 11
214.025121
 21
182.102561
  0
LINE
  8
0
  6
CONTINUOUS
 62
1
 10
214.139356
 20
182.099015
 11
214.139338
 21
182.098764
  0
LINE
  8
0
  6
CONTINUOUS
 62
1
 10
214.139338
 20
182.098764
 11
214.139322
 21
182.098514
  0
LINE
  8
0
  6
CONTINUOUS
 62
1
 10
213.904952
 20
182.114521
 11
213.904934
 21
182.114271
  0
LINE
  8
0
  6
CONTINUOUS
 62
1
 10
213.904934
 20
182.114271
 11
213.904918
 21
182.114023
  0
ARC
  8
0
  6
CONTINUOUS
 62
1
 10
213.768770
 20
178.884984
 40
3.231380
 50
85.907837
 51
86.819316
  0
LINE
  8
0
  6
CONTINUOUS
 62
1
 10
214.084226
 20
182.102472
 11
214.053908
 21
182.104504
  0
LINE
  8
0
  6
CONTINUOUS
 62
1
 10
214.053908
 20
182.104504
 11
214.022202
 21
182.106608
  0
ARC
  8
0
  6
CONTINUOUS
 62
1
 10
214.054922
 20
181.631908
 40
0.471475
 50
84.909930
 51
86.436532
  0
LINE
  8
0
  6
CONTINUOUS
 62
1
 10
214.022202
 20
182.106608
 11
214.022234
 21
182.107109
  0
LINE
  8
0
  6
CONTINUOUS
 62
1
 10
213.945276
 20
182.111371
 11
213.945292
 21
182.111618
  0
LINE
  8
0
  6
CONTINUOUS
 62
1
 10
213.945292
 20
182.111618
 11
213.945309
 21
182.111868
  0
LINE
  8
0
  6
CONTINUOUS
 62
1
 10
214.084226
 20
182.102472
 11
214.084243
 21
182.102719
  0
LINE
  8
0
  6
CONTINUOUS
 62
1
 10
214.084243
 20
182.102719
 11
214.084259
 21
182.102969
  0
LINE
  8
0
  6
CONTINUOUS
 62
1
 10
214.099858
 20
182.101128
 11
214.099874
 21
182.101375
  0
LINE
  8
0
  6
CONTINUOUS
 62
1
 10
214.099874
 20
182.101375
 11
214.099890
 21
182.101625
  0
LINE
  8
0
  6
CONTINUOUS
 62
1
 10
215.372241
 20
181.935880
 11
215.371277
 21
181.938845
  0
ARC
  8
0
  6
CONTINUOUS
 62
1
 10
213.520967
 20
175.951457
 40
0.100000
 50
90.000000
 51
180.000000
  0
LINE
  8
0
  6
CONTINUOUS
 62
1
 10
213.420967
 20
175.951457
 11
213.420967
 21
175.901458
  0
ARC
  8
0
  6
CONTINUOUS
 62
1
 10
214.120967
 20
175.926457
 40
0.330719
 50
54.879646
 51
130.893395
  0
ARC
  8
0
  6
CONTINUOUS
 62
1
 10
214.120967
 20
176.051457
 40
0.325000
 50
121.349857
 51
157.380135
  0
ARC
  8
0
  6
CONTINUOUS
 62
1
 10
214.120967
 20
176.051457
 40
0.250000
 50
59.230443
 51
150.000000
  0
LINE
  8
0
  6
CONTINUOUS
 62
1
 10
214.986286
 20
176.001457
 11
214.495968
 21
176.001457
  0
LINE
  8
0
  6
CONTINUOUS
 62
1
 10
215.345967
 20
176.001457
 11
214.986286
 21
176.001457
  0
LINE
  8
0
  6
CONTINUOUS
 62
1
 10
214.982444
 20
176.026458
 11
214.520967
 21
176.026458
  0
LINE
  8
0
  6
CONTINUOUS
 62
1
 10
215.320967
 20
176.026458
 11
214.982444
 21
176.026458
  0
LINE
  8
0
  6
CONTINUOUS
 62
1
 10
214.986286
 20
175.926456
 11
214.495968
 21
175.926456
  0
LINE
  8
0
  6
CONTINUOUS
 62
1
 10
215.345967
 20
175.926456
 11
214.986286
 21
175.926456
  0
LINE
  8
0
  6
CONTINUOUS
 62
1
 10
215.320967
 20
175.901458
 11
215.318467
 21
175.901458
  0
LINE
  8
0
  6
CONTINUOUS
 62
1
 10
215.276763
 20
149.601457
 11
215.345967
 21
149.601457
  0
LINE
  8
0
  6
CONTINUOUS
 62
1
 10
214.495968
 20
149.601457
 11
215.276763
 21
149.601457
  0
LINE
  8
0
  6
CONTINUOUS
 62
1
 10
215.255834
 20
149.576457
 11
215.320967
 21
149.576457
  0
LINE
  8
0
  6
CONTINUOUS
 62
1
 10
214.920967
 20
149.576457
 11
215.255834
 21
149.576457
  0
LINE
  8
0
  6
CONTINUOUS
 62
1
 10
215.276763
 20
149.676457
 11
215.345967
 21
149.676457
  0
LINE
  8
0
  6
CONTINUOUS
 62
1
 10
214.495968
 20
149.676457
 11
215.276763
 21
149.676457
  0
LINE
  8
0
  6
CONTINUOUS
 62
1
 10
215.318467
 20
149.701457
 11
215.320967
 21
149.701457
  0
LINE
  8
0
  6
CONTINUOUS
 62
1
 10
214.693886
 20
149.701457
 11
214.688663
 21
149.691912
  0
LINE
  8
0
  6
CONTINUOUS
 62
1
 10
214.688663
 20
149.691912
 11
214.688415
 21
149.691457
  0
LINE
  8
0
  6
CONTINUOUS
 62
1
 10
214.705158
 20
149.691457
 11
214.688415
 21
149.691457
  0
LINE
  8
0
  6
CONTINUOUS
 62
1
 10
214.705158
 20
149.691457
 11
214.705408
 21
149.691912
  0
LINE
  8
0
  6
CONTINUOUS
 62
1
 10
214.705408
 20
149.691912
 11
214.710629
 21
149.701457
  0
LINE
  8
0
  6
CONTINUOUS
 62
1
 10
214.693886
 20
149.691457
 11
214.693886
 21
149.701457
  0
LINE
  8
0
  6
CONTINUOUS
 62
1
 10
215.500967
 20
151.301156
 11
215.500967
 21
154.101738
  0
LINE
  8
0
  6
CONTINUOUS
 62
1
 10
215.420968
 20
154.201457
 11
215.500967
 21
154.201457
  0
LINE
  8
0
  6
CONTINUOUS
 62
1
 10
215.500967
 20
154.101738
 11
215.500967
 21
154.201457
  0
LINE
  8
0
  6
CONTINUOUS
 62
1
 10
215.500967
 20
151.201457
 11
215.500967
 21
151.301156
  0
LINE
  8
0
  6
CONTINUOUS
 62
1
 10
215.420968
 20
151.201457
 11
215.500967
 21
151.201457
  0
LINE
  8
0
  6
CONTINUOUS
 62
1
 10
215.570967
 20
154.074571
 11
215.570967
 21
151.328343
  0
ARC
  8
0
  6
CONTINUOUS
 62
1
 10
215.420965
 20
154.074570
 40
0.150003
 50
0.000405
 51
57.768347
  0
ARC
  8
0
  6
CONTINUOUS
 62
1
 10
215.420963
 20
151.328345
 40
0.150004
 50
302.231931
 51
359.999246
  0
LINE
  8
0
  6
CONTINUOUS
 62
1
 10
217.150198
 20
172.668573
 11
217.144983
 21
172.666531
  0
LINE
  8
0
  6
CONTINUOUS
 62
1
 10
217.207228
 20
174.128916
 11
217.227523
 21
174.128922
  0
LINE
  8
0
  6
CONTINUOUS
 62
1
 10
217.443328
 20
172.729798
 11
217.436229
 21
172.732149
  0
LINE
  8
0
  6
CONTINUOUS
 62
1
 10
217.436229
 20
172.732149
 11
217.420371
 21
172.735988
  0
LINE
  8
0
  6
CONTINUOUS
 62
1
 10
217.444198
 20
172.727449
 11
217.450537
 21
172.727408
  0
LINE
  8
0
  6
CONTINUOUS
 62
1
 10
217.265992
 20
174.121866
 11
217.144983
 21
174.136384
  0
ARC
  8
0
  6
CONTINUOUS
 62
1
 10
217.164509
 20
173.007334
 40
0.341362
 50
266.720869
 51
349.571758
  0
LINE
  8
0
  6
CONTINUOUS
 62
1
 10
217.500232
 20
172.945546
 11
217.528470
 21
172.953543
  0
LINE
  8
0
  6
CONTINUOUS
 62
1
 10
217.528470
 20
172.953543
 11
217.631130
 21
172.954385
  0
LINE
  8
0
  6
CONTINUOUS
 62
1
 10
217.631130
 20
172.954385
 11
217.815902
 21
172.954339
  0
LINE
  8
0
  6
CONTINUOUS
 62
1
 10
217.815902
 20
172.954339
 11
217.973693
 21
172.954306
  0
LINE
  8
0
  6
CONTINUOUS
 62
1
 10
217.973693
 20
172.954306
 11
218.123420
 21
172.954282
  0
LINE
  8
0
  6
CONTINUOUS
 62
1
 10
218.123420
 20
172.954282
 11
218.184538
 21
172.954279
  0
LINE
  8
0
  6
CONTINUOUS
 62
1
 10
218.184538
 20
172.954279
 11
218.211653
 21
172.954281
  0
LINE
  8
0
  6
CONTINUOUS
 62
1
 10
218.211653
 20
172.954281
 11
218.224047
 21
172.952753
  0
LINE
  8
0
  6
CONTINUOUS
 62
1
 10
218.224047
 20
172.952753
 11
218.234222
 21
172.943004
  0
ARC
  8
0
  6
CONTINUOUS
 62
1
 10
217.891633
 20
173.013661
 40
0.349799
 50
267.040847
 51
348.346421
  0
ARC
  8
0
  6
CONTINUOUS
 62
1
 10
217.891636
 20
173.789256
 40
0.349796
 50
11.653316
 51
92.959713
  0
LINE
  8
0
  6
CONTINUOUS
 62
1
 10
217.385136
 20
172.746873
 11
217.399581
 21
172.741352
  0
LINE
  8
0
  6
CONTINUOUS
 62
1
 10
217.399581
 20
172.741352
 11
217.450537
 21
172.727408
  0
LINE
  8
0
  6
CONTINUOUS
 62
1
 10
218.225272
 20
173.867391
 11
218.234222
 21
173.859911
  0
LINE
  8
0
  6
CONTINUOUS
 62
1
 10
218.234222
 20
172.943004
 11
218.225272
 21
172.935522
  0
LINE
  8
0
  6
CONTINUOUS
 62
1
 10
217.164518
 20
172.674011
 11
217.161195
 21
172.674012
  0
LINE
  8
0
  6
CONTINUOUS
 62
1
 10
217.144983
 20
172.666531
 11
217.159067
 21
172.673485
  0
LINE
  8
0
  6
CONTINUOUS
 62
1
 10
217.159067
 20
172.673485
 11
217.161195
 21
172.674012
  0
LINE
  8
0
  6
CONTINUOUS
 62
1
 10
212.595967
 20
149.726457
 11
212.595967
 21
150.226457
  0
LINE
  8
0
  6
CONTINUOUS
 62
1
 10
212.470967
 20
150.476457
 11
212.595967
 21
150.476457
  0
LINE
  8
0
  6
CONTINUOUS
 62
1
 10
212.595967
 20
150.226457
 11
212.595967
 21
150.476457
  0
LINE
  8
0
  6
CONTINUOUS
 62
1
 10
212.745966
 20
149.576457
 11
214.920967
 21
149.576457
  0
LINE
  8
0
  6
CONTINUOUS
 62
1
 10
212.745966
 20
149.451457
 11
214.920967
 21
149.451457
  0
ARC
  8
0
  6
CONTINUOUS
 62
1
 10
212.745967
 20
149.726457
 40
0.275000
 50
180.000000
 51
270.000000
  0
ARC
  8
0
  6
CONTINUOUS
 62
1
 10
212.745967
 20
149.726457
 40
0.150000
 50
180.000000
 51
270.000000
  0
LINE
  8
0
  6
CONTINUOUS
 62
1
 10
214.920967
 20
149.576457
 11
215.320967
 21
149.576457
  0
LINE
  8
0
  6
CONTINUOUS
 62
1
 10
214.920967
 20
149.451457
 11
215.320967
 21
149.451457
  0
ARC
  8
0
  6
CONTINUOUS
 62
1
 10
212.745967
 20
176.326457
 40
0.275000
 50
180.000000
 51
270.000000
  0
ARC
  8
0
  6
CONTINUOUS
 62
1
 10
212.745967
 20
176.326457
 40
0.150000
 50
180.000000
 51
270.000000
  0
LINE
  8
0
  6
CONTINUOUS
 62
1
 10
212.595967
 20
176.326457
 11
212.595967
 21
176.537073
  0
LINE
  8
0
  6
CONTINUOUS
 62
1
 10
212.745966
 20
176.176456
 11
214.920967
 21
176.176456
  0
LINE
  8
0
  6
CONTINUOUS
 62
1
 10
212.745966
 20
176.051456
 11
214.920967
 21
176.051456
  0
LINE
  8
0
  6
CONTINUOUS
 62
1
 10
214.920967
 20
176.176456
 11
215.320967
 21
176.176456
  0
LINE
  8
0
  6
CONTINUOUS
 62
1
 10
214.920967
 20
176.051456
 11
215.320967
 21
176.051456
  0
LINE
  8
0
  6
CONTINUOUS
 62
1
 10
215.115968
 20
176.201457
 11
214.725967
 21
176.201457
  0
LINE
  8
0
  6
CONTINUOUS
 62
1
 10
214.725967
 20
149.426457
 11
215.115968
 21
149.426457
  0
LINE
  8
0
  6
CONTINUOUS
 62
1
 10
214.725967
 20
176.201457
 11
214.685966
 21
176.201457
  0
LINE
  8
0
  6
CONTINUOUS
 62
1
 10
212.470967
 20
176.183629
 11
212.477313
 21
176.173675
  0
LINE
  8
0
  6
CONTINUOUS
 62
1
 10
212.477313
 20
176.173675
 11
212.482304
 21
176.166457
  0
LINE
  8
0
  6
CONTINUOUS
 62
1
 10
212.616384
 20
176.066458
 11
212.652317
 21
176.056740
  0
LINE
  8
0
  6
CONTINUOUS
 62
1
 10
212.652317
 20
176.056740
 11
212.705967
 21
176.051456
  0
LINE
  8
0
  6
CONTINUOUS
 62
1
 10
212.705967
 20
176.051456
 11
212.745966
 21
176.051456
  0
ARC
  8
0
  6
CONTINUOUS
 62
1
 10
214.040967
 20
176.016457
 40
0.325000
 50
29.492373
 51
150.507627
  0
LINE
  8
0
  6
CONTINUOUS
 62
1
 10
212.615967
 20
176.066458
 11
212.656385
 21
176.066458
  0
ARC
  8
0
  6
CONTINUOUS
 62
1
 10
212.615967
 20
175.991457
 40
0.075000
 50
90.000000
 51
180.000000
  0
LINE
  8
0
  6
CONTINUOUS
 62
1
 10
212.540967
 20
175.516457
 11
212.540967
 21
175.991458
  0
ARC
  8
0
  6
CONTINUOUS
 62
1
 10
212.615967
 20
175.991457
 40
0.175000
 50
116.809659
 51
145.952268
  0
ARC
  8
0
  6
CONTINUOUS
 62
1
 10
213.594453
 20
176.241457
 40
0.075000
 50
299.926435
 51
333.256316
  0
ARC
  8
0
  6
CONTINUOUS
 62
1
 10
214.040967
 20
176.016457
 40
0.425000
 50
26.743684
 51
153.256316
  0
ARC
  8
0
  6
CONTINUOUS
 62
1
 10
214.487481
 20
176.241457
 40
0.075000
 50
206.743684
 51
240.073565
  0
LINE
  8
0
  6
CONTINUOUS
 62
1
 10
215.309936
 20
176.200658
 11
215.243441
 21
176.176456
  0
LINE
  8
0
  6
CONTINUOUS
 62
1
 10
215.320967
 20
176.098257
 11
215.344139
 21
176.106689
  0
LINE
  8
0
  6
CONTINUOUS
 62
1
 10
215.544859
 20
176.286164
 11
215.579061
 21
176.192194
  0
LINE
  8
0
  6
CONTINUOUS
 62
1
 10
215.579061
 20
176.192194
 11
215.574548
 21
176.190552
  0
LINE
  8
0
  6
CONTINUOUS
 62
1
 10
215.574548
 20
176.190552
 11
215.561179
 21
176.185686
  0
LINE
  8
0
  6
CONTINUOUS
 62
1
 10
215.561179
 20
176.185686
 11
215.539469
 21
176.177785
  0
LINE
  8
0
  6
CONTINUOUS
 62
1
 10
215.539469
 20
176.177785
 11
215.510254
 21
176.167152
  0
LINE
  8
0
  6
CONTINUOUS
 62
1
 10
215.510254
 20
176.167152
 11
215.474655
 21
176.154193
  0
LINE
  8
0
  6
CONTINUOUS
 62
1
 10
215.474655
 20
176.154193
 11
215.434039
 21
176.139412
  0
LINE
  8
0
  6
CONTINUOUS
 62
1
 10
215.434039
 20
176.139412
 11
215.389970
 21
176.123372
  0
LINE
  8
0
  6
CONTINUOUS
 62
1
 10
215.389970
 20
176.123372
 11
215.344139
 21
176.106689
  0
LINE
  8
0
  6
CONTINUOUS
 62
1
 10
215.309936
 20
176.200658
 11
215.355768
 21
176.217342
  0
LINE
  8
0
  6
CONTINUOUS
 62
1
 10
215.355768
 20
176.217342
 11
215.399838
 21
176.233381
  0
LINE
  8
0
  6
CONTINUOUS
 62
1
 10
215.399838
 20
176.233381
 11
215.440452
 21
176.248163
  0
LINE
  8
0
  6
CONTINUOUS
 62
1
 10
215.440452
 20
176.248163
 11
215.476053
 21
176.261121
  0
LINE
  8
0
  6
CONTINUOUS
 62
1
 10
215.476053
 20
176.261121
 11
215.505268
 21
176.271755
  0
LINE
  8
0
  6
CONTINUOUS
 62
1
 10
215.505268
 20
176.271755
 11
215.526977
 21
176.279655
  0
LINE
  8
0
  6
CONTINUOUS
 62
1
 10
215.526977
 20
176.279655
 11
215.540345
 21
176.284522
  0
LINE
  8
0
  6
CONTINUOUS
 62
1
 10
215.540345
 20
176.284522
 11
215.544859
 21
176.286164
  0
LINE
  8
0
  6
CONTINUOUS
 62
1
 10
212.427432
 20
183.511457
 11
212.475968
 21
183.511457
  0
LINE
  8
0
  6
CONTINUOUS
 62
1
 10
209.494546
 20
184.341458
 11
209.483467
 21
184.341458
  0
LINE
  8
0
  6
CONTINUOUS
 62
1
 10
214.372364
 20
183.091548
 11
214.356666
 21
183.090174
  0
LINE
  8
0
  6
CONTINUOUS
 62
1
 10
214.410848
 20
183.113733
 11
214.411307
 21
183.108482
  0
LINE
  8
0
  6
CONTINUOUS
 62
1
 10
176.710967
 20
183.841458
 11
176.708238
 21
183.841458
  0
LINE
  8
0
  6
CONTINUOUS
 62
1
 10
176.710967
 20
183.841458
 11
176.710967
 21
183.738956
  0
ARC
  8
0
  6
CONTINUOUS
 62
1
 10
157.777422
 20
183.735818
 40
15.786399
 50
0.011390
 51
0.383418
  0
LINE
  8
0
  6
CONTINUOUS
 62
1
 10
173.563467
 20
183.841458
 11
176.708238
 21
183.841458
  0
ARC
  8
0
  6
CONTINUOUS
 62
1
 10
173.565857
 20
199.373143
 40
15.634539
 50
269.615608
 51
269.991244
  0
LINE
  8
0
  6
CONTINUOUS
 62
1
 10
173.563467
 20
175.881458
 11
173.460967
 21
175.881458
  0
LINE
  8
0
  6
CONTINUOUS
 62
1
 10
173.460967
 20
175.881458
 11
173.460967
 21
183.738956
  0
LINE
  8
0
  6
CONTINUOUS
 62
1
 10
174.060966
 20
175.881458
 11
174.060966
 21
183.241102
  0
LINE
  8
0
  6
CONTINUOUS
 62
1
 10
173.563467
 20
175.881458
 11
174.060966
 21
175.881458
  0
LINE
  8
0
  6
CONTINUOUS
 62
1
 10
173.563467
 20
183.738604
 11
174.060966
 21
183.241102
  0
LINE
  8
0
  6
CONTINUOUS
 62
1
 10
176.710967
 20
183.241457
 11
176.710967
 21
183.738956
  0
LINE
  8
0
  6
CONTINUOUS
 62
1
 10
174.061321
 20
183.241457
 11
176.710967
 21
183.241457
  0
LINE
  8
0
  6
CONTINUOUS
 62
1
 10
174.061321
 20
183.241457
 11
173.563820
 21
183.738956
  0
LINE
  8
0
  6
CONTINUOUS
 62
1
 10
173.500967
 20
183.738956
 11
173.460967
 21
183.738956
  0
ARC
  8
0
  6
CONTINUOUS
 62
1
 10
173.563467
 20
183.738957
 40
0.102500
 50
90.000000
 51
180.000000
  0
LINE
  8
0
  6
CONTINUOUS
 62
1
 10
173.563467
 20
183.801457
 11
173.563467
 21
183.841458
  0
ARC
  8
0
  6
CONTINUOUS
 62
1
 10
173.563467
 20
183.738957
 40
0.062500
 50
90.000000
 51
180.000000
  0
LINE
  8
0
  6
CONTINUOUS
 62
1
 10
176.717171
 20
183.841068
 11
176.710967
 21
183.841419
  0
LINE
  8
0
  6
CONTINUOUS
 62
1
 10
176.963502
 20
183.819515
 11
176.960016
 21
183.779669
  0
LINE
  8
0
  6
CONTINUOUS
 62
1
 10
176.960016
 20
183.779669
 11
176.713686
 21
183.801219
  0
LINE
  8
0
  6
CONTINUOUS
 62
1
 10
176.963502
 20
183.819515
 11
176.717171
 21
183.841068
  0
ARC
  8
0
  6
CONTINUOUS
 62
1
 10
173.563467
 20
175.943957
 40
0.102500
 50
217.571869
 51
270.000000
  0
LINE
  8
0
  6
CONTINUOUS
 62
1
 10
174.060966
 20
175.841457
 11
174.060966
 21
175.876811
  0
LINE
  8
0
  6
CONTINUOUS
 62
1
 10
173.603466
 20
175.841457
 11
173.563467
 21
175.841457
  0
LINE
  8
0
  6
CONTINUOUS
 62
1
 10
174.060966
 20
175.778958
 11
174.059765
 21
175.791151
  0
LINE
  8
0
  6
CONTINUOUS
 62
1
 10
174.059765
 20
175.791151
 11
174.056776
 21
175.801456
  0
LINE
  8
0
  6
CONTINUOUS
 62
1
 10
174.100967
 20
175.778958
 11
174.098997
 21
175.798953
  0
LINE
  8
0
  6
CONTINUOUS
 62
1
 10
174.098997
 20
175.798953
 11
174.098467
 21
175.801456
  0
LINE
  8
0
  6
CONTINUOUS
 62
1
 10
174.079708
 20
175.841457
 11
174.070946
 21
175.851435
  0
LINE
  8
0
  6
CONTINUOUS
 62
1
 10
174.070946
 20
175.851435
 11
174.060966
 21
175.860197
  0
LINE
  8
0
  6
CONTINUOUS
 62
1
 10
174.100967
 20
175.541458
 11
174.060966
 21
175.541458
  0
LINE
  8
0
  6
CONTINUOUS
 62
1
 10
174.100967
 20
175.541458
 11
174.100967
 21
175.778958
  0
LINE
  8
0
  6
CONTINUOUS
 62
1
 10
174.060966
 20
175.541458
 11
174.060966
 21
175.778958
  0
LINE
  8
0
  6
CONTINUOUS
 62
1
 10
212.463467
 20
183.643958
 11
212.463467
 21
183.521456
  0
LINE
  8
0
  6
CONTINUOUS
 62
1
 10
212.463467
 20
183.521456
 11
212.427432
 21
183.521456
  0
LINE
  8
0
  6
CONTINUOUS
 62
1
 10
208.331468
 20
183.534959
 11
208.331468
 21
183.643958
  0
LINE
  8
0
  6
CONTINUOUS
 62
1
 10
208.331468
 20
184.278956
 11
208.331468
 21
183.643958
  0
ARC
  8
0
  6
CONTINUOUS
 62
1
 10
208.393467
 20
184.278957
 40
0.062000
 50
90.000000
 51
180.000000
  0
LINE
  8
0
  6
CONTINUOUS
 62
1
 10
209.483467
 20
184.340957
 11
208.393467
 21
184.340957
  0
ARC
  8
0
  6
CONTINUOUS
 62
1
 10
209.483467
 20
184.463957
 40
0.123000
 50
270.000000
 51
0.000000
  0
LINE
  8
0
  6
CONTINUOUS
 62
1
 10
209.606467
 20
185.276458
 11
209.606467
 21
184.463957
  0
LINE
  8
0
  6
CONTINUOUS
 62
1
 10
209.668467
 20
185.276458
 11
209.606467
 21
185.276458
  0
LINE
  8
0
  6
CONTINUOUS
 62
1
 10
209.668467
 20
185.278958
 11
209.668467
 21
185.276458
  0
LINE
  8
0
  6
CONTINUOUS
 62
1
 10
214.234308
 20
185.276458
 11
214.234308
 21
185.278958
  0
LINE
  8
0
  6
CONTINUOUS
 62
1
 10
214.259307
 20
185.276458
 11
214.234308
 21
185.276458
  0
LINE
  8
0
  6
CONTINUOUS
 62
1
 10
214.259307
 20
185.336173
 11
214.259307
 21
185.276458
  0
ARC
  8
0
  6
CONTINUOUS
 62
1
 10
214.234307
 20
184.236457
 40
1.100000
 50
293.500000
 51
88.697711
  0
LINE
  8
0
  6
CONTINUOUS
 62
1
 10
213.347684
 20
182.651457
 11
214.672931
 21
183.227691
  0
LINE
  8
0
  6
CONTINUOUS
 62
1
 10
212.575966
 20
182.651457
 11
213.347684
 21
182.651457
  0
ARC
  8
0
  6
CONTINUOUS
 62
1
 10
212.575967
 20
182.751457
 40
0.100000
 50
180.000000
 51
270.000000
  0
LINE
  8
0
  6
CONTINUOUS
 62
1
 10
212.475968
 20
183.646456
 11
212.475968
 21
182.751456
  0
LINE
  8
0
  6
CONTINUOUS
 62
1
 10
212.475445
 20
183.646456
 11
212.475968
 21
183.646456
  0
ARC
  8
0
  6
CONTINUOUS
 62
1
 10
212.469717
 20
183.643957
 40
0.006250
 50
23.578178
 51
156.421822
  0
LINE
  8
0
  6
CONTINUOUS
 62
1
 10
212.463467
 20
183.646456
 11
212.463989
 21
183.646456
  0
LINE
  8
0
  6
CONTINUOUS
 62
1
 10
212.463467
 20
183.643958
 11
212.463467
 21
183.646456
  0
ARC
  8
0
  6
CONTINUOUS
 62
1
 10
213.584704
 20
183.751817
 40
0.012500
 50
279.942149
 51
99.942149
  0
ARC
  8
0
  6
CONTINUOUS
 62
1
 10
213.609307
 20
183.611457
 40
0.155000
 50
99.942149
 51
260.057851
  0
ARC
  8
0
  6
CONTINUOUS
 62
1
 10
213.584704
 20
183.471097
 40
0.012500
 50
260.057851
 51
80.057851
  0
ARC
  8
0
  6
CONTINUOUS
 62
1
 10
213.609307
 20
183.611457
 40
0.130000
 50
99.942149
 51
260.057851
  0
ARC
  8
0
  6
CONTINUOUS
 62
1
 10
213.633911
 20
183.471097
 40
0.012500
 50
99.942149
 51
279.942149
  0
ARC
  8
0
  6
CONTINUOUS
 62
1
 10
213.609307
 20
183.611457
 40
0.155000
 50
279.942149
 51
80.057851
  0
ARC
  8
0
  6
CONTINUOUS
 62
1
 10
213.633911
 20
183.751817
 40
0.012500
 50
80.057851
 51
260.057851
  0
ARC
  8
0
  6
CONTINUOUS
 62
1
 10
213.609307
 20
183.611457
 40
0.130000
 50
279.942149
 51
80.057851
  0
LINE
  8
0
  6
CONTINUOUS
 62
1
 10
214.234308
 20
185.401458
 11
214.234308
 21
185.278958
  0
LINE
  8
0
  6
CONTINUOUS
 62
1
 10
209.668467
 20
185.401458
 11
214.234308
 21
185.401458
  0
LINE
  8
0
  6
CONTINUOUS
 62
1
 10
209.668467
 20
185.278958
 11
209.668467
 21
185.401458
  0
LINE
  8
0
  6
CONTINUOUS
 62
1
 10
208.330967
 20
184.001458
 11
208.330967
 21
183.901456
  0
LINE
  8
0
  6
CONTINUOUS
 62
1
 10
208.330967
 20
183.901456
 11
208.270967
 21
183.901456
  0
LINE
  8
0
  6
CONTINUOUS
 62
1
 10
208.270967
 20
183.901456
 11
208.270967
 21
184.001458
  0
LINE
  8
0
  6
CONTINUOUS
 62
1
 10
208.270967
 20
184.278956
 11
208.270967
 21
184.001458
  0
LINE
  8
0
  6
CONTINUOUS
 62
1
 10
208.330967
 20
184.278956
 11
208.330967
 21
184.001458
  0
ARC
  8
0
  6
CONTINUOUS
 62
1
 10
208.393467
 20
184.278957
 40
0.122500
 50
90.000000
 51
180.000000
  0
ARC
  8
0
  6
CONTINUOUS
 62
1
 10
208.393467
 20
184.278957
 40
0.062500
 50
90.000000
 51
180.000000
  0
LINE
  8
0
  6
CONTINUOUS
 62
1
 10
209.483467
 20
184.401456
 11
208.393467
 21
184.401456
  0
LINE
  8
0
  6
CONTINUOUS
 62
1
 10
209.483467
 20
184.341458
 11
208.393467
 21
184.341458
  0
ARC
  8
0
  6
CONTINUOUS
 62
1
 10
209.483467
 20
184.463957
 40
0.122500
 50
270.000000
 51
0.000000
  0
ARC
  8
0
  6
CONTINUOUS
 62
1
 10
209.483467
 20
184.463957
 40
0.062500
 50
270.000000
 51
0.000000
  0
LINE
  8
0
  6
CONTINUOUS
 62
1
 10
209.605967
 20
185.278958
 11
209.545967
 21
185.278958
  0
LINE
  8
0
  6
CONTINUOUS
 62
1
 10
209.605967
 20
185.278958
 11
209.605967
 21
184.463957
  0
LINE
  8
0
  6
CONTINUOUS
 62
1
 10
209.545967
 20
185.278958
 11
209.545967
 21
184.463957
  0
LINE
  8
0
  6
CONTINUOUS
 62
1
 10
213.516370
 20
182.719350
 11
213.540295
 21
182.664329
  0
LINE
  8
0
  6
CONTINUOUS
 62
1
 10
213.516370
 20
182.719350
 11
214.674925
 21
183.223105
  0
LINE
  8
0
  6
CONTINUOUS
 62
1
 10
213.540295
 20
182.664329
 11
214.698850
 21
183.168081
  0
ARC
  8
0
  6
CONTINUOUS
 62
1
 10
214.234307
 20
184.236457
 40
1.165000
 50
293.500000
 51
88.770382
  0
ARC
  8
0
  6
CONTINUOUS
 62
1
 10
214.234307
 20
184.236457
 40
1.105000
 50
293.500000
 51
88.703605
  0
LINE
  8
0
  6
CONTINUOUS
 62
1
 10
214.259307
 20
185.341174
 11
214.259307
 21
185.401190
  0
ARC
  8
0
  6
CONTINUOUS
 62
1
 10
209.668467
 20
185.278957
 40
0.062500
 50
90.000000
 51
180.000000
  0
ARC
  8
0
  6
CONTINUOUS
 62
1
 10
209.668467
 20
185.278957
 40
0.122500
 50
90.000000
 51
180.000000
  0
ARC
  8
0
  6
CONTINUOUS
 62
1
 10
214.234307
 20
184.236457
 40
1.165000
 50
88.770382
 51
90.000000
  0
ARC
  8
0
  6
CONTINUOUS
 62
1
 10
214.234307
 20
184.236457
 40
1.105000
 50
88.703605
 51
90.000000
  0
ARC
  8
0
  6
CONTINUOUS
 62
1
 10
177.265967
 20
183.591457
 40
0.050000
 50
180.000000
 51
270.000000
  0
LINE
  8
0
  6
CONTINUOUS
 62
1
 10
182.335967
 20
183.541456
 11
177.265968
 21
183.541456
  0
LINE
  8
0
  6
CONTINUOUS
 62
1
 10
177.215967
 20
183.591458
 11
177.215967
 21
185.395313
  0
LINE
  8
0
  6
CONTINUOUS
 62
1
 10
182.385967
 20
183.895314
 11
182.385967
 21
183.591458
  0
ARC
  8
0
  6
CONTINUOUS
 62
1
 10
182.335967
 20
183.591457
 40
0.050000
 50
270.000000
 51
0.000000
  0
LINE
  8
0
  6
CONTINUOUS
 62
1
 10
177.215967
 20
185.461456
 11
177.215967
 21
185.395313
  0
LINE
  8
0
  6
CONTINUOUS
 62
1
 10
177.215967
 20
185.361457
 11
177.175968
 21
185.361457
  0
LINE
  8
0
  6
CONTINUOUS
 62
1
 10
177.175968
 20
185.361457
 11
177.175968
 21
185.461456
  0
LINE
  8
0
  6
CONTINUOUS
 62
1
 10
177.215967
 20
185.461456
 11
177.215967
 21
187.800428
  0
LINE
  8
0
  6
CONTINUOUS
 62
1
 10
177.175968
 20
185.461456
 11
177.175968
 21
187.800428
  0
LINE
  8
0
  6
CONTINUOUS
 62
1
 10
177.294644
 20
187.860799
 11
178.959491
 21
187.414706
  0
LINE
  8
0
  6
CONTINUOUS
 62
1
 10
177.304995
 20
187.899438
 11
178.969844
 21
187.453342
  0
ARC
  8
0
  6
CONTINUOUS
 62
1
 10
177.278467
 20
187.800430
 40
0.102500
 50
75.000000
 51
180.000000
  0
ARC
  8
0
  6
CONTINUOUS
 62
1
 10
177.278467
 20
187.800430
 40
0.062500
 50
75.000000
 51
180.000000
  0
ARC
  8
0
  6
CONTINUOUS
 62
1
 10
178.635967
 20
186.207298
 40
1.290000
 50
0.000000
 51
75.000000
  0
ARC
  8
0
  6
CONTINUOUS
 62
1
 10
178.635967
 20
186.207298
 40
1.250000
 50
0.000000
 51
75.000000
  0
ARC
  8
0
  6
CONTINUOUS
 62
1
 10
181.213467
 20
184.463957
 40
0.062500
 50
180.000000
 51
270.000000
  0
ARC
  8
0
  6
CONTINUOUS
 62
1
 10
181.213467
 20
184.463957
 40
0.102500
 50
180.000000
 51
270.000000
  0
LINE
  8
0
  6
CONTINUOUS
 62
1
 10
181.150967
 20
185.298956
 11
181.150967
 21
184.463957
  0
LINE
  8
0
  6
CONTINUOUS
 62
1
 10
181.110967
 20
185.298956
 11
181.110967
 21
184.463957
  0
ARC
  8
0
  6
CONTINUOUS
 62
1
 10
179.988467
 20
185.463957
 40
0.062500
 50
180.000000
 51
270.000000
  0
ARC
  8
0
  6
CONTINUOUS
 62
1
 10
179.988467
 20
185.463957
 40
0.102500
 50
180.000000
 51
270.000000
  0
LINE
  8
0
  6
CONTINUOUS
 62
1
 10
179.925967
 20
186.207298
 11
179.925967
 21
185.463956
  0
LINE
  8
0
  6
CONTINUOUS
 62
1
 10
179.885967
 20
186.207298
 11
179.885967
 21
185.463956
  0
ARC
  8
0
  6
CONTINUOUS
 62
1
 10
181.048467
 20
185.298957
 40
0.102500
 50
0.000000
 51
90.000000
  0
ARC
  8
0
  6
CONTINUOUS
 62
1
 10
181.048467
 20
185.298957
 40
0.062500
 50
0.000000
 51
90.000000
  0
LINE
  8
0
  6
CONTINUOUS
 62
1
 10
179.988467
 20
185.361457
 11
181.048467
 21
185.361457
  0
LINE
  8
0
  6
CONTINUOUS
 62
1
 10
179.988467
 20
185.401458
 11
181.048467
 21
185.401458
  0
LINE
  8
0
  6
CONTINUOUS
 62
1
 10
181.213467
 20
184.401456
 11
182.323467
 21
184.401456
  0
LINE
  8
0
  6
CONTINUOUS
 62
1
 10
181.213467
 20
184.361458
 11
182.323467
 21
184.361458
  0
LINE
  8
0
  6
CONTINUOUS
 62
1
 10
182.425967
 20
184.298957
 11
182.425967
 21
183.961457
  0
LINE
  8
0
  6
CONTINUOUS
 62
1
 10
182.385967
 20
184.298957
 11
182.385967
 21
183.961457
  0
LINE
  8
0
  6
CONTINUOUS
 62
1
 10
182.425967
 20
183.961457
 11
182.425967
 21
183.861456
  0
LINE
  8
0
  6
CONTINUOUS
 62
1
 10
182.425967
 20
183.861456
 11
182.385967
 21
183.861456
  0
LINE
  8
0
  6
CONTINUOUS
 62
1
 10
182.385967
 20
183.895314
 11
182.385967
 21
183.961457
  0
ARC
  8
0
  6
CONTINUOUS
 62
1
 10
182.323467
 20
184.298957
 40
0.062500
 50
0.000000
 51
90.000000
  0
ARC
  8
0
  6
CONTINUOUS
 62
1
 10
182.323467
 20
184.298957
 40
0.102500
 50
0.000000
 51
90.000000
  0
ARC
  8
0
  6
CONTINUOUS
 62
1
 10
213.225890
 20
182.888547
 40
0.400581
 50
288.630869
 51
303.479019
  0
ARC
  8
0
  6
CONTINUOUS
 62
1
 10
215.284881
 20
176.462644
 40
0.220050
 50
70.353017
 51
99.663129
  0
LINE
  8
0
  6
CONTINUOUS
 62
1
 10
215.358867
 20
176.669884
 11
215.320826
 21
176.657525
  0
ARC
  8
0
  6
CONTINUOUS
 62
1
 10
215.250152
 20
176.555388
 40
0.124204
 50
55.318735
 51
91.018577
  0
ARC
  8
0
  6
CONTINUOUS
 62
1
 10
215.400842
 20
176.683973
 40
0.152961
 50
181.648371
 51
224.336207
  0
ARC
  8
0
  6
CONTINUOUS
 62
1
 10
212.337736
 20
176.687159
 40
0.235853
 50
332.176309
 51
358.156811
  0
ARC
  8
0
  6
CONTINUOUS
 62
1
 10
212.337736
 20
182.501372
 40
0.235853
 50
1.843189
 51
27.823691
  0
ARC
  8
0
  6
CONTINUOUS
 62
1
 10
212.466782
 20
182.499764
 40
0.107081
 50
4.925034
 51
42.029232
  0
LINE
  8
0
  6
CONTINUOUS
 62
1
 10
212.546322
 20
182.611457
 11
212.546322
 21
182.571456
  0
ARC
  8
0
  6
CONTINUOUS
 62
1
 10
212.581056
 20
176.443816
 40
0.235879
 50
91.843505
 51
117.821405
  0
LINE
  8
0
  6
CONTINUOUS
 62
1
 10
212.470967
 20
182.536102
 11
212.470967
 21
176.652429
  0
ARC
  8
0
  6
CONTINUOUS
 62
1
 10
212.581056
 20
182.744715
 40
0.235879
 50
242.178595
 51
268.156495
  0
ARC
  8
0
  6
CONTINUOUS
 62
1
 10
212.582657
 20
176.572887
 40
0.107080
 50
94.923130
 51
132.027839
  0
LINE
  8
0
  6
CONTINUOUS
 62
1
 10
212.470967
 20
176.652429
 11
212.510968
 21
176.652429
  0
ARC
  8
0
  6
CONTINUOUS
 62
1
 10
213.754568
 20
182.504524
 40
0.400729
 50
164.523303
 51
179.366019
  0
LINE
  8
0
  6
CONTINUOUS
 62
1
 10
212.470967
 20
182.536102
 11
212.510968
 21
182.536102
  0
ARC
  8
0
  6
CONTINUOUS
 62
1
 10
212.582657
 20
182.615643
 40
0.107080
 50
227.972161
 51
265.076870
  0
LINE
  8
0
  6
CONTINUOUS
 62
1
 10
212.546322
 20
176.577074
 11
212.546322
 21
176.617074
  0
ARC
  8
0
  6
CONTINUOUS
 62
1
 10
212.466782
 20
176.688766
 40
0.107081
 50
317.970768
 51
355.074966
  0
LINE
  8
0
  6
CONTINUOUS
 62
1
 10
213.368370
 20
182.611457
 11
213.368370
 21
182.571456
  0
ARC
  8
0
  6
CONTINUOUS
 62
1
 10
213.513025
 20
182.504948
 40
0.159212
 50
155.308425
 51
178.556921
  0
ARC
  8
0
  6
CONTINUOUS
 62
1
 10
213.300900
 20
182.659037
 40
0.159151
 50
289.438253
 51
312.696471
  0
LINE
  8
0
  6
CONTINUOUS
 62
1
 10
213.446863
 20
182.554427
 11
213.408822
 21
182.542068
  0
LINE
  8
0
  6
CONTINUOUS
 62
1
 10
215.247944
 20
176.679573
 11
215.258165
 21
176.657021
  0
LINE
  8
0
  6
CONTINUOUS
 62
1
 10
215.258165
 20
176.657021
 11
215.268389
 21
176.637507
  0
LINE
  8
0
  6
CONTINUOUS
 62
1
 10
215.268389
 20
176.637507
 11
215.278611
 21
176.623661
  0
LINE
  8
0
  6
CONTINUOUS
 62
1
 10
215.278611
 20
176.623661
 11
215.288835
 21
176.617348
  0
LINE
  8
0
  6
CONTINUOUS
 62
1
 10
215.288835
 20
176.617348
 11
215.291436
 21
176.617074
  0
LINE
  8
0
  6
CONTINUOUS
 62
1
 10
215.291436
 20
176.577074
 11
215.291436
 21
176.617074
  0
LINE
  8
0
  6
CONTINUOUS
 62
1
 10
212.470967
 20
182.746458
 11
212.475968
 21
182.751456
  0
LINE
  8
0
  6
CONTINUOUS
 62
1
 10
176.790966
 20
179.028958
 11
176.790966
 21
179.373956
  0
LINE
  8
0
  6
CONTINUOUS
 62
1
 10
177.010967
 20
179.046458
 11
177.010967
 21
179.356456
  0
LINE
  8
0
  6
CONTINUOUS
 62
1
 10
177.040968
 20
179.058957
 11
177.040968
 21
179.343957
  0
LINE
  8
0
  6
CONTINUOUS
 62
1
 10
176.790966
 20
180.158958
 11
176.790966
 21
180.443958
  0
LINE
  8
0
  6
CONTINUOUS
 62
1
 10
177.003467
 20
180.181456
 11
177.003467
 21
180.421457
  0
LINE
  8
0
  6
CONTINUOUS
 62
1
 10
177.033466
 20
180.193958
 11
177.033466
 21
180.408958
  0
LINE
  8
0
  6
CONTINUOUS
 62
1
 10
176.790966
 20
181.108958
 11
176.790966
 21
181.393957
  0
LINE
  8
0
  6
CONTINUOUS
 62
1
 10
177.003467
 20
181.131458
 11
177.003467
 21
181.371457
  0
LINE
  8
0
  6
CONTINUOUS
 62
1
 10
177.033466
 20
181.143958
 11
177.033466
 21
181.358957
  0
LINE
  8
0
  6
CONTINUOUS
 62
1
 10
176.790966
 20
178.608957
 11
176.790966
 21
178.893957
  0
LINE
  8
0
  6
CONTINUOUS
 62
1
 10
177.033466
 20
178.643957
 11
177.033466
 21
178.858957
  0
LINE
  8
0
  6
CONTINUOUS
 62
1
 10
177.003467
 20
178.631458
 11
177.003467
 21
178.871456
  0
LINE
  8
0
  6
DD_CHAIN67372168
 62
9
 10
215.931237
 20
178.142265
 11
215.944828
 21
178.179884
  0
LINE
  8
0
  6
DD_CHAIN67372168
 62
9
 10
215.057338
 20
178.500506
 11
215.043748
 21
178.462884
  0
LINE
  8
0
  6
DD_CHAIN67372168
 62
9
 10
216.175841
 20
177.325896
 11
216.145139
 21
177.351532
  0
LINE
  8
0
  6
DD_CHAIN67372168
 62
9
 10
215.793382
 20
176.930285
 11
215.824084
 21
176.904649
  0
LINE
  8
0
  6
DD_CHAIN67372168
 62
9
 10
214.795029
 20
178.552738
 11
214.808621
 21
178.590357
  0
LINE
  8
0
  6
DD_CHAIN67372168
 62
9
 10
212.263374
 20
149.319572
 11
212.263374
 21
149.379572
  0
LINE
  8
0
  6
DD_CHAIN67372168
 62
9
 10
212.325874
 20
149.257072
 11
212.385874
 21
149.257072
  0
LINE
  8
0
  6
DD_CHAIN67372168
 62
9
 10
212.570967
 20
176.577074
 11
212.570967
 21
176.537073
  0
LINE
  8
0
  6
DD_CHAIN67372168
 62
9
 10
215.303000
 20
176.537073
 11
215.303000
 21
176.577074
  0
LINE
  8
0
  6
DD_CHAIN67372168
 62
9
 10
213.382925
 20
182.611457
 11
213.382925
 21
182.651457
  0
LINE
  8
0
  6
DD_CHAIN67372168
 62
9
 10
212.570967
 20
182.651457
 11
212.570967
 21
182.611457
  0
LINE
  8
0
  6
DD_CHAIN67372168
 62
9
 10
213.442366
 20
182.568270
 11
213.480409
 21
182.580632
  0
LINE
  8
0
  6
DD_CHAIN67372168
 62
9
 10
215.362442
 20
176.658887
 11
215.400483
 21
176.671249
  0
LINE
  8
0
  6
DD_CHAIN67372168
 62
9
 10
213.925112
 20
182.807616
 11
213.941381
 21
182.771075
  0
LINE
  8
0
  6
DD_CHAIN67372168
 62
9
 10
213.536018
 20
182.590595
 11
213.519749
 21
182.627136
  0
LINE
  8
0
  6
DD_CHAIN67372168
 62
9
 10
213.478129
 20
182.646886
 11
213.442488
 21
182.665044
  0
LINE
  8
0
  6
DD_CHAIN67372168
 62
9
 10
213.474377
 20
182.599196
 11
213.472592
 21
182.598618
  0
LINE
  8
0
  6
DD_CHAIN67372168
 62
9
 10
212.499759
 20
149.603957
 11
212.470967
 21
149.603957
  0
LINE
  8
0
  6
DD_CHAIN67372168
 62
9
 10
212.680967
 20
150.151457
 11
212.640967
 21
150.151457
  0
LINE
  8
0
  6
DD_CHAIN67372168
 62
9
 10
215.318467
 20
175.901458
 11
215.318467
 21
149.701457
  0
LINE
  8
0
  6
DD_CHAIN67372168
 62
9
 10
212.470967
 20
174.443372
 11
212.830967
 21
174.443372
  0
LINE
  8
0
  6
DD_CHAIN67372168
 62
9
 10
212.470967
 20
153.706457
 11
212.830967
 21
153.706457
  0
LINE
  8
0
  6
DD_CHAIN67372168
 62
9
 10
176.638466
 20
183.241457
 11
176.638466
 21
175.876811
  0
LINE
  8
0
  6
DD_CHAIN67372168
 62
9
 10
173.603821
 20
183.698958
 11
173.603113
 21
183.698958
  0
LINE
  8
0
  6
DD_CHAIN67372168
 62
9
 10
173.500967
 20
175.551456
 11
173.540967
 21
175.551456
  0
LINE
  8
0
  6
DD_CHAIN67372168
 62
9
 10
173.540967
 20
175.738958
 11
173.500967
 21
175.738958
  0
LINE
  8
0
  6
DD_CHAIN67372168
 62
9
 10
173.603466
 20
175.801456
 11
173.603466
 21
175.841457
  0
LINE
  8
0
  6
DD_CHAIN67372168
 62
9
 10
206.553358
 20
185.821787
 11
197.393575
 21
185.821787
  0
LINE
  8
0
  6
DD_CHAIN67372168
 62
9
 10
193.303359
 20
185.821787
 11
184.143576
 21
185.821787
  0
LINE
  8
0
  6
CONTINUOUS
 62
9
 10
208.223467
 20
183.613956
 11
182.473467
 21
183.613956
  0
LINE
  8
0
  6
DD_CHAIN67372168
 62
9
 10
173.450966
 20
182.325837
 11
173.455967
 21
182.325837
  0
LINE
  8
0
  6
DD_CHAIN67372168
 62
9
 10
173.450966
 20
183.300838
 11
173.455967
 21
183.300838
  0
LINE
  8
0
  6
DD_CHAIN67372168
 62
9
 10
177.080967
 20
171.684390
 11
177.085968
 21
171.684390
  0
LINE
  8
0
  6
DD_CHAIN67372168
 62
9
 10
177.080967
 20
171.727692
 11
177.085968
 21
171.727692
  0
LINE
  8
0
  6
DD_CHAIN67372168
 62
9
 10
177.080967
 20
172.934391
 11
177.085968
 21
172.934391
  0
LINE
  8
0
  6
DD_CHAIN67372168
 62
9
 10
177.080967
 20
172.977692
 11
177.085968
 21
172.977692
  0
LINE
  8
0
  6
DD_CHAIN67372168
 62
9
 10
177.080967
 20
171.121474
 11
177.085968
 21
171.121474
  0
LINE
  8
0
  6
DD_CHAIN67372168
 62
9
 10
177.080967
 20
172.290608
 11
177.085968
 21
172.290608
  0
LINE
  8
0
  6
DD_CHAIN67372168
 62
9
 10
177.080967
 20
172.371474
 11
177.085968
 21
172.371474
  0
LINE
  8
0
  6
DD_CHAIN67372168
 62
9
 10
177.080967
 20
173.540609
 11
177.085968
 21
173.540609
  0
LINE
  8
0
  6
DD_CHAIN67372168
 62
9
 10
214.337796
 20
181.781793
 11
214.335104
 21
181.817576
  0
LINE
  8
0
  6
DD_CHAIN67372168
 62
9
 10
214.335104
 20
181.817576
 11
214.349997
 21
181.845951
  0
LINE
  8
0
  6
DD_CHAIN67372168
 62
9
 10
215.035871
 20
179.633337
 11
215.003453
 21
179.733110
  0
LINE
  8
0
  6
DD_CHAIN67372168
 62
9
 10
215.003453
 20
179.733110
 11
214.966923
 21
179.845539
  0
LINE
  8
0
  6
DD_CHAIN67372168
 62
9
 10
214.966923
 20
179.845539
 11
214.926747
 21
179.969189
  0
LINE
  8
0
  6
DD_CHAIN67372168
 62
9
 10
214.926747
 20
179.969189
 11
214.883437
 21
180.102486
  0
LINE
  8
0
  6
DD_CHAIN67372168
 62
9
 10
214.883437
 20
180.102486
 11
214.837544
 21
180.243725
  0
LINE
  8
0
  6
DD_CHAIN67372168
 62
9
 10
214.837544
 20
180.243725
 11
214.789656
 21
180.391109
  0
LINE
  8
0
  6
DD_CHAIN67372168
 62
9
 10
214.789656
 20
180.391109
 11
214.740385
 21
180.542752
  0
LINE
  8
0
  6
DD_CHAIN67372168
 62
9
 10
214.740385
 20
180.542752
 11
214.690356
 21
180.696723
  0
LINE
  8
0
  6
DD_CHAIN67372168
 62
9
 10
214.690356
 20
180.696723
 11
214.640211
 21
180.851057
  0
LINE
  8
0
  6
DD_CHAIN67372168
 62
9
 10
214.640211
 20
180.851057
 11
214.590587
 21
181.003782
  0
LINE
  8
0
  6
DD_CHAIN67372168
 62
9
 10
214.590587
 20
181.003782
 11
214.542118
 21
181.152955
  0
LINE
  8
0
  6
DD_CHAIN67372168
 62
9
 10
214.542118
 20
181.152955
 11
214.495422
 21
181.296668
  0
LINE
  8
0
  6
DD_CHAIN67372168
 62
9
 10
214.495422
 20
181.296668
 11
214.451097
 21
181.433088
  0
LINE
  8
0
  6
DD_CHAIN67372168
 62
9
 10
214.451097
 20
181.433088
 11
214.409706
 21
181.560478
  0
LINE
  8
0
  6
DD_CHAIN67372168
 62
9
 10
214.409706
 20
181.560478
 11
214.371777
 21
181.677208
  0
LINE
  8
0
  6
DD_CHAIN67372168
 62
9
 10
214.371777
 20
181.677208
 11
214.337796
 21
181.781793
  0
LINE
  8
0
  6
DD_CHAIN67372168
 62
9
 10
215.082203
 20
179.592458
 11
215.054077
 21
179.604805
  0
LINE
  8
0
  6
DD_CHAIN67372168
 62
9
 10
215.054077
 20
179.604805
 11
215.035871
 21
179.633337
  0
ARC
  8
0
  6
DD_CHAIN67372168
 62
9
 10
215.014312
 20
179.668441
 40
0.041195
 50
301.555798
 51
13.859545
  0
ARC
  8
0
  6
DD_CHAIN67372168
 62
9
 10
214.341702
 20
181.741746
 40
0.040237
 50
22.866747
 51
95.569802
  0
LINE
  8
0
  6
DD_CHAIN67372168
 62
9
 10
214.209742
 20
181.515664
 11
214.209695
 21
181.515506
  0
LINE
  8
0
  6
DD_CHAIN67372168
 62
9
 10
214.209695
 20
181.515506
 11
214.209651
 21
181.515345
  0
LINE
  8
0
  6
DD_CHAIN67372168
 62
9
 10
214.386912
 20
181.806240
 11
214.376213
 21
181.785894
  0
LINE
  8
0
  6
DD_CHAIN67372168
 62
9
 10
214.376213
 20
181.785894
 11
214.378776
 21
181.757382
  0
ARC
  8
0
  6
DD_CHAIN67372168
 62
9
 10
214.463467
 20
181.690207
 40
0.139012
 50
68.940742
 51
123.415546
  0
LINE
  8
0
  6
DD_CHAIN67372168
 62
9
 10
214.513418
 20
181.819934
 11
214.586529
 21
181.594917
  0
LINE
  8
0
  6
DD_CHAIN67372168
 62
9
 10
214.586529
 20
181.594917
 11
214.661587
 21
181.363920
  0
LINE
  8
0
  6
DD_CHAIN67372168
 62
9
 10
214.661587
 20
181.363920
 11
214.738079
 21
181.128496
  0
LINE
  8
0
  6
DD_CHAIN67372168
 62
9
 10
214.738079
 20
181.128496
 11
214.815492
 21
180.890244
  0
LINE
  8
0
  6
DD_CHAIN67372168
 62
9
 10
214.815492
 20
180.890244
 11
214.893301
 21
180.650774
  0
LINE
  8
0
  6
DD_CHAIN67372168
 62
9
 10
214.893301
 20
180.650774
 11
214.970979
 21
180.411706
  0
LINE
  8
0
  6
DD_CHAIN67372168
 62
9
 10
214.970979
 20
180.411706
 11
215.048002
 21
180.174655
  0
LINE
  8
0
  6
DD_CHAIN67372168
 62
9
 10
215.048002
 20
180.174655
 11
215.123849
 21
179.941222
  0
LINE
  8
0
  6
DD_CHAIN67372168
 62
9
 10
215.123849
 20
179.941222
 11
215.198006
 21
179.712990
  0
ARC
  8
0
  6
DD_CHAIN67372168
 62
9
 10
215.068670
 20
179.801983
 40
0.156995
 50
277.339680
 51
325.468874
  0
LINE
  8
0
  6
DD_CHAIN67372168
 62
9
 10
215.054308
 20
179.678309
 11
215.068536
 21
179.655144
  0
LINE
  8
0
  6
DD_CHAIN67372168
 62
9
 10
215.068536
 20
179.655144
 11
215.088727
 21
179.646275
  0
LINE
  8
0
  6
DD_CHAIN67372168
 62
9
 10
215.385501
 20
181.799662
 11
215.374431
 21
181.833732
  0
LINE
  8
0
  6
DD_CHAIN67372168
 62
9
 10
215.374431
 20
181.833732
 11
215.364473
 21
181.864384
  0
LINE
  8
0
  6
DD_CHAIN67372168
 62
9
 10
215.364473
 20
181.864384
 11
215.355666
 21
181.891486
  0
LINE
  8
0
  6
DD_CHAIN67372168
 62
9
 10
215.355666
 20
181.891486
 11
215.348052
 21
181.914923
  0
LINE
  8
0
  6
DD_CHAIN67372168
 62
9
 10
215.348052
 20
181.914923
 11
215.341659
 21
181.934592
  0
LINE
  8
0
  6
DD_CHAIN67372168
 62
9
 10
215.341659
 20
181.934592
 11
215.336518
 21
181.950414
  0
LINE
  8
0
  6
DD_CHAIN67372168
 62
9
 10
215.336518
 20
181.950414
 11
215.332650
 21
181.962320
  0
LINE
  8
0
  6
DD_CHAIN67372168
 62
9
 10
215.332650
 20
181.962320
 11
215.330072
 21
181.970257
  0
LINE
  8
0
  6
DD_CHAIN67372168
 62
9
 10
214.514201
 20
181.881097
 11
215.385501
 21
181.799662
  0
ARC
  8
0
  6
DD_CHAIN67372168
 62
9
 10
214.474530
 20
181.674598
 40
0.210275
 50
79.125322
 51
125.958446
  0
ARC
  8
0
  6
DD_CHAIN67372168
 62
9
 10
214.311048
 20
181.853109
 40
0.205071
 50
350.690147
 51
7.844246
  0
LINE
  8
0
  6
DD_CHAIN67372168
 62
9
 10
215.889728
 20
180.247811
 11
215.234287
 21
179.664901
  0
LINE
  8
0
  6
DD_CHAIN67372168
 62
9
 10
215.939427
 20
180.094856
 11
215.939106
 21
180.095843
  0
LINE
  8
0
  6
DD_CHAIN67372168
 62
9
 10
215.939106
 20
180.095843
 11
215.934548
 21
180.109871
  0
LINE
  8
0
  6
DD_CHAIN67372168
 62
9
 10
215.934548
 20
180.109871
 11
215.924667
 21
180.140281
  0
LINE
  8
0
  6
DD_CHAIN67372168
 62
9
 10
215.924667
 20
180.140281
 11
215.909638
 21
180.186534
  0
LINE
  8
0
  6
DD_CHAIN67372168
 62
9
 10
215.909638
 20
180.186534
 11
215.889728
 21
180.247811
  0
ARC
  8
0
  6
DD_CHAIN67372168
 62
9
 10
215.070207
 20
179.818094
 40
0.224478
 50
273.114670
 51
316.965330
  0
ARC
  8
0
  6
DD_CHAIN67372168
 62
9
 10
215.046554
 20
179.560995
 40
0.214570
 50
28.963659
 51
45.102678
  0
LINE
  8
0
  6
DD_CHAIN67372168
 62
9
 10
215.382441
 20
181.745509
 11
214.513418
 21
181.819934
  0
ARC
  8
0
  6
DD_CHAIN67372168
 62
9
 10
215.114728
 20
181.787803
 40
0.271033
 50
351.022420
 51
2.507905
  0
LINE
  8
0
  6
DD_CHAIN67372168
 62
9
 10
215.855713
 20
180.288923
 11
215.797106
 21
180.469296
  0
LINE
  8
0
  6
DD_CHAIN67372168
 62
9
 10
215.797106
 20
180.469296
 11
215.737872
 21
180.651602
  0
LINE
  8
0
  6
DD_CHAIN67372168
 62
9
 10
215.737872
 20
180.651602
 11
215.678242
 21
180.835125
  0
LINE
  8
0
  6
DD_CHAIN67372168
 62
9
 10
215.678242
 20
180.835125
 11
215.618454
 21
181.019131
  0
LINE
  8
0
  6
DD_CHAIN67372168
 62
9
 10
215.618454
 20
181.019131
 11
215.558745
 21
181.202898
  0
LINE
  8
0
  6
DD_CHAIN67372168
 62
9
 10
215.558745
 20
181.202898
 11
215.499349
 21
181.385696
  0
LINE
  8
0
  6
DD_CHAIN67372168
 62
9
 10
215.499349
 20
181.385696
 11
215.440505
 21
181.566808
  0
LINE
  8
0
  6
DD_CHAIN67372168
 62
9
 10
215.440505
 20
181.566808
 11
215.382441
 21
181.745509
  0
LINE
  8
0
  6
DD_CHAIN67372168
 62
9
 10
215.198006
 20
179.712990
 11
215.855713
 21
180.288923
  0
ARC
  8
0
  6
DD_CHAIN67372168
 62
9
 10
215.645798
 20
180.080618
 40
0.295729
 50
34.427077
 51
44.779253
  0
ARC
  8
0
  6
DD_CHAIN67372168
 62
9
 10
215.375925
 20
181.801798
 40
0.056665
 50
276.603006
 51
330.018416
  0
ARC
  8
0
  6
DD_CHAIN67372168
 62
9
 10
215.386572
 20
181.758381
 40
0.041295
 50
21.448133
 51
91.485500
  0
ARC
  8
0
  6
DD_CHAIN67372168
 62
9
 10
215.885776
 20
180.233499
 40
0.063052
 50
71.319614
 51
118.475583
  0
ARC
  8
0
  6
DD_CHAIN67372168
 62
9
 10
215.865155
 20
180.282212
 40
0.042276
 50
305.538810
 51
15.105917
  0
LINE
  8
0
  6
DD_CHAIN67372168
 62
9
 10
214.224540
 20
180.614037
 11
214.129538
 21
180.582819
  0
LINE
  8
0
  6
DD_CHAIN67372168
 62
9
 10
214.249519
 20
180.537161
 11
214.154402
 21
180.506295
  0
LINE
  8
0
  6
DD_CHAIN67372168
 62
9
 10
214.329882
 20
180.289826
 11
214.234397
 21
180.260095
  0
LINE
  8
0
  6
DD_CHAIN67372168
 62
9
 10
214.320079
 20
180.319998
 11
214.225233
 21
180.288297
  0
LINE
  8
0
  6
DD_CHAIN67372168
 62
9
 10
214.345840
 20
180.240715
 11
214.250280
 21
180.211207
  0
LINE
  8
0
  6
DD_CHAIN67372168
 62
9
 10
213.570968
 20
175.951457
 11
213.420967
 21
175.951457
  0
LINE
  8
0
  6
DD_CHAIN67372168
 62
9
 10
213.570968
 20
175.951457
 11
213.570968
 21
176.051456
  0
LINE
  8
0
  6
DD_CHAIN67372168
 62
9
 10
214.495968
 20
175.951457
 11
213.570968
 21
175.951457
  0
LINE
  8
0
  6
DD_CHAIN67372168
 62
9
 10
213.570968
 20
175.951457
 11
213.570968
 21
175.901458
  0
LINE
  8
0
  6
DD_CHAIN67372168
 62
9
 10
215.420968
 20
154.101738
 11
215.500967
 21
154.101738
  0
LINE
  8
0
  6
DD_CHAIN67372168
 62
9
 10
215.420968
 20
151.301156
 11
215.500967
 21
151.301156
  0
LINE
  8
0
  6
DD_CHAIN67372168
 62
9
 10
215.500967
 20
154.101738
 11
215.528918
 21
154.096859
  0
LINE
  8
0
  6
DD_CHAIN67372168
 62
9
 10
215.528918
 20
154.096859
 11
215.552306
 21
154.090085
  0
LINE
  8
0
  6
DD_CHAIN67372168
 62
9
 10
215.552306
 20
154.090085
 11
215.566226
 21
154.082581
  0
LINE
  8
0
  6
DD_CHAIN67372168
 62
9
 10
215.566226
 20
154.082581
 11
215.570967
 21
154.074571
  0
LINE
  8
0
  6
DD_CHAIN67372168
 62
9
 10
215.500967
 20
151.301156
 11
215.528918
 21
151.306039
  0
LINE
  8
0
  6
DD_CHAIN67372168
 62
9
 10
215.528918
 20
151.306039
 11
215.552306
 21
151.312818
  0
LINE
  8
0
  6
DD_CHAIN67372168
 62
9
 10
215.552306
 20
151.312818
 11
215.566226
 21
151.320327
  0
LINE
  8
0
  6
DD_CHAIN67372168
 62
9
 10
215.566226
 20
151.320327
 11
215.570967
 21
151.328343
  0
ARC
  8
0
  6
DD_CHAIN67372168
 62
9
 10
215.996838
 20
241.068022
 40
67.222549
 50
269.509162
 51
271.079142
  0
ARC
  8
0
  6
DD_CHAIN67372168
 62
9
 10
206.534739
 20
173.401457
 40
10.737817
 50
357.566433
 51
2.433567
  0
ARC
  8
0
  6
DD_CHAIN67372168
 62
9
 10
215.996688
 20
105.695051
 40
67.262386
 50
88.921369
 51
90.490419
  0
LINE
  8
0
  6
DD_CHAIN67372168
 62
9
 10
217.262872
 20
172.945519
 11
217.245101
 21
172.829841
  0
LINE
  8
0
  6
DD_CHAIN67372168
 62
9
 10
217.245101
 20
172.829841
 11
217.217015
 21
172.737891
  0
LINE
  8
0
  6
DD_CHAIN67372168
 62
9
 10
217.217015
 20
172.737891
 11
217.182179
 21
172.681099
  0
LINE
  8
0
  6
DD_CHAIN67372168
 62
9
 10
217.182179
 20
172.681099
 11
217.150198
 21
172.668573
  0
LINE
  8
0
  6
DD_CHAIN67372168
 62
9
 10
217.262872
 20
173.857396
 11
217.245101
 21
173.973073
  0
LINE
  8
0
  6
DD_CHAIN67372168
 62
9
 10
217.245101
 20
173.973073
 11
217.217015
 21
174.065022
  0
LINE
  8
0
  6
DD_CHAIN67372168
 62
9
 10
217.217015
 20
174.065022
 11
217.182179
 21
174.121814
  0
LINE
  8
0
  6
DD_CHAIN67372168
 62
9
 10
217.182179
 20
174.121814
 11
217.144983
 21
174.136384
  0
LINE
  8
0
  6
DD_CHAIN67372168
 62
9
 10
217.833562
 20
174.129032
 11
217.839189
 21
174.129030
  0
LINE
  8
0
  6
DD_CHAIN67372168
 62
9
 10
217.839189
 20
172.673883
 11
217.832144
 21
172.673883
  0
LINE
  8
0
  6
DD_CHAIN67372168
 62
9
 10
217.832144
 20
172.673883
 11
217.817848
 21
172.673881
  0
LINE
  8
0
  6
DD_CHAIN67372168
 62
9
 10
215.420968
 20
172.673491
 11
215.738033
 21
172.673495
  0
LINE
  8
0
  6
DD_CHAIN67372168
 62
9
 10
217.203237
 20
172.673519
 11
217.235284
 21
172.673519
  0
LINE
  8
0
  6
DD_CHAIN67372168
 62
9
 10
217.420371
 20
172.735989
 11
217.375972
 21
172.739943
  0
ARC
  8
0
  6
DD_CHAIN67372168
 62
9
 10
217.381499
 20
173.382871
 40
0.489128
 50
75.951314
 51
104.035737
  0
ARC
  8
0
  6
DD_CHAIN67372168
 62
9
 10
215.214939
 20
173.401457
 40
2.330327
 50
348.717728
 51
11.282272
  0
ARC
  8
0
  6
DD_CHAIN67372168
 62
9
 10
217.381499
 20
173.419994
 40
0.489080
 50
255.962869
 51
284.050080
  0
ARC
  8
0
  6
DD_CHAIN67372168
 62
9
 10
217.162308
 20
173.794072
 40
0.343801
 50
10.609210
 51
72.447395
  0
LINE
  8
0
  6
DD_CHAIN67372168
 62
9
 10
218.234222
 20
173.859911
 11
218.225615
 21
173.851147
  0
LINE
  8
0
  6
DD_CHAIN67372168
 62
9
 10
218.225615
 20
173.851147
 11
218.204503
 21
173.846638
  0
LINE
  8
0
  6
DD_CHAIN67372168
 62
9
 10
218.204503
 20
173.846638
 11
218.180405
 21
173.848635
  0
LINE
  8
0
  6
DD_CHAIN67372168
 62
9
 10
218.180405
 20
173.848635
 11
218.068703
 21
173.848625
  0
LINE
  8
0
  6
DD_CHAIN67372168
 62
9
 10
218.068703
 20
173.848625
 11
217.929961
 21
173.848599
  0
LINE
  8
0
  6
DD_CHAIN67372168
 62
9
 10
217.929961
 20
173.848599
 11
217.734306
 21
173.848556
  0
LINE
  8
0
  6
DD_CHAIN67372168
 62
9
 10
217.734306
 20
173.848556
 11
217.622723
 21
173.848526
  0
LINE
  8
0
  6
DD_CHAIN67372168
 62
9
 10
217.622723
 20
173.848526
 11
217.563497
 21
173.848510
  0
LINE
  8
0
  6
DD_CHAIN67372168
 62
9
 10
217.563497
 20
173.848510
 11
217.532970
 21
173.848787
  0
LINE
  8
0
  6
DD_CHAIN67372168
 62
9
 10
217.532970
 20
173.848787
 11
217.500232
 21
173.857369
  0
ARC
  8
0
  6
DD_CHAIN67372168
 62
9
 10
215.965142
 20
173.401457
 40
2.314931
 50
348.577515
 51
11.422485
  0
LINE
  8
0
  6
DD_CHAIN67372168
 62
9
 10
217.994283
 20
172.943023
 11
217.976331
 21
172.828256
  0
LINE
  8
0
  6
DD_CHAIN67372168
 62
9
 10
217.976331
 20
172.828256
 11
217.947693
 21
172.736810
  0
LINE
  8
0
  6
DD_CHAIN67372168
 62
9
 10
217.947693
 20
172.736810
 11
217.911963
 21
172.679866
  0
LINE
  8
0
  6
DD_CHAIN67372168
 62
9
 10
217.911963
 20
172.679866
 11
217.873575
 21
172.664328
  0
LINE
  8
0
  6
DD_CHAIN67372168
 62
9
 10
217.994283
 20
172.943023
 11
218.090697
 21
172.929575
  0
LINE
  8
0
  6
DD_CHAIN67372168
 62
9
 10
218.090697
 20
172.929575
 11
218.168445
 21
172.924875
  0
LINE
  8
0
  6
DD_CHAIN67372168
 62
9
 10
218.168445
 20
172.924875
 11
218.218147
 21
172.929564
  0
LINE
  8
0
  6
DD_CHAIN67372168
 62
9
 10
218.218147
 20
172.929564
 11
218.225272
 21
172.935522
  0
LINE
  8
0
  6
DD_CHAIN67372168
 62
9
 10
212.470967
 20
150.226457
 11
212.595967
 21
150.226457
  0
LINE
  8
0
  6
DD_CHAIN67372168
 62
9
 10
212.595967
 20
149.726457
 11
212.470967
 21
149.726457
  0
LINE
  8
0
  6
DD_CHAIN67372168
 62
9
 10
214.920967
 20
149.576457
 11
214.920967
 21
149.451457
  0
LINE
  8
0
  6
DD_CHAIN67372168
 62
9
 10
212.745966
 20
149.576457
 11
212.745966
 21
149.451457
  0
LINE
  8
0
  6
DD_CHAIN67372168
 62
9
 10
212.745966
 20
176.176456
 11
212.745966
 21
176.051456
  0
LINE
  8
0
  6
DD_CHAIN67372168
 62
9
 10
212.595967
 20
176.326457
 11
212.470967
 21
176.326457
  0
LINE
  8
0
  6
DD_CHAIN67372168
 62
9
 10
214.920967
 20
176.176456
 11
214.920967
 21
176.051456
  0
LINE
  8
0
  6
DD_CHAIN67372168
 62
9
 10
212.705967
 20
176.054383
 11
212.705967
 21
176.051456
  0
LINE
  8
0
  6
DD_CHAIN67372168
 62
9
 10
215.344139
 20
176.106689
 11
215.320967
 21
176.170352
  0
LINE
  8
0
  6
DD_CHAIN67372168
 62
9
 10
215.318746
 20
176.176456
 11
215.309936
 21
176.200658
  0
LINE
  8
0
  6
DD_CHAIN67372168
 62
9
 10
212.463467
 20
183.633957
 11
212.475968
 21
183.633957
  0
LINE
  8
0
  6
DD_CHAIN67372168
 62
9
 10
173.563820
 20
183.738956
 11
176.710967
 21
183.738956
  0
LINE
  8
0
  6
DD_CHAIN67372168
 62
9
 10
173.563467
 20
175.881458
 11
173.563467
 21
183.738604
  0
LINE
  8
0
  6
DD_CHAIN67372168
 62
9
 10
176.713686
 20
183.801219
 11
176.717171
 21
183.841068
  0
LINE
  8
0
  6
DD_CHAIN67372168
 62
9
 10
173.563467
 20
175.876811
 11
173.563467
 21
175.841457
  0
LINE
  8
0
  6
DD_CHAIN67372168
 62
9
 10
174.060966
 20
175.778958
 11
174.100967
 21
175.778958
  0
LINE
  8
0
  6
CONTINUOUS
 62
9
 10
208.331468
 20
183.643958
 11
212.463467
 21
183.643958
  0
LINE
  8
0
  6
DD_CHAIN67372168
 62
9
 10
208.270967
 20
184.001458
 11
208.330967
 21
184.001458
  0
LINE
  8
0
  6
DD_CHAIN67372168
 62
9
 10
208.330967
 20
184.278956
 11
208.270967
 21
184.278956
  0
LINE
  8
0
  6
DD_CHAIN67372168
 62
9
 10
208.393467
 20
184.401456
 11
208.393467
 21
184.341458
  0
LINE
  8
0
  6
DD_CHAIN67372168
 62
9
 10
209.483467
 20
184.341458
 11
209.483467
 21
184.401456
  0
LINE
  8
0
  6
DD_CHAIN67372168
 62
9
 10
209.545967
 20
184.463957
 11
209.605967
 21
184.463957
  0
LINE
  8
0
  6
DD_CHAIN67372168
 62
9
 10
214.698850
 20
183.168081
 11
214.674925
 21
183.223105
  0
ARC
  8
0
  6
DD_CHAIN67372168
 62
9
 10
177.278467
 20
187.801295
 40
0.037500
 50
75.000000
 51
180.000000
  0
LINE
  8
0
  6
DD_CHAIN67372168
 62
9
 10
177.240967
 20
187.801296
 11
177.215973
 21
187.801296
  0
LINE
  8
0
  6
DD_CHAIN67372168
 62
9
 10
177.288173
 20
187.837517
 11
177.289436
 21
187.842229
  0
LINE
  8
0
  6
DD_CHAIN67372168
 62
9
 10
177.289436
 20
187.842229
 11
177.290649
 21
187.846759
  0
LINE
  8
0
  6
DD_CHAIN67372168
 62
9
 10
177.290649
 20
187.846759
 11
177.291768
 21
187.850934
  0
LINE
  8
0
  6
DD_CHAIN67372168
 62
9
 10
177.291768
 20
187.850934
 11
177.292748
 21
187.854594
  0
LINE
  8
0
  6
DD_CHAIN67372168
 62
9
 10
177.292748
 20
187.854594
 11
177.293553
 21
187.857595
  0
LINE
  8
0
  6
DD_CHAIN67372168
 62
9
 10
177.293553
 20
187.857595
 11
177.294150
 21
187.859827
  0
LINE
  8
0
  6
DD_CHAIN67372168
 62
9
 10
177.294150
 20
187.859827
 11
177.294426
 21
187.860859
  0
ARC
  8
0
  6
DD_CHAIN67372168
 62
9
 10
177.265967
 20
183.591457
 40
0.025000
 50
180.000000
 51
270.000000
  0
LINE
  8
0
  6
DD_CHAIN67372168
 62
9
 10
177.265968
 20
183.566457
 11
177.265968
 21
183.541456
  0
LINE
  8
0
  6
DD_CHAIN67372168
 62
9
 10
177.240967
 20
183.591458
 11
177.215967
 21
183.591458
  0
LINE
  8
0
  6
DD_CHAIN67372168
 62
9
 10
177.240967
 20
187.801296
 11
177.240967
 21
183.591458
  0
LINE
  8
0
  6
DD_CHAIN67372168
 62
9
 10
178.953021
 20
187.391424
 11
177.288173
 21
187.837517
  0
ARC
  8
0
  6
DD_CHAIN67372168
 62
9
 10
178.635967
 20
186.208164
 40
1.225000
 50
0.000000
 51
75.000000
  0
LINE
  8
0
  6
DD_CHAIN67372168
 62
9
 10
179.860967
 20
185.463956
 11
179.860967
 21
186.208165
  0
ARC
  8
0
  6
DD_CHAIN67372168
 62
9
 10
179.988467
 20
185.463957
 40
0.127500
 50
180.000000
 51
270.000000
  0
LINE
  8
0
  6
DD_CHAIN67372168
 62
9
 10
181.048467
 20
185.336456
 11
179.988467
 21
185.336456
  0
ARC
  8
0
  6
DD_CHAIN67372168
 62
9
 10
181.048467
 20
185.298957
 40
0.037500
 50
0.000000
 51
90.000000
  0
LINE
  8
0
  6
DD_CHAIN67372168
 62
9
 10
181.085967
 20
184.463957
 11
181.085967
 21
185.298956
  0
ARC
  8
0
  6
DD_CHAIN67372168
 62
9
 10
181.213467
 20
184.463957
 40
0.127500
 50
180.000000
 51
270.000000
  0
LINE
  8
0
  6
DD_CHAIN67372168
 62
9
 10
182.323467
 20
184.336457
 11
181.213467
 21
184.336457
  0
ARC
  8
0
  6
DD_CHAIN67372168
 62
9
 10
182.323467
 20
184.298957
 40
0.037500
 50
0.000000
 51
90.000000
  0
LINE
  8
0
  6
DD_CHAIN67372168
 62
9
 10
182.360967
 20
183.591458
 11
182.360967
 21
184.298957
  0
ARC
  8
0
  6
DD_CHAIN67372168
 62
9
 10
182.335967
 20
183.591457
 40
0.025000
 50
270.000000
 51
0.000000
  0
LINE
  8
0
  6
DD_CHAIN67372168
 62
9
 10
177.265968
 20
183.566457
 11
182.335967
 21
183.566457
  0
LINE
  8
0
  6
DD_CHAIN67372168
 62
9
 10
178.953021
 20
187.391424
 11
178.954283
 21
187.396133
  0
LINE
  8
0
  6
DD_CHAIN67372168
 62
9
 10
178.954283
 20
187.396133
 11
178.955497
 21
187.400663
  0
LINE
  8
0
  6
DD_CHAIN67372168
 62
9
 10
178.955497
 20
187.400663
 11
178.956615
 21
187.404838
  0
LINE
  8
0
  6
DD_CHAIN67372168
 62
9
 10
178.956615
 20
187.404838
 11
178.957595
 21
187.408498
  0
LINE
  8
0
  6
DD_CHAIN67372168
 62
9
 10
178.957595
 20
187.408498
 11
178.958400
 21
187.411502
  0
LINE
  8
0
  6
DD_CHAIN67372168
 62
9
 10
178.958400
 20
187.411502
 11
178.958999
 21
187.413734
  0
LINE
  8
0
  6
DD_CHAIN67372168
 62
9
 10
178.958999
 20
187.413734
 11
178.959275
 21
187.414763
  0
LINE
  8
0
  6
DD_CHAIN67372168
 62
9
 10
182.335967
 20
183.541456
 11
182.335967
 21
183.566457
  0
LINE
  8
0
  6
DD_CHAIN67372168
 62
9
 10
179.860967
 20
186.208165
 11
179.885967
 21
186.208165
  0
LINE
  8
0
  6
DD_CHAIN67372168
 62
9
 10
181.213467
 20
184.361458
 11
181.213467
 21
184.336457
  0
LINE
  8
0
  6
DD_CHAIN67372168
 62
9
 10
181.110967
 20
184.463957
 11
181.085967
 21
184.463957
  0
LINE
  8
0
  6
DD_CHAIN67372168
 62
9
 10
181.110967
 20
185.298956
 11
181.085967
 21
185.298956
  0
LINE
  8
0
  6
DD_CHAIN67372168
 62
9
 10
181.048467
 20
185.361457
 11
181.048467
 21
185.336456
  0
LINE
  8
0
  6
DD_CHAIN67372168
 62
9
 10
182.323467
 20
184.361458
 11
182.323467
 21
184.336457
  0
LINE
  8
0
  6
DD_CHAIN67372168
 62
9
 10
179.860967
 20
185.463956
 11
179.885967
 21
185.463956
  0
LINE
  8
0
  6
DD_CHAIN67372168
 62
9
 10
179.988467
 20
185.336456
 11
179.988467
 21
185.361457
  0
LINE
  8
0
  6
DD_CHAIN67372168
 62
9
 10
182.385967
 20
183.591458
 11
182.360967
 21
183.591458
  0
LINE
  8
0
  6
DD_CHAIN67372168
 62
9
 10
182.385967
 20
184.298957
 11
182.360967
 21
184.298957
  0
LINE
  8
0
  6
DD_CHAIN67372168
 62
9
 10
177.175968
 20
185.461456
 11
177.215967
 21
185.461456
  0
LINE
  8
0
  6
DD_CHAIN67372168
 62
9
 10
177.215967
 20
187.800428
 11
177.175968
 21
187.800428
  0
LINE
  8
0
  6
DD_CHAIN67372168
 62
9
 10
177.304995
 20
187.899438
 11
177.294644
 21
187.860799
  0
LINE
  8
0
  6
DD_CHAIN67372168
 62
9
 10
178.959491
 20
187.414706
 11
178.969844
 21
187.453342
  0
LINE
  8
0
  6
DD_CHAIN67372168
 62
9
 10
179.925967
 20
186.207298
 11
179.885967
 21
186.207298
  0
LINE
  8
0
  6
DD_CHAIN67372168
 62
9
 10
181.213467
 20
184.401456
 11
181.213467
 21
184.361458
  0
LINE
  8
0
  6
DD_CHAIN67372168
 62
9
 10
181.110967
 20
184.463957
 11
181.150967
 21
184.463957
  0
LINE
  8
0
  6
DD_CHAIN67372168
 62
9
 10
181.150967
 20
185.298956
 11
181.110967
 21
185.298956
  0
LINE
  8
0
  6
DD_CHAIN67372168
 62
9
 10
179.988467
 20
185.401458
 11
179.988467
 21
185.361457
  0
LINE
  8
0
  6
DD_CHAIN67372168
 62
9
 10
179.885967
 20
185.463956
 11
179.925967
 21
185.463956
  0
LINE
  8
0
  6
DD_CHAIN67372168
 62
9
 10
181.048467
 20
185.361457
 11
181.048467
 21
185.401458
  0
LINE
  8
0
  6
DD_CHAIN67372168
 62
9
 10
182.323467
 20
184.361458
 11
182.323467
 21
184.401456
  0
LINE
  8
0
  6
DD_CHAIN67372168
 62
9
 10
182.425967
 20
184.298957
 11
182.385967
 21
184.298957
  0
LINE
  8
0
  6
DD_CHAIN67372168
 62
9
 10
182.385967
 20
183.961457
 11
182.425967
 21
183.961457
  0
LINE
  8
0
  6
DD_CHAIN67372168
 62
9
 10
212.470967
 20
183.388958
 11
212.475968
 21
183.388958
  0
LINE
  8
0
  6
DD_CHAIN67372168
 62
9
 10
176.753468
 20
179.016456
 11
176.753468
 21
179.386458
  0
LINE
  8
0
  6
DD_CHAIN67372168
 62
9
 10
176.778467
 20
179.016456
 11
176.778467
 21
179.386458
  0
LINE
  8
0
  6
DD_CHAIN67372168
 62
9
 10
176.803467
 20
179.046458
 11
176.803467
 21
179.356456
  0
LINE
  8
0
  6
DD_CHAIN67372168
 62
9
 10
176.778467
 20
180.146456
 11
176.778467
 21
180.456457
  0
LINE
  8
0
  6
DD_CHAIN67372168
 62
9
 10
176.753468
 20
180.146456
 11
176.753468
 21
180.456457
  0
LINE
  8
0
  6
DD_CHAIN67372168
 62
9
 10
176.803467
 20
180.181456
 11
176.803467
 21
180.421457
  0
LINE
  8
0
  6
DD_CHAIN67372168
 62
9
 10
176.753468
 20
181.096456
 11
176.753468
 21
181.406456
  0
LINE
  8
0
  6
DD_CHAIN67372168
 62
9
 10
176.778467
 20
181.096456
 11
176.778467
 21
181.406456
  0
LINE
  8
0
  6
DD_CHAIN67372168
 62
9
 10
176.803467
 20
181.131458
 11
176.803467
 21
181.371457
  0
LINE
  8
0
  6
DD_CHAIN67372168
 62
9
 10
176.778467
 20
178.596458
 11
176.778467
 21
178.906456
  0
LINE
  8
0
  6
DD_CHAIN67372168
 62
9
 10
176.753468
 20
178.596458
 11
176.753468
 21
178.906456
  0
LINE
  8
0
  6
DD_CHAIN67372168
 62
9
 10
176.803467
 20
178.631458
 11
176.803467
 21
178.871456
  0
LINE
  8
0
  6
CHAIN_2_134744198
 62
1
 10
175.140967
 20
174.999037
 11
175.140967
 21
174.515114
  0
ENDSEC
  0
EOF
