  0
SECTION
  2
HEADER
  9
$LIMMIN
 10
0.000000
 20
0.000000
  9
$LIMMAX
 10
840.896415
 20
594.603558
  9
$EXTMIN
 10
0.000000
 20
0.000000
  9
$EXTMAX
 10
420.448208
 20
297.301779
  9
$ANGBASE
 50
0.0
  9
$ANGDIR
 70
0
  9
$DIMRND
 40
0.100000
  9
$DIMSE1
 70
0
  9
$DIMSE2
 70
0
  9
$DIMTXT
 40
3.500000
  9
$LTSCALE
 40
1.000000
  9
$LUPREC
 70
0
  9
$AUPREC
 70
0
  9
$PDMODE
 70
2
  9
$PDSIZE
 40
2.102241
  0
ENDSEC
  0
SECTION
  2
TABLES
  0
TABLE
  2
VPORT
  70
1
  0
VPORT
  2
*ACTIVE
 70
0
  10
0.0
 20
0.0
 11
1.0
 21
1.0
 12
594.0
 22
420.0
 13
0.0
 23
0.0
 14
10.0
 24
10.0
 15
10.0
 25
10.0
 16
0.0
 26
0.0
 36
1.0
 17
594.0
 27
420.0
 37
100.0
 40
1000.0
 41
1.0
 42
50.0
 43
0.0
 44
0.0
 50
0.0
 51
0.0
 71
0
 72
2000
 73
1
 74
3
 75
0
 76
0
 77
0
 78
1
  0
ENDTAB
  0
TABLE
  2
LTYPE
 70
6
  0
LTYPE
  2
CONTINUOUS
 70
0
  3
Solid line
 72
65
 73
0
 40
0.0
  0
LTYPE
  2
DASHED
 70
0
  3
Dashed line
 72
65
 73
2
 40
6.000000
 49
3.000000
 49
-3.000000
  0
LTYPE
  2
CENTER
 70
0
  3
Chain line
 72
65
 73
4
 40
24.000000
 49
15.000000
 49
-3.000000
 49
3.000000
 49
-3.000000
  0
LTYPE
  2
RANDOM
 70
0
  3
Random line
 72
65
 73
4
 40
22.500000
 49
6.000000
 49
-3.000000
 49
4.500000
 49
-9.000000
  0
LTYPE
  2
DD_CHAIN67372168
  3
DD_CHAIN67372168
 70
0
 72
65
 73
6
 40
12.000000
 49
6.000000
 49
-1.200000
 49
1.200000
 49
-1.200000
 49
1.200000
 49
-1.200000
  0
LTYPE
  2
CHAIN_2_134744198
  3
CHAIN_2_134744198
 70
0
 72
65
 73
4
 40
19.200000
 49
12.000000
 49
-2.400000
 49
2.400000
 49
-2.400000
  0
ENDTAB
  0
TABLE
  2
STYLE
 70
9
  0
STYLE
  2
STANDARD
 40
0
 41
1.0
 50
0.0
 71
0
 42
0
  3
simplex
  4

 70
0
  0
ENDTAB
  0
TABLE
  2
LAYER
 70
2
  0
LAYER
  2
0
 70
0
 62
7
  6
CONTINUOUS
  0
LAYER
  2
0
 62
1
  6
CONTINUOUS
 70
0
  0
ENDTAB
  0
ENDSEC
  0
SECTION
  2
BLOCKS
  0
ENDSEC
  0
SECTION
  2
ENTITIES
  0
CIRCLE
  8
0
  6
CONTINUOUS
 62
1
 10
161.575752
 20
181.605824
 40
4.575000
  0
CIRCLE
  8
0
  6
CONTINUOUS
 62
1
 10
161.575752
 20
181.605824
 40
4.675000
  0
CIRCLE
  8
0
  6
CONTINUOUS
 62
1
 10
161.575752
 20
181.605824
 40
1.375000
  0
CIRCLE
  8
0
  6
CONTINUOUS
 62
1
 10
161.575938
 20
181.605954
 40
0.700000
  0
CIRCLE
  8
0
  6
CONTINUOUS
 62
1
 10
161.575752
 20
168.355824
 40
4.575000
  0
CIRCLE
  8
0
  6
CONTINUOUS
 62
1
 10
161.575752
 20
168.355824
 40
4.675000
  0
CIRCLE
  8
0
  6
CONTINUOUS
 62
1
 10
161.575752
 20
168.355824
 40
1.375000
  0
CIRCLE
  8
0
  6
CONTINUOUS
 62
1
 10
161.575882
 20
168.355638
 40
0.700000
  0
CIRCLE
  8
0
  6
CONTINUOUS
 62
1
 10
161.575752
 20
168.355824
 40
4.904971
  0
CIRCLE
  8
0
  6
CONTINUOUS
 62
1
 10
161.575752
 20
181.605824
 40
4.904971
  0
CIRCLE
  8
0
  6
CONTINUOUS
 62
1
 10
173.825751
 20
181.605824
 40
4.575000
  0
CIRCLE
  8
0
  6
CONTINUOUS
 62
1
 10
173.825751
 20
181.605824
 40
4.675000
  0
CIRCLE
  8
0
  6
CONTINUOUS
 62
1
 10
173.825751
 20
181.605824
 40
1.375000
  0
CIRCLE
  8
0
  6
CONTINUOUS
 62
1
 10
173.825937
 20
181.605954
 40
0.700000
  0
CIRCLE
  8
0
  6
CONTINUOUS
 62
1
 10
173.825751
 20
168.355824
 40
4.575000
  0
CIRCLE
  8
0
  6
CONTINUOUS
 62
1
 10
173.825751
 20
168.355824
 40
4.675000
  0
CIRCLE
  8
0
  6
CONTINUOUS
 62
1
 10
173.825751
 20
168.355824
 40
1.375000
  0
CIRCLE
  8
0
  6
CONTINUOUS
 62
1
 10
173.825881
 20
168.355638
 40
0.700000
  0
CIRCLE
  8
0
  6
CONTINUOUS
 62
1
 10
173.825751
 20
168.355824
 40
4.904971
  0
CIRCLE
  8
0
  6
CONTINUOUS
 62
1
 10
173.825751
 20
181.605824
 40
4.904971
  0
LINE
  8
0
  6
CONTINUOUS
 62
1
 10
149.100750
 20
154.812394
 11
149.100750
 21
154.814093
  0
LINE
  8
0
  6
CONTINUOUS
 62
1
 10
148.950751
 20
154.814093
 11
148.950751
 21
154.812394
  0
LINE
  8
0
  6
CONTINUOUS
 62
1
 10
171.360753
 20
154.765369
 11
171.360753
 21
154.767068
  0
LINE
  8
0
  6
CONTINUOUS
 62
1
 10
171.110753
 20
154.767068
 11
171.110753
 21
154.765369
  0
LINE
  8
0
  6
CONTINUOUS
 62
1
 10
139.075750
 20
154.027942
 11
184.075750
 21
154.027942
  0
ARC
  8
0
  6
CONTINUOUS
 62
1
 10
168.331510
 20
154.955304
 40
0.050000
 50
210.424180
 51
219.754658
  0
ARC
  8
0
  6
CONTINUOUS
 62
1
 10
169.394990
 20
154.955304
 40
0.050000
 50
320.245342
 51
329.575820
  0
ARC
  8
0
  6
CONTINUOUS
 62
1
 10
169.681511
 20
154.698509
 40
0.334796
 50
137.815987
 51
174.934158
  0
ARC
  8
0
  6
CONTINUOUS
 62
1
 10
168.082027
 20
154.713379
 40
0.297688
 50
359.451465
 51
44.851305
  0
ARC
  8
0
  6
CONTINUOUS
 62
1
 10
168.331510
 20
154.474236
 40
0.050000
 50
189.415482
 51
258.079868
  0
ARC
  8
0
  6
CONTINUOUS
 62
1
 10
169.394990
 20
154.474236
 40
0.050000
 50
281.920132
 51
350.584518
  0
LINE
  8
0
  6
CONTINUOUS
 62
1
 10
168.276138
 20
154.493763
 11
168.280607
 21
154.466729
  0
LINE
  8
0
  6
CONTINUOUS
 62
1
 10
168.195137
 20
154.929984
 11
168.250474
 21
154.649002
  0
LINE
  8
0
  6
CONTINUOUS
 62
1
 10
168.250474
 20
154.649002
 11
168.276138
 21
154.493763
  0
LINE
  8
0
  6
CONTINUOUS
 62
1
 10
169.444373
 20
154.466077
 11
169.505224
 21
154.805042
  0
LINE
  8
0
  6
CONTINUOUS
 62
1
 10
169.505224
 20
154.805042
 11
169.531274
 21
154.929984
  0
ARC
  8
0
  6
CONTINUOUS
 62
1
 10
168.941072
 20
156.640802
 40
2.263605
 50
273.085570
 51
281.834837
  0
ARC
  8
0
  6
CONTINUOUS
 62
1
 10
168.859460
 20
157.121156
 40
2.748220
 50
263.650874
 51
274.245606
  0
ARC
  8
0
  6
CONTINUOUS
 62
1
 10
168.743328
 20
156.419637
 40
2.038511
 50
258.048405
 51
264.714513
  0
LINE
  8
0
  6
CONTINUOUS
 62
1
 10
183.447609
 20
193.243324
 11
183.447609
 21
193.248324
  0
LINE
  8
0
  6
CONTINUOUS
 62
1
 10
183.033084
 20
196.873324
 11
183.033084
 21
196.878325
  0
LINE
  8
0
  6
CONTINUOUS
 62
1
 10
181.857252
 20
196.878325
 11
181.857252
 21
196.873324
  0
LINE
  8
0
  6
CONTINUOUS
 62
1
 10
181.783084
 20
196.873324
 11
181.783084
 21
196.878325
  0
LINE
  8
0
  6
CONTINUOUS
 62
1
 10
180.607251
 20
196.878325
 11
180.607251
 21
196.873324
  0
LINE
  8
0
  6
CONTINUOUS
 62
1
 10
139.686366
 20
193.248324
 11
139.686366
 21
193.243324
  0
LINE
  8
0
  6
CONTINUOUS
 62
1
 10
181.750750
 20
193.365789
 11
181.750750
 21
193.153324
  0
LINE
  8
0
  6
CONTINUOUS
 62
1
 10
183.000750
 20
193.153324
 11
183.000750
 21
193.365789
  0
ARC
  8
0
  6
CONTINUOUS
 62
1
 10
175.619010
 20
154.955304
 40
0.050000
 50
210.424180
 51
219.754658
  0
ARC
  8
0
  6
CONTINUOUS
 62
1
 10
176.682490
 20
154.955304
 40
0.050000
 50
320.245342
 51
329.575820
  0
ARC
  8
0
  6
CONTINUOUS
 62
1
 10
176.969020
 20
154.698505
 40
0.334805
 50
137.816608
 51
174.933674
  0
ARC
  8
0
  6
CONTINUOUS
 62
1
 10
175.369518
 20
154.713375
 40
0.297697
 50
359.452169
 51
44.850557
  0
ARC
  8
0
  6
CONTINUOUS
 62
1
 10
176.682490
 20
154.474236
 40
0.050000
 50
281.920132
 51
350.584518
  0
ARC
  8
0
  6
CONTINUOUS
 62
1
 10
175.619010
 20
154.474236
 40
0.050000
 50
189.415482
 51
258.079868
  0
LINE
  8
0
  6
CONTINUOUS
 62
1
 10
176.731874
 20
154.466077
 11
176.792725
 21
154.805042
  0
LINE
  8
0
  6
CONTINUOUS
 62
1
 10
176.792725
 20
154.805042
 11
176.818774
 21
154.929984
  0
LINE
  8
0
  6
CONTINUOUS
 62
1
 10
175.563638
 20
154.493763
 11
175.568107
 21
154.466729
  0
LINE
  8
0
  6
CONTINUOUS
 62
1
 10
175.482637
 20
154.929984
 11
175.537974
 21
154.649002
  0
LINE
  8
0
  6
CONTINUOUS
 62
1
 10
175.537974
 20
154.649002
 11
175.563638
 21
154.493763
  0
ARC
  8
0
  6
CONTINUOUS
 62
1
 10
176.228573
 20
156.640795
 40
2.263598
 50
273.085549
 51
281.834848
  0
ARC
  8
0
  6
CONTINUOUS
 62
1
 10
176.146960
 20
157.121163
 40
2.748227
 50
263.650887
 51
274.245593
  0
ARC
  8
0
  6
CONTINUOUS
 62
1
 10
176.030829
 20
156.419642
 40
2.038516
 50
258.048407
 51
264.714491
  0
ARC
  8
0
  6
CONTINUOUS
 62
1
 10
162.338206
 20
154.761289
 40
0.280551
 50
142.188080
 51
177.766350
  0
ARC
  8
0
  6
CONTINUOUS
 62
1
 10
161.012865
 20
154.948439
 40
0.050000
 50
201.659808
 51
224.227720
  0
ARC
  8
0
  6
CONTINUOUS
 62
1
 10
160.757473
 20
154.659010
 40
0.336163
 50
1.175286
 51
49.220602
  0
ARC
  8
0
  6
CONTINUOUS
 62
1
 10
162.138635
 20
154.481102
 40
0.050000
 50
282.954384
 51
349.355983
  0
LINE
  8
0
  6
CONTINUOUS
 62
1
 10
162.187802
 20
154.471873
 11
162.256944
 21
154.815662
  0
LINE
  8
0
  6
CONTINUOUS
 62
1
 10
162.256944
 20
154.815662
 11
162.283107
 21
154.929984
  0
ARC
  8
0
  6
CONTINUOUS
 62
1
 10
161.616574
 20
156.858177
 40
2.483725
 50
271.559914
 51
282.398249
  0
ARC
  8
0
  6
CONTINUOUS
 62
1
 10
161.559054
 20
157.085951
 40
2.712365
 50
259.538268
 51
269.700337
  0
ARC
  8
0
  6
CONTINUOUS
 62
1
 10
161.076030
 20
154.467767
 40
0.050000
 50
188.154963
 51
259.065608
  0
LINE
  8
0
  6
CONTINUOUS
 62
1
 10
161.015684
 20
154.525955
 11
161.024914
 21
154.461326
  0
LINE
  8
0
  6
CONTINUOUS
 62
1
 10
160.948485
 20
154.929984
 11
160.998943
 21
154.643168
  0
LINE
  8
0
  6
CONTINUOUS
 62
1
 10
160.998943
 20
154.643168
 11
161.015684
 21
154.525955
  0
ARC
  8
0
  6
CONTINUOUS
 62
1
 10
161.641128
 20
154.413075
 40
0.046033
 50
17.403302
 51
94.290753
  0
LINE
  8
0
  6
CONTINUOUS
 62
1
 10
161.539802
 20
154.419497
 11
161.539781
 21
154.419270
  0
LINE
  8
0
  6
CONTINUOUS
 62
1
 10
161.539781
 20
154.419270
 11
161.540181
 21
154.421372
  0
LINE
  8
0
  6
CONTINUOUS
 62
1
 10
161.540181
 20
154.421372
 11
161.541096
 21
154.424781
  0
LINE
  8
0
  6
CONTINUOUS
 62
1
 10
161.541096
 20
154.424781
 11
161.543659
 21
154.431247
  0
LINE
  8
0
  6
CONTINUOUS
 62
1
 10
161.543659
 20
154.431247
 11
161.551274
 21
154.442603
  0
LINE
  8
0
  6
CONTINUOUS
 62
1
 10
161.551274
 20
154.442603
 11
161.563162
 21
154.452326
  0
LINE
  8
0
  6
CONTINUOUS
 62
1
 10
161.563162
 20
154.452326
 11
161.579647
 21
154.458402
  0
LINE
  8
0
  6
CONTINUOUS
 62
1
 10
161.579647
 20
154.458402
 11
161.587748
 21
154.458352
  0
LINE
  8
0
  6
CONTINUOUS
 62
1
 10
161.587749
 20
154.459170
 11
161.637707
 21
154.459796
  0
ARC
  8
0
  6
CONTINUOUS
 62
1
 10
153.756510
 20
154.955304
 40
0.050000
 50
210.424180
 51
219.754658
  0
ARC
  8
0
  6
CONTINUOUS
 62
1
 10
154.819990
 20
154.955304
 40
0.050000
 50
320.245342
 51
329.575820
  0
ARC
  8
0
  6
CONTINUOUS
 62
1
 10
153.506930
 20
154.713338
 40
0.297785
 50
359.459395
 51
44.843676
  0
ARC
  8
0
  6
CONTINUOUS
 62
1
 10
155.106517
 20
154.698508
 40
0.334802
 50
137.816613
 51
174.934036
  0
ARC
  8
0
  6
CONTINUOUS
 62
1
 10
153.756510
 20
154.474236
 40
0.050000
 50
189.415482
 51
258.079868
  0
ARC
  8
0
  6
CONTINUOUS
 62
1
 10
154.819990
 20
154.474236
 40
0.050000
 50
281.920132
 51
350.584518
  0
LINE
  8
0
  6
CONTINUOUS
 62
1
 10
153.701138
 20
154.493763
 11
153.705607
 21
154.466729
  0
LINE
  8
0
  6
CONTINUOUS
 62
1
 10
153.620137
 20
154.929984
 11
153.675474
 21
154.649002
  0
LINE
  8
0
  6
CONTINUOUS
 62
1
 10
153.675474
 20
154.649002
 11
153.701138
 21
154.493763
  0
LINE
  8
0
  6
CONTINUOUS
 62
1
 10
154.869373
 20
154.466077
 11
154.930225
 21
154.805042
  0
LINE
  8
0
  6
CONTINUOUS
 62
1
 10
154.930225
 20
154.805042
 11
154.956275
 21
154.929984
  0
ARC
  8
0
  6
CONTINUOUS
 62
1
 10
154.366072
 20
156.640809
 40
2.263612
 50
273.085575
 51
281.834821
  0
ARC
  8
0
  6
CONTINUOUS
 62
1
 10
154.284460
 20
157.121177
 40
2.748240
 50
263.650911
 51
274.245570
  0
ARC
  8
0
  6
CONTINUOUS
 62
1
 10
154.168334
 20
156.419670
 40
2.038545
 50
258.048454
 51
264.714444
  0
LINE
  8
0
  6
CONTINUOUS
 62
1
 10
147.555999
 20
154.928400
 11
147.557155
 21
154.929984
  0
ARC
  8
0
  6
CONTINUOUS
 62
1
 10
146.452950
 20
154.951837
 40
0.050000
 50
205.916979
 51
222.111017
  0
ARC
  8
0
  6
CONTINUOUS
 62
1
 10
147.787240
 20
154.733852
 40
0.302194
 50
139.925338
 51
176.786306
  0
ARC
  8
0
  6
CONTINUOUS
 62
1
 10
146.204031
 20
154.688573
 40
0.312488
 50
359.806072
 51
47.322636
  0
ARC
  8
0
  6
CONTINUOUS
 62
1
 10
147.548550
 20
154.477703
 40
0.050000
 50
282.443259
 51
349.951236
  0
LINE
  8
0
  6
CONTINUOUS
 62
1
 10
147.597825
 20
154.468991
 11
147.662913
 21
154.810411
  0
LINE
  8
0
  6
CONTINUOUS
 62
1
 10
147.662913
 20
154.810411
 11
147.689099
 21
154.929984
  0
LINE
  8
0
  6
CONTINUOUS
 62
1
 10
147.484682
 20
154.413994
 11
147.559323
 21
154.428877
  0
ARC
  8
0
  6
CONTINUOUS
 62
1
 10
146.870722
 20
156.351872
 40
1.970079
 50
258.424517
 51
264.713383
  0
ARC
  8
0
  6
CONTINUOUS
 62
1
 10
146.485300
 20
154.470874
 40
0.050000
 50
188.773809
 51
258.590288
  0
LINE
  8
0
  6
CONTINUOUS
 62
1
 10
146.427106
 20
154.510570
 11
146.434284
 21
154.463908
  0
LINE
  8
0
  6
CONTINUOUS
 62
1
 10
146.353380
 20
154.929984
 11
146.406278
 21
154.645954
  0
LINE
  8
0
  6
CONTINUOUS
 62
1
 10
146.406278
 20
154.645954
 11
146.427106
 21
154.510570
  0
LINE
  8
0
  6
CONTINUOUS
 62
1
 10
150.335961
 20
154.027942
 11
150.547699
 21
153.056749
  0
ARC
  8
0
  6
CONTINUOUS
 62
1
 10
164.559562
 20
262.122396
 40
110.195000
 50
262.851170
 51
267.305604
  0
ARC
  8
0
  6
CONTINUOUS
 62
1
 10
165.205972
 20
268.319426
 40
115.325000
 50
263.303061
 51
266.664596
  0
LINE
  8
0
  6
CONTINUOUS
 62
1
 10
159.738089
 20
152.325376
 11
160.103562
 21
154.027942
  0
ARC
  8
0
  6
CONTINUOUS
 62
1
 10
159.395885
 20
152.398833
 40
0.350000
 50
267.305604
 51
347.884758
  0
ARC
  8
0
  6
CONTINUOUS
 62
1
 10
150.889667
 20
153.131305
 40
0.350000
 50
192.299075
 51
262.851170
  0
ARC
  8
0
  6
CONTINUOUS
 62
1
 10
158.516622
 20
153.539187
 40
0.350000
 50
266.664596
 51
347.884758
  0
ARC
  8
0
  6
CONTINUOUS
 62
1
 10
151.797855
 20
154.128914
 40
0.350000
 50
196.767645
 51
263.303061
  0
LINE
  8
0
  6
CONTINUOUS
 62
1
 10
158.979511
 20
154.027942
 11
158.858827
 21
153.465729
  0
LINE
  8
0
  6
CONTINUOUS
 62
1
 10
172.598497
 20
153.056749
 11
172.810235
 21
154.027942
  0
ARC
  8
0
  6
CONTINUOUS
 62
1
 10
158.586634
 20
262.122396
 40
110.195000
 50
272.694396
 51
277.148830
  0
ARC
  8
0
  6
CONTINUOUS
 62
1
 10
157.940225
 20
268.319426
 40
115.325000
 50
273.335404
 51
276.696939
  0
LINE
  8
0
  6
CONTINUOUS
 62
1
 10
163.042634
 20
154.027942
 11
163.408107
 21
152.325376
  0
ARC
  8
0
  6
CONTINUOUS
 62
1
 10
163.750311
 20
152.398833
 40
0.350000
 50
192.115242
 51
270.000000
  0
ARC
  8
0
  6
CONTINUOUS
 62
1
 10
163.750311
 20
152.398833
 40
0.350000
 50
270.000000
 51
272.694396
  0
ARC
  8
0
  6
CONTINUOUS
 62
1
 10
172.256530
 20
153.131305
 40
0.350000
 50
277.148830
 51
347.700925
  0
ARC
  8
0
  6
CONTINUOUS
 62
1
 10
164.629574
 20
153.539187
 40
0.350000
 50
192.115242
 51
273.335404
  0
ARC
  8
0
  6
CONTINUOUS
 62
1
 10
171.348342
 20
154.128914
 40
0.350000
 50
276.696939
 51
343.232355
  0
LINE
  8
0
  6
CONTINUOUS
 62
1
 10
164.287370
 20
153.465729
 11
164.166685
 21
154.027942
  0
LINE
  8
0
  6
CONTINUOUS
 62
1
 10
139.135751
 20
154.929984
 11
184.015750
 21
154.929984
  0
LINE
  8
0
  6
CONTINUOUS
 62
1
 10
139.075750
 20
154.994984
 11
139.135751
 21
154.994984
  0
LINE
  8
0
  6
CONTINUOUS
 62
1
 10
184.015750
 20
154.994984
 11
184.075750
 21
154.994984
  0
LINE
  8
0
  6
CONTINUOUS
 62
1
 10
177.325750
 20
193.365789
 11
177.325750
 21
193.153324
  0
LINE
  8
0
  6
CONTINUOUS
 62
1
 10
177.825750
 20
193.153324
 11
177.825750
 21
193.365789
  0
LINE
  8
0
  6
CONTINUOUS
 62
1
 10
167.075750
 20
193.365789
 11
167.075750
 21
193.183324
  0
LINE
  8
0
  6
CONTINUOUS
 62
1
 10
167.575750
 20
193.183324
 11
167.575750
 21
193.365789
  0
LINE
  8
0
  6
CONTINUOUS
 62
1
 10
178.575750
 20
193.365789
 11
178.575750
 21
193.183324
  0
LINE
  8
0
  6
CONTINUOUS
 62
1
 10
179.075750
 20
193.183324
 11
179.075750
 21
193.365789
  0
LINE
  8
0
  6
CONTINUOUS
 62
1
 10
166.375750
 20
193.365789
 11
166.375750
 21
193.153324
  0
LINE
  8
0
  6
CONTINUOUS
 62
1
 10
166.875750
 20
193.153324
 11
166.875750
 21
193.365789
  0
LINE
  8
0
  6
CONTINUOUS
 62
1
 10
170.520750
 20
193.318324
 11
170.533250
 21
193.288324
  0
LINE
  8
0
  6
CONTINUOUS
 62
1
 10
170.818250
 20
193.288324
 11
170.830750
 21
193.318324
  0
LINE
  8
0
  6
CONTINUOUS
 62
1
 10
170.520750
 20
193.365789
 11
170.520750
 21
193.318324
  0
LINE
  8
0
  6
CONTINUOUS
 62
1
 10
170.830750
 20
193.318324
 11
170.830750
 21
193.365789
  0
LINE
  8
0
  6
CONTINUOUS
 62
1
 10
171.020750
 20
193.365789
 11
171.020750
 21
193.318324
  0
LINE
  8
0
  6
CONTINUOUS
 62
1
 10
171.330750
 20
193.318324
 11
171.330750
 21
193.365789
  0
LINE
  8
0
  6
CONTINUOUS
 62
1
 10
171.020750
 20
193.318324
 11
171.033250
 21
193.288324
  0
LINE
  8
0
  6
CONTINUOUS
 62
1
 10
171.318250
 20
193.288324
 11
171.330750
 21
193.318324
  0
LINE
  8
0
  6
CONTINUOUS
 62
1
 10
165.305750
 20
193.365789
 11
165.305750
 21
193.325824
  0
LINE
  8
0
  6
CONTINUOUS
 62
1
 10
165.545750
 20
193.325824
 11
165.545750
 21
193.365789
  0
LINE
  8
0
  6
CONTINUOUS
 62
1
 10
165.305750
 20
193.325824
 11
165.318250
 21
193.295825
  0
LINE
  8
0
  6
CONTINUOUS
 62
1
 10
165.533250
 20
193.295825
 11
165.545750
 21
193.325824
  0
LINE
  8
0
  6
CONTINUOUS
 62
1
 10
163.555750
 20
193.325824
 11
163.568250
 21
193.295825
  0
LINE
  8
0
  6
CONTINUOUS
 62
1
 10
163.783250
 20
193.295825
 11
163.795750
 21
193.325824
  0
LINE
  8
0
  6
CONTINUOUS
 62
1
 10
163.555750
 20
193.365789
 11
163.555750
 21
193.325824
  0
LINE
  8
0
  6
CONTINUOUS
 62
1
 10
163.795750
 20
193.325824
 11
163.795750
 21
193.365789
  0
LINE
  8
0
  6
CONTINUOUS
 62
1
 10
171.310753
 20
154.914075
 11
171.358857
 21
154.882349
  0
LINE
  8
0
  6
CONTINUOUS
 62
1
 10
171.358857
 20
154.882349
 11
171.393085
 21
154.837436
  0
LINE
  8
0
  6
CONTINUOUS
 62
1
 10
171.393085
 20
154.837436
 11
171.409579
 21
154.784398
  0
LINE
  8
0
  6
CONTINUOUS
 62
1
 10
171.409579
 20
154.784398
 11
171.406479
 21
154.729218
  0
LINE
  8
0
  6
CONTINUOUS
 62
1
 10
171.406479
 20
154.729218
 11
171.384135
 21
154.678110
  0
LINE
  8
0
  6
CONTINUOUS
 62
1
 10
171.384135
 20
154.678110
 11
171.345065
 21
154.636839
  0
LINE
  8
0
  6
CONTINUOUS
 62
1
 10
171.345065
 20
154.636839
 11
171.293673
 21
154.610056
  0
LINE
  8
0
  6
CONTINUOUS
 62
1
 10
171.293673
 20
154.610056
 11
171.235753
 21
154.600780
  0
LINE
  8
0
  6
CONTINUOUS
 62
1
 10
171.235753
 20
154.600780
 11
171.177832
 21
154.610056
  0
LINE
  8
0
  6
CONTINUOUS
 62
1
 10
171.177832
 20
154.610056
 11
171.126441
 21
154.636839
  0
LINE
  8
0
  6
CONTINUOUS
 62
1
 10
171.126441
 20
154.636839
 11
171.087371
 21
154.678110
  0
LINE
  8
0
  6
CONTINUOUS
 62
1
 10
171.087371
 20
154.678110
 11
171.065026
 21
154.729218
  0
LINE
  8
0
  6
CONTINUOUS
 62
1
 10
171.065026
 20
154.729218
 11
171.061926
 21
154.784398
  0
LINE
  8
0
  6
CONTINUOUS
 62
1
 10
171.061926
 20
154.784398
 11
171.078420
 21
154.837436
  0
LINE
  8
0
  6
CONTINUOUS
 62
1
 10
171.078420
 20
154.837436
 11
171.112648
 21
154.882349
  0
LINE
  8
0
  6
CONTINUOUS
 62
1
 10
171.112648
 20
154.882349
 11
171.160753
 21
154.914075
  0
LINE
  8
0
  6
CONTINUOUS
 62
1
 10
171.310753
 20
154.914075
 11
171.310753
 21
154.929984
  0
LINE
  8
0
  6
CONTINUOUS
 62
1
 10
171.160753
 20
154.914075
 11
171.160753
 21
154.929984
  0
LINE
  8
0
  6
CONTINUOUS
 62
1
 10
163.350750
 20
154.929984
 11
163.350750
 21
154.694830
  0
ARC
  8
0
  6
CONTINUOUS
 62
1
 10
163.447865
 20
154.697901
 40
0.097164
 50
181.810930
 51
271.701612
  0
LINE
  8
0
  6
CONTINUOUS
 62
1
 10
164.450750
 20
154.600780
 11
163.450750
 21
154.600780
  0
ARC
  8
0
  6
CONTINUOUS
 62
1
 10
164.453635
 20
154.697900
 40
0.097163
 50
268.298265
 51
358.189193
  0
LINE
  8
0
  6
CONTINUOUS
 62
1
 10
164.550750
 20
154.694830
 11
164.550750
 21
154.929984
  0
LINE
  8
0
  6
CONTINUOUS
 62
1
 10
184.075750
 20
154.384463
 11
184.075750
 21
154.994984
  0
LINE
  8
0
  6
CONTINUOUS
 62
1
 10
139.075750
 20
154.384463
 11
139.075750
 21
154.994984
  0
LINE
  8
0
  6
CONTINUOUS
 62
1
 10
177.925750
 20
154.929984
 11
177.925750
 21
154.694830
  0
ARC
  8
0
  6
CONTINUOUS
 62
1
 10
178.022865
 20
154.697900
 40
0.097163
 50
181.810683
 51
271.701859
  0
LINE
  8
0
  6
CONTINUOUS
 62
1
 10
179.025750
 20
154.600780
 11
178.025750
 21
154.600780
  0
ARC
  8
0
  6
CONTINUOUS
 62
1
 10
179.028635
 20
154.697901
 40
0.097164
 50
268.298388
 51
358.189070
  0
LINE
  8
0
  6
CONTINUOUS
 62
1
 10
179.125750
 20
154.694830
 11
179.125750
 21
154.929984
  0
ARC
  8
0
  6
CONTINUOUS
 62
1
 10
159.212213
 20
154.964990
 40
0.364391
 50
268.197300
 51
354.487194
  0
ARC
  8
0
  6
CONTINUOUS
 62
1
 10
159.192283
 20
154.968394
 40
0.367712
 50
185.995936
 51
271.319456
  0
LINE
  8
0
  6
CONTINUOUS
 62
1
 10
156.063251
 20
154.929984
 11
156.063251
 21
154.694830
  0
ARC
  8
0
  6
CONTINUOUS
 62
1
 10
156.160364
 20
154.697899
 40
0.097162
 50
181.809804
 51
271.701886
  0
LINE
  8
0
  6
CONTINUOUS
 62
1
 10
157.163250
 20
154.600780
 11
156.163249
 21
154.600780
  0
ARC
  8
0
  6
CONTINUOUS
 62
1
 10
157.166136
 20
154.697900
 40
0.097162
 50
268.297773
 51
358.189685
  0
LINE
  8
0
  6
CONTINUOUS
 62
1
 10
157.263250
 20
154.694830
 11
157.263250
 21
154.929984
  0
LINE
  8
0
  6
CONTINUOUS
 62
1
 10
148.775750
 20
154.929984
 11
148.775750
 21
154.694830
  0
ARC
  8
0
  6
CONTINUOUS
 62
1
 10
148.872864
 20
154.697900
 40
0.097163
 50
181.810679
 51
271.701863
  0
LINE
  8
0
  6
CONTINUOUS
 62
1
 10
149.875751
 20
154.600780
 11
148.875750
 21
154.600780
  0
ARC
  8
0
  6
CONTINUOUS
 62
1
 10
149.878636
 20
154.697899
 40
0.097162
 50
268.298114
 51
358.190196
  0
LINE
  8
0
  6
CONTINUOUS
 62
1
 10
149.975749
 20
154.694830
 11
149.975749
 21
154.929984
  0
ARC
  8
0
  6
CONTINUOUS
 62
1
 10
159.212174
 20
154.966780
 40
0.364480
 50
268.203762
 51
354.205826
  0
ARC
  8
0
  6
CONTINUOUS
 62
1
 10
159.192313
 20
154.970192
 40
0.367810
 50
186.275917
 51
271.314381
  0
LINE
  8
0
  6
CONTINUOUS
 62
1
 10
159.520153
 20
154.898687
 11
159.286746
 21
154.778594
  0
ARC
  8
0
  6
CONTINUOUS
 62
1
 10
159.250592
 20
154.844231
 40
0.074936
 50
182.871591
 51
298.846799
  0
ARC
  8
0
  6
CONTINUOUS
 62
1
 10
157.166135
 20
154.699599
 40
0.097163
 50
268.298261
 51
358.190103
  0
LINE
  8
0
  6
CONTINUOUS
 62
1
 10
157.163250
 20
154.602479
 11
156.163249
 21
154.602479
  0
ARC
  8
0
  6
CONTINUOUS
 62
1
 10
156.160365
 20
154.699598
 40
0.097162
 50
181.809385
 51
271.701398
  0
ARC
  8
0
  6
CONTINUOUS
 62
1
 10
164.453635
 20
154.699600
 40
0.097164
 50
268.298752
 51
358.189612
  0
LINE
  8
0
  6
CONTINUOUS
 62
1
 10
164.450750
 20
154.602479
 11
163.450750
 21
154.602479
  0
ARC
  8
0
  6
CONTINUOUS
 62
1
 10
163.447866
 20
154.699600
 40
0.097164
 50
181.810512
 51
271.701124
  0
ARC
  8
0
  6
CONTINUOUS
 62
1
 10
149.878635
 20
154.699598
 40
0.097162
 50
268.298602
 51
358.190615
  0
LINE
  8
0
  6
CONTINUOUS
 62
1
 10
149.875751
 20
154.602479
 11
148.875750
 21
154.602479
  0
ARC
  8
0
  6
CONTINUOUS
 62
1
 10
148.872865
 20
154.699600
 40
0.097164
 50
181.810261
 51
271.701375
  0
ARC
  8
0
  6
CONTINUOUS
 62
1
 10
179.028635
 20
154.699600
 40
0.097164
 50
268.298876
 51
358.189488
  0
LINE
  8
0
  6
CONTINUOUS
 62
1
 10
179.025750
 20
154.602479
 11
178.025750
 21
154.602479
  0
ARC
  8
0
  6
CONTINUOUS
 62
1
 10
178.022866
 20
154.699600
 40
0.097164
 50
181.810265
 51
271.701371
  0
ARC
  8
0
  6
CONTINUOUS
 62
1
 10
171.235753
 20
154.774444
 40
0.175155
 50
182.413625
 51
357.586375
  0
ARC
  8
0
  6
CONTINUOUS
 62
1
 10
171.241655
 20
154.764674
 40
0.119122
 50
1.151423
 51
80.774350
  0
ARC
  8
0
  6
CONTINUOUS
 62
1
 10
171.229851
 20
154.764674
 40
0.119122
 50
99.225685
 51
178.848542
  0
LINE
  8
0
  6
CONTINUOUS
 62
1
 10
171.260753
 20
154.880557
 11
171.260753
 21
154.929984
  0
LINE
  8
0
  6
CONTINUOUS
 62
1
 10
171.260753
 20
154.880557
 11
171.305649
 21
154.862835
  0
LINE
  8
0
  6
CONTINUOUS
 62
1
 10
171.305649
 20
154.862835
 11
171.339941
 21
154.830323
  0
LINE
  8
0
  6
CONTINUOUS
 62
1
 10
171.339941
 20
154.830323
 11
171.358423
 21
154.787958
  0
LINE
  8
0
  6
CONTINUOUS
 62
1
 10
171.358423
 20
154.787958
 11
171.358293
 21
154.742164
  0
LINE
  8
0
  6
CONTINUOUS
 62
1
 10
171.358293
 20
154.742164
 11
171.339570
 21
154.699891
  0
LINE
  8
0
  6
CONTINUOUS
 62
1
 10
171.339570
 20
154.699891
 11
171.305095
 21
154.667554
  0
LINE
  8
0
  6
CONTINUOUS
 62
1
 10
171.305095
 20
154.667554
 11
171.260098
 21
154.650057
  0
LINE
  8
0
  6
CONTINUOUS
 62
1
 10
171.260098
 20
154.650057
 11
171.211407
 21
154.650057
  0
LINE
  8
0
  6
CONTINUOUS
 62
1
 10
171.211407
 20
154.650057
 11
171.166410
 21
154.667554
  0
LINE
  8
0
  6
CONTINUOUS
 62
1
 10
171.166410
 20
154.667554
 11
171.131935
 21
154.699891
  0
LINE
  8
0
  6
CONTINUOUS
 62
1
 10
171.131935
 20
154.699891
 11
171.113212
 21
154.742164
  0
LINE
  8
0
  6
CONTINUOUS
 62
1
 10
171.113212
 20
154.742164
 11
171.113082
 21
154.787958
  0
LINE
  8
0
  6
CONTINUOUS
 62
1
 10
171.113082
 20
154.787958
 11
171.131565
 21
154.830323
  0
LINE
  8
0
  6
CONTINUOUS
 62
1
 10
171.131565
 20
154.830323
 11
171.165856
 21
154.862835
  0
LINE
  8
0
  6
CONTINUOUS
 62
1
 10
171.165856
 20
154.862835
 11
171.210753
 21
154.880557
  0
LINE
  8
0
  6
CONTINUOUS
 62
1
 10
171.210753
 20
154.880557
 11
171.210753
 21
154.929984
  0
ARC
  8
0
  6
CONTINUOUS
 62
1
 10
159.250697
 20
154.840029
 40
0.024978
 50
182.869932
 51
298.847803
  0
LINE
  8
0
  6
CONTINUOUS
 62
1
 10
159.225750
 20
154.838778
 11
159.225750
 21
154.929984
  0
LINE
  8
0
  6
CONTINUOUS
 62
1
 10
159.480103
 20
154.929984
 11
159.262748
 21
154.818151
  0
LINE
  8
0
  6
CONTINUOUS
 62
1
 10
178.675750
 20
154.929984
 11
178.675750
 21
154.835907
  0
ARC
  8
0
  6
CONTINUOUS
 62
1
 10
178.772863
 20
154.838975
 40
0.097161
 50
181.809412
 51
271.703130
  0
LINE
  8
0
  6
CONTINUOUS
 62
1
 10
178.775750
 20
154.741857
 11
178.875750
 21
154.741857
  0
ARC
  8
0
  6
CONTINUOUS
 62
1
 10
178.878638
 20
154.838975
 40
0.097161
 50
268.296870
 51
358.190588
  0
LINE
  8
0
  6
CONTINUOUS
 62
1
 10
178.975750
 20
154.929984
 11
178.975750
 21
154.835907
  0
LINE
  8
0
  6
CONTINUOUS
 62
1
 10
179.075750
 20
154.694830
 11
179.075750
 21
154.929984
  0
ARC
  8
0
  6
CONTINUOUS
 62
1
 10
179.027193
 20
154.696366
 40
0.048582
 50
268.298469
 51
358.188989
  0
LINE
  8
0
  6
CONTINUOUS
 62
1
 10
179.025750
 20
154.647805
 11
178.025750
 21
154.647805
  0
ARC
  8
0
  6
CONTINUOUS
 62
1
 10
178.024306
 20
154.696364
 40
0.048580
 50
181.809286
 51
271.703256
  0
LINE
  8
0
  6
CONTINUOUS
 62
1
 10
177.975750
 20
154.929984
 11
177.975750
 21
154.694830
  0
LINE
  8
0
  6
CONTINUOUS
 62
1
 10
149.925750
 20
154.694830
 11
149.925750
 21
154.929984
  0
ARC
  8
0
  6
CONTINUOUS
 62
1
 10
149.877193
 20
154.696365
 40
0.048581
 50
268.298438
 51
358.189872
  0
LINE
  8
0
  6
CONTINUOUS
 62
1
 10
149.875751
 20
154.647805
 11
148.875750
 21
154.647805
  0
ARC
  8
0
  6
CONTINUOUS
 62
1
 10
148.874306
 20
154.696363
 40
0.048580
 50
181.808411
 51
271.703279
  0
LINE
  8
0
  6
CONTINUOUS
 62
1
 10
148.825751
 20
154.929984
 11
148.825751
 21
154.694830
  0
LINE
  8
0
  6
CONTINUOUS
 62
1
 10
149.025750
 20
154.694830
 11
149.073585
 21
154.703780
  0
LINE
  8
0
  6
CONTINUOUS
 62
1
 10
149.073585
 20
154.703780
 11
149.114139
 21
154.729264
  0
LINE
  8
0
  6
CONTINUOUS
 62
1
 10
149.114139
 20
154.729264
 11
149.141235
 21
154.767405
  0
LINE
  8
0
  6
CONTINUOUS
 62
1
 10
149.141235
 20
154.767405
 11
149.150750
 21
154.812394
  0
LINE
  8
0
  6
CONTINUOUS
 62
1
 10
149.150750
 20
154.812394
 11
149.141235
 21
154.857384
  0
LINE
  8
0
  6
CONTINUOUS
 62
1
 10
149.141235
 20
154.857384
 11
149.114139
 21
154.895524
  0
LINE
  8
0
  6
CONTINUOUS
 62
1
 10
149.114139
 20
154.895524
 11
149.073585
 21
154.921009
  0
LINE
  8
0
  6
CONTINUOUS
 62
1
 10
149.073585
 20
154.921009
 11
149.025750
 21
154.929957
  0
LINE
  8
0
  6
CONTINUOUS
 62
1
 10
149.025750
 20
154.929957
 11
148.977914
 21
154.921009
  0
LINE
  8
0
  6
CONTINUOUS
 62
1
 10
148.977914
 20
154.921009
 11
148.937362
 21
154.895524
  0
LINE
  8
0
  6
CONTINUOUS
 62
1
 10
148.937362
 20
154.895524
 11
148.910266
 21
154.857384
  0
LINE
  8
0
  6
CONTINUOUS
 62
1
 10
148.910266
 20
154.857384
 11
148.900750
 21
154.812394
  0
LINE
  8
0
  6
CONTINUOUS
 62
1
 10
148.900750
 20
154.812394
 11
148.910266
 21
154.767405
  0
LINE
  8
0
  6
CONTINUOUS
 62
1
 10
148.910266
 20
154.767405
 11
148.937362
 21
154.729264
  0
LINE
  8
0
  6
CONTINUOUS
 62
1
 10
148.937362
 20
154.729264
 11
148.977914
 21
154.703780
  0
LINE
  8
0
  6
CONTINUOUS
 62
1
 10
148.977914
 20
154.703780
 11
149.025750
 21
154.694830
  0
LINE
  8
0
  6
CONTINUOUS
 62
1
 10
157.213249
 20
154.694830
 11
157.213249
 21
154.929984
  0
ARC
  8
0
  6
CONTINUOUS
 62
1
 10
157.164694
 20
154.696363
 40
0.048580
 50
268.296721
 51
358.191589
  0
LINE
  8
0
  6
CONTINUOUS
 62
1
 10
157.163250
 20
154.647805
 11
156.163249
 21
154.647805
  0
ARC
  8
0
  6
CONTINUOUS
 62
1
 10
156.161807
 20
154.696365
 40
0.048581
 50
181.810128
 51
271.701562
  0
LINE
  8
0
  6
CONTINUOUS
 62
1
 10
156.113250
 20
154.929984
 11
156.113250
 21
154.694830
  0
LINE
  8
0
  6
CONTINUOUS
 62
1
 10
163.800750
 20
154.929984
 11
163.800750
 21
154.835907
  0
ARC
  8
0
  6
CONTINUOUS
 62
1
 10
163.897862
 20
154.838974
 40
0.097161
 50
181.809224
 51
271.703105
  0
LINE
  8
0
  6
CONTINUOUS
 62
1
 10
163.900750
 20
154.741857
 11
164.000750
 21
154.741857
  0
ARC
  8
0
  6
CONTINUOUS
 62
1
 10
164.003638
 20
154.838975
 40
0.097161
 50
268.296986
 51
358.190685
  0
LINE
  8
0
  6
CONTINUOUS
 62
1
 10
164.100750
 20
154.929984
 11
164.100750
 21
154.835907
  0
LINE
  8
0
  6
CONTINUOUS
 62
1
 10
164.500750
 20
154.694830
 11
164.500750
 21
154.929984
  0
ARC
  8
0
  6
CONTINUOUS
 62
1
 10
164.452193
 20
154.696365
 40
0.048581
 50
268.297854
 51
358.189604
  0
LINE
  8
0
  6
CONTINUOUS
 62
1
 10
164.450750
 20
154.647805
 11
163.450750
 21
154.647805
  0
ARC
  8
0
  6
CONTINUOUS
 62
1
 10
163.449307
 20
154.696364
 40
0.048581
 50
181.809781
 51
271.702761
  0
LINE
  8
0
  6
CONTINUOUS
 62
1
 10
163.400750
 20
154.929984
 11
163.400750
 21
154.694830
  0
ARC
  8
0
  6
CONTINUOUS
 62
1
 10
164.003638
 20
154.840673
 40
0.097161
 50
268.296986
 51
358.190685
  0
LINE
  8
0
  6
CONTINUOUS
 62
1
 10
163.900750
 20
154.743556
 11
164.000750
 21
154.743556
  0
ARC
  8
0
  6
CONTINUOUS
 62
1
 10
163.897862
 20
154.840673
 40
0.097161
 50
181.809224
 51
271.703105
  0
ARC
  8
0
  6
CONTINUOUS
 62
1
 10
178.878638
 20
154.840674
 40
0.097161
 50
268.296870
 51
358.190588
  0
LINE
  8
0
  6
CONTINUOUS
 62
1
 10
178.775750
 20
154.743556
 11
178.875750
 21
154.743556
  0
ARC
  8
0
  6
CONTINUOUS
 62
1
 10
178.772863
 20
154.840674
 40
0.097161
 50
181.809412
 51
271.703130
  0
LINE
  8
0
  6
CONTINUOUS
 62
1
 10
164.050750
 20
154.929984
 11
164.050750
 21
154.835907
  0
ARC
  8
0
  6
CONTINUOUS
 62
1
 10
164.002194
 20
154.837440
 40
0.048580
 50
268.296854
 51
358.191030
  0
LINE
  8
0
  6
CONTINUOUS
 62
1
 10
163.900750
 20
154.788882
 11
164.000750
 21
154.788882
  0
ARC
  8
0
  6
CONTINUOUS
 62
1
 10
163.899306
 20
154.837441
 40
0.048581
 50
181.809659
 51
271.702883
  0
LINE
  8
0
  6
CONTINUOUS
 62
1
 10
163.850750
 20
154.929984
 11
163.850750
 21
154.835907
  0
LINE
  8
0
  6
CONTINUOUS
 62
1
 10
178.925750
 20
154.929984
 11
178.925750
 21
154.835907
  0
ARC
  8
0
  6
CONTINUOUS
 62
1
 10
178.877194
 20
154.837441
 40
0.048580
 50
268.296502
 51
358.190956
  0
LINE
  8
0
  6
CONTINUOUS
 62
1
 10
178.775750
 20
154.788882
 11
178.875750
 21
154.788882
  0
ARC
  8
0
  6
CONTINUOUS
 62
1
 10
178.774306
 20
154.837440
 40
0.048580
 50
181.808549
 51
271.703993
  0
LINE
  8
0
  6
CONTINUOUS
 62
1
 10
178.725750
 20
154.929984
 11
178.725750
 21
154.835907
  0
ARC
  8
0
  6
CONTINUOUS
 62
1
 10
159.250592
 20
154.842532
 40
0.074936
 50
182.871591
 51
298.846799
  0
LINE
  8
0
  6
CONTINUOUS
 62
1
 10
159.520153
 20
154.896988
 11
159.286746
 21
154.776895
  0
ARC
  8
0
  6
CONTINUOUS
 62
1
 10
159.201451
 20
154.972355
 40
0.327493
 50
187.433786
 51
346.695119
  0
LINE
  8
0
  6
CONTINUOUS
 62
1
 10
159.175750
 20
154.838778
 11
159.175750
 21
154.929984
  0
LINE
  8
0
  6
CONTINUOUS
 62
1
 10
159.520153
 20
154.898687
 11
159.520153
 21
154.896988
  0
ARC
  8
0
  6
CONTINUOUS
 62
1
 10
149.029360
 20
154.817926
 40
0.121450
 50
268.296291
 51
358.191338
  0
ARC
  8
0
  6
CONTINUOUS
 62
1
 10
149.022141
 20
154.817929
 40
0.121452
 50
181.809751
 51
271.702621
  0
ARC
  8
0
  6
CONTINUOUS
 62
1
 10
149.025750
 20
154.810389
 40
0.075091
 50
2.827742
 51
177.172258
  0
LINE
  8
0
  6
CONTINUOUS
 62
1
 10
149.025750
 20
154.741857
 11
149.054451
 21
154.747226
  0
LINE
  8
0
  6
CONTINUOUS
 62
1
 10
149.054451
 20
154.747226
 11
149.078783
 21
154.762516
  0
LINE
  8
0
  6
CONTINUOUS
 62
1
 10
149.078783
 20
154.762516
 11
149.095042
 21
154.785401
  0
LINE
  8
0
  6
CONTINUOUS
 62
1
 10
149.095042
 20
154.785401
 11
149.100750
 21
154.812394
  0
LINE
  8
0
  6
CONTINUOUS
 62
1
 10
149.100750
 20
154.812394
 11
149.095042
 21
154.839388
  0
LINE
  8
0
  6
CONTINUOUS
 62
1
 10
149.095042
 20
154.839388
 11
149.078783
 21
154.862272
  0
LINE
  8
0
  6
CONTINUOUS
 62
1
 10
149.078783
 20
154.862272
 11
149.054451
 21
154.877563
  0
LINE
  8
0
  6
CONTINUOUS
 62
1
 10
149.054451
 20
154.877563
 11
149.025750
 21
154.882932
  0
LINE
  8
0
  6
CONTINUOUS
 62
1
 10
149.025750
 20
154.882932
 11
148.997049
 21
154.877563
  0
LINE
  8
0
  6
CONTINUOUS
 62
1
 10
148.997049
 20
154.877563
 11
148.972716
 21
154.862272
  0
LINE
  8
0
  6
CONTINUOUS
 62
1
 10
148.972716
 20
154.862272
 11
148.956459
 21
154.839388
  0
LINE
  8
0
  6
CONTINUOUS
 62
1
 10
148.956459
 20
154.839388
 11
148.950751
 21
154.812394
  0
LINE
  8
0
  6
CONTINUOUS
 62
1
 10
148.950751
 20
154.812394
 11
148.956459
 21
154.785401
  0
LINE
  8
0
  6
CONTINUOUS
 62
1
 10
148.956459
 20
154.785401
 11
148.972716
 21
154.762516
  0
LINE
  8
0
  6
CONTINUOUS
 62
1
 10
148.972716
 20
154.762516
 11
148.997049
 21
154.747226
  0
LINE
  8
0
  6
CONTINUOUS
 62
1
 10
148.997049
 20
154.747226
 11
149.025750
 21
154.741857
  0
LINE
  8
0
  6
CONTINUOUS
 62
1
 10
184.075750
 20
154.027942
 11
184.075750
 21
154.384463
  0
LINE
  8
0
  6
CONTINUOUS
 62
1
 10
139.075750
 20
154.027942
 11
139.075750
 21
154.384463
  0
LINE
  8
0
  6
CONTINUOUS
 62
1
 10
139.178249
 20
193.194789
 11
139.575749
 21
193.194789
  0
LINE
  8
0
  6
CONTINUOUS
 62
1
 10
139.575749
 20
193.153324
 11
139.575749
 21
193.194789
  0
ARC
  8
0
  6
CONTINUOUS
 62
1
 10
139.248910
 20
192.918577
 40
0.285107
 50
104.349807
 51
124.577196
  0
LINE
  8
0
  6
CONTINUOUS
 62
1
 10
139.075750
 20
161.997824
 11
139.075750
 21
162.105824
  0
LINE
  8
0
  6
CONTINUOUS
 62
1
 10
139.075750
 20
187.855824
 11
139.075750
 21
187.903324
  0
LINE
  8
0
  6
CONTINUOUS
 62
1
 10
139.178249
 20
193.198324
 11
139.178249
 21
193.238324
  0
LINE
  8
0
  6
CONTINUOUS
 62
1
 10
139.178249
 20
193.238324
 11
139.575749
 21
193.238324
  0
LINE
  8
0
  6
CONTINUOUS
 62
1
 10
139.575749
 20
193.238324
 11
139.575749
 21
193.198324
  0
LINE
  8
0
  6
CONTINUOUS
 62
1
 10
139.178249
 20
193.198324
 11
139.575749
 21
193.198324
  0
ARC
  8
0
  6
CONTINUOUS
 62
1
 10
139.175093
 20
193.141826
 40
0.096550
 50
88.126978
 51
173.160909
  0
ARC
  8
0
  6
CONTINUOUS
 62
1
 10
139.174374
 20
193.145998
 40
0.052469
 50
85.764852
 51
143.898650
  0
LINE
  8
0
  6
CONTINUOUS
 62
1
 10
141.275751
 20
193.238324
 11
141.275751
 21
193.198324
  0
LINE
  8
0
  6
CONTINUOUS
 62
1
 10
139.575749
 20
193.238324
 11
141.275751
 21
193.238324
  0
LINE
  8
0
  6
CONTINUOUS
 62
1
 10
139.575749
 20
193.198324
 11
141.275751
 21
193.198324
  0
LINE
  8
0
  6
CONTINUOUS
 62
1
 10
139.575749
 20
193.194789
 11
139.875751
 21
193.194789
  0
LINE
  8
0
  6
CONTINUOUS
 62
1
 10
139.875751
 20
193.194789
 11
139.875751
 21
193.153324
  0
ARC
  8
0
  6
CONTINUOUS
 62
1
 10
183.871740
 20
192.875405
 40
0.332235
 50
56.773538
 51
74.011872
  0
LINE
  8
0
  6
CONTINUOUS
 62
1
 10
184.065750
 20
187.903324
 11
184.065750
 21
187.855824
  0
LINE
  8
0
  6
CONTINUOUS
 62
1
 10
184.065750
 20
162.105824
 11
184.065750
 21
161.997824
  0
LINE
  8
0
  6
CONTINUOUS
 62
1
 10
183.565750
 20
193.194789
 11
183.565750
 21
193.153324
  0
LINE
  8
0
  6
CONTINUOUS
 62
1
 10
183.963251
 20
193.194789
 11
183.565750
 21
193.194789
  0
ARC
  8
0
  6
CONTINUOUS
 62
1
 10
183.967121
 20
193.146038
 40
0.052428
 50
36.123760
 51
94.233218
  0
LINE
  8
0
  6
CONTINUOUS
 62
1
 10
183.963251
 20
193.198324
 11
183.963251
 21
193.238324
  0
ARC
  8
0
  6
CONTINUOUS
 62
1
 10
183.965918
 20
193.140914
 40
0.097446
 50
7.316065
 51
91.568760
  0
LINE
  8
0
  6
CONTINUOUS
 62
1
 10
183.565750
 20
193.238324
 11
183.565750
 21
193.198324
  0
LINE
  8
0
  6
CONTINUOUS
 62
1
 10
183.963251
 20
193.198324
 11
183.565750
 21
193.198324
  0
LINE
  8
0
  6
CONTINUOUS
 62
1
 10
183.963251
 20
193.238324
 11
183.565750
 21
193.238324
  0
LINE
  8
0
  6
CONTINUOUS
 62
1
 10
183.000750
 20
193.198324
 11
183.565750
 21
193.198324
  0
LINE
  8
0
  6
CONTINUOUS
 62
1
 10
183.000750
 20
193.238324
 11
183.565750
 21
193.238324
  0
LINE
  8
0
  6
CONTINUOUS
 62
1
 10
183.265750
 20
193.153324
 11
183.265750
 21
193.194789
  0
LINE
  8
0
  6
CONTINUOUS
 62
1
 10
183.565750
 20
193.194789
 11
183.265750
 21
193.194789
  0
ARC
  8
0
  6
CONTINUOUS
 62
1
 10
182.875750
 20
195.188324
 40
0.200000
 50
36.869898
 51
143.130102
  0
ARC
  8
0
  6
CONTINUOUS
 62
1
 10
182.875750
 20
195.188324
 40
0.200000
 50
216.869898
 51
323.130102
  0
ARC
  8
0
  6
CONTINUOUS
 62
1
 10
163.625750
 20
195.188324
 40
0.200000
 50
36.869898
 51
143.130102
  0
ARC
  8
0
  6
CONTINUOUS
 62
1
 10
163.625750
 20
195.188324
 40
0.200000
 50
216.869898
 51
323.130102
  0
LINE
  8
0
  6
CONTINUOUS
 62
1
 10
163.125750
 20
196.765818
 11
163.125750
 21
196.765824
  0
LINE
  8
0
  6
CONTINUOUS
 62
1
 10
183.375750
 20
196.765824
 11
183.375750
 21
196.765818
  0
LINE
  8
0
  6
CONTINUOUS
 62
1
 10
170.825750
 20
192.623324
 11
169.606793
 21
192.623324
  0
LINE
  8
0
  6
CONTINUOUS
 62
1
 10
169.018317
 20
192.623324
 11
166.575750
 21
192.623324
  0
LINE
  8
0
  6
CONTINUOUS
 62
1
 10
164.018317
 20
192.623324
 11
159.606793
 21
192.623324
  0
LINE
  8
0
  6
CONTINUOUS
 62
1
 10
156.575749
 20
192.623324
 11
154.606793
 21
192.623324
  0
LINE
  8
0
  6
CONTINUOUS
 62
1
 10
154.018317
 20
192.623324
 11
152.325750
 21
192.623324
  0
LINE
  8
0
  6
CONTINUOUS
 62
1
 10
178.042051
 20
191.783324
 11
178.659157
 21
191.783324
  0
LINE
  8
0
  6
CONTINUOUS
 62
1
 10
168.379917
 20
154.708954
 11
168.379959
 21
154.713939
  0
LINE
  8
0
  6
CONTINUOUS
 62
1
 10
168.379959
 20
154.713939
 11
168.379909
 21
154.719332
  0
LINE
  8
0
  6
CONTINUOUS
 62
1
 10
169.346958
 20
154.729592
 11
169.346591
 21
154.719332
  0
LINE
  8
0
  6
CONTINUOUS
 62
1
 10
168.788250
 20
154.404553
 11
168.793959
 21
154.395683
  0
LINE
  8
0
  6
CONTINUOUS
 62
1
 10
168.793959
 20
154.395683
 11
168.810217
 21
154.388164
  0
LINE
  8
0
  6
CONTINUOUS
 62
1
 10
168.810217
 20
154.388164
 11
168.834549
 21
154.383141
  0
LINE
  8
0
  6
CONTINUOUS
 62
1
 10
168.834549
 20
154.383141
 11
168.863250
 21
154.381377
  0
LINE
  8
0
  6
CONTINUOUS
 62
1
 10
168.863250
 20
154.381377
 11
168.891951
 21
154.383141
  0
LINE
  8
0
  6
CONTINUOUS
 62
1
 10
168.891951
 20
154.383141
 11
168.916283
 21
154.388164
  0
LINE
  8
0
  6
CONTINUOUS
 62
1
 10
168.916283
 20
154.388164
 11
168.932541
 21
154.395683
  0
LINE
  8
0
  6
CONTINUOUS
 62
1
 10
168.932541
 20
154.395683
 11
168.938250
 21
154.404553
  0
LINE
  8
0
  6
CONTINUOUS
 62
1
 10
168.788250
 20
154.929984
 11
168.788250
 21
154.404553
  0
LINE
  8
0
  6
CONTINUOUS
 62
1
 10
168.938250
 20
154.404553
 11
168.938250
 21
154.929984
  0
LINE
  8
0
  6
CONTINUOUS
 62
1
 10
168.282184
 20
154.466057
 11
168.282084
 21
154.466717
  0
LINE
  8
0
  6
CONTINUOUS
 62
1
 10
168.282084
 20
154.466717
 11
168.282064
 21
154.466872
  0
LINE
  8
0
  6
CONTINUOUS
 62
1
 10
179.952132
 20
188.183324
 11
179.823250
 21
188.183324
  0
LINE
  8
0
  6
CONTINUOUS
 62
1
 10
143.327090
 20
188.183324
 11
143.179368
 21
188.183324
  0
ARC
  8
0
  6
CONTINUOUS
 62
1
 10
143.325750
 20
188.583324
 40
0.325000
 50
219.715137
 51
270.236397
  0
ARC
  8
0
  6
CONTINUOUS
 62
1
 10
179.825750
 20
188.583324
 40
0.325000
 50
269.559259
 51
320.284863
  0
LINE
  8
0
  6
CONTINUOUS
 62
1
 10
155.578251
 20
160.933324
 11
167.573250
 21
160.933324
  0
LINE
  8
0
  6
CONTINUOUS
 62
1
 10
155.578251
 20
189.028324
 11
155.578251
 21
160.933324
  0
LINE
  8
0
  6
CONTINUOUS
 62
1
 10
167.573250
 20
189.028324
 11
155.578251
 21
189.028324
  0
LINE
  8
0
  6
CONTINUOUS
 62
1
 10
167.573250
 20
160.933324
 11
167.573250
 21
189.028324
  0
LINE
  8
0
  6
CONTINUOUS
 62
1
 10
167.828250
 20
160.933324
 11
179.823250
 21
160.933324
  0
LINE
  8
0
  6
CONTINUOUS
 62
1
 10
179.823250
 20
160.933324
 11
179.823250
 21
189.028324
  0
LINE
  8
0
  6
CONTINUOUS
 62
1
 10
167.828250
 20
189.028324
 11
167.828250
 21
160.933324
  0
LINE
  8
0
  6
CONTINUOUS
 62
1
 10
179.823250
 20
189.028324
 11
167.828250
 21
189.028324
  0
CIRCLE
  8
0
  6
CONTINUOUS
 62
1
 10
140.975750
 20
188.430824
 40
0.375000
  0
CIRCLE
  8
0
  6
CONTINUOUS
 62
1
 10
140.975750
 20
161.530824
 40
0.375000
  0
LINE
  8
0
  6
CONTINUOUS
 62
1
 10
139.175751
 20
189.030824
 11
139.175751
 21
160.930825
  0
LINE
  8
0
  6
CONTINUOUS
 62
1
 10
143.075749
 20
189.030824
 11
139.175751
 21
189.030824
  0
LINE
  8
0
  6
CONTINUOUS
 62
1
 10
143.075749
 20
160.930825
 11
143.075749
 21
189.030824
  0
LINE
  8
0
  6
CONTINUOUS
 62
1
 10
139.175751
 20
160.930825
 11
143.075749
 21
160.930825
  0
CIRCLE
  8
0
  6
CONTINUOUS
 62
1
 10
140.975750
 20
188.430824
 40
0.200000
  0
CIRCLE
  8
0
  6
CONTINUOUS
 62
1
 10
140.975750
 20
161.530824
 40
0.200000
  0
CIRCLE
  8
0
  6
CONTINUOUS
 62
1
 10
182.175750
 20
161.530824
 40
0.375000
  0
CIRCLE
  8
0
  6
CONTINUOUS
 62
1
 10
182.175750
 20
188.430824
 40
0.375000
  0
LINE
  8
0
  6
CONTINUOUS
 62
1
 10
183.975750
 20
160.930825
 11
183.975750
 21
189.030824
  0
LINE
  8
0
  6
CONTINUOUS
 62
1
 10
180.075750
 20
160.930825
 11
183.975750
 21
160.930825
  0
LINE
  8
0
  6
CONTINUOUS
 62
1
 10
180.075750
 20
189.030824
 11
180.075750
 21
160.930825
  0
LINE
  8
0
  6
CONTINUOUS
 62
1
 10
183.975750
 20
189.030824
 11
180.075750
 21
189.030824
  0
CIRCLE
  8
0
  6
CONTINUOUS
 62
1
 10
182.175750
 20
188.430824
 40
0.200000
  0
CIRCLE
  8
0
  6
CONTINUOUS
 62
1
 10
182.175750
 20
161.530824
 40
0.200000
  0
CIRCLE
  8
0
  6
CONTINUOUS
 62
1
 10
149.324591
 20
181.605824
 40
4.575000
  0
CIRCLE
  8
0
  6
CONTINUOUS
 62
1
 10
149.324591
 20
181.605824
 40
4.675000
  0
CIRCLE
  8
0
  6
CONTINUOUS
 62
1
 10
149.324591
 20
181.605824
 40
1.375000
  0
CIRCLE
  8
0
  6
CONTINUOUS
 62
1
 10
149.324777
 20
181.605954
 40
0.700000
  0
CIRCLE
  8
0
  6
CONTINUOUS
 62
1
 10
149.324591
 20
168.355824
 40
4.575000
  0
CIRCLE
  8
0
  6
CONTINUOUS
 62
1
 10
149.324591
 20
168.355824
 40
4.675000
  0
CIRCLE
  8
0
  6
CONTINUOUS
 62
1
 10
149.324591
 20
168.355824
 40
1.375000
  0
CIRCLE
  8
0
  6
CONTINUOUS
 62
1
 10
149.324721
 20
168.355638
 40
0.700000
  0
CIRCLE
  8
0
  6
CONTINUOUS
 62
1
 10
149.324591
 20
168.355824
 40
4.904971
  0
CIRCLE
  8
0
  6
CONTINUOUS
 62
1
 10
149.324591
 20
181.605824
 40
4.904971
  0
LINE
  8
0
  6
CONTINUOUS
 62
1
 10
155.322091
 20
160.933324
 11
155.322091
 21
189.028324
  0
LINE
  8
0
  6
CONTINUOUS
 62
1
 10
143.327090
 20
160.933324
 11
155.322091
 21
160.933324
  0
LINE
  8
0
  6
CONTINUOUS
 62
1
 10
155.322091
 20
189.028324
 11
143.327090
 21
189.028324
  0
LINE
  8
0
  6
CONTINUOUS
 62
1
 10
143.327090
 20
189.028324
 11
143.327090
 21
160.933324
  0
LINE
  8
0
  6
CONTINUOUS
 62
1
 10
184.065750
 20
187.605824
 11
184.065750
 21
162.355824
  0
LINE
  8
0
  6
CONTINUOUS
 62
1
 10
184.025751
 20
187.605824
 11
184.025751
 21
162.355824
  0
LINE
  8
0
  6
CONTINUOUS
 62
1
 10
184.065750
 20
187.855824
 11
184.025751
 21
187.855824
  0
LINE
  8
0
  6
CONTINUOUS
 62
1
 10
184.065750
 20
187.855824
 11
184.065750
 21
187.605824
  0
LINE
  8
0
  6
CONTINUOUS
 62
1
 10
184.025751
 20
187.855824
 11
184.025751
 21
187.605824
  0
LINE
  8
0
  6
CONTINUOUS
 62
1
 10
184.065750
 20
162.105824
 11
184.025751
 21
162.105824
  0
LINE
  8
0
  6
CONTINUOUS
 62
1
 10
184.025751
 20
162.355824
 11
184.025751
 21
162.105824
  0
LINE
  8
0
  6
CONTINUOUS
 62
1
 10
184.065750
 20
162.355824
 11
184.065750
 21
162.105824
  0
LINE
  8
0
  6
CONTINUOUS
 62
1
 10
183.975750
 20
162.105824
 11
184.025751
 21
162.105824
  0
LINE
  8
0
  6
CONTINUOUS
 62
1
 10
184.025751
 20
187.855824
 11
183.975750
 21
187.855824
  0
ARC
  8
0
  6
CONTINUOUS
 62
1
 10
179.895810
 20
162.392463
 40
0.136652
 50
237.928167
 51
269.204594
  0
ARC
  8
0
  6
CONTINUOUS
 62
1
 10
179.895820
 20
187.569144
 40
0.136693
 50
90.799693
 51
122.066434
  0
LINE
  8
0
  6
CONTINUOUS
 62
1
 10
179.893913
 20
187.705824
 11
180.075750
 21
187.705824
  0
LINE
  8
0
  6
CONTINUOUS
 62
1
 10
180.075750
 20
162.255824
 11
179.893913
 21
162.255824
  0
LINE
  8
0
  6
CONTINUOUS
 62
1
 10
139.105749
 20
162.355824
 11
139.105749
 21
187.605824
  0
LINE
  8
0
  6
CONTINUOUS
 62
1
 10
139.065751
 20
162.355824
 11
139.065751
 21
187.605824
  0
LINE
  8
0
  6
CONTINUOUS
 62
1
 10
139.065751
 20
162.105824
 11
139.105749
 21
162.105824
  0
LINE
  8
0
  6
CONTINUOUS
 62
1
 10
139.105749
 20
162.105824
 11
139.105749
 21
162.355824
  0
LINE
  8
0
  6
CONTINUOUS
 62
1
 10
139.065751
 20
162.105824
 11
139.065751
 21
162.355824
  0
LINE
  8
0
  6
CONTINUOUS
 62
1
 10
139.065751
 20
187.855824
 11
139.105749
 21
187.855824
  0
LINE
  8
0
  6
CONTINUOUS
 62
1
 10
139.105749
 20
187.605824
 11
139.105749
 21
187.855824
  0
LINE
  8
0
  6
CONTINUOUS
 62
1
 10
139.065751
 20
187.605824
 11
139.065751
 21
187.855824
  0
LINE
  8
0
  6
CONTINUOUS
 62
1
 10
139.105749
 20
162.105824
 11
139.168250
 21
162.105824
  0
LINE
  8
0
  6
CONTINUOUS
 62
1
 10
139.168250
 20
187.855824
 11
139.105749
 21
187.855824
  0
LINE
  8
0
  6
CONTINUOUS
 62
1
 10
139.168250
 20
162.105824
 11
139.175751
 21
162.105824
  0
LINE
  8
0
  6
CONTINUOUS
 62
1
 10
139.175751
 20
187.855824
 11
139.168250
 21
187.855824
  0
ARC
  8
0
  6
CONTINUOUS
 62
1
 10
143.234768
 20
187.564889
 40
0.140963
 50
49.085260
 51
88.853909
  0
ARC
  8
0
  6
CONTINUOUS
 62
1
 10
143.234766
 20
162.396765
 40
0.140969
 50
271.146959
 51
310.913872
  0
LINE
  8
0
  6
CONTINUOUS
 62
1
 10
143.237587
 20
162.255824
 11
143.075749
 21
162.255824
  0
LINE
  8
0
  6
CONTINUOUS
 62
1
 10
143.075749
 20
187.705824
 11
143.237587
 21
187.705824
  0
LINE
  8
0
  6
CONTINUOUS
 62
1
 10
175.573188
 20
196.873324
 11
175.573188
 21
196.868325
  0
LINE
  8
0
  6
CONTINUOUS
 62
1
 10
175.573188
 20
196.873324
 11
180.570168
 21
196.873324
  0
LINE
  8
0
  6
CONTINUOUS
 62
1
 10
183.070167
 20
196.873324
 11
183.073188
 21
196.873324
  0
LINE
  8
0
  6
CONTINUOUS
 62
1
 10
183.073188
 20
196.873324
 11
183.073188
 21
196.868325
  0
LINE
  8
0
  6
CONTINUOUS
 62
1
 10
179.867625
 20
196.878325
 11
179.867625
 21
196.873324
  0
LINE
  8
0
  6
CONTINUOUS
 62
1
 10
179.906428
 20
196.878325
 11
179.867625
 21
196.878325
  0
LINE
  8
0
  6
CONTINUOUS
 62
1
 10
179.906428
 20
196.878325
 11
179.906428
 21
196.873324
  0
LINE
  8
0
  6
CONTINUOUS
 62
1
 10
179.825659
 20
196.878325
 11
179.825659
 21
196.873324
  0
LINE
  8
0
  6
CONTINUOUS
 62
1
 10
179.867625
 20
196.878325
 11
179.825659
 21
196.878325
  0
LINE
  8
0
  6
CONTINUOUS
 62
1
 10
180.509933
 20
196.878325
 11
180.509933
 21
196.873324
  0
LINE
  8
0
  6
CONTINUOUS
 62
1
 10
180.548735
 20
196.878325
 11
180.509933
 21
196.878325
  0
LINE
  8
0
  6
CONTINUOUS
 62
1
 10
180.548735
 20
196.878325
 11
180.548735
 21
196.873324
  0
LINE
  8
0
  6
CONTINUOUS
 62
1
 10
179.539761
 20
196.878325
 11
179.539761
 21
196.873324
  0
LINE
  8
0
  6
CONTINUOUS
 62
1
 10
178.934633
 20
196.878325
 11
178.934633
 21
196.873324
  0
LINE
  8
0
  6
CONTINUOUS
 62
1
 10
178.284633
 20
196.878325
 11
178.284633
 21
196.873324
  0
LINE
  8
0
  6
CONTINUOUS
 62
1
 10
178.769248
 20
196.878325
 11
178.769248
 21
196.873324
  0
LINE
  8
0
  6
CONTINUOUS
 62
1
 10
180.467966
 20
196.878325
 11
180.467966
 21
196.873324
  0
LINE
  8
0
  6
CONTINUOUS
 62
1
 10
180.509933
 20
196.878325
 11
180.467966
 21
196.878325
  0
LINE
  8
0
  6
CONTINUOUS
 62
1
 10
178.450018
 20
196.878325
 11
178.450018
 21
196.873324
  0
LINE
  8
0
  6
CONTINUOUS
 62
1
 10
179.705145
 20
196.878325
 11
179.705145
 21
196.873324
  0
LINE
  8
0
  6
CONTINUOUS
 62
1
 10
176.582069
 20
196.878325
 11
176.582069
 21
196.873324
  0
LINE
  8
0
  6
CONTINUOUS
 62
1
 10
176.416684
 20
196.878325
 11
176.416684
 21
196.873324
  0
LINE
  8
0
  6
CONTINUOUS
 62
1
 10
176.105146
 20
196.878325
 11
176.105146
 21
196.873324
  0
LINE
  8
0
  6
CONTINUOUS
 62
1
 10
175.939761
 20
196.878325
 11
175.939761
 21
196.873324
  0
LINE
  8
0
  6
CONTINUOUS
 62
1
 10
177.941043
 20
196.878325
 11
177.941043
 21
196.873324
  0
LINE
  8
0
  6
CONTINUOUS
 62
1
 10
178.012818
 20
196.878325
 11
178.012818
 21
196.873324
  0
LINE
  8
0
  6
CONTINUOUS
 62
1
 10
178.098735
 20
196.878325
 11
178.098735
 21
196.873324
  0
LINE
  8
0
  6
CONTINUOUS
 62
1
 10
177.416684
 20
196.878325
 11
177.416684
 21
196.873324
  0
LINE
  8
0
  6
CONTINUOUS
 62
1
 10
176.982069
 20
196.878325
 11
176.982069
 21
196.873324
  0
LINE
  8
0
  6
CONTINUOUS
 62
1
 10
177.024036
 20
196.878325
 11
177.024036
 21
196.873324
  0
LINE
  8
0
  6
CONTINUOUS
 62
1
 10
177.024036
 20
196.878325
 11
176.982069
 21
196.878325
  0
LINE
  8
0
  6
CONTINUOUS
 62
1
 10
177.251300
 20
196.878325
 11
177.251300
 21
196.873324
  0
LINE
  8
0
  6
CONTINUOUS
 62
1
 10
177.062838
 20
196.878325
 11
177.062838
 21
196.873324
  0
LINE
  8
0
  6
CONTINUOUS
 62
1
 10
177.062838
 20
196.878325
 11
177.024036
 21
196.878325
  0
LINE
  8
0
  6
CONTINUOUS
 62
1
 10
181.857252
 20
196.878325
 11
181.847453
 21
196.878325
  0
LINE
  8
0
  6
CONTINUOUS
 62
1
 10
181.832069
 20
196.878325
 11
181.832069
 21
196.873324
  0
LINE
  8
0
  6
CONTINUOUS
 62
1
 10
181.847453
 20
196.878325
 11
181.832069
 21
196.878325
  0
LINE
  8
0
  6
CONTINUOUS
 62
1
 10
181.847453
 20
196.878325
 11
181.847453
 21
196.873324
  0
LINE
  8
0
  6
CONTINUOUS
 62
1
 10
177.447453
 20
196.878325
 11
177.447453
 21
196.873324
  0
LINE
  8
0
  6
CONTINUOUS
 62
1
 10
177.462838
 20
196.878325
 11
177.447453
 21
196.878325
  0
LINE
  8
0
  6
CONTINUOUS
 62
1
 10
177.462838
 20
196.878325
 11
177.462838
 21
196.873324
  0
LINE
  8
0
  6
CONTINUOUS
 62
1
 10
179.724377
 20
196.878325
 11
179.724377
 21
196.873324
  0
LINE
  8
0
  6
CONTINUOUS
 62
1
 10
179.808992
 20
196.878325
 11
179.724377
 21
196.878325
  0
LINE
  8
0
  6
CONTINUOUS
 62
1
 10
179.808992
 20
196.878325
 11
179.808992
 21
196.873324
  0
LINE
  8
0
  6
CONTINUOUS
 62
1
 10
179.441063
 20
196.878325
 11
179.441063
 21
196.873324
  0
LINE
  8
0
  6
CONTINUOUS
 62
1
 10
179.477141
 20
196.878325
 11
179.441063
 21
196.878325
  0
LINE
  8
0
  6
CONTINUOUS
 62
1
 10
178.738479
 20
196.878325
 11
178.706628
 21
196.878325
  0
LINE
  8
0
  6
CONTINUOUS
 62
1
 10
178.738479
 20
196.878325
 11
178.738479
 21
196.873324
  0
LINE
  8
0
  6
CONTINUOUS
 62
1
 10
179.257710
 20
196.878325
 11
179.257710
 21
196.873324
  0
LINE
  8
0
  6
CONTINUOUS
 62
1
 10
179.257710
 20
196.878325
 11
179.225518
 21
196.878325
  0
LINE
  8
0
  6
CONTINUOUS
 62
1
 10
179.284633
 20
196.878325
 11
179.284633
 21
196.873324
  0
LINE
  8
0
  6
CONTINUOUS
 62
1
 10
179.375658
 20
196.878325
 11
179.284633
 21
196.878325
  0
LINE
  8
0
  6
CONTINUOUS
 62
1
 10
179.375658
 20
196.878325
 11
179.375658
 21
196.873324
  0
LINE
  8
0
  6
CONTINUOUS
 62
1
 10
179.225518
 20
196.878325
 11
179.174958
 21
196.878325
  0
LINE
  8
0
  6
CONTINUOUS
 62
1
 10
179.034633
 20
196.878325
 11
178.956428
 21
196.878325
  0
LINE
  8
0
  6
CONTINUOUS
 62
1
 10
179.034633
 20
196.878325
 11
179.034633
 21
196.873324
  0
LINE
  8
0
  6
CONTINUOUS
 62
1
 10
178.956428
 20
196.878325
 11
178.956428
 21
196.873324
  0
LINE
  8
0
  6
CONTINUOUS
 62
1
 10
179.988479
 20
196.878325
 11
179.988479
 21
196.873324
  0
LINE
  8
0
  6
CONTINUOUS
 62
1
 10
180.079505
 20
196.878325
 11
179.988479
 21
196.878325
  0
LINE
  8
0
  6
CONTINUOUS
 62
1
 10
180.079505
 20
196.878325
 11
180.079505
 21
196.873324
  0
LINE
  8
0
  6
CONTINUOUS
 62
1
 10
179.508992
 20
196.878325
 11
179.508992
 21
196.873324
  0
LINE
  8
0
  6
CONTINUOUS
 62
1
 10
179.508992
 20
196.878325
 11
179.477141
 21
196.878325
  0
LINE
  8
0
  6
CONTINUOUS
 62
1
 10
176.888479
 20
196.878325
 11
176.857409
 21
196.878325
  0
LINE
  8
0
  6
CONTINUOUS
 62
1
 10
176.888479
 20
196.878325
 11
176.888479
 21
196.873324
  0
LINE
  8
0
  6
CONTINUOUS
 62
1
 10
176.691063
 20
196.878325
 11
176.691063
 21
196.873324
  0
LINE
  8
0
  6
CONTINUOUS
 62
1
 10
176.727141
 20
196.878325
 11
176.691063
 21
196.878325
  0
LINE
  8
0
  6
CONTINUOUS
 62
1
 10
178.670550
 20
196.878325
 11
178.670550
 21
196.873324
  0
LINE
  8
0
  6
CONTINUOUS
 62
1
 10
178.706628
 20
196.878325
 11
178.670550
 21
196.878325
  0
LINE
  8
0
  6
CONTINUOUS
 62
1
 10
178.250619
 20
196.878325
 11
178.250619
 21
196.873324
  0
LINE
  8
0
  6
CONTINUOUS
 62
1
 10
178.253864
 20
196.878325
 11
178.253864
 21
196.873324
  0
LINE
  8
0
  6
CONTINUOUS
 62
1
 10
178.253864
 20
196.878325
 11
178.250619
 21
196.878325
  0
LINE
  8
0
  6
CONTINUOUS
 62
1
 10
178.250619
 20
196.878325
 11
178.144890
 21
196.878325
  0
LINE
  8
0
  6
CONTINUOUS
 62
1
 10
176.758992
 20
196.878325
 11
176.727141
 21
196.878325
  0
LINE
  8
0
  6
CONTINUOUS
 62
1
 10
176.758992
 20
196.878325
 11
176.758992
 21
196.873324
  0
LINE
  8
0
  6
CONTINUOUS
 62
1
 10
178.544890
 20
196.878325
 11
178.529505
 21
196.878325
  0
LINE
  8
0
  6
CONTINUOUS
 62
1
 10
178.544890
 20
196.878325
 11
178.544890
 21
196.873324
  0
LINE
  8
0
  6
CONTINUOUS
 62
1
 10
178.529505
 20
196.878325
 11
178.529505
 21
196.873324
  0
LINE
  8
0
  6
CONTINUOUS
 62
1
 10
176.821371
 20
196.878325
 11
176.821371
 21
196.873324
  0
LINE
  8
0
  6
CONTINUOUS
 62
1
 10
176.857409
 20
196.878325
 11
176.821371
 21
196.878325
  0
LINE
  8
0
  6
CONTINUOUS
 62
1
 10
176.612838
 20
196.878325
 11
176.612838
 21
196.873324
  0
LINE
  8
0
  6
CONTINUOUS
 62
1
 10
176.628223
 20
196.878325
 11
176.612838
 21
196.878325
  0
LINE
  8
0
  6
CONTINUOUS
 62
1
 10
176.628223
 20
196.878325
 11
176.628223
 21
196.873324
  0
LINE
  8
0
  6
CONTINUOUS
 62
1
 10
180.607251
 20
196.878325
 11
180.570530
 21
196.878325
  0
LINE
  8
0
  6
CONTINUOUS
 62
1
 10
180.570530
 20
196.878325
 11
180.570530
 21
196.873324
  0
LINE
  8
0
  6
CONTINUOUS
 62
1
 10
176.385915
 20
196.878325
 11
176.354064
 21
196.878325
  0
LINE
  8
0
  6
CONTINUOUS
 62
1
 10
176.385915
 20
196.878325
 11
176.385915
 21
196.873324
  0
LINE
  8
0
  6
CONTINUOUS
 62
1
 10
176.124377
 20
196.878325
 11
176.124377
 21
196.873324
  0
LINE
  8
0
  6
CONTINUOUS
 62
1
 10
176.208992
 20
196.878325
 11
176.208992
 21
196.873324
  0
LINE
  8
0
  6
CONTINUOUS
 62
1
 10
176.208992
 20
196.878325
 11
176.124377
 21
196.878325
  0
LINE
  8
0
  6
CONTINUOUS
 62
1
 10
176.317986
 20
196.878325
 11
176.317986
 21
196.873324
  0
LINE
  8
0
  6
CONTINUOUS
 62
1
 10
176.354064
 20
196.878325
 11
176.317986
 21
196.878325
  0
LINE
  8
0
  6
CONTINUOUS
 62
1
 10
178.129505
 20
196.878325
 11
178.129505
 21
196.873324
  0
LINE
  8
0
  6
CONTINUOUS
 62
1
 10
178.144890
 20
196.878325
 11
178.144890
 21
196.873324
  0
LINE
  8
0
  6
CONTINUOUS
 62
1
 10
178.144890
 20
196.878325
 11
178.129505
 21
196.878325
  0
LINE
  8
0
  6
CONTINUOUS
 62
1
 10
177.525679
 20
196.878325
 11
177.525679
 21
196.873324
  0
LINE
  8
0
  6
CONTINUOUS
 62
1
 10
177.561756
 20
196.878325
 11
177.525679
 21
196.878325
  0
LINE
  8
0
  6
CONTINUOUS
 62
1
 10
180.314120
 20
196.878325
 11
180.314120
 21
196.873324
  0
LINE
  8
0
  6
CONTINUOUS
 62
1
 10
180.388479
 20
196.878325
 11
180.388479
 21
196.873324
  0
LINE
  8
0
  6
CONTINUOUS
 62
1
 10
180.388479
 20
196.878325
 11
180.314120
 21
196.878325
  0
LINE
  8
0
  6
CONTINUOUS
 62
1
 10
180.144909
 20
196.878325
 11
180.144909
 21
196.873324
  0
LINE
  8
0
  6
CONTINUOUS
 62
1
 10
180.180987
 20
196.878325
 11
180.144909
 21
196.878325
  0
LINE
  8
0
  6
CONTINUOUS
 62
1
 10
180.311556
 20
196.878325
 11
180.311556
 21
196.873324
  0
LINE
  8
0
  6
CONTINUOUS
 62
1
 10
180.314120
 20
196.878325
 11
180.311556
 21
196.878325
  0
LINE
  8
0
  6
CONTINUOUS
 62
1
 10
177.593608
 20
196.878325
 11
177.561756
 21
196.878325
  0
LINE
  8
0
  6
CONTINUOUS
 62
1
 10
177.593608
 20
196.878325
 11
177.593608
 21
196.873324
  0
LINE
  8
0
  6
CONTINUOUS
 62
1
 10
180.238479
 20
196.878325
 11
180.238479
 21
196.873324
  0
LINE
  8
0
  6
CONTINUOUS
 62
1
 10
180.311556
 20
196.878325
 11
180.238479
 21
196.878325
  0
LINE
  8
0
  6
CONTINUOUS
 62
1
 10
177.711556
 20
196.878325
 11
177.711556
 21
196.873324
  0
LINE
  8
0
  6
CONTINUOUS
 62
1
 10
177.620530
 20
196.878325
 11
177.620530
 21
196.873324
  0
LINE
  8
0
  6
CONTINUOUS
 62
1
 10
177.711556
 20
196.878325
 11
177.620530
 21
196.878325
  0
LINE
  8
0
  6
CONTINUOUS
 62
1
 10
180.212838
 20
196.878325
 11
180.212838
 21
196.873324
  0
LINE
  8
0
  6
CONTINUOUS
 62
1
 10
180.212838
 20
196.878325
 11
180.180987
 21
196.878325
  0
LINE
  8
0
  6
CONTINUOUS
 62
1
 10
177.841043
 20
196.878325
 11
177.809973
 21
196.878325
  0
LINE
  8
0
  6
CONTINUOUS
 62
1
 10
177.841043
 20
196.878325
 11
177.841043
 21
196.873324
  0
LINE
  8
0
  6
CONTINUOUS
 62
1
 10
177.773936
 20
196.878325
 11
177.773936
 21
196.873324
  0
LINE
  8
0
  6
CONTINUOUS
 62
1
 10
177.809973
 20
196.878325
 11
177.773936
 21
196.878325
  0
LINE
  8
0
  6
CONTINUOUS
 62
1
 10
177.220530
 20
196.878325
 11
177.188339
 21
196.878325
  0
LINE
  8
0
  6
CONTINUOUS
 62
1
 10
177.220530
 20
196.878325
 11
177.220530
 21
196.873324
  0
LINE
  8
0
  6
CONTINUOUS
 62
1
 10
177.188339
 20
196.878325
 11
177.137778
 21
196.878325
  0
LINE
  8
0
  6
CONTINUOUS
 62
1
 10
178.638479
 20
196.878325
 11
178.638479
 21
196.873324
  0
LINE
  8
0
  6
CONTINUOUS
 62
1
 10
178.670550
 20
196.878325
 11
178.638479
 21
196.878325
  0
LINE
  8
0
  6
CONTINUOUS
 62
1
 10
179.408992
 20
196.878325
 11
179.408992
 21
196.873324
  0
LINE
  8
0
  6
CONTINUOUS
 62
1
 10
179.441063
 20
196.878325
 11
179.408992
 21
196.878325
  0
LINE
  8
0
  6
CONTINUOUS
 62
1
 10
180.112838
 20
196.878325
 11
180.112838
 21
196.873324
  0
LINE
  8
0
  6
CONTINUOUS
 62
1
 10
180.144909
 20
196.878325
 11
180.112838
 21
196.878325
  0
LINE
  8
0
  6
CONTINUOUS
 62
1
 10
176.658992
 20
196.878325
 11
176.658992
 21
196.873324
  0
LINE
  8
0
  6
CONTINUOUS
 62
1
 10
176.691063
 20
196.878325
 11
176.658992
 21
196.878325
  0
LINE
  8
0
  6
CONTINUOUS
 62
1
 10
176.285915
 20
196.878325
 11
176.285915
 21
196.873324
  0
LINE
  8
0
  6
CONTINUOUS
 62
1
 10
176.317986
 20
196.878325
 11
176.285915
 21
196.878325
  0
LINE
  8
0
  6
CONTINUOUS
 62
1
 10
177.493608
 20
196.878325
 11
177.493608
 21
196.873324
  0
LINE
  8
0
  6
CONTINUOUS
 62
1
 10
177.525679
 20
196.878325
 11
177.493608
 21
196.878325
  0
LINE
  8
0
  6
CONTINUOUS
 62
1
 10
176.791043
 20
196.878325
 11
176.791043
 21
196.873324
  0
LINE
  8
0
  6
CONTINUOUS
 62
1
 10
176.821371
 20
196.878325
 11
176.791043
 21
196.878325
  0
LINE
  8
0
  6
CONTINUOUS
 62
1
 10
177.743607
 20
196.878325
 11
177.743607
 21
196.873324
  0
LINE
  8
0
  6
CONTINUOUS
 62
1
 10
177.773936
 20
196.878325
 11
177.743607
 21
196.878325
  0
LINE
  8
0
  6
CONTINUOUS
 62
1
 10
179.126941
 20
196.878325
 11
179.126941
 21
196.873324
  0
LINE
  8
0
  6
CONTINUOUS
 62
1
 10
177.089761
 20
196.878325
 11
177.089761
 21
196.873324
  0
LINE
  8
0
  6
CONTINUOUS
 62
1
 10
179.824376
 20
196.878325
 11
179.824376
 21
196.873324
  0
LINE
  8
0
  6
CONTINUOUS
 62
1
 10
180.466684
 20
196.878325
 11
180.466684
 21
196.873324
  0
LINE
  8
0
  6
CONTINUOUS
 62
1
 10
176.980787
 20
196.878325
 11
176.980787
 21
196.873324
  0
LINE
  8
0
  6
CONTINUOUS
 62
1
 10
177.930787
 20
196.878325
 11
177.930787
 21
196.873324
  0
LINE
  8
0
  6
CONTINUOUS
 62
1
 10
177.932292
 20
196.878325
 11
177.930787
 21
196.878325
  0
LINE
  8
0
  6
CONTINUOUS
 62
1
 10
179.407710
 20
196.878325
 11
179.407710
 21
196.873324
  0
LINE
  8
0
  6
CONTINUOUS
 62
1
 10
178.637197
 20
196.878325
 11
178.637197
 21
196.873324
  0
LINE
  8
0
  6
CONTINUOUS
 62
1
 10
176.657710
 20
196.878325
 11
176.657710
 21
196.873324
  0
LINE
  8
0
  6
CONTINUOUS
 62
1
 10
176.284633
 20
196.878325
 11
176.284633
 21
196.873324
  0
LINE
  8
0
  6
CONTINUOUS
 62
1
 10
177.492325
 20
196.878325
 11
177.492325
 21
196.873324
  0
LINE
  8
0
  6
CONTINUOUS
 62
1
 10
180.111556
 20
196.878325
 11
180.111556
 21
196.873324
  0
LINE
  8
0
  6
CONTINUOUS
 62
1
 10
179.916685
 20
196.878325
 11
179.916685
 21
196.873324
  0
LINE
  8
0
  6
CONTINUOUS
 62
1
 10
179.916685
 20
196.878325
 11
179.906428
 21
196.878325
  0
LINE
  8
0
  6
CONTINUOUS
 62
1
 10
180.558992
 20
196.878325
 11
180.558992
 21
196.873324
  0
LINE
  8
0
  6
CONTINUOUS
 62
1
 10
180.558992
 20
196.878325
 11
180.548735
 21
196.878325
  0
LINE
  8
0
  6
CONTINUOUS
 62
1
 10
177.073094
 20
196.878325
 11
177.073094
 21
196.873324
  0
LINE
  8
0
  6
CONTINUOUS
 62
1
 10
177.073094
 20
196.878325
 11
177.062838
 21
196.878325
  0
LINE
  8
0
  6
CONTINUOUS
 62
1
 10
178.469248
 20
196.878325
 11
178.469248
 21
196.873324
  0
LINE
  8
0
  6
CONTINUOUS
 62
1
 10
178.529505
 20
196.878325
 11
178.469248
 21
196.878325
  0
LINE
  8
0
  6
CONTINUOUS
 62
1
 10
180.230787
 20
196.878325
 11
180.230787
 21
196.873324
  0
LINE
  8
0
  6
CONTINUOUS
 62
1
 10
178.117966
 20
196.878325
 11
178.117966
 21
196.873324
  0
LINE
  8
0
  6
CONTINUOUS
 62
1
 10
180.568566
 20
196.878325
 11
180.564022
 21
196.878325
  0
LINE
  8
0
  6
CONTINUOUS
 62
1
 10
178.461556
 20
196.878325
 11
178.461556
 21
196.873324
  0
LINE
  8
0
  6
CONTINUOUS
 62
1
 10
178.283351
 20
196.878325
 11
178.283351
 21
196.873324
  0
LINE
  8
0
  6
CONTINUOUS
 62
1
 10
177.223095
 20
196.878325
 11
177.223095
 21
196.873324
  0
LINE
  8
0
  6
CONTINUOUS
 62
1
 10
177.187781
 20
196.878325
 11
177.184292
 21
196.878325
  0
LINE
  8
0
  6
CONTINUOUS
 62
1
 10
180.471812
 20
196.878325
 11
180.440743
 21
196.878325
  0
LINE
  8
0
  6
CONTINUOUS
 62
1
 10
180.404705
 20
196.878325
 11
180.404705
 21
196.873324
  0
LINE
  8
0
  6
CONTINUOUS
 62
1
 10
180.440743
 20
196.878325
 11
180.404705
 21
196.878325
  0
LINE
  8
0
  6
CONTINUOUS
 62
1
 10
181.832069
 20
196.878325
 11
181.805146
 21
196.878325
  0
LINE
  8
0
  6
CONTINUOUS
 62
1
 10
181.805146
 20
196.878325
 11
181.805146
 21
196.873324
  0
LINE
  8
0
  6
CONTINUOUS
 62
1
 10
181.793607
 20
196.878325
 11
181.783084
 21
196.878325
  0
LINE
  8
0
  6
CONTINUOUS
 62
1
 10
181.793607
 20
196.878325
 11
181.793607
 21
196.873324
  0
LINE
  8
0
  6
CONTINUOUS
 62
1
 10
179.267966
 20
196.878325
 11
179.267966
 21
196.873324
  0
LINE
  8
0
  6
CONTINUOUS
 62
1
 10
179.283351
 20
196.878325
 11
179.267966
 21
196.878325
  0
LINE
  8
0
  6
CONTINUOUS
 62
1
 10
179.283351
 20
196.878325
 11
179.283351
 21
196.873324
  0
LINE
  8
0
  6
CONTINUOUS
 62
1
 10
179.933351
 20
196.878325
 11
179.916685
 21
196.878325
  0
LINE
  8
0
  6
CONTINUOUS
 62
1
 10
179.933351
 20
196.878325
 11
179.933351
 21
196.873324
  0
LINE
  8
0
  6
CONTINUOUS
 62
1
 10
179.543728
 20
196.878325
 11
179.525659
 21
196.878325
  0
LINE
  8
0
  6
CONTINUOUS
 62
1
 10
179.525659
 20
196.878325
 11
179.525659
 21
196.873324
  0
LINE
  8
0
  6
CONTINUOUS
 62
1
 10
179.389080
 20
196.878325
 11
179.375658
 21
196.878325
  0
LINE
  8
0
  6
CONTINUOUS
 62
1
 10
179.284633
 20
196.878325
 11
179.283351
 21
196.878325
  0
LINE
  8
0
  6
CONTINUOUS
 62
1
 10
179.389080
 20
196.878325
 11
179.389080
 21
196.873324
  0
LINE
  8
0
  6
CONTINUOUS
 62
1
 10
179.392325
 20
196.878325
 11
179.389080
 21
196.878325
  0
LINE
  8
0
  6
CONTINUOUS
 62
1
 10
179.392325
 20
196.878325
 11
179.392325
 21
196.873324
  0
LINE
  8
0
  6
CONTINUOUS
 62
1
 10
179.935915
 20
196.878325
 11
179.935915
 21
196.873324
  0
LINE
  8
0
  6
CONTINUOUS
 62
1
 10
179.935915
 20
196.878325
 11
179.933351
 21
196.878325
  0
LINE
  8
0
  6
CONTINUOUS
 62
1
 10
179.988479
 20
196.878325
 11
179.935915
 21
196.878325
  0
LINE
  8
0
  6
CONTINUOUS
 62
1
 10
179.819248
 20
196.878325
 11
179.819248
 21
196.873324
  0
LINE
  8
0
  6
CONTINUOUS
 62
1
 10
179.823596
 20
196.878325
 11
179.819248
 21
196.878325
  0
LINE
  8
0
  6
CONTINUOUS
 62
1
 10
179.717966
 20
196.878325
 11
179.717966
 21
196.873324
  0
LINE
  8
0
  6
CONTINUOUS
 62
1
 10
179.724377
 20
196.878325
 11
179.717966
 21
196.878325
  0
LINE
  8
0
  6
CONTINUOUS
 62
1
 10
178.763479
 20
196.878325
 11
178.738479
 21
196.878325
  0
LINE
  8
0
  6
CONTINUOUS
 62
1
 10
178.763479
 20
196.878325
 11
178.763479
 21
196.873324
  0
LINE
  8
0
  6
CONTINUOUS
 62
1
 10
178.944890
 20
196.878325
 11
178.943383
 21
196.878325
  0
LINE
  8
0
  6
CONTINUOUS
 62
1
 10
178.944890
 20
196.878325
 11
178.944890
 21
196.873324
  0
LINE
  8
0
  6
CONTINUOUS
 62
1
 10
178.947453
 20
196.878325
 11
178.947453
 21
196.873324
  0
LINE
  8
0
  6
CONTINUOUS
 62
1
 10
178.956428
 20
196.878325
 11
178.947453
 21
196.878325
  0
LINE
  8
0
  6
CONTINUOUS
 62
1
 10
178.577782
 20
196.878325
 11
178.577782
 21
196.873324
  0
LINE
  8
0
  6
CONTINUOUS
 62
1
 10
178.613819
 20
196.878325
 11
178.577782
 21
196.878325
  0
LINE
  8
0
  6
CONTINUOUS
 62
1
 10
178.947453
 20
196.878325
 11
178.944890
 21
196.878325
  0
LINE
  8
0
  6
CONTINUOUS
 62
1
 10
179.138339
 20
196.878325
 11
179.087778
 21
196.878325
  0
LINE
  8
0
  6
CONTINUOUS
 62
1
 10
178.637197
 20
196.878325
 11
178.613819
 21
196.878325
  0
LINE
  8
0
  6
CONTINUOUS
 62
1
 10
176.653864
 20
196.878325
 11
176.653864
 21
196.873324
  0
LINE
  8
0
  6
CONTINUOUS
 62
1
 10
176.655741
 20
196.878325
 11
176.653864
 21
196.878325
  0
LINE
  8
0
  6
CONTINUOUS
 62
1
 10
176.783351
 20
196.878325
 11
176.783351
 21
196.873324
  0
LINE
  8
0
  6
CONTINUOUS
 62
1
 10
176.798736
 20
196.878325
 11
176.783351
 21
196.878325
  0
LINE
  8
0
  6
CONTINUOUS
 62
1
 10
176.894889
 20
196.878325
 11
176.894889
 21
196.873324
  0
LINE
  8
0
  6
CONTINUOUS
 62
1
 10
176.894889
 20
196.878325
 11
176.888479
 21
196.878325
  0
LINE
  8
0
  6
CONTINUOUS
 62
1
 10
176.977370
 20
196.878325
 11
176.920530
 21
196.878325
  0
LINE
  8
0
  6
CONTINUOUS
 62
1
 10
176.920530
 20
196.878325
 11
176.920530
 21
196.873324
  0
LINE
  8
0
  6
CONTINUOUS
 62
1
 10
177.729505
 20
196.878325
 11
177.729505
 21
196.873324
  0
LINE
  8
0
  6
CONTINUOUS
 62
1
 10
177.729505
 20
196.878325
 11
177.711556
 21
196.878325
  0
LINE
  8
0
  6
CONTINUOUS
 62
1
 10
177.606428
 20
196.878325
 11
177.606428
 21
196.873324
  0
LINE
  8
0
  6
CONTINUOUS
 62
1
 10
177.620530
 20
196.878325
 11
177.606428
 21
196.878325
  0
LINE
  8
0
  6
CONTINUOUS
 62
1
 10
177.925658
 20
196.878325
 11
177.893467
 21
196.878325
  0
LINE
  8
0
  6
CONTINUOUS
 62
1
 10
177.925658
 20
196.878325
 11
177.925658
 21
196.873324
  0
LINE
  8
0
  6
CONTINUOUS
 62
1
 10
178.001423
 20
196.878325
 11
177.998735
 21
196.878325
  0
LINE
  8
0
  6
CONTINUOUS
 62
1
 10
177.893467
 20
196.878325
 11
177.842906
 21
196.878325
  0
LINE
  8
0
  6
CONTINUOUS
 62
1
 10
178.547453
 20
196.878325
 11
178.547453
 21
196.873324
  0
LINE
  8
0
  6
CONTINUOUS
 62
1
 10
178.577782
 20
196.878325
 11
178.547453
 21
196.878325
  0
LINE
  8
0
  6
CONTINUOUS
 62
1
 10
180.404705
 20
196.878325
 11
180.392325
 21
196.878325
  0
LINE
  8
0
  6
CONTINUOUS
 62
1
 10
179.039761
 20
196.878325
 11
179.039761
 21
196.873324
  0
LINE
  8
0
  6
CONTINUOUS
 62
1
 10
177.233351
 20
196.878325
 11
177.233351
 21
196.873324
  0
LINE
  8
0
  6
CONTINUOUS
 62
1
 10
177.233351
 20
196.878325
 11
177.223095
 21
196.878325
  0
LINE
  8
0
  6
CONTINUOUS
 62
1
 10
177.083351
 20
196.878325
 11
177.083351
 21
196.873324
  0
LINE
  8
0
  6
CONTINUOUS
 62
1
 10
179.717966
 20
196.878325
 11
179.713896
 21
196.878325
  0
LINE
  8
0
  6
CONTINUOUS
 62
1
 10
179.819248
 20
196.878325
 11
179.808992
 21
196.878325
  0
LINE
  8
0
  6
CONTINUOUS
 62
1
 10
179.525659
 20
196.878325
 11
179.508992
 21
196.878325
  0
LINE
  8
0
  6
CONTINUOUS
 62
1
 10
178.301901
 20
196.878325
 11
178.292101
 21
196.878325
  0
LINE
  8
0
  6
CONTINUOUS
 62
1
 10
178.469248
 20
196.878325
 11
178.452581
 21
196.878325
  0
LINE
  8
0
  6
CONTINUOUS
 62
1
 10
179.400017
 20
196.878325
 11
179.392325
 21
196.878325
  0
LINE
  8
0
  6
CONTINUOUS
 62
1
 10
179.400017
 20
196.878325
 11
179.400017
 21
196.873324
  0
LINE
  8
0
  6
CONTINUOUS
 62
1
 10
178.109216
 20
196.878325
 11
178.087197
 21
196.878325
  0
LINE
  8
0
  6
CONTINUOUS
 62
1
 10
176.783351
 20
196.878325
 11
176.758992
 21
196.878325
  0
LINE
  8
0
  6
CONTINUOUS
 62
1
 10
177.490357
 20
196.878325
 11
177.470530
 21
196.878325
  0
LINE
  8
0
  6
CONTINUOUS
 62
1
 10
177.731168
 20
196.878325
 11
177.731168
 21
196.873324
  0
LINE
  8
0
  6
CONTINUOUS
 62
1
 10
177.735735
 20
196.878325
 11
177.731168
 21
196.878325
  0
LINE
  8
0
  6
CONTINUOUS
 62
1
 10
177.735735
 20
196.878325
 11
177.735735
 21
196.873324
  0
LINE
  8
0
  6
CONTINUOUS
 62
1
 10
177.606428
 20
196.878325
 11
177.593608
 21
196.878325
  0
LINE
  8
0
  6
CONTINUOUS
 62
1
 10
177.740465
 20
196.878325
 11
177.735735
 21
196.878325
  0
LINE
  8
0
  6
CONTINUOUS
 62
1
 10
177.731168
 20
196.878325
 11
177.729505
 21
196.878325
  0
LINE
  8
0
  6
CONTINUOUS
 62
1
 10
177.250017
 20
196.878325
 11
177.250017
 21
196.873324
  0
LINE
  8
0
  6
CONTINUOUS
 62
1
 10
177.235915
 20
196.878325
 11
177.235915
 21
196.873324
  0
LINE
  8
0
  6
CONTINUOUS
 62
1
 10
177.235915
 20
196.878325
 11
177.233351
 21
196.878325
  0
LINE
  8
0
  6
CONTINUOUS
 62
1
 10
179.267966
 20
196.878325
 11
179.257710
 21
196.878325
  0
LINE
  8
0
  6
CONTINUOUS
 62
1
 10
181.805146
 20
196.878325
 11
181.793607
 21
196.878325
  0
LINE
  8
0
  6
CONTINUOUS
 62
1
 10
176.920530
 20
196.878325
 11
176.894889
 21
196.878325
  0
LINE
  8
0
  6
CONTINUOUS
 62
1
 10
179.405741
 20
196.878325
 11
179.400017
 21
196.878325
  0
LINE
  8
0
  6
CONTINUOUS
 62
1
 10
177.930787
 20
196.878325
 11
177.925658
 21
196.878325
  0
LINE
  8
0
  6
CONTINUOUS
 62
1
 10
177.242549
 20
196.878325
 11
177.235915
 21
196.878325
  0
LINE
  8
0
  6
CONTINUOUS
 62
1
 10
176.273678
 20
196.878325
 11
176.273678
 21
196.873324
  0
LINE
  8
0
  6
CONTINUOUS
 62
1
 10
176.108293
 20
196.878325
 11
176.108293
 21
196.873324
  0
LINE
  8
0
  6
CONTINUOUS
 62
1
 10
176.612838
 20
196.878325
 11
176.610857
 21
196.878325
  0
LINE
  8
0
  6
CONTINUOUS
 62
1
 10
177.081011
 20
196.878325
 11
177.076242
 21
196.878325
  0
LINE
  8
0
  6
CONTINUOUS
 62
1
 10
183.534449
 20
193.243324
 11
183.534449
 21
193.238324
  0
LINE
  8
0
  6
CONTINUOUS
 62
1
 10
183.000750
 20
193.243324
 11
183.534449
 21
193.243324
  0
LINE
  8
0
  6
CONTINUOUS
 62
1
 10
183.000750
 20
193.248324
 11
183.435109
 21
193.248324
  0
LINE
  8
0
  6
CONTINUOUS
 62
1
 10
183.435109
 20
193.248324
 11
183.447609
 21
193.248324
  0
LINE
  8
0
  6
CONTINUOUS
 62
1
 10
180.570168
 20
196.873324
 11
180.570168
 21
196.868325
  0
LINE
  8
0
  6
CONTINUOUS
 62
1
 10
180.570168
 20
196.873324
 11
183.070167
 21
196.873324
  0
LINE
  8
0
  6
CONTINUOUS
 62
1
 10
183.070167
 20
196.873324
 11
183.070167
 21
196.868325
  0
LINE
  8
0
  6
CONTINUOUS
 62
1
 10
181.173517
 20
196.878325
 11
181.216818
 21
196.878325
  0
LINE
  8
0
  6
CONTINUOUS
 62
1
 10
182.423517
 20
196.878325
 11
182.466818
 21
196.878325
  0
LINE
  8
0
  6
CONTINUOUS
 62
1
 10
180.610600
 20
196.878325
 11
181.173517
 21
196.878325
  0
LINE
  8
0
  6
CONTINUOUS
 62
1
 10
181.216818
 20
196.878325
 11
181.779735
 21
196.878325
  0
LINE
  8
0
  6
CONTINUOUS
 62
1
 10
181.860601
 20
196.878325
 11
182.423517
 21
196.878325
  0
LINE
  8
0
  6
CONTINUOUS
 62
1
 10
182.466818
 20
196.878325
 11
183.029735
 21
196.878325
  0
LINE
  8
0
  6
CONTINUOUS
 62
1
 10
183.029735
 20
196.878325
 11
183.033084
 21
196.878325
  0
LINE
  8
0
  6
CONTINUOUS
 62
1
 10
181.857252
 20
196.878325
 11
181.860601
 21
196.878325
  0
LINE
  8
0
  6
CONTINUOUS
 62
1
 10
181.779735
 20
196.878325
 11
181.783084
 21
196.878325
  0
LINE
  8
0
  6
CONTINUOUS
 62
1
 10
180.607251
 20
196.878325
 11
180.610600
 21
196.878325
  0
LINE
  8
0
  6
CONTINUOUS
 62
1
 10
139.599525
 20
193.243324
 11
139.599525
 21
193.238324
  0
LINE
  8
0
  6
CONTINUOUS
 62
1
 10
140.799525
 20
193.243324
 11
140.799525
 21
193.238324
  0
LINE
  8
0
  6
CONTINUOUS
 62
1
 10
139.599525
 20
193.243324
 11
140.799525
 21
193.243324
  0
LINE
  8
0
  6
CONTINUOUS
 62
1
 10
140.673866
 20
193.248324
 11
140.711367
 21
193.248324
  0
LINE
  8
0
  6
CONTINUOUS
 62
1
 10
140.711367
 20
193.248324
 11
140.711367
 21
193.243324
  0
LINE
  8
0
  6
CONTINUOUS
 62
1
 10
139.698866
 20
193.248324
 11
140.673866
 21
193.248324
  0
LINE
  8
0
  6
CONTINUOUS
 62
1
 10
139.686366
 20
193.248324
 11
139.698866
 21
193.248324
  0
LINE
  8
0
  6
CONTINUOUS
 62
1
 10
175.667417
 20
154.708954
 11
175.667459
 21
154.713939
  0
LINE
  8
0
  6
CONTINUOUS
 62
1
 10
175.667459
 20
154.713939
 11
175.667409
 21
154.719332
  0
LINE
  8
0
  6
CONTINUOUS
 62
1
 10
176.634458
 20
154.729592
 11
176.634091
 21
154.719332
  0
LINE
  8
0
  6
CONTINUOUS
 62
1
 10
176.075750
 20
154.404553
 11
176.081459
 21
154.395683
  0
LINE
  8
0
  6
CONTINUOUS
 62
1
 10
176.081459
 20
154.395683
 11
176.097717
 21
154.388164
  0
LINE
  8
0
  6
CONTINUOUS
 62
1
 10
176.097717
 20
154.388164
 11
176.122049
 21
154.383141
  0
LINE
  8
0
  6
CONTINUOUS
 62
1
 10
176.122049
 20
154.383141
 11
176.150750
 21
154.381377
  0
LINE
  8
0
  6
CONTINUOUS
 62
1
 10
176.150750
 20
154.381377
 11
176.179451
 21
154.383141
  0
LINE
  8
0
  6
CONTINUOUS
 62
1
 10
176.179451
 20
154.383141
 11
176.203783
 21
154.388164
  0
LINE
  8
0
  6
CONTINUOUS
 62
1
 10
176.203783
 20
154.388164
 11
176.220041
 21
154.395683
  0
LINE
  8
0
  6
CONTINUOUS
 62
1
 10
176.220041
 20
154.395683
 11
176.225750
 21
154.404553
  0
LINE
  8
0
  6
CONTINUOUS
 62
1
 10
176.075750
 20
154.929984
 11
176.075750
 21
154.404553
  0
LINE
  8
0
  6
CONTINUOUS
 62
1
 10
176.225750
 20
154.404553
 11
176.225750
 21
154.929984
  0
LINE
  8
0
  6
CONTINUOUS
 62
1
 10
175.569684
 20
154.466057
 11
175.569584
 21
154.466717
  0
LINE
  8
0
  6
CONTINUOUS
 62
1
 10
175.569584
 20
154.466717
 11
175.569564
 21
154.466872
  0
LINE
  8
0
  6
CONTINUOUS
 62
1
 10
162.056501
 20
154.773730
 11
162.056159
 21
154.763967
  0
LINE
  8
0
  6
CONTINUOUS
 62
1
 10
161.095348
 20
154.664298
 11
161.095341
 21
154.674697
  0
LINE
  8
0
  6
CONTINUOUS
 62
1
 10
162.075470
 20
154.914220
 11
161.982648
 21
154.929984
  0
LINE
  8
0
  6
CONTINUOUS
 62
1
 10
161.168852
 20
154.929984
 11
161.132044
 21
154.924232
  0
LINE
  8
0
  6
CONTINUOUS
 62
1
 10
161.132044
 20
154.924232
 11
161.054349
 21
154.909903
  0
LINE
  8
0
  6
CONTINUOUS
 62
1
 10
161.466262
 20
154.929665
 11
161.466324
 21
154.928725
  0
LINE
  8
0
  6
CONTINUOUS
 62
1
 10
161.466324
 20
154.928725
 11
161.538939
 21
154.376138
  0
LINE
  8
0
  6
CONTINUOUS
 62
1
 10
161.688815
 20
154.378020
 11
161.616282
 21
154.929984
  0
LINE
  8
0
  6
CONTINUOUS
 62
1
 10
161.540795
 20
154.390055
 11
161.541454
 21
154.419290
  0
LINE
  8
0
  6
CONTINUOUS
 62
1
 10
161.538939
 20
154.376138
 11
161.539614
 21
154.373694
  0
LINE
  8
0
  6
CONTINUOUS
 62
1
 10
161.539614
 20
154.373694
 11
161.540213
 21
154.376917
  0
LINE
  8
0
  6
CONTINUOUS
 62
1
 10
161.540213
 20
154.376917
 11
161.540667
 21
154.385440
  0
LINE
  8
0
  6
CONTINUOUS
 62
1
 10
161.540667
 20
154.385440
 11
161.540795
 21
154.390055
  0
ARC
  8
0
  6
CONTINUOUS
 62
1
 10
161.638346
 20
154.412724
 40
0.049532
 50
30.713677
 51
91.464994
  0
LINE
  8
0
  6
CONTINUOUS
 62
1
 10
161.026439
 20
154.461448
 11
161.026536
 21
154.460675
  0
ARC
  8
0
  6
CONTINUOUS
 62
1
 10
161.640161
 20
154.461732
 40
0.003123
 50
170.656253
 51
218.335047
  0
LINE
  8
0
  6
CONTINUOUS
 62
1
 10
153.804917
 20
154.708954
 11
153.804959
 21
154.713939
  0
LINE
  8
0
  6
CONTINUOUS
 62
1
 10
153.804959
 20
154.713939
 11
153.804910
 21
154.719332
  0
LINE
  8
0
  6
CONTINUOUS
 62
1
 10
154.771958
 20
154.729592
 11
154.771591
 21
154.719332
  0
LINE
  8
0
  6
CONTINUOUS
 62
1
 10
154.213251
 20
154.404553
 11
154.218959
 21
154.395683
  0
LINE
  8
0
  6
CONTINUOUS
 62
1
 10
154.218959
 20
154.395683
 11
154.235216
 21
154.388164
  0
LINE
  8
0
  6
CONTINUOUS
 62
1
 10
154.235216
 20
154.388164
 11
154.259549
 21
154.383141
  0
LINE
  8
0
  6
CONTINUOUS
 62
1
 10
154.259549
 20
154.383141
 11
154.288250
 21
154.381377
  0
LINE
  8
0
  6
CONTINUOUS
 62
1
 10
154.288250
 20
154.381377
 11
154.316951
 21
154.383141
  0
LINE
  8
0
  6
CONTINUOUS
 62
1
 10
154.316951
 20
154.383141
 11
154.341283
 21
154.388164
  0
LINE
  8
0
  6
CONTINUOUS
 62
1
 10
154.341283
 20
154.388164
 11
154.357542
 21
154.395683
  0
LINE
  8
0
  6
CONTINUOUS
 62
1
 10
154.357542
 20
154.395683
 11
154.363250
 21
154.404553
  0
LINE
  8
0
  6
CONTINUOUS
 62
1
 10
154.213251
 20
154.929984
 11
154.213251
 21
154.404553
  0
LINE
  8
0
  6
CONTINUOUS
 62
1
 10
154.363250
 20
154.404553
 11
154.363250
 21
154.929984
  0
LINE
  8
0
  6
CONTINUOUS
 62
1
 10
153.707183
 20
154.466057
 11
153.707084
 21
154.466717
  0
LINE
  8
0
  6
CONTINUOUS
 62
1
 10
153.707084
 20
154.466717
 11
153.707064
 21
154.466872
  0
LINE
  8
0
  6
CONTINUOUS
 62
1
 10
147.483682
 20
154.752304
 11
147.483322
 21
154.742192
  0
LINE
  8
0
  6
CONTINUOUS
 62
1
 10
146.518182
 20
154.685927
 11
146.518178
 21
154.696472
  0
LINE
  8
0
  6
CONTINUOUS
 62
1
 10
146.908061
 20
154.929984
 11
146.943430
 21
154.404128
  0
LINE
  8
0
  6
CONTINUOUS
 62
1
 10
146.943430
 20
154.404128
 11
146.949733
 21
154.395297
  0
LINE
  8
0
  6
CONTINUOUS
 62
1
 10
146.949733
 20
154.395297
 11
146.966494
 21
154.387884
  0
LINE
  8
0
  6
CONTINUOUS
 62
1
 10
146.966494
 20
154.387884
 11
146.991159
 21
154.383017
  0
LINE
  8
0
  6
CONTINUOUS
 62
1
 10
146.991159
 20
154.383017
 11
147.019971
 21
154.381438
  0
LINE
  8
0
  6
CONTINUOUS
 62
1
 10
147.019971
 20
154.381438
 11
147.048549
 21
154.383387
  0
LINE
  8
0
  6
CONTINUOUS
 62
1
 10
147.048549
 20
154.383387
 11
147.072537
 21
154.388565
  0
LINE
  8
0
  6
CONTINUOUS
 62
1
 10
147.072537
 20
154.388565
 11
147.088286
 21
154.396187
  0
LINE
  8
0
  6
CONTINUOUS
 62
1
 10
147.088286
 20
154.396187
 11
147.093397
 21
154.405091
  0
ARC
  8
0
  6
CONTINUOUS
 62
1
 10
146.999762
 20
157.206634
 40
2.831419
 50
263.831066
 51
279.477644
  0
LINE
  8
0
  6
CONTINUOUS
 62
1
 10
147.093397
 20
154.405091
 11
147.058093
 21
154.929984
  0
LINE
  8
0
  6
CONTINUOUS
 62
1
 10
147.090777
 20
154.444044
 11
147.089591
 21
154.447040
  0
LINE
  8
0
  6
CONTINUOUS
 62
1
 10
147.089591
 20
154.447040
 11
147.089084
 21
154.448161
  0
LINE
  8
0
  6
CONTINUOUS
 62
1
 10
146.435885
 20
154.463247
 11
146.435773
 21
154.464069
  0
ARC
  8
0
  6
CONTINUOUS
 62
1
 10
183.370462
 20
181.081539
 40
15.684286
 50
89.615370
 51
89.989815
  0
LINE
  8
0
  6
CONTINUOUS
 62
1
 10
183.475750
 20
193.618325
 11
183.475750
 21
196.765471
  0
LINE
  8
0
  6
CONTINUOUS
 62
1
 10
183.475750
 20
193.618325
 11
183.373250
 21
193.618325
  0
LINE
  8
0
  6
CONTINUOUS
 62
1
 10
183.373250
 20
193.618325
 11
183.373250
 21
193.612120
  0
LINE
  8
0
  6
CONTINUOUS
 62
1
 10
163.128250
 20
193.612120
 11
163.128250
 21
193.618325
  0
LINE
  8
0
  6
CONTINUOUS
 62
1
 10
163.128250
 20
193.618325
 11
163.025750
 21
193.618325
  0
LINE
  8
0
  6
CONTINUOUS
 62
1
 10
163.025750
 20
196.765471
 11
163.025750
 21
193.618325
  0
ARC
  8
0
  6
CONTINUOUS
 62
1
 10
163.131042
 20
181.080622
 40
15.685202
 50
90.010196
 51
90.384619
  0
LINE
  8
0
  6
CONTINUOUS
 62
1
 10
163.785750
 20
195.370825
 11
163.785750
 21
195.055825
  0
ARC
  8
0
  6
CONTINUOUS
 62
1
 10
163.625750
 20
195.370824
 40
0.160000
 50
0.000000
 51
180.000000
  0
LINE
  8
0
  6
CONTINUOUS
 62
1
 10
163.465750
 20
195.055825
 11
163.465750
 21
195.370825
  0
ARC
  8
0
  6
CONTINUOUS
 62
1
 10
163.625750
 20
195.055824
 40
0.160000
 50
180.000000
 51
0.000000
  0
LINE
  8
0
  6
CONTINUOUS
 62
1
 10
183.035750
 20
195.370825
 11
183.035750
 21
195.055825
  0
ARC
  8
0
  6
CONTINUOUS
 62
1
 10
182.875750
 20
195.370824
 40
0.160000
 50
0.000000
 51
180.000000
  0
LINE
  8
0
  6
CONTINUOUS
 62
1
 10
182.715751
 20
195.055825
 11
182.715751
 21
195.370825
  0
ARC
  8
0
  6
CONTINUOUS
 62
1
 10
182.875750
 20
195.055824
 40
0.160000
 50
180.000000
 51
0.000000
  0
LINE
  8
0
  6
CONTINUOUS
 62
1
 10
183.373250
 20
193.365789
 11
163.128250
 21
193.365789
  0
LINE
  8
0
  6
CONTINUOUS
 62
1
 10
163.128250
 20
193.365789
 11
163.128250
 21
193.612120
  0
LINE
  8
0
  6
CONTINUOUS
 62
1
 10
183.373250
 20
193.612120
 11
183.373250
 21
193.365789
  0
LINE
  8
0
  6
CONTINUOUS
 62
1
 10
163.128250
 20
196.868325
 11
183.373250
 21
196.868325
  0
LINE
  8
0
  6
CONTINUOUS
 62
1
 10
183.435750
 20
196.868325
 11
183.373250
 21
196.868325
  0
LINE
  8
0
  6
CONTINUOUS
 62
1
 10
183.435750
 20
196.868325
 11
183.435750
 21
196.765824
  0
LINE
  8
0
  6
CONTINUOUS
 62
1
 10
183.435750
 20
196.765824
 11
183.373250
 21
196.765824
  0
LINE
  8
0
  6
CONTINUOUS
 62
1
 10
163.065750
 20
196.765824
 11
163.128250
 21
196.765824
  0
LINE
  8
0
  6
CONTINUOUS
 62
1
 10
163.065750
 20
196.765824
 11
163.065750
 21
196.868325
  0
LINE
  8
0
  6
CONTINUOUS
 62
1
 10
163.065750
 20
196.868325
 11
163.128250
 21
196.868325
  0
LINE
  8
0
  6
CONTINUOUS
 62
1
 10
183.475750
 20
196.765824
 11
183.435750
 21
196.765824
  0
ARC
  8
0
  6
CONTINUOUS
 62
1
 10
183.388357
 20
196.771337
 40
0.087567
 50
356.390643
 51
57.233742
  0
ARC
  8
0
  6
CONTINUOUS
 62
1
 10
163.113148
 20
196.771334
 40
0.087572
 50
122.768297
 51
183.607318
  0
LINE
  8
0
  6
CONTINUOUS
 62
1
 10
163.025750
 20
196.765824
 11
163.065750
 21
196.765824
  0
LINE
  8
0
  6
CONTINUOUS
 62
1
 10
183.475750
 20
196.765471
 11
183.475750
 21
196.765824
  0
LINE
  8
0
  6
CONTINUOUS
 62
1
 10
163.025750
 20
196.765824
 11
163.025750
 21
196.765471
  0
LINE
  8
0
  6
CONTINUOUS
 62
1
 10
183.953250
 20
160.660824
 11
184.075750
 21
160.660824
  0
LINE
  8
0
  6
CONTINUOUS
 62
1
 10
184.075750
 20
156.094984
 11
184.075750
 21
160.660824
  0
LINE
  8
0
  6
CONTINUOUS
 62
1
 10
184.075750
 20
156.094984
 11
183.953250
 21
156.094984
  0
LINE
  8
0
  6
CONTINUOUS
 62
1
 10
139.198249
 20
156.094984
 11
139.075750
 21
156.094984
  0
LINE
  8
0
  6
CONTINUOUS
 62
1
 10
139.075750
 20
160.660824
 11
139.075750
 21
156.094984
  0
LINE
  8
0
  6
CONTINUOUS
 62
1
 10
139.075750
 20
160.660824
 11
139.198249
 21
160.660824
  0
LINE
  8
0
  6
CONTINUOUS
 62
1
 10
183.953250
 20
160.783324
 11
139.198249
 21
160.783324
  0
LINE
  8
0
  6
CONTINUOUS
 62
1
 10
183.953250
 20
160.783324
 11
183.953250
 21
160.660824
  0
LINE
  8
0
  6
CONTINUOUS
 62
1
 10
139.198249
 20
160.660824
 11
139.198249
 21
160.783324
  0
LINE
  8
0
  6
CONTINUOUS
 62
1
 10
184.015750
 20
154.929984
 11
184.015750
 21
156.069984
  0
LINE
  8
0
  6
CONTINUOUS
 62
1
 10
139.135751
 20
154.929984
 11
139.135751
 21
156.069984
  0
LINE
  8
0
  6
CONTINUOUS
 62
1
 10
139.135751
 20
156.069984
 11
139.198249
 21
156.069984
  0
LINE
  8
0
  6
CONTINUOUS
 62
1
 10
139.198249
 20
156.069984
 11
139.198249
 21
156.094984
  0
LINE
  8
0
  6
CONTINUOUS
 62
1
 10
183.953250
 20
156.094984
 11
183.953250
 21
156.069984
  0
LINE
  8
0
  6
CONTINUOUS
 62
1
 10
183.953250
 20
156.069984
 11
184.015750
 21
156.069984
  0
LINE
  8
0
  6
CONTINUOUS
 62
1
 10
139.075750
 20
156.069984
 11
139.135751
 21
156.069984
  0
LINE
  8
0
  6
CONTINUOUS
 62
1
 10
139.075750
 20
156.069984
 11
139.075750
 21
154.994984
  0
LINE
  8
0
  6
CONTINUOUS
 62
1
 10
184.075750
 20
156.069984
 11
184.015750
 21
156.069984
  0
LINE
  8
0
  6
CONTINUOUS
 62
1
 10
184.075750
 20
156.069984
 11
184.075750
 21
154.994984
  0
LINE
  8
0
  6
CONTINUOUS
 62
1
 10
184.015750
 20
160.783324
 11
184.015750
 21
160.723324
  0
LINE
  8
0
  6
CONTINUOUS
 62
1
 10
184.015750
 20
160.723324
 11
183.953250
 21
160.723324
  0
LINE
  8
0
  6
CONTINUOUS
 62
1
 10
184.015750
 20
160.783324
 11
183.953250
 21
160.783324
  0
LINE
  8
0
  6
CONTINUOUS
 62
1
 10
139.198249
 20
160.783324
 11
139.135751
 21
160.783324
  0
LINE
  8
0
  6
CONTINUOUS
 62
1
 10
139.135751
 20
160.723324
 11
139.135751
 21
160.783324
  0
LINE
  8
0
  6
CONTINUOUS
 62
1
 10
139.198249
 20
160.723324
 11
139.135751
 21
160.723324
  0
LINE
  8
0
  6
CONTINUOUS
 62
1
 10
139.075750
 20
160.722824
 11
139.135751
 21
160.722824
  0
LINE
  8
0
  6
CONTINUOUS
 62
1
 10
139.075750
 20
160.660824
 11
139.075750
 21
160.722824
  0
LINE
  8
0
  6
CONTINUOUS
 62
1
 10
139.135751
 20
160.660824
 11
139.135751
 21
160.722824
  0
LINE
  8
0
  6
CONTINUOUS
 62
1
 10
184.075750
 20
160.722824
 11
184.015750
 21
160.722824
  0
LINE
  8
0
  6
CONTINUOUS
 62
1
 10
184.075750
 20
160.660824
 11
184.075750
 21
160.722824
  0
LINE
  8
0
  6
CONTINUOUS
 62
1
 10
184.015750
 20
160.660824
 11
184.015750
 21
160.722824
  0
LINE
  8
0
  6
CONTINUOUS
 62
1
 10
184.075750
 20
156.069984
 11
184.075750
 21
156.094984
  0
LINE
  8
0
  6
CONTINUOUS
 62
1
 10
184.015750
 20
156.069984
 11
184.015750
 21
156.094984
  0
LINE
  8
0
  6
CONTINUOUS
 62
1
 10
139.075750
 20
156.069984
 11
139.075750
 21
156.094984
  0
LINE
  8
0
  6
CONTINUOUS
 62
1
 10
139.135751
 20
156.069984
 11
139.135751
 21
156.094984
  0
LINE
  8
0
  6
CONTINUOUS
 62
1
 10
139.075750
 20
160.722824
 11
139.075750
 21
160.845824
  0
LINE
  8
0
  6
CONTINUOUS
 62
1
 10
139.135751
 20
160.722824
 11
139.135751
 21
160.723324
  0
LINE
  8
0
  6
CONTINUOUS
 62
1
 10
184.075750
 20
160.722824
 11
184.075750
 21
160.845824
  0
LINE
  8
0
  6
CONTINUOUS
 62
1
 10
184.015750
 20
160.722824
 11
184.015750
 21
160.723324
  0
LINE
  8
0
  6
CONTINUOUS
 62
1
 10
139.135751
 20
160.783324
 11
139.135751
 21
160.845824
  0
LINE
  8
0
  6
CONTINUOUS
 62
1
 10
184.015750
 20
160.783324
 11
184.015750
 21
160.845824
  0
LINE
  8
0
  6
CONTINUOUS
 62
1
 10
184.015750
 20
162.058324
 11
183.975750
 21
162.058324
  0
LINE
  8
0
  6
CONTINUOUS
 62
1
 10
180.075750
 20
162.058324
 11
179.823250
 21
162.058324
  0
LINE
  8
0
  6
CONTINUOUS
 62
1
 10
167.828250
 20
162.058324
 11
167.573250
 21
162.058324
  0
LINE
  8
0
  6
CONTINUOUS
 62
1
 10
155.578251
 20
162.058324
 11
155.322091
 21
162.058324
  0
LINE
  8
0
  6
CONTINUOUS
 62
1
 10
143.327090
 20
162.058324
 11
143.075749
 21
162.058324
  0
LINE
  8
0
  6
CONTINUOUS
 62
1
 10
139.175751
 20
162.058324
 11
139.135751
 21
162.058324
  0
LINE
  8
0
  6
CONTINUOUS
 62
1
 10
184.015750
 20
161.935824
 11
184.015750
 21
162.058324
  0
LINE
  8
0
  6
CONTINUOUS
 62
1
 10
139.135751
 20
161.935824
 11
139.135751
 21
162.058324
  0
LINE
  8
0
  6
CONTINUOUS
 62
1
 10
139.135751
 20
160.845824
 11
139.135751
 21
161.935824
  0
ARC
  8
0
  6
CONTINUOUS
 62
1
 10
182.125750
 20
161.583324
 40
0.240000
 50
264.658248
 51
2.547390
  0
ARC
  8
0
  6
CONTINUOUS
 62
1
 10
143.325750
 20
161.483324
 40
0.325000
 50
89.763604
 51
140.284863
  0
ARC
  8
0
  6
CONTINUOUS
 62
1
 10
143.325750
 20
161.483324
 40
0.325000
 50
219.715137
 51
270.000000
  0
LINE
  8
0
  6
CONTINUOUS
 62
1
 10
184.015750
 20
160.845824
 11
184.015750
 21
161.935824
  0
ARC
  8
0
  6
CONTINUOUS
 62
1
 10
179.825750
 20
161.483324
 40
0.325000
 50
270.000000
 51
320.284863
  0
ARC
  8
0
  6
CONTINUOUS
 62
1
 10
179.825750
 20
161.483324
 40
0.325000
 50
39.715137
 51
90.000000
  0
LINE
  8
0
  6
CONTINUOUS
 62
1
 10
141.025751
 20
161.343324
 11
141.048094
 21
161.344366
  0
ARC
  8
0
  6
CONTINUOUS
 62
1
 10
141.025750
 20
161.583324
 40
0.240000
 50
177.452539
 51
270.000000
  0
LINE
  8
0
  6
CONTINUOUS
 62
1
 10
139.075750
 20
161.997824
 11
139.135751
 21
161.997824
  0
LINE
  8
0
  6
CONTINUOUS
 62
1
 10
139.075750
 20
161.935824
 11
139.075750
 21
161.997824
  0
LINE
  8
0
  6
CONTINUOUS
 62
1
 10
184.075750
 20
161.997824
 11
184.015750
 21
161.997824
  0
LINE
  8
0
  6
CONTINUOUS
 62
1
 10
184.075750
 20
161.935824
 11
184.075750
 21
161.997824
  0
LINE
  8
0
  6
CONTINUOUS
 62
1
 10
139.075750
 20
160.845824
 11
139.075750
 21
161.935824
  0
LINE
  8
0
  6
CONTINUOUS
 62
1
 10
184.075750
 20
160.845824
 11
184.075750
 21
161.935824
  0
LINE
  8
0
  6
CONTINUOUS
 62
1
 10
184.065750
 20
193.153324
 11
139.065751
 21
193.153324
  0
LINE
  8
0
  6
CONTINUOUS
 62
1
 10
139.065751
 20
193.153324
 11
139.065751
 21
193.024296
  0
LINE
  8
0
  6
CONTINUOUS
 62
1
 10
184.065750
 20
193.153324
 11
184.065750
 21
193.024296
  0
ARC
  8
0
  6
CONTINUOUS
 62
1
 10
163.289925
 20
191.608320
 40
0.250039
 50
275.534834
 51
331.784227
  0
LINE
  8
0
  6
CONTINUOUS
 62
1
 10
163.510253
 20
191.490104
 11
164.006015
 21
192.431882
  0
ARC
  8
0
  6
CONTINUOUS
 62
1
 10
163.789862
 20
192.540843
 40
0.242063
 50
333.247755
 51
91.584446
  0
LINE
  8
0
  6
CONTINUOUS
 62
1
 10
163.783169
 20
192.782814
 11
159.844094
 21
192.782814
  0
ARC
  8
0
  6
CONTINUOUS
 62
1
 10
159.842295
 20
192.531769
 40
0.251051
 50
89.589419
 51
151.701583
  0
LINE
  8
0
  6
CONTINUOUS
 62
1
 10
159.621247
 20
192.650783
 11
159.125485
 21
191.709005
  0
ARC
  8
0
  6
CONTINUOUS
 62
1
 10
159.340444
 20
191.599817
 40
0.241100
 50
153.071952
 51
265.540158
  0
ARC
  8
0
  6
CONTINUOUS
 62
1
 10
158.289927
 20
191.608317
 40
0.250035
 50
275.534378
 51
331.784683
  0
LINE
  8
0
  6
CONTINUOUS
 62
1
 10
158.510252
 20
191.490104
 11
159.006015
 21
192.431882
  0
ARC
  8
0
  6
CONTINUOUS
 62
1
 10
158.789862
 20
192.540843
 40
0.242063
 50
333.247869
 51
91.584332
  0
LINE
  8
0
  6
CONTINUOUS
 62
1
 10
158.783169
 20
192.782814
 11
154.844094
 21
192.782814
  0
ARC
  8
0
  6
CONTINUOUS
 62
1
 10
154.842296
 20
192.531769
 40
0.251051
 50
89.589511
 51
151.701490
  0
LINE
  8
0
  6
CONTINUOUS
 62
1
 10
154.621247
 20
192.650783
 11
154.125484
 21
191.709005
  0
ARC
  8
0
  6
CONTINUOUS
 62
1
 10
154.340443
 20
191.599817
 40
0.241100
 50
153.071952
 51
265.540158
  0
ARC
  8
0
  6
CONTINUOUS
 62
1
 10
153.289926
 20
191.608319
 40
0.250038
 50
275.534730
 51
331.784331
  0
LINE
  8
0
  6
CONTINUOUS
 62
1
 10
153.510253
 20
191.490104
 11
154.006016
 21
192.431882
  0
ARC
  8
0
  6
CONTINUOUS
 62
1
 10
153.789862
 20
192.540843
 40
0.242063
 50
333.247871
 51
91.584503
  0
LINE
  8
0
  6
CONTINUOUS
 62
1
 10
153.783169
 20
192.782814
 11
149.844093
 21
192.782814
  0
ARC
  8
0
  6
CONTINUOUS
 62
1
 10
149.842294
 20
192.531771
 40
0.251049
 50
89.589451
 51
151.701887
  0
LINE
  8
0
  6
CONTINUOUS
 62
1
 10
149.621248
 20
192.650783
 11
149.125485
 21
191.709005
  0
ARC
  8
0
  6
CONTINUOUS
 62
1
 10
149.340444
 20
191.599817
 40
0.241100
 50
153.071952
 51
265.540158
  0
ARC
  8
0
  6
CONTINUOUS
 62
1
 10
148.289926
 20
191.608319
 40
0.250038
 50
275.534730
 51
331.784331
  0
LINE
  8
0
  6
CONTINUOUS
 62
1
 10
148.510253
 20
191.490104
 11
149.006015
 21
192.431882
  0
ARC
  8
0
  6
CONTINUOUS
 62
1
 10
148.789863
 20
192.540844
 40
0.242062
 50
333.247410
 51
91.584618
  0
LINE
  8
0
  6
CONTINUOUS
 62
1
 10
148.783169
 20
192.782814
 11
144.844093
 21
192.782814
  0
ARC
  8
0
  6
CONTINUOUS
 62
1
 10
144.842296
 20
192.531767
 40
0.251053
 50
89.589721
 51
151.701281
  0
LINE
  8
0
  6
CONTINUOUS
 62
1
 10
144.621247
 20
192.650783
 11
144.125485
 21
191.709005
  0
ARC
  8
0
  6
CONTINUOUS
 62
1
 10
144.340443
 20
191.599817
 40
0.241100
 50
153.071782
 51
265.539956
  0
ARC
  8
0
  6
CONTINUOUS
 62
1
 10
143.289929
 20
191.608313
 40
0.250031
 50
275.534271
 51
331.785192
  0
LINE
  8
0
  6
CONTINUOUS
 62
1
 10
143.510252
 20
191.490104
 11
144.006016
 21
192.431882
  0
ARC
  8
0
  6
CONTINUOUS
 62
1
 10
143.789860
 20
192.540841
 40
0.242065
 50
333.248466
 51
91.583908
  0
LINE
  8
0
  6
CONTINUOUS
 62
1
 10
143.783169
 20
192.782814
 11
140.315750
 21
192.782814
  0
ARC
  8
0
  6
CONTINUOUS
 62
1
 10
140.311562
 20
192.536999
 40
0.245851
 50
89.024069
 51
178.989876
  0
LINE
  8
0
  6
CONTINUOUS
 62
1
 10
140.065750
 20
192.541333
 11
140.065750
 21
191.599554
  0
ARC
  8
0
  6
CONTINUOUS
 62
1
 10
140.310482
 20
191.603273
 40
0.244761
 50
180.870671
 51
264.991874
  0
LINE
  8
0
  6
CONTINUOUS
 62
1
 10
184.065750
 20
193.024296
 11
184.065750
 21
191.359447
  0
ARC
  8
0
  6
CONTINUOUS
 62
1
 10
182.821016
 20
191.603276
 40
0.244763
 50
275.008687
 51
359.128767
  0
LINE
  8
0
  6
CONTINUOUS
 62
1
 10
183.065751
 20
191.599554
 11
183.065751
 21
192.541333
  0
ARC
  8
0
  6
CONTINUOUS
 62
1
 10
182.819936
 20
192.536997
 40
0.245853
 50
1.010617
 51
90.975779
  0
LINE
  8
0
  6
CONTINUOUS
 62
1
 10
182.815749
 20
192.782814
 11
179.844094
 21
192.782814
  0
ARC
  8
0
  6
CONTINUOUS
 62
1
 10
179.842295
 20
192.531770
 40
0.251050
 50
89.589481
 51
151.701689
  0
LINE
  8
0
  6
CONTINUOUS
 62
1
 10
179.621247
 20
192.650783
 11
179.125485
 21
191.709005
  0
ARC
  8
0
  6
CONTINUOUS
 62
1
 10
179.340444
 20
191.599817
 40
0.241100
 50
153.071868
 51
265.540242
  0
ARC
  8
0
  6
CONTINUOUS
 62
1
 10
178.289927
 20
191.608318
 40
0.250036
 50
275.534505
 51
331.784556
  0
LINE
  8
0
  6
CONTINUOUS
 62
1
 10
178.510253
 20
191.490104
 11
179.006015
 21
192.431882
  0
ARC
  8
0
  6
CONTINUOUS
 62
1
 10
178.789862
 20
192.540843
 40
0.242063
 50
333.247781
 51
91.584420
  0
LINE
  8
0
  6
CONTINUOUS
 62
1
 10
178.783169
 20
192.782814
 11
174.844094
 21
192.782814
  0
ARC
  8
0
  6
CONTINUOUS
 62
1
 10
174.842295
 20
192.531770
 40
0.251050
 50
89.589413
 51
151.701672
  0
LINE
  8
0
  6
CONTINUOUS
 62
1
 10
174.621247
 20
192.650783
 11
174.125485
 21
191.709005
  0
ARC
  8
0
  6
CONTINUOUS
 62
1
 10
174.340444
 20
191.599818
 40
0.241100
 50
153.072020
 51
265.540182
  0
ARC
  8
0
  6
CONTINUOUS
 62
1
 10
173.289926
 20
191.608319
 40
0.250037
 50
275.534670
 51
331.784392
  0
LINE
  8
0
  6
CONTINUOUS
 62
1
 10
173.510253
 20
191.490104
 11
174.006015
 21
192.431882
  0
ARC
  8
0
  6
CONTINUOUS
 62
1
 10
173.789862
 20
192.540843
 40
0.242063
 50
333.247869
 51
91.584332
  0
LINE
  8
0
  6
CONTINUOUS
 62
1
 10
173.783169
 20
192.782814
 11
169.844094
 21
192.782814
  0
ARC
  8
0
  6
CONTINUOUS
 62
1
 10
169.842295
 20
192.531770
 40
0.251050
 50
89.589440
 51
151.701695
  0
LINE
  8
0
  6
CONTINUOUS
 62
1
 10
169.621248
 20
192.650783
 11
169.125485
 21
191.709005
  0
ARC
  8
0
  6
CONTINUOUS
 62
1
 10
169.340444
 20
191.599817
 40
0.241100
 50
153.071953
 51
265.540169
  0
ARC
  8
0
  6
CONTINUOUS
 62
1
 10
168.289926
 20
191.608318
 40
0.250037
 50
275.534556
 51
331.784481
  0
LINE
  8
0
  6
CONTINUOUS
 62
1
 10
168.510253
 20
191.490104
 11
169.006015
 21
192.431882
  0
ARC
  8
0
  6
CONTINUOUS
 62
1
 10
168.789862
 20
192.540843
 40
0.242063
 50
333.247876
 51
91.584368
  0
LINE
  8
0
  6
CONTINUOUS
 62
1
 10
168.783169
 20
192.782814
 11
164.844094
 21
192.782814
  0
ARC
  8
0
  6
CONTINUOUS
 62
1
 10
164.842295
 20
192.531770
 40
0.251050
 50
89.589497
 51
151.701673
  0
LINE
  8
0
  6
CONTINUOUS
 62
1
 10
164.621248
 20
192.650783
 11
164.125485
 21
191.709005
  0
ARC
  8
0
  6
CONTINUOUS
 62
1
 10
164.340444
 20
191.599817
 40
0.241100
 50
153.071910
 51
265.540200
  0
LINE
  8
0
  6
CONTINUOUS
 62
1
 10
139.065751
 20
193.024296
 11
139.065751
 21
191.359447
  0
LINE
  8
0
  6
CONTINUOUS
 62
1
 10
179.006015
 20
192.442234
 11
179.027400
 21
192.500106
  0
LINE
  8
0
  6
CONTINUOUS
 62
1
 10
179.027400
 20
192.500106
 11
179.033111
 21
192.546508
  0
LINE
  8
0
  6
CONTINUOUS
 62
1
 10
164.006015
 20
192.442234
 11
164.027399
 21
192.500106
  0
LINE
  8
0
  6
CONTINUOUS
 62
1
 10
164.027399
 20
192.500106
 11
164.033111
 21
192.546508
  0
LINE
  8
0
  6
CONTINUOUS
 62
1
 10
154.006016
 20
192.442234
 11
154.027399
 21
192.500106
  0
LINE
  8
0
  6
CONTINUOUS
 62
1
 10
154.027399
 20
192.500106
 11
154.033112
 21
192.546508
  0
LINE
  8
0
  6
CONTINUOUS
 62
1
 10
169.006015
 20
192.442234
 11
169.027400
 21
192.500106
  0
LINE
  8
0
  6
CONTINUOUS
 62
1
 10
169.027400
 20
192.500106
 11
169.033112
 21
192.546508
  0
LINE
  8
0
  6
CONTINUOUS
 62
1
 10
174.006015
 20
192.442234
 11
174.027400
 21
192.500106
  0
LINE
  8
0
  6
CONTINUOUS
 62
1
 10
174.027400
 20
192.500106
 11
174.033112
 21
192.546508
  0
LINE
  8
0
  6
CONTINUOUS
 62
1
 10
159.006015
 20
192.442234
 11
159.027399
 21
192.500106
  0
LINE
  8
0
  6
CONTINUOUS
 62
1
 10
159.027399
 20
192.500106
 11
159.033112
 21
192.546508
  0
LINE
  8
0
  6
CONTINUOUS
 62
1
 10
149.006015
 20
192.442234
 11
149.027399
 21
192.500106
  0
LINE
  8
0
  6
CONTINUOUS
 62
1
 10
149.027399
 20
192.500106
 11
149.033111
 21
192.546508
  0
LINE
  8
0
  6
CONTINUOUS
 62
1
 10
144.006016
 20
192.442234
 11
144.027400
 21
192.500106
  0
LINE
  8
0
  6
CONTINUOUS
 62
1
 10
144.027400
 20
192.500106
 11
144.033113
 21
192.546508
  0
LINE
  8
0
  6
CONTINUOUS
 62
1
 10
178.510253
 20
191.500457
 11
179.006015
 21
192.442234
  0
LINE
  8
0
  6
CONTINUOUS
 62
1
 10
173.510253
 20
191.500457
 11
174.006015
 21
192.442234
  0
LINE
  8
0
  6
CONTINUOUS
 62
1
 10
153.510253
 20
191.500457
 11
154.006016
 21
192.442234
  0
LINE
  8
0
  6
CONTINUOUS
 62
1
 10
168.510253
 20
191.500457
 11
169.006015
 21
192.442234
  0
LINE
  8
0
  6
CONTINUOUS
 62
1
 10
163.510253
 20
191.500457
 11
164.006015
 21
192.442234
  0
LINE
  8
0
  6
CONTINUOUS
 62
1
 10
158.510252
 20
191.500457
 11
159.006015
 21
192.442234
  0
LINE
  8
0
  6
CONTINUOUS
 62
1
 10
148.510253
 20
191.500457
 11
149.006015
 21
192.442234
  0
LINE
  8
0
  6
CONTINUOUS
 62
1
 10
143.510252
 20
191.500457
 11
144.006016
 21
192.442234
  0
LINE
  8
0
  6
CONTINUOUS
 62
1
 10
174.348331
 20
191.358073
 11
174.321696
 21
191.359447
  0
ARC
  8
0
  6
CONTINUOUS
 62
1
 10
174.348303
 20
191.626743
 40
0.258316
 50
264.088055
 51
270.006333
  0
ARC
  8
0
  6
CONTINUOUS
 62
1
 10
174.343191
 20
191.613827
 40
0.244971
 50
182.127953
 51
264.966222
  0
LINE
  8
0
  6
CONTINUOUS
 62
1
 10
154.348331
 20
191.358073
 11
154.321695
 21
191.359447
  0
ARC
  8
0
  6
CONTINUOUS
 62
1
 10
154.348304
 20
191.626784
 40
0.258358
 50
264.088533
 51
270.006020
  0
ARC
  8
0
  6
CONTINUOUS
 62
1
 10
154.343193
 20
191.613829
 40
0.244974
 50
182.128450
 51
264.965631
  0
LINE
  8
0
  6
CONTINUOUS
 62
1
 10
159.348331
 20
191.358073
 11
159.321696
 21
191.359447
  0
ARC
  8
0
  6
CONTINUOUS
 62
1
 10
159.348303
 20
191.626756
 40
0.258329
 50
264.088202
 51
270.006186
  0
ARC
  8
0
  6
CONTINUOUS
 62
1
 10
159.343191
 20
191.613827
 40
0.244971
 50
182.127966
 51
264.966115
  0
LINE
  8
0
  6
CONTINUOUS
 62
1
 10
149.348331
 20
191.358073
 11
149.321696
 21
191.359447
  0
ARC
  8
0
  6
CONTINUOUS
 62
1
 10
149.348304
 20
191.626784
 40
0.258358
 50
264.088533
 51
270.006020
  0
ARC
  8
0
  6
CONTINUOUS
 62
1
 10
149.343189
 20
191.613826
 40
0.244970
 50
182.127707
 51
264.966373
  0
LINE
  8
0
  6
CONTINUOUS
 62
1
 10
164.348331
 20
191.358073
 11
164.321696
 21
191.359447
  0
ARC
  8
0
  6
CONTINUOUS
 62
1
 10
164.348303
 20
191.626756
 40
0.258329
 50
264.088202
 51
270.006186
  0
ARC
  8
0
  6
CONTINUOUS
 62
1
 10
164.343190
 20
191.613826
 40
0.244970
 50
182.127780
 51
264.966300
  0
LINE
  8
0
  6
CONTINUOUS
 62
1
 10
169.348331
 20
191.358073
 11
169.321696
 21
191.359447
  0
ARC
  8
0
  6
CONTINUOUS
 62
1
 10
169.348303
 20
191.626756
 40
0.258329
 50
264.088204
 51
270.006214
  0
ARC
  8
0
  6
CONTINUOUS
 62
1
 10
169.343190
 20
191.613826
 40
0.244971
 50
182.127835
 51
264.966246
  0
LINE
  8
0
  6
CONTINUOUS
 62
1
 10
179.348331
 20
191.358073
 11
179.321696
 21
191.359447
  0
ARC
  8
0
  6
CONTINUOUS
 62
1
 10
179.348303
 20
191.626756
 40
0.258329
 50
264.088202
 51
270.006186
  0
ARC
  8
0
  6
CONTINUOUS
 62
1
 10
179.343189
 20
191.613825
 40
0.244969
 50
182.127482
 51
264.966599
  0
LINE
  8
0
  6
CONTINUOUS
 62
1
 10
144.348332
 20
191.358073
 11
144.321694
 21
191.359447
  0
ARC
  8
0
  6
CONTINUOUS
 62
1
 10
144.348304
 20
191.626804
 40
0.258377
 50
264.088753
 51
270.006129
  0
ARC
  8
0
  6
CONTINUOUS
 62
1
 10
144.343193
 20
191.613828
 40
0.244973
 50
182.128274
 51
264.965425
  0
LINE
  8
0
  6
CONTINUOUS
 62
1
 10
182.842385
 20
191.359447
 11
182.815749
 21
191.358073
  0
ARC
  8
0
  6
CONTINUOUS
 62
1
 10
182.815777
 20
191.626784
 40
0.258358
 50
269.993980
 51
275.911467
  0
ARC
  8
0
  6
CONTINUOUS
 62
1
 10
182.821018
 20
191.613628
 40
0.244761
 50
275.008319
 51
359.129135
  0
ARC
  8
0
  6
CONTINUOUS
 62
1
 10
140.315756
 20
191.617054
 40
0.258980
 50
264.095650
 51
269.998573
  0
ARC
  8
0
  6
CONTINUOUS
 62
1
 10
140.315723
 20
191.626765
 40
0.258339
 50
264.088313
 51
270.005910
  0
ARC
  8
0
  6
CONTINUOUS
 62
1
 10
140.310481
 20
191.613625
 40
0.244759
 50
180.870303
 51
264.992242
  0
LINE
  8
0
  6
CONTINUOUS
 62
1
 10
178.314042
 20
191.359447
 11
178.287407
 21
191.358073
  0
ARC
  8
0
  6
CONTINUOUS
 62
1
 10
178.287434
 20
191.626756
 40
0.258329
 50
269.993814
 51
275.911798
  0
ARC
  8
0
  6
CONTINUOUS
 62
1
 10
178.289931
 20
191.618665
 40
0.250030
 50
275.533723
 51
331.785338
  0
LINE
  8
0
  6
CONTINUOUS
 62
1
 10
158.314041
 20
191.359447
 11
158.287406
 21
191.358073
  0
ARC
  8
0
  6
CONTINUOUS
 62
1
 10
158.287434
 20
191.626756
 40
0.258329
 50
269.993814
 51
275.911798
  0
ARC
  8
0
  6
CONTINUOUS
 62
1
 10
158.289931
 20
191.618664
 40
0.250029
 50
275.533596
 51
331.785465
  0
LINE
  8
0
  6
CONTINUOUS
 62
1
 10
168.314041
 20
191.359447
 11
168.287406
 21
191.358073
  0
ARC
  8
0
  6
CONTINUOUS
 62
1
 10
168.287434
 20
191.626754
 40
0.258327
 50
269.993796
 51
275.911816
  0
ARC
  8
0
  6
CONTINUOUS
 62
1
 10
168.289930
 20
191.618666
 40
0.250030
 50
275.533773
 51
331.785263
  0
LINE
  8
0
  6
CONTINUOUS
 62
1
 10
153.314042
 20
191.359447
 11
153.287406
 21
191.358073
  0
ARC
  8
0
  6
CONTINUOUS
 62
1
 10
153.287433
 20
191.626784
 40
0.258358
 50
269.993980
 51
275.911467
  0
ARC
  8
0
  6
CONTINUOUS
 62
1
 10
153.289930
 20
191.618667
 40
0.250032
 50
275.533948
 51
331.785113
  0
LINE
  8
0
  6
CONTINUOUS
 62
1
 10
163.314042
 20
191.359447
 11
163.287407
 21
191.358073
  0
ARC
  8
0
  6
CONTINUOUS
 62
1
 10
163.287435
 20
191.626756
 40
0.258329
 50
269.993814
 51
275.911798
  0
ARC
  8
0
  6
CONTINUOUS
 62
1
 10
163.289929
 20
191.618668
 40
0.250032
 50
275.534052
 51
331.785009
  0
LINE
  8
0
  6
CONTINUOUS
 62
1
 10
173.314042
 20
191.359447
 11
173.287406
 21
191.358073
  0
ARC
  8
0
  6
CONTINUOUS
 62
1
 10
173.287434
 20
191.626756
 40
0.258329
 50
269.993814
 51
275.911798
  0
ARC
  8
0
  6
CONTINUOUS
 62
1
 10
173.289930
 20
191.618666
 40
0.250031
 50
275.533887
 51
331.785174
  0
LINE
  8
0
  6
CONTINUOUS
 62
1
 10
148.314042
 20
191.359447
 11
148.287406
 21
191.358073
  0
ARC
  8
0
  6
CONTINUOUS
 62
1
 10
148.287433
 20
191.626784
 40
0.258358
 50
269.993980
 51
275.911467
  0
ARC
  8
0
  6
CONTINUOUS
 62
1
 10
148.289930
 20
191.618667
 40
0.250032
 50
275.533948
 51
331.785113
  0
LINE
  8
0
  6
CONTINUOUS
 62
1
 10
143.314042
 20
191.359447
 11
143.287405
 21
191.358073
  0
ARC
  8
0
  6
CONTINUOUS
 62
1
 10
143.287433
 20
191.626804
 40
0.258377
 50
269.993871
 51
275.911247
  0
ARC
  8
0
  6
CONTINUOUS
 62
1
 10
143.289933
 20
191.618660
 40
0.250025
 50
275.533489
 51
331.785974
  0
LINE
  8
0
  6
CONTINUOUS
 62
1
 10
173.287406
 20
191.358073
 11
169.348331
 21
191.358073
  0
LINE
  8
0
  6
CONTINUOUS
 62
1
 10
178.287407
 20
191.358073
 11
174.348331
 21
191.358073
  0
LINE
  8
0
  6
CONTINUOUS
 62
1
 10
182.815749
 20
191.358073
 11
179.348331
 21
191.358073
  0
LINE
  8
0
  6
CONTINUOUS
 62
1
 10
184.065750
 20
191.359447
 11
184.065750
 21
190.403324
  0
LINE
  8
0
  6
CONTINUOUS
 62
1
 10
184.065750
 20
190.403324
 11
139.065751
 21
190.403324
  0
LINE
  8
0
  6
CONTINUOUS
 62
1
 10
139.065751
 20
191.359447
 11
139.065751
 21
190.403324
  0
LINE
  8
0
  6
CONTINUOUS
 62
1
 10
143.287405
 20
191.358073
 11
140.315750
 21
191.358073
  0
LINE
  8
0
  6
CONTINUOUS
 62
1
 10
148.287406
 20
191.358073
 11
144.348332
 21
191.358073
  0
LINE
  8
0
  6
CONTINUOUS
 62
1
 10
153.287406
 20
191.358073
 11
149.348331
 21
191.358073
  0
LINE
  8
0
  6
CONTINUOUS
 62
1
 10
158.287406
 20
191.358073
 11
154.348331
 21
191.358073
  0
LINE
  8
0
  6
CONTINUOUS
 62
1
 10
163.287407
 20
191.358073
 11
159.348331
 21
191.358073
  0
LINE
  8
0
  6
CONTINUOUS
 62
1
 10
168.287406
 20
191.358073
 11
164.348331
 21
191.358073
  0
LINE
  8
0
  6
CONTINUOUS
 62
1
 10
174.348331
 20
191.368427
 11
178.287407
 21
191.368427
  0
LINE
  8
0
  6
CONTINUOUS
 62
1
 10
149.348331
 20
191.368427
 11
153.287406
 21
191.368427
  0
LINE
  8
0
  6
CONTINUOUS
 62
1
 10
159.348331
 20
191.368427
 11
163.287407
 21
191.368427
  0
LINE
  8
0
  6
CONTINUOUS
 62
1
 10
164.348331
 20
191.368427
 11
168.287406
 21
191.368427
  0
LINE
  8
0
  6
CONTINUOUS
 62
1
 10
169.348331
 20
191.368427
 11
173.287406
 21
191.368427
  0
LINE
  8
0
  6
CONTINUOUS
 62
1
 10
154.348331
 20
191.368427
 11
158.287406
 21
191.368427
  0
LINE
  8
0
  6
CONTINUOUS
 62
1
 10
144.348332
 20
191.368427
 11
148.287406
 21
191.368427
  0
LINE
  8
0
  6
CONTINUOUS
 62
1
 10
140.315750
 20
191.368427
 11
143.287405
 21
191.368427
  0
LINE
  8
0
  6
CONTINUOUS
 62
1
 10
179.348331
 20
191.368427
 11
182.815749
 21
191.368427
  0
LINE
  8
0
  6
CONTINUOUS
 62
1
 10
178.314042
 20
191.369801
 11
174.321696
 21
191.369801
  0
LINE
  8
0
  6
CONTINUOUS
 62
1
 10
173.314042
 20
191.369801
 11
169.321696
 21
191.369801
  0
LINE
  8
0
  6
CONTINUOUS
 62
1
 10
182.842385
 20
191.369801
 11
179.321696
 21
191.369801
  0
LINE
  8
0
  6
CONTINUOUS
 62
1
 10
168.314041
 20
191.369801
 11
164.321696
 21
191.369801
  0
LINE
  8
0
  6
CONTINUOUS
 62
1
 10
163.314042
 20
191.369801
 11
159.321696
 21
191.369801
  0
LINE
  8
0
  6
CONTINUOUS
 62
1
 10
158.314041
 20
191.369801
 11
154.321695
 21
191.369801
  0
LINE
  8
0
  6
CONTINUOUS
 62
1
 10
153.314042
 20
191.369801
 11
149.321696
 21
191.369801
  0
LINE
  8
0
  6
CONTINUOUS
 62
1
 10
148.314042
 20
191.369801
 11
144.321694
 21
191.369801
  0
LINE
  8
0
  6
CONTINUOUS
 62
1
 10
143.314042
 20
191.369801
 11
140.289115
 21
191.369801
  0
LINE
  8
0
  6
CONTINUOUS
 62
1
 10
184.065750
 20
190.403324
 11
184.065750
 21
190.340824
  0
LINE
  8
0
  6
CONTINUOUS
 62
1
 10
139.065751
 20
190.403324
 11
139.065751
 21
190.340824
  0
LINE
  8
0
  6
CONTINUOUS
 62
1
 10
184.065750
 20
190.340824
 11
184.065750
 21
189.280824
  0
LINE
  8
0
  6
CONTINUOUS
 62
1
 10
139.065751
 20
190.340824
 11
139.065751
 21
189.280824
  0
LINE
  8
0
  6
CONTINUOUS
 62
1
 10
184.065750
 20
189.280824
 11
184.065750
 21
189.178324
  0
LINE
  8
0
  6
CONTINUOUS
 62
1
 10
184.065750
 20
189.178324
 11
139.065751
 21
189.178324
  0
LINE
  8
0
  6
CONTINUOUS
 62
1
 10
139.065751
 20
189.280824
 11
139.065751
 21
189.178324
  0
LINE
  8
0
  6
CONTINUOUS
 62
1
 10
184.065750
 20
189.178324
 11
184.065750
 21
189.115824
  0
LINE
  8
0
  6
CONTINUOUS
 62
1
 10
139.065751
 20
189.178324
 11
139.065751
 21
189.115824
  0
LINE
  8
0
  6
CONTINUOUS
 62
1
 10
184.065750
 20
189.115824
 11
184.065750
 21
188.005824
  0
LINE
  8
0
  6
CONTINUOUS
 62
1
 10
139.065751
 20
189.115824
 11
139.065751
 21
188.005824
  0
ARC
  8
0
  6
CONTINUOUS
 62
1
 10
141.015750
 20
188.378324
 40
0.240000
 50
81.175447
 51
173.432450
  0
ARC
  8
0
  6
CONTINUOUS
 62
1
 10
182.115750
 20
188.378324
 40
0.240000
 50
349.941844
 51
92.430006
  0
LINE
  8
0
  6
CONTINUOUS
 62
1
 10
143.315750
 20
188.153325
 11
143.327090
 21
188.153522
  0
ARC
  8
0
  6
CONTINUOUS
 62
1
 10
143.315750
 20
188.478324
 40
0.325000
 50
88.000251
 51
137.600527
  0
ARC
  8
0
  6
CONTINUOUS
 62
1
 10
143.315750
 20
188.478324
 40
0.325000
 50
222.399473
 51
270.000000
  0
ARC
  8
0
  6
CONTINUOUS
 62
1
 10
179.815750
 20
188.478324
 40
0.325000
 50
271.322328
 51
323.130102
  0
ARC
  8
0
  6
CONTINUOUS
 62
1
 10
179.815750
 20
188.478324
 40
0.325000
 50
36.869898
 51
88.677672
  0
LINE
  8
0
  6
CONTINUOUS
 62
1
 10
184.065750
 20
188.005824
 11
184.065750
 21
187.903324
  0
LINE
  8
0
  6
CONTINUOUS
 62
1
 10
184.065750
 20
187.903324
 11
183.975750
 21
187.903324
  0
LINE
  8
0
  6
CONTINUOUS
 62
1
 10
180.075750
 20
187.903324
 11
179.823250
 21
187.903324
  0
LINE
  8
0
  6
CONTINUOUS
 62
1
 10
167.828250
 20
187.903324
 11
167.573250
 21
187.903324
  0
LINE
  8
0
  6
CONTINUOUS
 62
1
 10
155.578251
 20
187.903324
 11
155.322091
 21
187.903324
  0
LINE
  8
0
  6
CONTINUOUS
 62
1
 10
143.327090
 20
187.903324
 11
143.075749
 21
187.903324
  0
LINE
  8
0
  6
CONTINUOUS
 62
1
 10
139.175751
 20
187.903324
 11
139.065751
 21
187.903324
  0
LINE
  8
0
  6
CONTINUOUS
 62
1
 10
139.065751
 20
188.005824
 11
139.065751
 21
187.903324
  0
LINE
  8
0
  6
CONTINUOUS
 62
1
 10
139.925751
 20
193.183324
 11
139.925751
 21
193.153324
  0
LINE
  8
0
  6
CONTINUOUS
 62
1
 10
139.925751
 20
193.183324
 11
141.925749
 21
193.183324
  0
LINE
  8
0
  6
CONTINUOUS
 62
1
 10
141.925749
 20
193.183324
 11
141.925749
 21
193.153324
  0
LINE
  8
0
  6
CONTINUOUS
 62
1
 10
142.925751
 20
193.183324
 11
166.375750
 21
193.183324
  0
LINE
  8
0
  6
CONTINUOUS
 62
1
 10
166.875750
 20
193.183324
 11
177.325750
 21
193.183324
  0
LINE
  8
0
  6
CONTINUOUS
 62
1
 10
177.825750
 20
193.183324
 11
180.225750
 21
193.183324
  0
LINE
  8
0
  6
CONTINUOUS
 62
1
 10
180.225750
 20
193.183324
 11
180.225750
 21
193.153324
  0
LINE
  8
0
  6
CONTINUOUS
 62
1
 10
142.925751
 20
193.183324
 11
142.925751
 21
193.153324
  0
LINE
  8
0
  6
CONTINUOUS
 62
1
 10
181.225750
 20
193.183324
 11
181.750750
 21
193.183324
  0
LINE
  8
0
  6
CONTINUOUS
 62
1
 10
183.000750
 20
193.183324
 11
183.225750
 21
193.183324
  0
LINE
  8
0
  6
CONTINUOUS
 62
1
 10
183.225750
 20
193.183324
 11
183.225750
 21
193.153324
  0
LINE
  8
0
  6
CONTINUOUS
 62
1
 10
181.225750
 20
193.183324
 11
181.225750
 21
193.153324
  0
LINE
  8
0
  6
CONTINUOUS
 62
1
 10
141.925749
 20
193.183324
 11
142.925751
 21
193.183324
  0
LINE
  8
0
  6
CONTINUOUS
 62
1
 10
180.225750
 20
193.183324
 11
181.225750
 21
193.183324
  0
LINE
  8
0
  6
CONTINUOUS
 62
1
 10
166.575750
 20
192.782814
 11
166.575750
 21
191.369801
  0
LINE
  8
0
  6
CONTINUOUS
 62
1
 10
170.825750
 20
191.369801
 11
170.825750
 21
192.782814
  0
LINE
  8
0
  6
CONTINUOUS
 62
1
 10
156.575749
 20
191.369801
 11
156.575749
 21
192.782814
  0
LINE
  8
0
  6
CONTINUOUS
 62
1
 10
178.425750
 20
191.588325
 11
178.518418
 21
191.597452
  0
LINE
  8
0
  6
CONTINUOUS
 62
1
 10
178.518418
 20
191.597452
 11
178.567980
 21
191.610118
  0
ARC
  8
0
  6
CONTINUOUS
 62
1
 10
178.425750
 20
192.063324
 40
0.475000
 50
17.050910
 51
270.000000
  0
LINE
  8
0
  6
CONTINUOUS
 62
1
 10
152.325750
 20
192.782814
 11
152.325750
 21
191.369801
  0
LINE
  8
0
  6
CONTINUOUS
 62
1
 10
141.640749
 20
191.369801
 11
141.640749
 21
192.770824
  0
LINE
  8
0
  6
CONTINUOUS
 62
1
 10
141.700750
 20
191.369801
 11
141.700750
 21
192.770824
  0
LINE
  8
0
  6
CONTINUOUS
 62
1
 10
141.641339
 20
192.782814
 11
141.640749
 21
192.770824
  0
LINE
  8
0
  6
CONTINUOUS
 62
1
 10
141.701909
 20
192.782814
 11
141.700750
 21
192.770824
  0
LINE
  8
0
  6
CONTINUOUS
 62
1
 10
143.050751
 20
192.770824
 11
143.049588
 21
192.782814
  0
LINE
  8
0
  6
CONTINUOUS
 62
1
 10
143.110749
 20
192.770824
 11
143.110162
 21
192.782814
  0
LINE
  8
0
  6
CONTINUOUS
 62
1
 10
143.050751
 20
192.770824
 11
143.050751
 21
191.369801
  0
LINE
  8
0
  6
CONTINUOUS
 62
1
 10
143.110749
 20
192.770824
 11
143.110749
 21
191.369801
  0
LINE
  8
0
  6
CONTINUOUS
 62
1
 10
140.887784
 20
161.710441
 11
140.943962
 21
161.721978
  0
LINE
  8
0
  6
CONTINUOUS
 62
1
 10
140.943962
 20
161.721978
 11
140.969309
 21
161.730720
  0
LINE
  8
0
  6
CONTINUOUS
 62
1
 10
181.510750
 20
192.770824
 11
181.510162
 21
192.782814
  0
LINE
  8
0
  6
CONTINUOUS
 62
1
 10
181.450750
 20
192.770824
 11
181.449589
 21
192.782814
  0
LINE
  8
0
  6
CONTINUOUS
 62
1
 10
181.450750
 20
191.369801
 11
181.450750
 21
192.770824
  0
LINE
  8
0
  6
CONTINUOUS
 62
1
 10
181.510750
 20
191.369801
 11
181.510750
 21
192.770824
  0
LINE
  8
0
  6
CONTINUOUS
 62
1
 10
180.040750
 20
191.369801
 11
180.040750
 21
192.770824
  0
LINE
  8
0
  6
CONTINUOUS
 62
1
 10
180.100750
 20
191.369801
 11
180.100750
 21
192.770824
  0
LINE
  8
0
  6
CONTINUOUS
 62
1
 10
180.041338
 20
192.782814
 11
180.040750
 21
192.770824
  0
LINE
  8
0
  6
CONTINUOUS
 62
1
 10
180.101910
 20
192.782814
 11
180.100750
 21
192.770824
  0
LINE
  8
0
  6
CONTINUOUS
 62
1
 10
182.263714
 20
161.710441
 11
182.207539
 21
161.721978
  0
LINE
  8
0
  6
CONTINUOUS
 62
1
 10
182.207539
 20
161.721978
 11
182.182192
 21
161.730720
  0
LINE
  8
0
  6
CONTINUOUS
 62
1
 10
181.510750
 20
192.770824
 11
181.510750
 21
192.782814
  0
LINE
  8
0
  6
CONTINUOUS
 62
1
 10
170.533250
 20
193.288324
 11
170.818250
 21
193.288324
  0
LINE
  8
0
  6
CONTINUOUS
 62
1
 10
170.520750
 20
193.318324
 11
170.830750
 21
193.318324
  0
LINE
  8
0
  6
CONTINUOUS
 62
1
 10
171.020750
 20
193.318324
 11
171.330750
 21
193.318324
  0
LINE
  8
0
  6
CONTINUOUS
 62
1
 10
171.033250
 20
193.288324
 11
171.318250
 21
193.288324
  0
LINE
  8
0
  6
CONTINUOUS
 62
1
 10
165.305750
 20
193.325824
 11
165.545750
 21
193.325824
  0
LINE
  8
0
  6
CONTINUOUS
 62
1
 10
165.318250
 20
193.295825
 11
165.533250
 21
193.295825
  0
LINE
  8
0
  6
CONTINUOUS
 62
1
 10
163.568250
 20
193.295825
 11
163.783250
 21
193.295825
  0
LINE
  8
0
  6
CONTINUOUS
 62
1
 10
163.555750
 20
193.325824
 11
163.795750
 21
193.325824
  0
LINE
  8
0
  6
DD_CHAIN67372168
 62
9
 10
184.075750
 20
154.384463
 11
176.405124
 21
154.384463
  0
LINE
  8
0
  6
DD_CHAIN67372168
 62
9
 10
175.892335
 20
154.384463
 11
169.117624
 21
154.384463
  0
LINE
  8
0
  6
DD_CHAIN67372168
 62
9
 10
168.604835
 20
154.384463
 11
161.827679
 21
154.384463
  0
LINE
  8
0
  6
DD_CHAIN67372168
 62
9
 10
161.687968
 20
154.384463
 11
161.540615
 21
154.384463
  0
LINE
  8
0
  6
DD_CHAIN67372168
 62
9
 10
161.323093
 20
154.384463
 11
154.542623
 21
154.384463
  0
LINE
  8
0
  6
DD_CHAIN67372168
 62
9
 10
154.029835
 20
154.384463
 11
147.227431
 21
154.384463
  0
LINE
  8
0
  6
DD_CHAIN67372168
 62
9
 10
146.774068
 20
154.384463
 11
139.075750
 21
154.384463
  0
LINE
  8
0
  6
DD_CHAIN67372168
 62
9
 10
159.286746
 20
154.778594
 11
159.286746
 21
154.776895
  0
LINE
  8
0
  6
DD_CHAIN67372168
 62
9
 10
178.875750
 20
154.743556
 11
178.875750
 21
154.741857
  0
LINE
  8
0
  6
DD_CHAIN67372168
 62
9
 10
178.775750
 20
154.743556
 11
178.775750
 21
154.741857
  0
LINE
  8
0
  6
DD_CHAIN67372168
 62
9
 10
163.900750
 20
154.743556
 11
163.900750
 21
154.741857
  0
LINE
  8
0
  6
DD_CHAIN67372168
 62
9
 10
164.000750
 20
154.743556
 11
164.000750
 21
154.741857
  0
LINE
  8
0
  6
DD_CHAIN67372168
 62
9
 10
164.450750
 20
154.602479
 11
164.450750
 21
154.600780
  0
LINE
  8
0
  6
DD_CHAIN67372168
 62
9
 10
148.875750
 20
154.602479
 11
148.875750
 21
154.600780
  0
LINE
  8
0
  6
DD_CHAIN67372168
 62
9
 10
163.450750
 20
154.602479
 11
163.450750
 21
154.600780
  0
LINE
  8
0
  6
DD_CHAIN67372168
 62
9
 10
178.025750
 20
154.602479
 11
178.025750
 21
154.600780
  0
LINE
  8
0
  6
DD_CHAIN67372168
 62
9
 10
156.163249
 20
154.602479
 11
156.163249
 21
154.600780
  0
LINE
  8
0
  6
DD_CHAIN67372168
 62
9
 10
149.875751
 20
154.602479
 11
149.875751
 21
154.600780
  0
LINE
  8
0
  6
DD_CHAIN67372168
 62
9
 10
179.025750
 20
154.602479
 11
179.025750
 21
154.600780
  0
LINE
  8
0
  6
DD_CHAIN67372168
 62
9
 10
157.163250
 20
154.602479
 11
157.163250
 21
154.600780
  0
LINE
  8
0
  6
DD_CHAIN67372168
 62
9
 10
139.178249
 20
193.153324
 11
139.178249
 21
193.194789
  0
LINE
  8
0
  6
DD_CHAIN67372168
 62
9
 10
183.963251
 20
193.194789
 11
183.963251
 21
193.153324
  0
LINE
  8
0
  6
DD_CHAIN67372168
 62
9
 10
170.825750
 20
192.710825
 11
169.666021
 21
192.710825
  0
LINE
  8
0
  6
DD_CHAIN67372168
 62
9
 10
168.961242
 20
192.710825
 11
166.575750
 21
192.710825
  0
LINE
  8
0
  6
DD_CHAIN67372168
 62
9
 10
163.961242
 20
192.710825
 11
159.666021
 21
192.710825
  0
LINE
  8
0
  6
DD_CHAIN67372168
 62
9
 10
156.575749
 20
192.710825
 11
154.666021
 21
192.710825
  0
LINE
  8
0
  6
DD_CHAIN67372168
 62
9
 10
153.961242
 20
192.710825
 11
152.325750
 21
192.710825
  0
LINE
  8
0
  6
DD_CHAIN67372168
 62
9
 10
152.325750
 20
192.560824
 11
154.032354
 21
192.560824
  0
LINE
  8
0
  6
DD_CHAIN67372168
 62
9
 10
154.573892
 20
192.560824
 11
156.575749
 21
192.560824
  0
LINE
  8
0
  6
DD_CHAIN67372168
 62
9
 10
159.573892
 20
192.560824
 11
164.032353
 21
192.560824
  0
LINE
  8
0
  6
DD_CHAIN67372168
 62
9
 10
166.575750
 20
192.560824
 11
169.032353
 21
192.560824
  0
LINE
  8
0
  6
DD_CHAIN67372168
 62
9
 10
169.573892
 20
192.560824
 11
170.825750
 21
192.560824
  0
ARC
  8
0
  6
DD_CHAIN67372168
 62
9
 10
168.006680
 20
154.728843
 40
0.373766
 50
317.691472
 51
356.949671
  0
LINE
  8
0
  6
DD_CHAIN67372168
 62
9
 10
168.197435
 20
154.929984
 11
168.283092
 21
154.477252
  0
LINE
  8
0
  6
DD_CHAIN67372168
 62
9
 10
169.443409
 20
154.477252
 11
169.529065
 21
154.929984
  0
ARC
  8
0
  6
DD_CHAIN67372168
 62
9
 10
169.712575
 20
154.725304
 40
0.366033
 50
180.934792
 51
222.662257
  0
ARC
  8
0
  6
DD_CHAIN67372168
 62
9
 10
169.371920
 20
154.947853
 40
0.046264
 50
299.911454
 51
337.279496
  0
ARC
  8
0
  6
DD_CHAIN67372168
 62
9
 10
168.964688
 20
152.853106
 40
2.099221
 50
78.171551
 51
81.633107
  0
ARC
  8
0
  6
DD_CHAIN67372168
 62
9
 10
168.761808
 20
152.853130
 40
2.099196
 50
98.366873
 51
101.828470
  0
ARC
  8
0
  6
DD_CHAIN67372168
 62
9
 10
168.354581
 20
154.947853
 40
0.046265
 50
202.721000
 51
240.088185
  0
ARC
  8
0
  6
DD_CHAIN67372168
 62
9
 10
169.647082
 20
154.667218
 40
0.348435
 50
136.344053
 51
223.655947
  0
ARC
  8
0
  6
DD_CHAIN67372168
 62
9
 10
168.863250
 20
157.145031
 40
2.769866
 50
258.932039
 51
281.067961
  0
ARC
  8
0
  6
DD_CHAIN67372168
 62
9
 10
168.079418
 20
154.667218
 40
0.348435
 50
316.344060
 51
43.655940
  0
ARC
  8
0
  6
DD_CHAIN67372168
 62
9
 10
168.889445
 20
154.427074
 40
0.048822
 50
1.472311
 51
91.401987
  0
LINE
  8
0
  6
DD_CHAIN67372168
 62
9
 10
168.888250
 20
154.475881
 11
168.888250
 21
154.929984
  0
LINE
  8
0
  6
DD_CHAIN67372168
 62
9
 10
168.838250
 20
154.929984
 11
168.838250
 21
154.475881
  0
ARC
  8
0
  6
DD_CHAIN67372168
 62
9
 10
168.837056
 20
154.427075
 40
0.048822
 50
88.597968
 51
178.527735
  0
LINE
  8
0
  6
DD_CHAIN67372168
 62
9
 10
168.838250
 20
154.475881
 11
168.840153
 21
154.472925
  0
LINE
  8
0
  6
DD_CHAIN67372168
 62
9
 10
168.840153
 20
154.472925
 11
168.845572
 21
154.470419
  0
LINE
  8
0
  6
DD_CHAIN67372168
 62
9
 10
168.845572
 20
154.470419
 11
168.853683
 21
154.468745
  0
LINE
  8
0
  6
DD_CHAIN67372168
 62
9
 10
168.853683
 20
154.468745
 11
168.863250
 21
154.468157
  0
LINE
  8
0
  6
DD_CHAIN67372168
 62
9
 10
168.863250
 20
154.468157
 11
168.872817
 21
154.468745
  0
LINE
  8
0
  6
DD_CHAIN67372168
 62
9
 10
168.872817
 20
154.468745
 11
168.880928
 21
154.470419
  0
LINE
  8
0
  6
DD_CHAIN67372168
 62
9
 10
168.880928
 20
154.470419
 11
168.886347
 21
154.472925
  0
LINE
  8
0
  6
DD_CHAIN67372168
 62
9
 10
168.886347
 20
154.472925
 11
168.888250
 21
154.475881
  0
ARC
  8
0
  6
DD_CHAIN67372168
 62
9
 10
168.327200
 20
154.952332
 40
0.044788
 50
220.357386
 51
275.522037
  0
ARC
  8
0
  6
DD_CHAIN67372168
 62
9
 10
169.399228
 20
154.952510
 40
0.044959
 50
264.591568
 51
319.529105
  0
ARC
  8
0
  6
DD_CHAIN67372168
 62
9
 10
169.390648
 20
154.479305
 40
0.052800
 50
274.716933
 51
357.771883
  0
ARC
  8
0
  6
DD_CHAIN67372168
 62
9
 10
168.335852
 20
154.479305
 40
0.052800
 50
182.228009
 51
265.283174
  0
LINE
  8
0
  6
DD_CHAIN67372168
 62
9
 10
168.282064
 20
154.466872
 11
168.281987
 21
154.471958
  0
LINE
  8
0
  6
DD_CHAIN67372168
 62
9
 10
168.281987
 20
154.471958
 11
168.283092
 21
154.477252
  0
ARC
  8
0
  6
DD_CHAIN67372168
 62
9
 10
168.324303
 20
154.441408
 40
0.016393
 50
259.026244
 51
296.080455
  0
ARC
  8
0
  6
DD_CHAIN67372168
 62
9
 10
169.402197
 20
154.441407
 40
0.016393
 50
243.919445
 51
280.973789
  0
ARC
  8
0
  6
DD_CHAIN67372168
 62
9
 10
169.421174
 20
154.469815
 40
0.023445
 50
350.777999
 51
18.496153
  0
LINE
  8
0
  6
DD_CHAIN67372168
 62
9
 10
168.938250
 20
154.428329
 11
168.932541
 21
154.419460
  0
LINE
  8
0
  6
DD_CHAIN67372168
 62
9
 10
168.932541
 20
154.419460
 11
168.916283
 21
154.411941
  0
LINE
  8
0
  6
DD_CHAIN67372168
 62
9
 10
168.916283
 20
154.411941
 11
168.891951
 21
154.406917
  0
LINE
  8
0
  6
DD_CHAIN67372168
 62
9
 10
168.891951
 20
154.406917
 11
168.863250
 21
154.405153
  0
LINE
  8
0
  6
DD_CHAIN67372168
 62
9
 10
168.863250
 20
154.405153
 11
168.834549
 21
154.406917
  0
LINE
  8
0
  6
DD_CHAIN67372168
 62
9
 10
168.834549
 20
154.406917
 11
168.810217
 21
154.411941
  0
LINE
  8
0
  6
DD_CHAIN67372168
 62
9
 10
168.810217
 20
154.411941
 11
168.793959
 21
154.419460
  0
LINE
  8
0
  6
DD_CHAIN67372168
 62
9
 10
168.793959
 20
154.419460
 11
168.788250
 21
154.428329
  0
LINE
  8
0
  6
DD_CHAIN67372168
 62
9
 10
184.065750
 20
187.605824
 11
184.025751
 21
187.605824
  0
LINE
  8
0
  6
DD_CHAIN67372168
 62
9
 10
184.065750
 20
162.355824
 11
184.025751
 21
162.355824
  0
LINE
  8
0
  6
DD_CHAIN67372168
 62
9
 10
139.065751
 20
162.355824
 11
139.105749
 21
162.355824
  0
LINE
  8
0
  6
DD_CHAIN67372168
 62
9
 10
139.065751
 20
187.605824
 11
139.105749
 21
187.605824
  0
LINE
  8
0
  6
DD_CHAIN67372168
 62
9
 10
139.168250
 20
162.105824
 11
139.168250
 21
187.855824
  0
LINE
  8
0
  6
DD_CHAIN67372168
 62
9
 10
179.623475
 20
196.878325
 11
179.623475
 21
196.873324
  0
LINE
  8
0
  6
DD_CHAIN67372168
 62
9
 10
178.852962
 20
196.878325
 11
178.852962
 21
196.873324
  0
LINE
  8
0
  6
DD_CHAIN67372168
 62
9
 10
178.368347
 20
196.878325
 11
178.368347
 21
196.873324
  0
LINE
  8
0
  6
DD_CHAIN67372168
 62
9
 10
176.500398
 20
196.878325
 11
176.500398
 21
196.873324
  0
LINE
  8
0
  6
DD_CHAIN67372168
 62
9
 10
176.023475
 20
196.878325
 11
176.023475
 21
196.873324
  0
LINE
  8
0
  6
DD_CHAIN67372168
 62
9
 10
177.335014
 20
196.878325
 11
177.335014
 21
196.873324
  0
LINE
  8
0
  6
DD_CHAIN67372168
 62
9
 10
179.477141
 20
196.878325
 11
179.477141
 21
196.873324
  0
LINE
  8
0
  6
DD_CHAIN67372168
 62
9
 10
178.706628
 20
196.878325
 11
178.706628
 21
196.873324
  0
LINE
  8
0
  6
DD_CHAIN67372168
 62
9
 10
179.225518
 20
196.878325
 11
179.225518
 21
196.873324
  0
LINE
  8
0
  6
DD_CHAIN67372168
 62
9
 10
179.174958
 20
196.878325
 11
179.174958
 21
196.873324
  0
LINE
  8
0
  6
DD_CHAIN67372168
 62
9
 10
176.857409
 20
196.878325
 11
176.857409
 21
196.873324
  0
LINE
  8
0
  6
DD_CHAIN67372168
 62
9
 10
176.727141
 20
196.878325
 11
176.727141
 21
196.873324
  0
LINE
  8
0
  6
DD_CHAIN67372168
 62
9
 10
176.354064
 20
196.878325
 11
176.354064
 21
196.873324
  0
LINE
  8
0
  6
DD_CHAIN67372168
 62
9
 10
177.561756
 20
196.878325
 11
177.561756
 21
196.873324
  0
LINE
  8
0
  6
DD_CHAIN67372168
 62
9
 10
180.180987
 20
196.878325
 11
180.180987
 21
196.873324
  0
LINE
  8
0
  6
DD_CHAIN67372168
 62
9
 10
177.809973
 20
196.878325
 11
177.809973
 21
196.873324
  0
LINE
  8
0
  6
DD_CHAIN67372168
 62
9
 10
177.188339
 20
196.878325
 11
177.188339
 21
196.873324
  0
LINE
  8
0
  6
DD_CHAIN67372168
 62
9
 10
177.137778
 20
196.878325
 11
177.137778
 21
196.873324
  0
LINE
  8
0
  6
DD_CHAIN67372168
 62
9
 10
180.440743
 20
196.878325
 11
180.440743
 21
196.873324
  0
LINE
  8
0
  6
DD_CHAIN67372168
 62
9
 10
178.613819
 20
196.878325
 11
178.613819
 21
196.873324
  0
LINE
  8
0
  6
DD_CHAIN67372168
 62
9
 10
179.087778
 20
196.878325
 11
179.087778
 21
196.873324
  0
LINE
  8
0
  6
DD_CHAIN67372168
 62
9
 10
177.893467
 20
196.878325
 11
177.893467
 21
196.873324
  0
LINE
  8
0
  6
DD_CHAIN67372168
 62
9
 10
177.842906
 20
196.878325
 11
177.842906
 21
196.873324
  0
LINE
  8
0
  6
DD_CHAIN67372168
 62
9
 10
176.628603
 20
196.878325
 11
176.628603
 21
196.873324
  0
LINE
  8
0
  6
DD_CHAIN67372168
 62
9
 10
183.435109
 20
193.248324
 11
183.435109
 21
193.243324
  0
LINE
  8
0
  6
DD_CHAIN67372168
 62
9
 10
181.173517
 20
196.878325
 11
181.173517
 21
196.873324
  0
LINE
  8
0
  6
DD_CHAIN67372168
 62
9
 10
181.216818
 20
196.878325
 11
181.216818
 21
196.873324
  0
LINE
  8
0
  6
DD_CHAIN67372168
 62
9
 10
182.423517
 20
196.878325
 11
182.423517
 21
196.873324
  0
LINE
  8
0
  6
DD_CHAIN67372168
 62
9
 10
182.466818
 20
196.878325
 11
182.466818
 21
196.873324
  0
LINE
  8
0
  6
DD_CHAIN67372168
 62
9
 10
180.610600
 20
196.878325
 11
180.610600
 21
196.873324
  0
LINE
  8
0
  6
DD_CHAIN67372168
 62
9
 10
181.779735
 20
196.878325
 11
181.779735
 21
196.873324
  0
LINE
  8
0
  6
DD_CHAIN67372168
 62
9
 10
181.860601
 20
196.878325
 11
181.860601
 21
196.873324
  0
LINE
  8
0
  6
DD_CHAIN67372168
 62
9
 10
183.029735
 20
196.878325
 11
183.029735
 21
196.873324
  0
LINE
  8
0
  6
DD_CHAIN67372168
 62
9
 10
140.673866
 20
193.248324
 11
140.673866
 21
193.243324
  0
LINE
  8
0
  6
DD_CHAIN67372168
 62
9
 10
139.698866
 20
193.248324
 11
139.698866
 21
193.243324
  0
ARC
  8
0
  6
DD_CHAIN67372168
 62
9
 10
175.294179
 20
154.728843
 40
0.373767
 50
317.691480
 51
356.949585
  0
LINE
  8
0
  6
DD_CHAIN67372168
 62
9
 10
175.484935
 20
154.929984
 11
175.570591
 21
154.477252
  0
LINE
  8
0
  6
DD_CHAIN67372168
 62
9
 10
176.730909
 20
154.477252
 11
176.816566
 21
154.929984
  0
ARC
  8
0
  6
DD_CHAIN67372168
 62
9
 10
177.000090
 20
154.725310
 40
0.366048
 50
180.935747
 51
222.661417
  0
ARC
  8
0
  6
DD_CHAIN67372168
 62
9
 10
176.659423
 20
154.947849
 40
0.046259
 50
299.910598
 51
337.281837
  0
ARC
  8
0
  6
DD_CHAIN67372168
 62
9
 10
176.252172
 20
152.853021
 40
2.099307
 50
78.171610
 51
81.633018
  0
ARC
  8
0
  6
DD_CHAIN67372168
 62
9
 10
176.049305
 20
152.853142
 40
2.099184
 50
98.366845
 51
101.828468
  0
ARC
  8
0
  6
DD_CHAIN67372168
 62
9
 10
175.642077
 20
154.947850
 40
0.046261
 50
202.719017
 51
240.089628
  0
ARC
  8
0
  6
DD_CHAIN67372168
 62
9
 10
176.934583
 20
154.667218
 40
0.348435
 50
136.344086
 51
223.655914
  0
ARC
  8
0
  6
DD_CHAIN67372168
 62
9
 10
176.150750
 20
157.145033
 40
2.769868
 50
258.932042
 51
281.067958
  0
ARC
  8
0
  6
DD_CHAIN67372168
 62
9
 10
175.366919
 20
154.667218
 40
0.348434
 50
316.343960
 51
43.656040
  0
LINE
  8
0
  6
DD_CHAIN67372168
 62
9
 10
176.125750
 20
154.929984
 11
176.125750
 21
154.475881
  0
ARC
  8
0
  6
DD_CHAIN67372168
 62
9
 10
176.124556
 20
154.427074
 40
0.048822
 50
88.597893
 51
178.527703
  0
ARC
  8
0
  6
DD_CHAIN67372168
 62
9
 10
176.176944
 20
154.427074
 40
0.048822
 50
1.473157
 51
91.401247
  0
LINE
  8
0
  6
DD_CHAIN67372168
 62
9
 10
176.175750
 20
154.475881
 11
176.175750
 21
154.929984
  0
LINE
  8
0
  6
DD_CHAIN67372168
 62
9
 10
176.125750
 20
154.475881
 11
176.127653
 21
154.472925
  0
LINE
  8
0
  6
DD_CHAIN67372168
 62
9
 10
176.127653
 20
154.472925
 11
176.133073
 21
154.470419
  0
LINE
  8
0
  6
DD_CHAIN67372168
 62
9
 10
176.133073
 20
154.470419
 11
176.141183
 21
154.468745
  0
LINE
  8
0
  6
DD_CHAIN67372168
 62
9
 10
176.141183
 20
154.468745
 11
176.150750
 21
154.468157
  0
LINE
  8
0
  6
DD_CHAIN67372168
 62
9
 10
176.150750
 20
154.468157
 11
176.160317
 21
154.468745
  0
LINE
  8
0
  6
DD_CHAIN67372168
 62
9
 10
176.160317
 20
154.468745
 11
176.168428
 21
154.470419
  0
LINE
  8
0
  6
DD_CHAIN67372168
 62
9
 10
176.168428
 20
154.470419
 11
176.173847
 21
154.472925
  0
LINE
  8
0
  6
DD_CHAIN67372168
 62
9
 10
176.173847
 20
154.472925
 11
176.175750
 21
154.475881
  0
ARC
  8
0
  6
DD_CHAIN67372168
 62
9
 10
175.614700
 20
154.952332
 40
0.044788
 50
220.357294
 51
275.521936
  0
ARC
  8
0
  6
DD_CHAIN67372168
 62
9
 10
176.686728
 20
154.952509
 40
0.044958
 50
264.591177
 51
319.529980
  0
ARC
  8
0
  6
DD_CHAIN67372168
 62
9
 10
176.678147
 20
154.479306
 40
0.052801
 50
274.717933
 51
357.770884
  0
ARC
  8
0
  6
DD_CHAIN67372168
 62
9
 10
175.623352
 20
154.479305
 40
0.052801
 50
182.228465
 51
265.282719
  0
ARC
  8
0
  6
DD_CHAIN67372168
 62
9
 10
176.689697
 20
154.441407
 40
0.016392
 50
243.918868
 51
280.974165
  0
ARC
  8
0
  6
DD_CHAIN67372168
 62
9
 10
176.708640
 20
154.469811
 40
0.023479
 50
350.799152
 51
18.476894
  0
LINE
  8
0
  6
DD_CHAIN67372168
 62
9
 10
175.569564
 20
154.466872
 11
175.569487
 21
154.471958
  0
LINE
  8
0
  6
DD_CHAIN67372168
 62
9
 10
175.569487
 20
154.471958
 11
175.570591
 21
154.477252
  0
ARC
  8
0
  6
DD_CHAIN67372168
 62
9
 10
175.611803
 20
154.441407
 40
0.016392
 50
259.025835
 51
296.081132
  0
LINE
  8
0
  6
DD_CHAIN67372168
 62
9
 10
176.225750
 20
154.428329
 11
176.220041
 21
154.419460
  0
LINE
  8
0
  6
DD_CHAIN67372168
 62
9
 10
176.220041
 20
154.419460
 11
176.203783
 21
154.411941
  0
LINE
  8
0
  6
DD_CHAIN67372168
 62
9
 10
176.203783
 20
154.411941
 11
176.179451
 21
154.406917
  0
LINE
  8
0
  6
DD_CHAIN67372168
 62
9
 10
176.179451
 20
154.406917
 11
176.150750
 21
154.405153
  0
LINE
  8
0
  6
DD_CHAIN67372168
 62
9
 10
176.150750
 20
154.405153
 11
176.122049
 21
154.406917
  0
LINE
  8
0
  6
DD_CHAIN67372168
 62
9
 10
176.122049
 20
154.406917
 11
176.097717
 21
154.411941
  0
LINE
  8
0
  6
DD_CHAIN67372168
 62
9
 10
176.097717
 20
154.411941
 11
176.081459
 21
154.419460
  0
LINE
  8
0
  6
DD_CHAIN67372168
 62
9
 10
176.081459
 20
154.419460
 11
176.075750
 21
154.428329
  0
LINE
  8
0
  6
DD_CHAIN67372168
 62
9
 10
162.186508
 20
154.484721
 11
162.279832
 21
154.929984
  0
ARC
  8
0
  6
DD_CHAIN67372168
 62
9
 10
162.454712
 20
154.779961
 40
0.398873
 50
182.297978
 51
227.747174
  0
ARC
  8
0
  6
DD_CHAIN67372168
 62
9
 10
160.750461
 20
154.676421
 40
0.345100
 50
323.298269
 51
357.986716
  0
LINE
  8
0
  6
DD_CHAIN67372168
 62
9
 10
160.949738
 20
154.929984
 11
161.027147
 21
154.470173
  0
ARC
  8
0
  6
DD_CHAIN67372168
 62
9
 10
162.055281
 20
154.948451
 40
0.039741
 50
300.531079
 51
332.310093
  0
LINE
  8
0
  6
DD_CHAIN67372168
 62
9
 10
161.054349
 20
154.909903
 11
161.012865
 21
154.900886
  0
ARC
  8
0
  6
DD_CHAIN67372168
 62
9
 10
161.036401
 20
154.944661
 40
0.049701
 50
197.176321
 51
241.735165
  0
ARC
  8
0
  6
DD_CHAIN67372168
 62
9
 10
161.557628
 20
157.025208
 40
2.649137
 50
259.525724
 51
269.595788
  0
ARC
  8
0
  6
DD_CHAIN67372168
 62
9
 10
160.787936
 20
154.626842
 40
0.354532
 50
324.351118
 51
50.621630
  0
ARC
  8
0
  6
DD_CHAIN67372168
 62
9
 10
162.363562
 20
154.707592
 40
0.354531
 50
144.350882
 51
230.621866
  0
ARC
  8
0
  6
DD_CHAIN67372168
 62
9
 10
161.614633
 20
156.828615
 40
2.451718
 50
271.733888
 51
282.340955
  0
LINE
  8
0
  6
DD_CHAIN67372168
 62
9
 10
161.466324
 20
154.929984
 11
161.466324
 21
154.928725
  0
LINE
  8
0
  6
DD_CHAIN67372168
 62
9
 10
161.587122
 20
154.461612
 11
161.637080
 21
154.462239
  0
LINE
  8
0
  6
DD_CHAIN67372168
 62
9
 10
161.525572
 20
154.929984
 11
161.587122
 21
154.461612
  0
LINE
  8
0
  6
DD_CHAIN67372168
 62
9
 10
161.637080
 20
154.462239
 11
161.575614
 21
154.929984
  0
LINE
  8
0
  6
DD_CHAIN67372168
 62
9
 10
161.537162
 20
154.413432
 11
161.469282
 21
154.929984
  0
LINE
  8
0
  6
DD_CHAIN67372168
 62
9
 10
161.539907
 20
154.417599
 11
161.539725
 21
154.415302
  0
LINE
  8
0
  6
DD_CHAIN67372168
 62
9
 10
161.539725
 20
154.415302
 11
161.539153
 21
154.410516
  0
LINE
  8
0
  6
DD_CHAIN67372168
 62
9
 10
161.539153
 20
154.410516
 11
161.538522
 21
154.408585
  0
LINE
  8
0
  6
DD_CHAIN67372168
 62
9
 10
161.538522
 20
154.408585
 11
161.537852
 21
154.409567
  0
LINE
  8
0
  6
DD_CHAIN67372168
 62
9
 10
161.537852
 20
154.409567
 11
161.537162
 21
154.413432
  0
ARC
  8
0
  6
DD_CHAIN67372168
 62
9
 10
161.586668
 20
154.412091
 40
0.049524
 50
89.475181
 51
178.447574
  0
ARC
  8
0
  6
DD_CHAIN67372168
 62
9
 10
162.079229
 20
154.960064
 40
0.045998
 50
265.312805
 51
319.160064
  0
ARC
  8
0
  6
DD_CHAIN67372168
 62
9
 10
162.133190
 20
154.486622
 40
0.053352
 50
275.857772
 51
357.957778
  0
ARC
  8
0
  6
DD_CHAIN67372168
 62
9
 10
161.008140
 20
154.944502
 40
0.043871
 50
224.848284
 51
276.183171
  0
ARC
  8
0
  6
DD_CHAIN67372168
 62
9
 10
161.079332
 20
154.472341
 40
0.052230
 50
182.378808
 51
266.375662
  0
ARC
  8
0
  6
DD_CHAIN67372168
 62
9
 10
162.164513
 20
154.476064
 40
0.023638
 50
349.769978
 51
21.484161
  0
ARC
  8
0
  6
DD_CHAIN67372168
 62
9
 10
162.146041
 20
154.450154
 40
0.018182
 50
245.964537
 51
282.074551
  0
ARC
  8
0
  6
DD_CHAIN67372168
 62
9
 10
161.069065
 20
154.433140
 40
0.014682
 50
260.144539
 51
298.321157
  0
LINE
  8
0
  6
DD_CHAIN67372168
 62
9
 10
161.027147
 20
154.470173
 11
161.026326
 21
154.464867
  0
LINE
  8
0
  6
DD_CHAIN67372168
 62
9
 10
161.026326
 20
154.464867
 11
161.026439
 21
154.461448
  0
ARC
  8
0
  6
DD_CHAIN67372168
 62
9
 10
161.590343
 20
154.461131
 40
0.003257
 50
171.499444
 51
217.016780
  0
ARC
  8
0
  6
DD_CHAIN67372168
 62
9
 10
153.431679
 20
154.728845
 40
0.373768
 50
317.691268
 51
356.949326
  0
LINE
  8
0
  6
DD_CHAIN67372168
 62
9
 10
153.622435
 20
154.929984
 11
153.708091
 21
154.477252
  0
LINE
  8
0
  6
DD_CHAIN67372168
 62
9
 10
154.868409
 20
154.477252
 11
154.954065
 21
154.929984
  0
ARC
  8
0
  6
DD_CHAIN67372168
 62
9
 10
155.137515
 20
154.725279
 40
0.365972
 50
180.931096
 51
222.665763
  0
ARC
  8
0
  6
DD_CHAIN67372168
 62
9
 10
154.796908
 20
154.947864
 40
0.046280
 50
299.917783
 51
337.272491
  0
ARC
  8
0
  6
DD_CHAIN67372168
 62
9
 10
154.389672
 20
152.853021
 40
2.099307
 50
78.171610
 51
81.633018
  0
ARC
  8
0
  6
DD_CHAIN67372168
 62
9
 10
154.186737
 20
152.853506
 40
2.098814
 50
98.366437
 51
101.828699
  0
ARC
  8
0
  6
DD_CHAIN67372168
 62
9
 10
153.779566
 20
154.947839
 40
0.046246
 50
202.711642
 51
240.093762
  0
ARC
  8
0
  6
DD_CHAIN67372168
 62
9
 10
155.072080
 20
154.667218
 40
0.348434
 50
136.343834
 51
223.656166
  0
ARC
  8
0
  6
DD_CHAIN67372168
 62
9
 10
154.288250
 20
157.145037
 40
2.769872
 50
258.932055
 51
281.067945
  0
ARC
  8
0
  6
DD_CHAIN67372168
 62
9
 10
153.504419
 20
154.667218
 40
0.348434
 50
316.343834
 51
43.656166
  0
LINE
  8
0
  6
DD_CHAIN67372168
 62
9
 10
154.263250
 20
154.929984
 11
154.263250
 21
154.475881
  0
ARC
  8
0
  6
DD_CHAIN67372168
 62
9
 10
154.262055
 20
154.427076
 40
0.048820
 50
88.597017
 51
178.529432
  0
ARC
  8
0
  6
DD_CHAIN67372168
 62
9
 10
154.314445
 20
154.427074
 40
0.048822
 50
1.472306
 51
91.402950
  0
LINE
  8
0
  6
DD_CHAIN67372168
 62
9
 10
154.313249
 20
154.475881
 11
154.313249
 21
154.929984
  0
LINE
  8
0
  6
DD_CHAIN67372168
 62
9
 10
154.263250
 20
154.475881
 11
154.265153
 21
154.472925
  0
LINE
  8
0
  6
DD_CHAIN67372168
 62
9
 10
154.265153
 20
154.472925
 11
154.270572
 21
154.470419
  0
LINE
  8
0
  6
DD_CHAIN67372168
 62
9
 10
154.270572
 20
154.470419
 11
154.278683
 21
154.468745
  0
LINE
  8
0
  6
DD_CHAIN67372168
 62
9
 10
154.278683
 20
154.468745
 11
154.288250
 21
154.468157
  0
LINE
  8
0
  6
DD_CHAIN67372168
 62
9
 10
154.288250
 20
154.468157
 11
154.297818
 21
154.468745
  0
LINE
  8
0
  6
DD_CHAIN67372168
 62
9
 10
154.297818
 20
154.468745
 11
154.305928
 21
154.470419
  0
LINE
  8
0
  6
DD_CHAIN67372168
 62
9
 10
154.305928
 20
154.470419
 11
154.311347
 21
154.472925
  0
LINE
  8
0
  6
DD_CHAIN67372168
 62
9
 10
154.311347
 20
154.472925
 11
154.313249
 21
154.475881
  0
ARC
  8
0
  6
DD_CHAIN67372168
 62
9
 10
153.752199
 20
154.952331
 40
0.044788
 50
220.356866
 51
275.521978
  0
ARC
  8
0
  6
DD_CHAIN67372168
 62
9
 10
154.824228
 20
154.952509
 40
0.044958
 50
264.591411
 51
319.529745
  0
ARC
  8
0
  6
DD_CHAIN67372168
 62
9
 10
153.760853
 20
154.479307
 40
0.052802
 50
182.230001
 51
265.281182
  0
ARC
  8
0
  6
DD_CHAIN67372168
 62
9
 10
154.815648
 20
154.479305
 40
0.052800
 50
274.717048
 51
357.771769
  0
LINE
  8
0
  6
DD_CHAIN67372168
 62
9
 10
153.707064
 20
154.466872
 11
153.706987
 21
154.471958
  0
LINE
  8
0
  6
DD_CHAIN67372168
 62
9
 10
153.706987
 20
154.471958
 11
153.708091
 21
154.477252
  0
ARC
  8
0
  6
DD_CHAIN67372168
 62
9
 10
153.749303
 20
154.441404
 40
0.016389
 50
259.024202
 51
296.083843
  0
ARC
  8
0
  6
DD_CHAIN67372168
 62
9
 10
154.827198
 20
154.441410
 40
0.016395
 50
243.921578
 51
280.972532
  0
ARC
  8
0
  6
DD_CHAIN67372168
 62
9
 10
154.846198
 20
154.469818
 40
0.023422
 50
350.760811
 51
18.507659
  0
LINE
  8
0
  6
DD_CHAIN67372168
 62
9
 10
154.363250
 20
154.428329
 11
154.357542
 21
154.419460
  0
LINE
  8
0
  6
DD_CHAIN67372168
 62
9
 10
154.357542
 20
154.419460
 11
154.341283
 21
154.411941
  0
LINE
  8
0
  6
DD_CHAIN67372168
 62
9
 10
154.341283
 20
154.411941
 11
154.316951
 21
154.406917
  0
LINE
  8
0
  6
DD_CHAIN67372168
 62
9
 10
154.316951
 20
154.406917
 11
154.288250
 21
154.405153
  0
LINE
  8
0
  6
DD_CHAIN67372168
 62
9
 10
154.288250
 20
154.405153
 11
154.259549
 21
154.406917
  0
LINE
  8
0
  6
DD_CHAIN67372168
 62
9
 10
154.259549
 20
154.406917
 11
154.235216
 21
154.411941
  0
LINE
  8
0
  6
DD_CHAIN67372168
 62
9
 10
154.235216
 20
154.411941
 11
154.218959
 21
154.419460
  0
LINE
  8
0
  6
DD_CHAIN67372168
 62
9
 10
154.218959
 20
154.419460
 11
154.213251
 21
154.428329
  0
LINE
  8
0
  6
DD_CHAIN67372168
 62
9
 10
147.596700
 20
154.481028
 11
147.686357
 21
154.929984
  0
ARC
  8
0
  6
DD_CHAIN67372168
 62
9
 10
147.865184
 20
154.752777
 40
0.382010
 50
181.587819
 51
225.346205
  0
ARC
  8
0
  6
DD_CHAIN67372168
 62
9
 10
146.160246
 20
154.701554
 40
0.358277
 50
320.482698
 51
357.500163
  0
LINE
  8
0
  6
DD_CHAIN67372168
 62
9
 10
146.355129
 20
154.929984
 11
146.436633
 21
154.473578
  0
LINE
  8
0
  6
DD_CHAIN67372168
 62
9
 10
146.943430
 20
154.427904
 11
146.909660
 21
154.929984
  0
LINE
  8
0
  6
DD_CHAIN67372168
 62
9
 10
146.943430
 20
154.427904
 11
146.943430
 21
154.404128
  0
ARC
  8
0
  6
DD_CHAIN67372168
 62
9
 10
147.495430
 20
154.947470
 40
0.041872
 50
299.739681
 51
335.316505
  0
ARC
  8
0
  6
DD_CHAIN67372168
 62
9
 10
147.094745
 20
152.808367
 40
2.144566
 50
78.666303
 51
81.610315
  0
ARC
  8
0
  6
DD_CHAIN67372168
 62
9
 10
146.891510
 20
152.898946
 40
2.052733
 50
98.337612
 51
102.336168
  0
ARC
  8
0
  6
DD_CHAIN67372168
 62
9
 10
146.476327
 20
154.946323
 40
0.048102
 50
199.857051
 51
240.922340
  0
ARC
  8
0
  6
DD_CHAIN67372168
 62
9
 10
147.785627
 20
154.687665
 40
0.350028
 50
140.329361
 51
227.366319
  0
LINE
  8
0
  6
DD_CHAIN67372168
 62
9
 10
146.485300
 20
154.423321
 11
146.608887
 21
154.402277
  0
LINE
  8
0
  6
DD_CHAIN67372168
 62
9
 10
146.608887
 20
154.402277
 11
146.695497
 21
154.391611
  0
LINE
  8
0
  6
DD_CHAIN67372168
 62
9
 10
147.465991
 20
154.413864
 11
147.548550
 21
154.430150
  0
ARC
  8
0
  6
DD_CHAIN67372168
 62
9
 10
146.215875
 20
154.646768
 40
0.350027
 50
320.329426
 51
47.366608
  0
ARC
  8
0
  6
DD_CHAIN67372168
 62
9
 10
147.044385
 20
154.426388
 40
0.049720
 50
25.969964
 51
91.125702
  0
LINE
  8
0
  6
DD_CHAIN67372168
 62
9
 10
147.043408
 20
154.476099
 11
147.012880
 21
154.929984
  0
LINE
  8
0
  6
DD_CHAIN67372168
 62
9
 10
146.962869
 20
154.929984
 11
146.993419
 21
154.475779
  0
ARC
  8
0
  6
DD_CHAIN67372168
 62
9
 10
146.992598
 20
154.426600
 40
0.049185
 50
89.043540
 51
178.480934
  0
LINE
  8
0
  6
DD_CHAIN67372168
 62
9
 10
146.993419
 20
154.475779
 11
146.995520
 21
154.472834
  0
LINE
  8
0
  6
DD_CHAIN67372168
 62
9
 10
146.995520
 20
154.472834
 11
147.001107
 21
154.470364
  0
LINE
  8
0
  6
DD_CHAIN67372168
 62
9
 10
147.001107
 20
154.470364
 11
147.009328
 21
154.468741
  0
LINE
  8
0
  6
DD_CHAIN67372168
 62
9
 10
147.009328
 20
154.468741
 11
147.018933
 21
154.468215
  0
LINE
  8
0
  6
DD_CHAIN67372168
 62
9
 10
147.018933
 20
154.468215
 11
147.028458
 21
154.468865
  0
LINE
  8
0
  6
DD_CHAIN67372168
 62
9
 10
147.028458
 20
154.468865
 11
147.036455
 21
154.470590
  0
LINE
  8
0
  6
DD_CHAIN67372168
 62
9
 10
147.036455
 20
154.470590
 11
147.041703
 21
154.473131
  0
LINE
  8
0
  6
DD_CHAIN67372168
 62
9
 10
147.041703
 20
154.473131
 11
147.043408
 21
154.476099
  0
ARC
  8
0
  6
DD_CHAIN67372168
 62
9
 10
147.520174
 20
154.956421
 40
0.045482
 50
264.988493
 51
321.968312
  0
ARC
  8
0
  6
DD_CHAIN67372168
 62
9
 10
146.448394
 20
154.948297
 40
0.044248
 50
222.666230
 51
275.909211
  0
ARC
  8
0
  6
DD_CHAIN67372168
 62
9
 10
147.543649
 20
154.483011
 40
0.053088
 50
275.296650
 51
357.859738
  0
ARC
  8
0
  6
DD_CHAIN67372168
 62
9
 10
146.489105
 20
154.475698
 40
0.052515
 50
182.313503
 51
265.844891
  0
ARC
  8
0
  6
DD_CHAIN67372168
 62
9
 10
147.555865
 20
154.445839
 40
0.017311
 50
245.002789
 51
281.524204
  0
ARC
  8
0
  6
DD_CHAIN67372168
 62
9
 10
147.574597
 20
154.472968
 40
0.023527
 50
350.239182
 51
20.035944
  0
ARC
  8
0
  6
DD_CHAIN67372168
 62
9
 10
146.478208
 20
154.437141
 40
0.015534
 50
259.645292
 51
297.163564
  0
LINE
  8
0
  6
DD_CHAIN67372168
 62
9
 10
146.435773
 20
154.464069
 11
146.435673
 21
154.468276
  0
LINE
  8
0
  6
DD_CHAIN67372168
 62
9
 10
146.435673
 20
154.468276
 11
146.436633
 21
154.473578
  0
ARC
  8
0
  6
DD_CHAIN67372168
 62
9
 10
147.020331
 20
154.527342
 40
0.125704
 50
232.283226
 51
304.856597
  0
LINE
  8
0
  6
DD_CHAIN67372168
 62
9
 10
159.351930
 20
152.455716
 11
159.399013
 21
152.762612
  0
LINE
  8
0
  6
DD_CHAIN67372168
 62
9
 10
159.399013
 20
152.762612
 11
159.399013
 21
152.762615
  0
LINE
  8
0
  6
DD_CHAIN67372168
 62
9
 10
159.399013
 20
152.762615
 11
159.399013
 21
152.762617
  0
LINE
  8
0
  6
DD_CHAIN67372168
 62
9
 10
159.399013
 20
152.762617
 11
159.670659
 21
154.027942
  0
ARC
  8
0
  6
DD_CHAIN67372168
 62
9
 10
-190.568397
 20
228.867432
 40
358.525326
 50
347.674542
 51
347.951327
  0
ARC
  8
0
  6
DD_CHAIN67372168
 62
9
 10
158.149223
 20
148.512401
 40
4.122649
 50
68.005673
 51
73.038354
  0
LINE
  8
0
  6
DD_CHAIN67372168
 62
9
 10
150.937844
 20
153.184308
 11
151.151116
 21
153.170224
  0
LINE
  8
0
  6
DD_CHAIN67372168
 62
9
 10
151.151116
 20
153.170224
 11
151.192712
 21
153.168096
  0
LINE
  8
0
  6
DD_CHAIN67372168
 62
9
 10
151.192712
 20
153.168096
 11
151.192715
 21
153.168096
  0
ARC
  8
0
  6
DD_CHAIN67372168
 62
9
 10
164.547285
 20
261.955845
 40
109.604375
 50
263.001498
 51
267.117958
  0
ARC
  8
0
  6
DD_CHAIN67372168
 62
9
 10
159.546038
 20
155.701937
 40
3.252019
 50
260.983528
 51
266.578057
  0
ARC
  8
0
  6
DD_CHAIN67372168
 62
9
 10
163.398730
 20
152.606987
 40
4.049627
 50
182.140736
 51
187.262246
  0
ARC
  8
0
  6
DD_CHAIN67372168
 62
9
 10
163.882863
 20
254.335605
 40
102.339575
 50
262.684553
 51
267.479106
  0
ARC
  8
0
  6
DD_CHAIN67372168
 62
9
 10
147.025854
 20
153.944222
 40
3.985114
 50
343.749807
 51
349.007057
  0
LINE
  8
0
  6
DD_CHAIN67372168
 62
9
 10
159.162668
 20
153.400486
 11
159.149144
 21
153.348269
  0
LINE
  8
0
  6
DD_CHAIN67372168
 62
9
 10
159.149144
 20
153.348269
 11
159.074555
 21
153.186809
  0
LINE
  8
0
  6
DD_CHAIN67372168
 62
9
 10
159.074555
 20
153.186809
 11
159.074553
 21
153.186806
  0
LINE
  8
0
  6
DD_CHAIN67372168
 62
9
 10
159.074553
 20
153.186806
 11
159.074552
 21
153.186803
  0
LINE
  8
0
  6
DD_CHAIN67372168
 62
9
 10
159.074552
 20
153.186803
 11
159.046477
 21
153.137736
  0
LINE
  8
0
  6
DD_CHAIN67372168
 62
9
 10
159.046477
 20
153.137736
 11
158.980682
 21
153.057482
  0
LINE
  8
0
  6
DD_CHAIN67372168
 62
9
 10
158.980682
 20
153.057482
 11
158.897664
 21
152.988561
  0
LINE
  8
0
  6
DD_CHAIN67372168
 62
9
 10
158.897664
 20
152.988561
 11
158.746255
 21
152.916535
  0
LINE
  8
0
  6
DD_CHAIN67372168
 62
9
 10
158.746255
 20
152.916535
 11
158.714946
 21
152.908920
  0
LINE
  8
0
  6
DD_CHAIN67372168
 62
9
 10
158.714946
 20
152.908920
 11
158.714943
 21
152.908920
  0
LINE
  8
0
  6
DD_CHAIN67372168
 62
9
 10
158.714943
 20
152.908920
 11
158.714941
 21
152.908920
  0
LINE
  8
0
  6
DD_CHAIN67372168
 62
9
 10
158.714941
 20
152.908920
 11
158.600042
 21
152.883171
  0
LINE
  8
0
  6
DD_CHAIN67372168
 62
9
 10
158.600042
 20
152.883171
 11
158.477992
 21
152.878754
  0
ARC
  8
0
  6
DD_CHAIN67372168
 62
9
 10
393.008988
 20
139.231829
 40
234.927705
 50
176.601885
 51
176.669820
  0
ARC
  8
0
  6
DD_CHAIN67372168
 62
9
 10
158.511917
 20
153.545238
 40
0.388811
 50
267.408614
 51
347.158546
  0
LINE
  8
0
  6
DD_CHAIN67372168
 62
9
 10
159.162668
 20
153.400486
 11
159.112863
 21
153.411179
  0
LINE
  8
0
  6
DD_CHAIN67372168
 62
9
 10
159.112863
 20
153.411179
 11
159.065689
 21
153.421305
  0
LINE
  8
0
  6
DD_CHAIN67372168
 62
9
 10
159.065689
 20
153.421305
 11
159.022223
 21
153.430640
  0
LINE
  8
0
  6
DD_CHAIN67372168
 62
9
 10
159.022223
 20
153.430640
 11
158.983453
 21
153.438963
  0
LINE
  8
0
  6
DD_CHAIN67372168
 62
9
 10
158.983453
 20
153.438963
 11
158.950264
 21
153.446092
  0
LINE
  8
0
  6
DD_CHAIN67372168
 62
9
 10
158.950264
 20
153.446092
 11
158.923411
 21
153.451859
  0
LINE
  8
0
  6
DD_CHAIN67372168
 62
9
 10
158.923411
 20
153.451859
 11
158.903507
 21
153.456135
  0
LINE
  8
0
  6
DD_CHAIN67372168
 62
9
 10
158.903507
 20
153.456135
 11
158.891004
 21
153.458824
  0
ARC
  8
0
  6
DD_CHAIN67372168
 62
9
 10
165.210261
 20
268.174738
 40
115.492369
 50
263.292572
 51
266.658226
  0
LINE
  8
0
  6
DD_CHAIN67372168
 62
9
 10
151.720811
 20
153.472855
 11
151.726754
 21
153.523465
  0
LINE
  8
0
  6
DD_CHAIN67372168
 62
9
 10
151.726754
 20
153.523465
 11
151.732383
 21
153.571399
  0
LINE
  8
0
  6
DD_CHAIN67372168
 62
9
 10
151.732383
 20
153.571399
 11
151.737570
 21
153.615566
  0
LINE
  8
0
  6
DD_CHAIN67372168
 62
9
 10
151.737570
 20
153.615566
 11
151.742197
 21
153.654953
  0
LINE
  8
0
  6
DD_CHAIN67372168
 62
9
 10
151.742197
 20
153.654953
 11
151.746156
 21
153.688668
  0
LINE
  8
0
  6
DD_CHAIN67372168
 62
9
 10
151.746156
 20
153.688668
 11
151.749360
 21
153.715939
  0
LINE
  8
0
  6
DD_CHAIN67372168
 62
9
 10
151.749360
 20
153.715939
 11
151.751734
 21
153.736145
  0
LINE
  8
0
  6
DD_CHAIN67372168
 62
9
 10
151.751734
 20
153.736145
 11
151.753225
 21
153.748824
  0
ARC
  8
0
  6
DD_CHAIN67372168
 62
9
 10
165.224687
 20
268.472118
 40
115.511534
 50
263.302674
 51
266.659735
  0
ARC
  8
0
  6
DD_CHAIN67372168
 62
9
 10
152.016545
 20
149.454148
 40
3.883001
 50
106.128993
 51
111.521744
  0
LINE
  8
0
  6
DD_CHAIN67372168
 62
9
 10
150.592049
 20
153.066419
 11
150.489877
 21
153.526233
  0
LINE
  8
0
  6
DD_CHAIN67372168
 62
9
 10
150.489877
 20
153.526233
 11
150.389437
 21
153.986931
  0
LINE
  8
0
  6
DD_CHAIN67372168
 62
9
 10
150.389437
 20
153.986931
 11
150.380495
 21
154.027942
  0
LINE
  8
0
  6
DD_CHAIN67372168
 62
9
 10
150.770302
 20
154.027942
 11
150.897213
 21
153.445824
  0
LINE
  8
0
  6
DD_CHAIN67372168
 62
9
 10
150.897213
 20
153.445824
 11
150.897215
 21
153.445821
  0
LINE
  8
0
  6
DD_CHAIN67372168
 62
9
 10
150.897215
 20
153.445821
 11
150.897215
 21
153.445818
  0
LINE
  8
0
  6
DD_CHAIN67372168
 62
9
 10
150.897215
 20
153.445818
 11
150.937844
 21
153.184308
  0
ARC
  8
0
  6
DD_CHAIN67372168
 62
9
 10
159.385819
 20
152.411912
 40
0.316871
 50
269.235231
 51
345.954101
  0
LINE
  8
0
  6
DD_CHAIN67372168
 62
9
 10
151.522816
 20
153.529020
 11
151.522813
 21
153.529020
  0
LINE
  8
0
  6
DD_CHAIN67372168
 62
9
 10
151.522813
 20
153.529020
 11
151.456807
 21
153.558614
  0
LINE
  8
0
  6
DD_CHAIN67372168
 62
9
 10
151.456807
 20
153.558614
 11
151.370918
 21
153.616362
  0
LINE
  8
0
  6
DD_CHAIN67372168
 62
9
 10
151.370918
 20
153.616362
 11
151.297807
 21
153.688102
  0
LINE
  8
0
  6
DD_CHAIN67372168
 62
9
 10
151.297807
 20
153.688102
 11
151.239362
 21
153.772074
  0
LINE
  8
0
  6
DD_CHAIN67372168
 62
9
 10
151.239362
 20
153.772074
 11
151.223300
 21
153.803936
  0
LINE
  8
0
  6
DD_CHAIN67372168
 62
9
 10
151.223300
 20
153.803936
 11
151.223298
 21
153.803937
  0
LINE
  8
0
  6
DD_CHAIN67372168
 62
9
 10
151.720811
 20
153.472855
 11
151.674351
 21
153.480040
  0
LINE
  8
0
  6
DD_CHAIN67372168
 62
9
 10
151.674351
 20
153.480040
 11
151.522819
 21
153.529017
  0
LINE
  8
0
  6
DD_CHAIN67372168
 62
9
 10
151.522819
 20
153.529017
 11
151.522816
 21
153.529020
  0
LINE
  8
0
  6
DD_CHAIN67372168
 62
9
 10
159.297407
 20
154.027942
 11
159.162668
 21
153.400486
  0
LINE
  8
0
  6
DD_CHAIN67372168
 62
9
 10
151.152513
 20
153.988217
 11
151.143853
 21
154.027942
  0
LINE
  8
0
  6
DD_CHAIN67372168
 62
9
 10
151.223298
 20
153.803937
 11
151.223297
 21
153.803940
  0
LINE
  8
0
  6
DD_CHAIN67372168
 62
9
 10
151.223297
 20
153.803940
 11
151.152513
 21
153.988217
  0
ARC
  8
0
  6
DD_CHAIN67372168
 62
9
 10
150.899932
 20
153.142529
 40
0.317150
 50
193.885337
 51
261.263347
  0
LINE
  8
0
  6
DD_CHAIN67372168
 62
9
 10
151.152513
 20
153.988217
 11
151.202335
 21
153.999080
  0
LINE
  8
0
  6
DD_CHAIN67372168
 62
9
 10
151.202335
 20
153.999080
 11
151.249521
 21
154.009368
  0
LINE
  8
0
  6
DD_CHAIN67372168
 62
9
 10
151.249521
 20
154.009368
 11
151.292997
 21
154.018845
  0
LINE
  8
0
  6
DD_CHAIN67372168
 62
9
 10
151.292997
 20
154.018845
 11
151.331768
 21
154.027298
  0
LINE
  8
0
  6
DD_CHAIN67372168
 62
9
 10
151.331768
 20
154.027298
 11
151.334720
 21
154.027942
  0
ARC
  8
0
  6
DD_CHAIN67372168
 62
9
 10
151.799074
 20
154.125740
 40
0.379694
 50
194.925933
 51
263.064598
  0
LINE
  8
0
  6
DD_CHAIN67372168
 62
9
 10
158.891004
 20
153.458824
 11
159.013178
 21
154.027942
  0
LINE
  8
0
  6
DD_CHAIN67372168
 62
9
 10
150.592049
 20
153.066419
 11
150.572682
 21
153.062196
  0
LINE
  8
0
  6
DD_CHAIN67372168
 62
9
 10
150.572682
 20
153.062196
 11
150.558814
 21
153.059174
  0
LINE
  8
0
  6
DD_CHAIN67372168
 62
9
 10
150.558814
 20
153.059174
 11
150.550480
 21
153.057356
  0
LINE
  8
0
  6
DD_CHAIN67372168
 62
9
 10
150.550480
 20
153.057356
 11
150.547699
 21
153.056749
  0
LINE
  8
0
  6
DD_CHAIN67372168
 62
9
 10
159.381590
 20
152.095069
 11
159.380648
 21
152.075048
  0
LINE
  8
0
  6
DD_CHAIN67372168
 62
9
 10
159.380648
 20
152.075048
 11
159.379973
 21
152.060710
  0
LINE
  8
0
  6
DD_CHAIN67372168
 62
9
 10
159.379973
 20
152.060710
 11
159.379567
 21
152.052094
  0
LINE
  8
0
  6
DD_CHAIN67372168
 62
9
 10
159.379567
 20
152.052094
 11
159.379432
 21
152.049218
  0
LINE
  8
0
  6
DD_CHAIN67372168
 62
9
 10
150.851759
 20
152.829059
 11
150.849291
 21
152.809395
  0
LINE
  8
0
  6
DD_CHAIN67372168
 62
9
 10
150.849291
 20
152.809395
 11
150.847525
 21
152.795314
  0
LINE
  8
0
  6
DD_CHAIN67372168
 62
9
 10
150.847525
 20
152.795314
 11
150.846464
 21
152.786850
  0
LINE
  8
0
  6
DD_CHAIN67372168
 62
9
 10
150.846464
 20
152.786850
 11
150.846110
 21
152.784024
  0
LINE
  8
0
  6
DD_CHAIN67372168
 62
9
 10
151.753225
 20
153.748824
 11
151.754891
 21
153.763014
  0
LINE
  8
0
  6
DD_CHAIN67372168
 62
9
 10
151.754891
 20
153.763014
 11
151.756083
 21
153.773168
  0
LINE
  8
0
  6
DD_CHAIN67372168
 62
9
 10
151.756083
 20
153.773168
 11
151.756800
 21
153.779267
  0
LINE
  8
0
  6
DD_CHAIN67372168
 62
9
 10
151.756800
 20
153.779267
 11
151.757039
 21
153.781303
  0
LINE
  8
0
  6
DD_CHAIN67372168
 62
9
 10
158.494338
 20
153.156825
 11
158.495178
 21
153.171222
  0
LINE
  8
0
  6
DD_CHAIN67372168
 62
9
 10
158.495178
 20
153.171222
 11
158.495778
 21
153.181525
  0
LINE
  8
0
  6
DD_CHAIN67372168
 62
9
 10
158.495778
 20
153.181525
 11
158.496139
 21
153.187715
  0
LINE
  8
0
  6
DD_CHAIN67372168
 62
9
 10
158.496139
 20
153.187715
 11
158.496259
 21
153.189780
  0
LINE
  8
0
  6
DD_CHAIN67372168
 62
9
 10
159.693216
 20
152.335008
 11
159.712812
 21
152.330800
  0
LINE
  8
0
  6
DD_CHAIN67372168
 62
9
 10
159.712812
 20
152.330800
 11
159.726843
 21
152.327790
  0
LINE
  8
0
  6
DD_CHAIN67372168
 62
9
 10
159.726843
 20
152.327790
 11
159.735276
 21
152.325978
  0
LINE
  8
0
  6
DD_CHAIN67372168
 62
9
 10
159.735276
 20
152.325978
 11
159.738089
 21
152.325376
  0
LINE
  8
0
  6
DD_CHAIN67372168
 62
9
 10
158.891004
 20
153.458824
 11
158.876945
 21
153.461840
  0
LINE
  8
0
  6
DD_CHAIN67372168
 62
9
 10
158.876945
 20
153.461840
 11
158.866886
 21
153.464000
  0
LINE
  8
0
  6
DD_CHAIN67372168
 62
9
 10
158.866886
 20
153.464000
 11
158.860842
 21
153.465297
  0
LINE
  8
0
  6
DD_CHAIN67372168
 62
9
 10
158.860842
 20
153.465297
 11
158.858827
 21
153.465729
  0
LINE
  8
0
  6
DD_CHAIN67372168
 62
9
 10
163.475538
 20
154.027942
 11
163.747183
 21
152.762617
  0
LINE
  8
0
  6
DD_CHAIN67372168
 62
9
 10
163.747183
 20
152.762617
 11
163.747183
 21
152.762615
  0
LINE
  8
0
  6
DD_CHAIN67372168
 62
9
 10
163.747183
 20
152.762615
 11
163.747184
 21
152.762612
  0
LINE
  8
0
  6
DD_CHAIN67372168
 62
9
 10
163.747184
 20
152.762612
 11
163.794267
 21
152.455716
  0
ARC
  8
0
  6
DD_CHAIN67372168
 62
9
 10
164.996982
 20
148.512374
 40
4.122678
 50
106.961642
 51
111.994293
  0
ARC
  8
0
  6
DD_CHAIN67372168
 62
9
 10
414.548307
 20
207.450355
 40
257.073072
 50
191.994057
 51
192.380074
  0
ARC
  8
0
  6
DD_CHAIN67372168
 62
9
 10
157.921373
 20
268.473683
 40
115.513104
 50
273.340287
 51
276.697303
  0
LINE
  8
0
  6
DD_CHAIN67372168
 62
9
 10
171.392971
 20
153.748824
 11
171.394462
 21
153.736145
  0
LINE
  8
0
  6
DD_CHAIN67372168
 62
9
 10
171.394462
 20
153.736145
 11
171.396836
 21
153.715939
  0
LINE
  8
0
  6
DD_CHAIN67372168
 62
9
 10
171.396836
 20
153.715939
 11
171.400040
 21
153.688668
  0
LINE
  8
0
  6
DD_CHAIN67372168
 62
9
 10
171.400040
 20
153.688668
 11
171.404000
 21
153.654953
  0
LINE
  8
0
  6
DD_CHAIN67372168
 62
9
 10
171.404000
 20
153.654953
 11
171.408626
 21
153.615566
  0
LINE
  8
0
  6
DD_CHAIN67372168
 62
9
 10
171.408626
 20
153.615566
 11
171.413813
 21
153.571399
  0
LINE
  8
0
  6
DD_CHAIN67372168
 62
9
 10
171.413813
 20
153.571399
 11
171.419443
 21
153.523465
  0
LINE
  8
0
  6
DD_CHAIN67372168
 62
9
 10
171.419443
 20
153.523465
 11
171.425386
 21
153.472855
  0
ARC
  8
0
  6
DD_CHAIN67372168
 62
9
 10
157.935832
 20
268.175925
 40
115.493560
 50
273.341791
 51
276.707410
  0
ARC
  8
0
  6
DD_CHAIN67372168
 62
9
 10
-67.594964
 20
139.364827
 40
232.655982
 50
3.329925
 51
3.398523
  0
ARC
  8
0
  6
DD_CHAIN67372168
 62
9
 10
165.058165
 20
153.718620
 40
1.120737
 50
196.490819
 51
208.328210
  0
LINE
  8
0
  6
DD_CHAIN67372168
 62
9
 10
164.255192
 20
153.458824
 11
164.242690
 21
153.456135
  0
LINE
  8
0
  6
DD_CHAIN67372168
 62
9
 10
164.242690
 20
153.456135
 11
164.222786
 21
153.451859
  0
LINE
  8
0
  6
DD_CHAIN67372168
 62
9
 10
164.222786
 20
153.451859
 11
164.195933
 21
153.446092
  0
LINE
  8
0
  6
DD_CHAIN67372168
 62
9
 10
164.195933
 20
153.446092
 11
164.162743
 21
153.438963
  0
LINE
  8
0
  6
DD_CHAIN67372168
 62
9
 10
164.162743
 20
153.438963
 11
164.123974
 21
153.430640
  0
LINE
  8
0
  6
DD_CHAIN67372168
 62
9
 10
164.123974
 20
153.430640
 11
164.080507
 21
153.421305
  0
LINE
  8
0
  6
DD_CHAIN67372168
 62
9
 10
164.080507
 20
153.421305
 11
164.033333
 21
153.411179
  0
LINE
  8
0
  6
DD_CHAIN67372168
 62
9
 10
164.033333
 20
153.411179
 11
163.983529
 21
153.400486
  0
ARC
  8
0
  6
DD_CHAIN67372168
 62
9
 10
164.635553
 20
153.546911
 40
0.390427
 50
193.039260
 51
272.393580
  0
LINE
  8
0
  6
DD_CHAIN67372168
 62
9
 10
164.668205
 20
152.878754
 11
164.489949
 21
152.893062
  0
LINE
  8
0
  6
DD_CHAIN67372168
 62
9
 10
164.489949
 20
152.893062
 11
164.431256
 21
152.908920
  0
LINE
  8
0
  6
DD_CHAIN67372168
 62
9
 10
164.431256
 20
152.908920
 11
164.431253
 21
152.908920
  0
ARC
  8
0
  6
DD_CHAIN67372168
 62
9
 10
164.543278
 20
153.425518
 40
0.528605
 50
206.845717
 51
257.764809
  0
LINE
  8
0
  6
DD_CHAIN67372168
 62
9
 10
163.794267
 20
152.455716
 11
164.005274
 21
152.477171
  0
LINE
  8
0
  6
DD_CHAIN67372168
 62
9
 10
164.005274
 20
152.477171
 11
164.109807
 21
152.490102
  0
LINE
  8
0
  6
DD_CHAIN67372168
 62
9
 10
164.109807
 20
152.490102
 11
164.109810
 21
152.490102
  0
ARC
  8
0
  6
DD_CHAIN67372168
 62
9
 10
158.598070
 20
261.965596
 40
109.614155
 50
272.882225
 51
276.998318
  0
ARC
  8
0
  6
DD_CHAIN67372168
 62
9
 10
171.699584
 20
159.170999
 40
6.008270
 50
272.421934
 51
274.857509
  0
ARC
  8
0
  6
DD_CHAIN67372168
 62
9
 10
176.120324
 20
153.944226
 40
3.985098
 50
190.993044
 51
196.250318
  0
ARC
  8
0
  6
DD_CHAIN67372168
 62
9
 10
159.189353
 20
255.195355
 40
103.201754
 50
272.540932
 51
277.295407
  0
ARC
  8
0
  6
DD_CHAIN67372168
 62
9
 10
159.747484
 20
152.606989
 40
4.049609
 50
352.737683
 51
357.859217
  0
ARC
  8
0
  6
DD_CHAIN67372168
 62
9
 10
-7.885689
 20
193.270926
 40
184.864644
 50
347.438890
 51
347.744027
  0
ARC
  8
0
  6
DD_CHAIN67372168
 62
9
 10
171.129737
 20
149.454401
 40
3.882734
 50
68.478062
 51
73.871182
  0
LINE
  8
0
  6
DD_CHAIN67372168
 62
9
 10
172.208352
 20
153.184308
 11
172.248982
 21
153.445818
  0
LINE
  8
0
  6
DD_CHAIN67372168
 62
9
 10
172.248982
 20
153.445818
 11
172.248982
 21
153.445821
  0
LINE
  8
0
  6
DD_CHAIN67372168
 62
9
 10
172.248982
 20
153.445821
 11
172.248983
 21
153.445824
  0
LINE
  8
0
  6
DD_CHAIN67372168
 62
9
 10
172.248983
 20
153.445824
 11
172.375895
 21
154.027942
  0
LINE
  8
0
  6
DD_CHAIN67372168
 62
9
 10
171.623380
 20
153.529020
 11
171.623377
 21
153.529017
  0
LINE
  8
0
  6
DD_CHAIN67372168
 62
9
 10
171.623377
 20
153.529017
 11
171.425386
 21
153.472855
  0
ARC
  8
0
  6
DD_CHAIN67372168
 62
9
 10
171.346000
 20
154.128586
 40
0.382656
 50
277.050852
 51
344.751044
  0
LINE
  8
0
  6
DD_CHAIN67372168
 62
9
 10
171.811477
 20
154.027942
 11
171.814429
 21
154.027298
  0
LINE
  8
0
  6
DD_CHAIN67372168
 62
9
 10
171.814429
 20
154.027298
 11
171.853199
 21
154.018845
  0
LINE
  8
0
  6
DD_CHAIN67372168
 62
9
 10
171.853199
 20
154.018845
 11
171.896674
 21
154.009368
  0
LINE
  8
0
  6
DD_CHAIN67372168
 62
9
 10
171.896674
 20
154.009368
 11
171.943861
 21
153.999080
  0
LINE
  8
0
  6
DD_CHAIN67372168
 62
9
 10
171.943861
 20
153.999080
 11
171.993683
 21
153.988217
  0
LINE
  8
0
  6
DD_CHAIN67372168
 62
9
 10
171.993683
 20
153.988217
 11
171.936387
 21
153.828845
  0
LINE
  8
0
  6
DD_CHAIN67372168
 62
9
 10
171.936387
 20
153.828845
 11
171.922899
 21
153.803940
  0
LINE
  8
0
  6
DD_CHAIN67372168
 62
9
 10
171.922899
 20
153.803940
 11
171.922898
 21
153.803937
  0
LINE
  8
0
  6
DD_CHAIN67372168
 62
9
 10
171.922898
 20
153.803937
 11
171.922896
 21
153.803936
  0
LINE
  8
0
  6
DD_CHAIN67372168
 62
9
 10
171.922896
 20
153.803936
 11
171.876678
 21
153.724344
  0
LINE
  8
0
  6
DD_CHAIN67372168
 62
9
 10
171.876678
 20
153.724344
 11
171.816941
 21
153.654068
  0
LINE
  8
0
  6
DD_CHAIN67372168
 62
9
 10
171.816941
 20
153.654068
 11
171.738747
 21
153.588836
  0
LINE
  8
0
  6
DD_CHAIN67372168
 62
9
 10
171.738747
 20
153.588836
 11
171.649874
 21
153.539427
  0
LINE
  8
0
  6
DD_CHAIN67372168
 62
9
 10
171.649874
 20
153.539427
 11
171.623383
 21
153.529020
  0
LINE
  8
0
  6
DD_CHAIN67372168
 62
9
 10
171.623383
 20
153.529020
 11
171.623380
 21
153.529020
  0
ARC
  8
0
  6
DD_CHAIN67372168
 62
9
 10
163.760377
 20
152.411912
 40
0.316871
 50
194.045930
 51
270.764737
  0
LINE
  8
0
  6
DD_CHAIN67372168
 62
9
 10
163.983529
 20
153.400486
 11
163.848790
 21
154.027942
  0
LINE
  8
0
  6
DD_CHAIN67372168
 62
9
 10
172.002344
 20
154.027942
 11
171.993683
 21
153.988217
  0
ARC
  8
0
  6
DD_CHAIN67372168
 62
9
 10
172.246266
 20
153.142527
 40
0.317148
 50
278.736554
 51
346.114967
  0
LINE
  8
0
  6
DD_CHAIN67372168
 62
9
 10
164.133019
 20
154.027942
 11
164.255192
 21
153.458824
  0
LINE
  8
0
  6
DD_CHAIN67372168
 62
9
 10
172.598497
 20
153.056749
 11
172.595717
 21
153.057356
  0
LINE
  8
0
  6
DD_CHAIN67372168
 62
9
 10
172.595717
 20
153.057356
 11
172.587382
 21
153.059174
  0
LINE
  8
0
  6
DD_CHAIN67372168
 62
9
 10
172.587382
 20
153.059174
 11
172.573514
 21
153.062196
  0
LINE
  8
0
  6
DD_CHAIN67372168
 62
9
 10
172.573514
 20
153.062196
 11
172.554147
 21
153.066419
  0
LINE
  8
0
  6
DD_CHAIN67372168
 62
9
 10
163.766764
 20
152.049218
 11
163.766629
 21
152.052094
  0
LINE
  8
0
  6
DD_CHAIN67372168
 62
9
 10
163.766629
 20
152.052094
 11
163.766224
 21
152.060710
  0
LINE
  8
0
  6
DD_CHAIN67372168
 62
9
 10
163.766224
 20
152.060710
 11
163.765549
 21
152.075048
  0
LINE
  8
0
  6
DD_CHAIN67372168
 62
9
 10
163.765549
 20
152.075048
 11
163.764607
 21
152.095069
  0
LINE
  8
0
  6
DD_CHAIN67372168
 62
9
 10
172.300086
 20
152.784024
 11
172.299732
 21
152.786850
  0
LINE
  8
0
  6
DD_CHAIN67372168
 62
9
 10
172.299732
 20
152.786850
 11
172.298671
 21
152.795314
  0
LINE
  8
0
  6
DD_CHAIN67372168
 62
9
 10
172.298671
 20
152.795314
 11
172.296905
 21
152.809395
  0
LINE
  8
0
  6
DD_CHAIN67372168
 62
9
 10
172.296905
 20
152.809395
 11
172.294438
 21
152.829059
  0
LINE
  8
0
  6
DD_CHAIN67372168
 62
9
 10
171.389158
 20
153.781303
 11
171.389397
 21
153.779267
  0
LINE
  8
0
  6
DD_CHAIN67372168
 62
9
 10
171.389397
 20
153.779267
 11
171.390113
 21
153.773168
  0
LINE
  8
0
  6
DD_CHAIN67372168
 62
9
 10
171.390113
 20
153.773168
 11
171.391305
 21
153.763014
  0
LINE
  8
0
  6
DD_CHAIN67372168
 62
9
 10
171.391305
 20
153.763014
 11
171.392971
 21
153.748824
  0
LINE
  8
0
  6
DD_CHAIN67372168
 62
9
 10
164.649938
 20
153.189780
 11
164.650058
 21
153.187715
  0
LINE
  8
0
  6
DD_CHAIN67372168
 62
9
 10
164.650058
 20
153.187715
 11
164.650419
 21
153.181525
  0
LINE
  8
0
  6
DD_CHAIN67372168
 62
9
 10
164.650419
 20
153.181525
 11
164.651019
 21
153.171222
  0
LINE
  8
0
  6
DD_CHAIN67372168
 62
9
 10
164.651019
 20
153.171222
 11
164.651858
 21
153.156825
  0
LINE
  8
0
  6
DD_CHAIN67372168
 62
9
 10
163.408107
 20
152.325376
 11
163.410920
 21
152.325978
  0
LINE
  8
0
  6
DD_CHAIN67372168
 62
9
 10
163.410920
 20
152.325978
 11
163.419353
 21
152.327790
  0
LINE
  8
0
  6
DD_CHAIN67372168
 62
9
 10
163.419353
 20
152.327790
 11
163.433385
 21
152.330800
  0
LINE
  8
0
  6
DD_CHAIN67372168
 62
9
 10
163.433385
 20
152.330800
 11
163.452980
 21
152.335008
  0
LINE
  8
0
  6
DD_CHAIN67372168
 62
9
 10
164.287370
 20
153.465729
 11
164.285354
 21
153.465297
  0
LINE
  8
0
  6
DD_CHAIN67372168
 62
9
 10
164.285354
 20
153.465297
 11
164.279311
 21
153.464000
  0
LINE
  8
0
  6
DD_CHAIN67372168
 62
9
 10
164.279311
 20
153.464000
 11
164.269251
 21
153.461840
  0
LINE
  8
0
  6
DD_CHAIN67372168
 62
9
 10
164.269251
 20
153.461840
 11
164.255192
 21
153.458824
  0
LINE
  8
0
  6
DD_CHAIN67372168
 62
9
 10
183.373250
 20
193.621053
 11
183.373250
 21
196.765824
  0
LINE
  8
0
  6
DD_CHAIN67372168
 62
9
 10
183.373250
 20
193.618325
 11
183.373250
 21
193.621053
  0
LINE
  8
0
  6
DD_CHAIN67372168
 62
9
 10
183.373250
 20
193.612120
 11
163.128250
 21
193.612120
  0
LINE
  8
0
  6
DD_CHAIN67372168
 62
9
 10
163.128250
 20
193.618325
 11
163.128250
 21
193.621053
  0
LINE
  8
0
  6
DD_CHAIN67372168
 62
9
 10
163.128250
 20
193.621053
 11
183.373250
 21
193.621053
  0
LINE
  8
0
  6
DD_CHAIN67372168
 62
9
 10
163.128250
 20
196.765824
 11
163.128250
 21
193.621053
  0
LINE
  8
0
  6
DD_CHAIN67372168
 62
9
 10
183.373250
 20
196.765824
 11
163.128250
 21
196.765824
  0
LINE
  8
0
  6
DD_CHAIN67372168
 62
9
 10
183.953250
 20
156.094984
 11
183.953250
 21
160.660824
  0
LINE
  8
0
  6
DD_CHAIN67372168
 62
9
 10
183.953250
 20
156.094984
 11
139.198249
 21
156.094984
  0
LINE
  8
0
  6
DD_CHAIN67372168
 62
9
 10
139.198249
 20
160.660824
 11
139.198249
 21
156.094984
  0
LINE
  8
0
  6
DD_CHAIN67372168
 62
9
 10
183.953250
 20
160.660824
 11
139.198249
 21
160.660824
  0
LINE
  8
0
  6
DD_CHAIN67372168
 62
9
 10
139.075750
 20
160.845824
 11
139.135751
 21
160.845824
  0
LINE
  8
0
  6
DD_CHAIN67372168
 62
9
 10
184.075750
 20
160.845824
 11
184.015750
 21
160.845824
  0
LINE
  8
0
  6
DD_CHAIN67372168
 62
9
 10
184.015750
 20
160.845824
 11
139.135751
 21
160.845824
  0
LINE
  8
0
  6
DD_CHAIN67372168
 62
9
 10
184.015750
 20
161.935824
 11
183.975750
 21
161.935824
  0
LINE
  8
0
  6
DD_CHAIN67372168
 62
9
 10
180.075750
 20
161.935824
 11
179.823250
 21
161.935824
  0
LINE
  8
0
  6
DD_CHAIN67372168
 62
9
 10
167.828250
 20
161.935824
 11
167.573250
 21
161.935824
  0
LINE
  8
0
  6
DD_CHAIN67372168
 62
9
 10
155.578251
 20
161.935824
 11
155.322091
 21
161.935824
  0
LINE
  8
0
  6
DD_CHAIN67372168
 62
9
 10
143.327090
 20
161.935824
 11
143.075749
 21
161.935824
  0
LINE
  8
0
  6
DD_CHAIN67372168
 62
9
 10
139.175751
 20
161.935824
 11
139.135751
 21
161.935824
  0
LINE
  8
0
  6
DD_CHAIN67372168
 62
9
 10
139.075750
 20
161.935824
 11
139.135751
 21
161.935824
  0
LINE
  8
0
  6
DD_CHAIN67372168
 62
9
 10
184.075750
 20
161.935824
 11
184.015750
 21
161.935824
  0
LINE
  8
0
  6
DD_CHAIN67372168
 62
9
 10
184.065750
 20
193.024296
 11
139.065751
 21
193.024296
  0
LINE
  8
0
  6
DD_CHAIN67372168
 62
9
 10
159.321696
 20
191.359447
 11
158.314041
 21
191.359447
  0
LINE
  8
0
  6
DD_CHAIN67372168
 62
9
 10
154.321695
 20
191.359447
 11
153.314042
 21
191.359447
  0
LINE
  8
0
  6
DD_CHAIN67372168
 62
9
 10
149.321696
 20
191.359447
 11
148.314042
 21
191.359447
  0
LINE
  8
0
  6
DD_CHAIN67372168
 62
9
 10
144.321694
 20
191.359447
 11
143.314042
 21
191.359447
  0
LINE
  8
0
  6
DD_CHAIN67372168
 62
9
 10
140.289115
 20
191.359447
 11
139.065751
 21
191.359447
  0
LINE
  8
0
  6
DD_CHAIN67372168
 62
9
 10
184.065750
 20
191.359447
 11
182.842385
 21
191.359447
  0
LINE
  8
0
  6
DD_CHAIN67372168
 62
9
 10
179.321696
 20
191.359447
 11
178.314042
 21
191.359447
  0
LINE
  8
0
  6
DD_CHAIN67372168
 62
9
 10
174.321696
 20
191.359447
 11
173.314042
 21
191.359447
  0
LINE
  8
0
  6
DD_CHAIN67372168
 62
9
 10
169.321696
 20
191.359447
 11
168.314041
 21
191.359447
  0
LINE
  8
0
  6
DD_CHAIN67372168
 62
9
 10
164.321696
 20
191.359447
 11
163.314042
 21
191.359447
  0
LINE
  8
0
  6
DD_CHAIN67372168
 62
9
 10
179.006015
 20
192.442234
 11
179.006015
 21
192.431882
  0
LINE
  8
0
  6
DD_CHAIN67372168
 62
9
 10
164.006015
 20
192.442234
 11
164.006015
 21
192.431882
  0
LINE
  8
0
  6
DD_CHAIN67372168
 62
9
 10
154.006016
 20
192.442234
 11
154.006016
 21
192.431882
  0
LINE
  8
0
  6
DD_CHAIN67372168
 62
9
 10
169.006015
 20
192.442234
 11
169.006015
 21
192.431882
  0
LINE
  8
0
  6
DD_CHAIN67372168
 62
9
 10
174.006015
 20
192.442234
 11
174.006015
 21
192.431882
  0
LINE
  8
0
  6
DD_CHAIN67372168
 62
9
 10
159.006015
 20
192.442234
 11
159.006015
 21
192.431882
  0
LINE
  8
0
  6
DD_CHAIN67372168
 62
9
 10
149.006015
 20
192.442234
 11
149.006015
 21
192.431882
  0
LINE
  8
0
  6
DD_CHAIN67372168
 62
9
 10
144.006016
 20
192.442234
 11
144.006016
 21
192.431882
  0
LINE
  8
0
  6
DD_CHAIN67372168
 62
9
 10
178.510253
 20
191.500457
 11
178.510253
 21
191.490104
  0
LINE
  8
0
  6
DD_CHAIN67372168
 62
9
 10
173.510253
 20
191.500457
 11
173.510253
 21
191.490104
  0
LINE
  8
0
  6
DD_CHAIN67372168
 62
9
 10
153.510253
 20
191.500457
 11
153.510253
 21
191.490104
  0
LINE
  8
0
  6
DD_CHAIN67372168
 62
9
 10
168.510253
 20
191.500457
 11
168.510253
 21
191.490104
  0
LINE
  8
0
  6
DD_CHAIN67372168
 62
9
 10
163.510253
 20
191.500457
 11
163.510253
 21
191.490104
  0
LINE
  8
0
  6
DD_CHAIN67372168
 62
9
 10
158.510252
 20
191.500457
 11
158.510252
 21
191.490104
  0
LINE
  8
0
  6
DD_CHAIN67372168
 62
9
 10
148.510253
 20
191.500457
 11
148.510253
 21
191.490104
  0
LINE
  8
0
  6
DD_CHAIN67372168
 62
9
 10
143.510252
 20
191.500457
 11
143.510252
 21
191.490104
  0
LINE
  8
0
  6
DD_CHAIN67372168
 62
9
 10
174.348331
 20
191.368427
 11
174.348331
 21
191.358073
  0
LINE
  8
0
  6
DD_CHAIN67372168
 62
9
 10
154.348331
 20
191.368427
 11
154.348331
 21
191.358073
  0
LINE
  8
0
  6
DD_CHAIN67372168
 62
9
 10
159.348331
 20
191.368427
 11
159.348331
 21
191.358073
  0
LINE
  8
0
  6
DD_CHAIN67372168
 62
9
 10
149.348331
 20
191.368427
 11
149.348331
 21
191.358073
  0
LINE
  8
0
  6
DD_CHAIN67372168
 62
9
 10
164.348331
 20
191.368427
 11
164.348331
 21
191.358073
  0
LINE
  8
0
  6
DD_CHAIN67372168
 62
9
 10
169.348331
 20
191.368427
 11
169.348331
 21
191.358073
  0
LINE
  8
0
  6
DD_CHAIN67372168
 62
9
 10
179.348331
 20
191.368427
 11
179.348331
 21
191.358073
  0
LINE
  8
0
  6
DD_CHAIN67372168
 62
9
 10
144.348332
 20
191.368427
 11
144.348332
 21
191.358073
  0
LINE
  8
0
  6
DD_CHAIN67372168
 62
9
 10
182.815749
 20
191.368427
 11
182.815749
 21
191.358073
  0
LINE
  8
0
  6
DD_CHAIN67372168
 62
9
 10
140.315750
 20
191.368427
 11
140.315750
 21
191.358073
  0
LINE
  8
0
  6
DD_CHAIN67372168
 62
9
 10
178.287407
 20
191.368427
 11
178.287407
 21
191.358073
  0
LINE
  8
0
  6
DD_CHAIN67372168
 62
9
 10
158.287406
 20
191.368427
 11
158.287406
 21
191.358073
  0
LINE
  8
0
  6
DD_CHAIN67372168
 62
9
 10
168.287406
 20
191.368427
 11
168.287406
 21
191.358073
  0
LINE
  8
0
  6
DD_CHAIN67372168
 62
9
 10
153.287406
 20
191.368427
 11
153.287406
 21
191.358073
  0
LINE
  8
0
  6
DD_CHAIN67372168
 62
9
 10
163.287407
 20
191.368427
 11
163.287407
 21
191.358073
  0
LINE
  8
0
  6
DD_CHAIN67372168
 62
9
 10
173.287406
 20
191.368427
 11
173.287406
 21
191.358073
  0
LINE
  8
0
  6
DD_CHAIN67372168
 62
9
 10
148.287406
 20
191.368427
 11
148.287406
 21
191.358073
  0
LINE
  8
0
  6
DD_CHAIN67372168
 62
9
 10
143.287405
 20
191.368427
 11
143.287405
 21
191.358073
  0
LINE
  8
0
  6
DD_CHAIN67372168
 62
9
 10
184.065750
 20
190.340824
 11
139.065751
 21
190.340824
  0
LINE
  8
0
  6
DD_CHAIN67372168
 62
9
 10
184.065750
 20
189.280824
 11
139.065751
 21
189.280824
  0
LINE
  8
0
  6
DD_CHAIN67372168
 62
9
 10
184.065750
 20
189.115824
 11
139.065751
 21
189.115824
  0
LINE
  8
0
  6
DD_CHAIN67372168
 62
9
 10
184.065750
 20
188.005824
 11
183.975750
 21
188.005824
  0
LINE
  8
0
  6
DD_CHAIN67372168
 62
9
 10
180.075750
 20
188.005824
 11
179.823250
 21
188.005824
  0
LINE
  8
0
  6
DD_CHAIN67372168
 62
9
 10
167.828250
 20
188.005824
 11
167.573250
 21
188.005824
  0
LINE
  8
0
  6
DD_CHAIN67372168
 62
9
 10
155.578251
 20
188.005824
 11
155.322091
 21
188.005824
  0
LINE
  8
0
  6
DD_CHAIN67372168
 62
9
 10
143.327090
 20
188.005824
 11
143.075749
 21
188.005824
  0
LINE
  8
0
  6
DD_CHAIN67372168
 62
9
 10
139.175751
 20
188.005824
 11
139.065751
 21
188.005824
  0
LINE
  8
0
  6
DD_CHAIN67372168
 62
9
 10
141.700750
 20
192.770824
 11
141.640749
 21
192.770824
  0
LINE
  8
0
  6
DD_CHAIN67372168
 62
9
 10
143.050751
 20
192.770824
 11
143.110749
 21
192.770824
  0
LINE
  8
0
  6
DD_CHAIN67372168
 62
9
 10
181.450750
 20
192.770824
 11
181.510750
 21
192.770824
  0
LINE
  8
0
  6
DD_CHAIN67372168
 62
9
 10
180.100750
 20
192.770824
 11
180.040750
 21
192.770824
  0
LINE
  8
0
  6
DD_CHAIN67372168
 62
9
 10
181.613250
 20
191.369801
 11
181.613250
 21
192.782814
  0
LINE
  8
0
  6
CHAIN_2_134744198
 62
1
 10
141.963470
 20
153.255196
 11
141.963470
 21
133.838324
  0
LINE
  8
0
  6
CHAIN_2_134744198
 62
1
 10
139.373470
 20
133.838324
 11
141.963470
 21
133.838324
  0
LINE
  8
0
  6
CHAIN_2_134744198
 62
1
 10
139.373470
 20
153.255196
 11
139.373470
 21
133.838324
  0
LINE
  8
0
  6
CHAIN_2_134744198
 62
1
 10
181.183435
 20
153.276528
 11
181.183435
 21
133.838324
  0
LINE
  8
0
  6
CHAIN_2_134744198
 62
1
 10
183.773470
 20
133.838324
 11
181.183435
 21
133.838324
  0
LINE
  8
0
  6
CHAIN_2_134744198
 62
1
 10
183.773470
 20
153.255196
 11
183.773470
 21
133.838324
  0
ARC
  8
0
  6
CHAIN_2_134744198
 62
1
 10
139.873523
 20
155.338324
 40
21.601340
 50
275.552099
 51
355.270843
  0
ARC
  8
0
  6
CHAIN_2_134744198
 62
1
 10
183.273470
 20
155.338324
 40
21.601348
 50
184.745909
 51
264.447668
  0
ENDSEC
  0
EOF
