  0
SECTION
  2
HEADER
  9
$ACADVER
  1
AC1021
  9
$ACADMAINTVER
 70
    25
  9
$DWGCODEPAGE
  3
ANSI_1252
  9
$INSBASE
 10
0.0
 20
0.0
 30
0.0
  9
$EXTMIN
 10
0.0
 20
0.0
 30
0.0
  9
$EXTMAX
 10
841.0
 20
594.0
 30
0.0
  9
$LIMMIN
 10
0.0
 20
0.0
  9
$LIMMAX
 10
841.0
 20
594.0
  9
$ORTHOMODE
 70
     0
  9
$REGENMODE
 70
     1
  9
$FILLMODE
 70
     1
  9
$QTEXTMODE
 70
     0
  9
$MIRRTEXT
 70
     1
  9
$LTSCALE
 40
1.0
  9
$ATTMODE
 70
     1
  9
$TEXTSIZE
 40
3.5
  9
$TRACEWID
 40
1.0
  9
$TEXTSTYLE
  7
STANDARD
  9
$CLAYER
  8
0
  9
$CELTYPE
  6
ByLayer
  9
$CECOLOR
 62
   256
  9
$CELTSCALE
 40
1.0
  9
$DISPSILH
 70
     0
  9
$DIMSCALE
 40
1.0
  9
$DIMASZ
 40
3.302
  9
$DIMEXO
 40
1.0
  9
$DIMDLI
 40
3.75
  9
$DIMRND
 40
0.0
  9
$DIMDLE
 40
0.0
  9
$DIMEXE
 40
1.0
  9
$DIMTP
 40
0.0
  9
$DIMTM
 40
0.0
  9
$DIMTXT
 40
3.5
  9
$DIMCEN
 40
2.5
  9
$DIMTSZ
 40
0.0
  9
$DIMTOL
 70
     0
  9
$DIMLIM
 70
     0
  9
$DIMTIH
 70
     1
  9
$DIMTOH
 70
     1
  9
$DIMSE1
 70
     0
  9
$DIMSE2
 70
     0
  9
$DIMTAD
 70
     1
  9
$DIMZIN
 70
     0
  9
$DIMBLK
  1

  9
$DIMASO
 70
     1
  9
$DIMSHO
 70
     1
  9
$DIMPOST
  1

  9
$DIMAPOST
  1

  9
$DIMALT
 70
     0
  9
$DIMALTD
 70
     3
  9
$DIMALTF
 40
0.0393700787
  9
$DIMLFAC
 40
1.0
  9
$DIMTOFL
 70
     1
  9
$DIMTVP
 40
0.0
  9
$DIMTIX
 70
     0
  9
$DIMSOXD
 70
     0
  9
$DIMSAH
 70
     0
  9
$DIMBLK1
  1

  9
$DIMBLK2
  1

  9
$DIMSTYLE
  2
ISO-25
  9
$DIMCLRD
 70
     0
  9
$DIMCLRE
 70
     0
  9
$DIMCLRT
 70
     0
  9
$DIMTFAC
 40
1.0
  9
$DIMGAP
 40
1.524
  9
$DIMJUST
 70
     0
  9
$DIMSD1
 70
     0
  9
$DIMSD2
 70
     0
  9
$DIMTOLJ
 70
     0
  9
$DIMTZIN
 70
     0
  9
$DIMALTZ
 70
     0
  9
$DIMALTTZ
 70
     0
  9
$DIMUPT
 70
     0
  9
$DIMDEC
 70
     1
  9
$DIMTDEC
 70
     1
  9
$DIMALTU
 70
     2
  9
$DIMALTTD
 70
     3
  9
$DIMTXSTY
  7
STANDARD
  9
$DIMAUNIT
 70
     0
  9
$DIMADEC
 70
     1
  9
$DIMALTRND
 40
0.0
  9
$DIMAZIN
 70
     0
  9
$DIMDSEP
 70
    44
  9
$DIMATFIT
 70
     3
  9
$DIMFRAC
 70
     0
  9
$DIMLDRBLK
  1

  9
$DIMLUNIT
 70
     2
  9
$DIMLWD
 70
    -2
  9
$DIMLWE
 70
    -2
  9
$DIMTMOVE
 70
     0
  9
$DIMFXL
 40
1.0
  9
$DIMFXLON
 70
     0
  9
$DIMJOGANG
 40
0.7853981634
  9
$DIMTFILL
 70
     0
  9
$DIMTFILLCLR
 70
     0
  9
$DIMARCSYM
 70
     0
  9
$DIMLTYPE
  6

  9
$DIMLTEX1
  6

  9
$DIMLTEX2
  6

  9
$LUNITS
 70
     2
  9
$LUPREC
 70
     1
  9
$SKETCHINC
 40
1.0
  9
$FILLETRAD
 40
10.0
  9
$AUNITS
 70
     0
  9
$AUPREC
 70
     1
  9
$MENU
  1
.
  9
$ELEVATION
 40
0.0
  9
$PELEVATION
 40
0.0
  9
$THICKNESS
 40
0.0
  9
$LIMCHECK
 70
     0
  9
$CHAMFERA
 40
10.0
  9
$CHAMFERB
 40
10.0
  9
$CHAMFERC
 40
20.0
  9
$CHAMFERD
 40
0.0
  9
$SKPOLY
 70
     0
  9
$TDCREATE
 40
2455701.340539271
  9
$TDUCREATE
 40
2455701.298872604
  9
$TDUPDATE
 40
2455701.340539282
  9
$TDUUPDATE
 40
2455701.298872616
  9
$TDINDWG
 40
0.0000000116
  9
$TDUSRTIMER
 40
0.0000000116
  9
$USRTIMER
 70
     1
  9
$ANGBASE
 50
0.0
  9
$ANGDIR
 70
     0
  9
$PDMODE
 70
     0
  9
$PDSIZE
 40
-1.0
  9
$PLINEWID
 40
0.0
  9
$SPLFRAME
 70
     0
  9
$SPLINETYPE
 70
     6
  9
$SPLINESEGS
 70
     8
  9
$HANDSEED
  5
2F5
  9
$SURFTAB1
 70
     6
  9
$SURFTAB2
 70
     6
  9
$SURFTYPE
 70
     6
  9
$SURFU
 70
     6
  9
$SURFV
 70
     6
  9
$UCSBASE
  2

  9
$UCSNAME
  2

  9
$UCSORG
 10
0.0
 20
0.0
 30
0.0
  9
$UCSXDIR
 10
1.0
 20
0.0
 30
0.0
  9
$UCSYDIR
 10
0.0
 20
1.0
 30
0.0
  9
$UCSORTHOREF
  2

  9
$UCSORTHOVIEW
 70
     0
  9
$UCSORGTOP
 10
0.0
 20
0.0
 30
0.0
  9
$UCSORGBOTTOM
 10
0.0
 20
0.0
 30
0.0
  9
$UCSORGLEFT
 10
0.0
 20
0.0
 30
0.0
  9
$UCSORGRIGHT
 10
0.0
 20
0.0
 30
0.0
  9
$UCSORGFRONT
 10
0.0
 20
0.0
 30
0.0
  9
$UCSORGBACK
 10
0.0
 20
0.0
 30
0.0
  9
$PUCSBASE
  2

  9
$PUCSNAME
  2

  9
$PUCSORG
 10
0.0
 20
0.0
 30
0.0
  9
$PUCSXDIR
 10
1.0
 20
0.0
 30
0.0
  9
$PUCSYDIR
 10
0.0
 20
1.0
 30
0.0
  9
$PUCSORTHOREF
  2

  9
$PUCSORTHOVIEW
 70
     0
  9
$PUCSORGTOP
 10
0.0
 20
0.0
 30
0.0
  9
$PUCSORGBOTTOM
 10
0.0
 20
0.0
 30
0.0
  9
$PUCSORGLEFT
 10
0.0
 20
0.0
 30
0.0
  9
$PUCSORGRIGHT
 10
0.0
 20
0.0
 30
0.0
  9
$PUCSORGFRONT
 10
0.0
 20
0.0
 30
0.0
  9
$PUCSORGBACK
 10
0.0
 20
0.0
 30
0.0
  9
$USERI1
 70
     0
  9
$USERI2
 70
     0
  9
$USERI3
 70
     0
  9
$USERI4
 70
     0
  9
$USERI5
 70
     0
  9
$USERR1
 40
0.0
  9
$USERR2
 40
0.0
  9
$USERR3
 40
0.0
  9
$USERR4
 40
0.0
  9
$USERR5
 40
0.0
  9
$WORLDVIEW
 70
     1
  9
$SHADEDGE
 70
     3
  9
$SHADEDIF
 70
    70
  9
$TILEMODE
 70
     1
  9
$MAXACTVP
 70
    64
  9
$PINSBASE
 10
0.0
 20
0.0
 30
0.0
  9
$PLIMCHECK
 70
     0
  9
$PEXTMIN
 10
1.0000000000E+20
 20
1.0000000000E+20
 30
1.0000000000E+20
  9
$PEXTMAX
 10
-1.0000000000E+20
 20
-1.0000000000E+20
 30
-1.0000000000E+20
  9
$PLIMMIN
 10
0.0
 20
0.0
  9
$PLIMMAX
 10
420.0
 20
297.0
  9
$UNITMODE
 70
     0
  9
$VISRETAIN
 70
     1
  9
$PLINEGEN
 70
     0
  9
$PSLTSCALE
 70
     1
  9
$TREEDEPTH
 70
  3020
  9
$CMLSTYLE
  2
Standard
  9
$CMLJUST
 70
     0
  9
$CMLSCALE
 40
20.0
  9
$PROXYGRAPHICS
 70
     1
  9
$MEASUREMENT
 70
     1
  9
$CELWEIGHT
370
    -1
  9
$ENDCAPS
280
     0
  9
$JOINSTYLE
280
     0
  9
$LWDISPLAY
290
     1
  9
$INSUNITS
 70
     4
  9
$HYPERLINKBASE
  1

  9
$STYLESHEET
  1

  9
$XEDIT
290
     1
  9
$CEPSNTYPE
380
     0
  9
$PSTYLEMODE
290
     1
  9
$FINGERPRINTGUID
  2
{F92A1879-C3D9-45F5-B89E-E372D0FF4FD4}
  9
$VERSIONGUID
  2
{FAEB1C32-E019-11D5-929B-00C0DF256EC4}
  9
$EXTNAMES
290
     1
  9
$PSVPSCALE
 40
0.0
  9
$OLESTARTUP
290
     0
  9
$SORTENTS
280
   127
  9
$INDEXCTL
280
     0
  9
$HIDETEXT
280
     1
  9
$XCLIPFRAME
290
     0
  9
$HALOGAP
280
     0
  9
$OBSCOLOR
 70
   257
  9
$OBSLTYPE
280
     0
  9
$INTERSECTIONDISPLAY
280
     0
  9
$INTERSECTIONCOLOR
 70
   257
  9
$DIMASSOC
280
     2
  9
$PROJECTNAME
  1

  9
$CAMERADISPLAY
290
     0
  9
$LENSLENGTH
 40
50.0
  9
$CAMERAHEIGHT
 40
0.0
  9
$STEPSPERSEC
 40
2.0
  9
$STEPSIZE
 40
6.0
  9
$3DDWFPREC
 40
2.0
  9
$PSOLWIDTH
 40
5.0
  9
$PSOLHEIGHT
 40
80.0
  9
$LOFTANG1
 40
1.5707963268
  9
$LOFTANG2
 40
1.5707963268
  9
$LOFTMAG1
 40
0.0
  9
$LOFTMAG2
 40
0.0
  9
$LOFTPARAM
 70
     7
  9
$LOFTNORMALS
280
     1
  9
$LATITUDE
 40
37.795
  9
$LONGITUDE
 40
-122.394
  9
$NORTHDIRECTION
 40
0.0
  9
$TIMEZONE
 70
 -8000
  9
$LIGHTGLYPHDISPLAY
280
     1
  9
$TILEMODELIGHTSYNCH
280
     1
  9
$SOLIDHIST
280
     1
  9
$SHOWHIST
280
     1
  9
$DWFFRAME
280
     2
  9
$DGNFRAME
280
     2
  9
$REALWORLDSCALE
290
     1
  9
$INTERFERECOLOR
 62
   256
  9
$CSHADOW
280
     0
  9
$SHADOWPLANELOCATION
 40
0.0
  0
ENDSEC
  0
SECTION
  2
CLASSES
  0
CLASS
  1
ACDBDICTIONARYWDFLT
  2
AcDbDictionaryWithDefault
  3
ObjectDBX Classes
 90
        0
 91
        4
280
     0
281
     0
  0
CLASS
  1
VISUALSTYLE
  2
AcDbVisualStyle
  3
ObjectDBX Classes
 90
     4095
 91
        4
280
     0
281
     0
  0
CLASS
  1
MATERIAL
  2
AcDbMaterial
  3
ObjectDBX Classes
 90
     1153
 91
        4
280
     0
281
     0
  0
ENDSEC
  0
SECTION
  2
TABLES
  0
TABLE
  2
VPORT
  5
8
330
0
100
AcDbSymbolTable
 70
     1
  0
VPORT
  5
29
330
8
100
AcDbSymbolTableRecord
100
AcDbViewportTableRecord
  2
*Active
 70
     0
 10
0.0
 20
0.0
 11
1.0
 21
1.0
 12
420.5
 22
297.0
 13
0.0
 23
0.0
 14
10.0
 24
10.0
 15
10.0
 25
10.0
 16
0.0
 26
0.0
 36
1.0
 17
0.0
 27
0.0
 37
0.0
 40
594.0
 41
1.4158249158
 42
50.0
 43
0.0
 44
0.0
 50
0.0
 51
0.0
 71
     0
 72
  2000
 73
     1
 74
     3
 75
     0
 76
     0
 77
     0
 78
     0
281
     0
 65
     1
110
0.0
120
0.0
130
0.0
111
1.0
121
0.0
131
0.0
112
0.0
122
1.0
132
0.0
 79
     0
146
0.0
 60
     3
 61
     5
292
     1
282
     1
141
0.0
142
0.0
 63
   250
  0
ENDTAB
  0
TABLE
  2
LTYPE
  5
5
330
0
100
AcDbSymbolTable
 70
     8
  0
LTYPE
  5
14
330
5
100
AcDbSymbolTableRecord
100
AcDbLinetypeTableRecord
  2
ByBlock
 70
     0
  3

 72
    65
 73
     0
 40
0.0
  0
LTYPE
  5
15
330
5
100
AcDbSymbolTableRecord
100
AcDbLinetypeTableRecord
  2
ByLayer
 70
     0
  3

 72
    65
 73
     0
 40
0.0
  0
LTYPE
  5
16
330
5
100
AcDbSymbolTableRecord
100
AcDbLinetypeTableRecord
  2
Continuous
 70
     0
  3
Solid line
 72
    65
 73
     0
 40
0.0
  0
LTYPE
  5
3F
330
5
100
AcDbSymbolTableRecord
100
AcDbLinetypeTableRecord
  2
SLD-Solid
 70
     0
  3
SolidWorks Line Style
 72
    65
 73
     0
 40
0.0
  0
LTYPE
  5
40
330
5
100
AcDbSymbolTableRecord
100
AcDbLinetypeTableRecord
  2
SLD-Dashed
 70
     0
  3
SolidWorks Line Style
 72
    65
 73
     2
 40
1.905
 49
1.27
 74
     0
 49
-0.635
 74
     0
  0
LTYPE
  5
41
330
5
100
AcDbSymbolTableRecord
100
AcDbLinetypeTableRecord
  2
SLD-Phantom
 70
     0
  3
SolidWorks Line Style
 72
    65
 73
     6
 40
12.7
 49
6.35
 74
     0
 49
-1.27
 74
     0
 49
1.27
 74
     0
 49
-1.27
 74
     0
 49
1.27
 74
     0
 49
-1.27
 74
     0
  0
LTYPE
  5
42
330
5
100
AcDbSymbolTableRecord
100
AcDbLinetypeTableRecord
  2
SLD-Chain
 70
     0
  3
SolidWorks Line Style
 72
    65
 73
     4
 40
10.16
 49
6.35
 74
     0
 49
-1.27
 74
     0
 49
1.27
 74
     0
 49
-1.27
 74
     0
  0
LTYPE
  5
43
330
5
100
AcDbSymbolTableRecord
100
AcDbLinetypeTableRecord
  2
SLD-Center
 70
     0
  3
SolidWorks Line Style
 72
    65
 73
     4
 40
19.05
 49
15.24
 74
     0
 49
-1.27
 74
     0
 49
1.27
 74
     0
 49
-1.27
 74
     0
  0
LTYPE
  5
44
330
5
100
AcDbSymbolTableRecord
100
AcDbLinetypeTableRecord
  2
SLD-Stitch
 70
     0
  3
SolidWorks Line Style
 72
    65
 73
     2
 40
0.635
 49
0.0
 74
     0
 49
-0.635
 74
     0
  0
LTYPE
  5
45
330
5
100
AcDbSymbolTableRecord
100
AcDbLinetypeTableRecord
  2
SLD-Thin-Thick-Chain
 70
     0
  3
SolidWorks Line Style
 72
    65
 73
     4
 40
10.16
 49
6.35
 74
     0
 49
-1.27
 74
     0
 49
1.27
 74
     0
 49
-1.27
 74
     0
  0
ENDTAB
  0
TABLE
  2
LAYER
  5
2
330
0
100
AcDbSymbolTable
 70
     1
  0
LAYER
  5
10
330
2
100
AcDbSymbolTableRecord
100
AcDbLayerTableRecord
  2
0
 70
     0
 62
     7
  6
Continuous
370
    -3
390
F
347
3E
  0
ENDTAB
  0
TABLE
  2
STYLE
  5
3
330
0
100
AcDbSymbolTable
 70
     1
  0
STYLE
  5
11
330
3
100
AcDbSymbolTableRecord
100
AcDbTextStyleTableRecord
  2
STANDARD
 70
     0
 40
0.0
 41
1.0
 50
0.0
 71
     0
 42
2.5
  3
GOTHIC.TTF
  4

1001
ACAD
1000
CENTURY GOTHIC
1071
       34
  0
ENDTAB
  0
TABLE
  2
VIEW
  5
6
330
0
100
AcDbSymbolTable
 70
     0
  0
ENDTAB
  0
TABLE
  2
UCS
  5
7
330
0
100
AcDbSymbolTable
 70
     0
  0
ENDTAB
  0
TABLE
  2
APPID
  5
9
330
0
100
AcDbSymbolTable
 70
     1
  0
APPID
  5
12
330
9
100
AcDbSymbolTableRecord
100
AcDbRegAppTableRecord
  2
ACAD
 70
     0
  0
ENDTAB
  0
TABLE
  2
DIMSTYLE
  5
A
330
0
100
AcDbSymbolTable
 70
     1
100
AcDbDimStyleTable
  0
DIMSTYLE
105
27
330
A
100
AcDbSymbolTableRecord
100
AcDbDimStyleTableRecord
  2
ISO-25
 70
     0
 41
2.5
 42
0.625
 43
3.75
 44
1.25
 73
     0
 74
     0
 77
     1
 78
     8
140
2.5
141
2.5
143
0.0393700787
147
0.625
171
     3
172
     1
271
     2
272
     2
274
     3
278
    44
283
     0
284
     8
340
11
  0
ENDTAB
  0
TABLE
  2
BLOCK_RECORD
  5
1
330
0
100
AcDbSymbolTable
 70
     1
  0
BLOCK_RECORD
  5
1F
330
1
100
AcDbSymbolTableRecord
100
AcDbBlockTableRecord
  2
*Model_Space
340
22
 70
     0
280
     1
281
     0
  0
BLOCK_RECORD
  5
1B
330
1
100
AcDbSymbolTableRecord
100
AcDbBlockTableRecord
  2
*Paper_Space
340
1E
 70
     0
280
     1
281
     0
  0
BLOCK_RECORD
  5
23
330
1
100
AcDbSymbolTableRecord
100
AcDbBlockTableRecord
  2
*Paper_Space0
340
26
 70
     0
280
     1
281
     0
  0
ENDTAB
  0
ENDSEC
  0
SECTION
  2
BLOCKS
  0
BLOCK
  5
20
330
1F
100
AcDbEntity
  8
0
100
AcDbBlockBegin
  2
*Model_Space
 70
     0
 10
0.0
 20
0.0
 30
0.0
  3
*Model_Space
  1

  0
ENDBLK
  5
21
330
1F
100
AcDbEntity
  8
0
100
AcDbBlockEnd
  0
BLOCK
  5
1C
330
1B
100
AcDbEntity
 67
     1
  8
0
100
AcDbBlockBegin
  2
*Paper_Space
 70
     0
 10
0.0
 20
0.0
 30
0.0
  3
*Paper_Space
  1

  0
ENDBLK
  5
1D
330
1B
100
AcDbEntity
 67
     1
  8
0
100
AcDbBlockEnd
  0
BLOCK
  5
24
330
23
100
AcDbEntity
  8
0
100
AcDbBlockBegin
  2
*Paper_Space0
 70
     0
 10
0.0
 20
0.0
 30
0.0
  3
*Paper_Space0
  1

  0
ENDBLK
  5
25
330
23
100
AcDbEntity
  8
0
100
AcDbBlockEnd
  0
ENDSEC
  0
SECTION
  2
ENTITIES
  0
LINE
  5
46
330
1F
100
AcDbEntity
  8
0
  6
SLD-Solid
 62
     7
370
    15
100
AcDbLine
 10
376.9867315448
 20
725.2352724202
 30
0.0
 11
376.9867315448
 21
726.7352724202
 31
0.0
  0
LINE
  5
47
330
1F
100
AcDbEntity
  8
0
  6
SLD-Solid
 62
     7
370
    15
100
AcDbLine
 10
189.9867315448
 20
726.7352724202
 30
0.0
 11
189.9867315448
 21
725.2352724202
 31
0.0
  0
LINE
  5
48
330
1F
100
AcDbEntity
  8
0
  6
SLD-Solid
 62
     7
370
    15
100
AcDbLine
 10
376.9867315448
 20
726.7352724202
 30
0.0
 11
374.9867315448
 21
728.7352724202
 31
0.0
  0
LINE
  5
49
330
1F
100
AcDbEntity
  8
0
  6
SLD-Solid
 62
     7
370
    15
100
AcDbLine
 10
191.9867315448
 20
728.7352724202
 30
0.0
 11
189.9867315448
 21
726.7352724202
 31
0.0
  0
LINE
  5
4A
330
1F
100
AcDbEntity
  8
0
  6
SLD-Solid
 62
     7
370
    15
100
AcDbLine
 10
298.246866283
 20
725.1418398723
 30
0.0
 11
298.7244648288
 21
725.2352724202
 31
0.0
  0
LINE
  5
4B
330
1F
100
AcDbEntity
  8
0
  6
SLD-Solid
 62
     7
370
    15
100
AcDbLine
 10
268.2489982609
 20
725.2352724202
 30
0.0
 11
268.7265968067
 21
725.1418398723
 31
0.0
  0
LINE
  5
4C
330
1F
100
AcDbEntity
  8
0
  6
SLD-Solid
 62
     7
370
    15
100
AcDbLine
 10
792.9515497603
 20
650.7327577526
 30
0.0
 11
787.9268531547
 21
651.0666218869
 31
0.0
  0
LINE
  5
4D
330
1F
100
AcDbEntity
  8
0
  6
SLD-Solid
 62
     7
370
    15
100
AcDbLine
 10
381.5861435929
 20
717.0484073244
 30
0.0
 11
375.0845647194
 21
725.1418398723
 31
0.0
  0
LINE
  5
4E
330
1F
100
AcDbEntity
  8
0
  6
SLD-Solid
 62
     7
370
    15
100
AcDbLine
 10
191.8888983703
 20
725.1418398723
 30
0.0
 11
185.3873194968
 21
717.0484073244
 31
0.0
  0
LINE
  5
4F
330
1F
100
AcDbEntity
  8
0
  6
SLD-Solid
 62
     7
370
    15
100
AcDbLine
 10
819.1867315447
 20
-2.7647275799
 30
0.0
 11
819.1867315447
 21
-0.2647275799
 31
0.0
  0
LINE
  5
50
330
1F
100
AcDbEntity
  8
0
  6
SLD-Solid
 62
     7
370
    15
100
AcDbLine
 10
52.3867315447
 20
726.5352724201
 30
0.0
 11
52.8867315447
 21
726.5352724201
 31
0.0
  0
LINE
  5
51
330
1F
100
AcDbEntity
  8
0
  6
SLD-Solid
 62
     7
370
    15
100
AcDbLine
 10
52.8867315447
 20
730.9352724201
 30
0.0
 11
52.3867315447
 21
730.9352724201
 31
0.0
  0
LINE
  5
52
330
1F
100
AcDbEntity
  8
0
  6
SLD-Solid
 62
     7
370
    15
100
AcDbLine
 10
52.3867315447
 20
22.9352724201
 30
0.0
 11
52.5867315447
 21
22.9352724201
 31
0.0
  0
LINE
  5
53
330
1F
100
AcDbEntity
  8
0
  6
SLD-Solid
 62
     7
370
    15
100
AcDbLine
 10
52.5867315447
 20
26.5352724201
 30
0.0
 11
52.3867315447
 21
26.5352724201
 31
0.0
  0
LINE
  5
54
330
1F
100
AcDbEntity
  8
0
  6
SLD-Solid
 62
     7
370
    15
100
AcDbLine
 10
52.3867315447
 20
47.9352724201
 30
0.0
 11
52.5867315447
 21
47.9352724201
 31
0.0
  0
LINE
  5
55
330
1F
100
AcDbEntity
  8
0
  6
SLD-Solid
 62
     7
370
    15
100
AcDbLine
 10
52.5867315447
 20
51.5352724201
 30
0.0
 11
52.3867315447
 21
51.5352724201
 31
0.0
  0
LINE
  5
56
330
1F
100
AcDbEntity
  8
0
  6
SLD-Solid
 62
     7
370
    15
100
AcDbLine
 10
52.3867315447
 20
654.0352724201
 30
0.0
 11
52.5867315447
 21
654.0352724201
 31
0.0
  0
LINE
  5
57
330
1F
100
AcDbEntity
  8
0
  6
SLD-Solid
 62
     7
370
    15
100
AcDbLine
 10
53.1867315447
 20
679.4352724201
 30
0.0
 11
52.3867315447
 21
679.4352724201
 31
0.0
  0
LINE
  5
58
330
1F
100
AcDbEntity
  8
0
  6
SLD-Solid
 62
     7
370
    15
100
AcDbLine
 10
52.3867315447
 20
574.0352724201
 30
0.0
 11
52.5867315447
 21
574.0352724201
 31
0.0
  0
LINE
  5
59
330
1F
100
AcDbEntity
  8
0
  6
SLD-Solid
 62
     7
370
    15
100
AcDbLine
 10
52.5867315447
 20
599.4352724201
 30
0.0
 11
52.3867315447
 21
599.4352724201
 31
0.0
  0
LINE
  5
5A
330
1F
100
AcDbEntity
  8
0
  6
SLD-Solid
 62
     7
370
    15
100
AcDbLine
 10
52.3867315447
 20
7.5352724201
 30
0.0
 11
52.5867315447
 21
7.5352724201
 31
0.0
  0
LINE
  5
5B
330
1F
100
AcDbEntity
  8
0
  6
SLD-Solid
 62
     7
370
    15
100
AcDbLine
 10
52.5867315447
 20
13.9352724201
 30
0.0
 11
52.3867315447
 21
13.9352724201
 31
0.0
  0
LINE
  5
5C
330
1F
100
AcDbEntity
  8
0
  6
SLD-Solid
 62
     7
370
    15
100
AcDbLine
 10
789.6754095717
 20
650.9502915243
 30
0.0
 11
788.8589485631
 21
651.0045409784
 31
0.0
  0
LINE
  5
5D
330
1F
100
AcDbEntity
  8
0
  6
SLD-Solid
 62
     7
370
    15
100
AcDbLine
 10
793.5678395382
 20
650.6916604342
 30
0.0
 11
792.7594544525
 21
650.7453732865
 31
0.0
  0
LINE
  5
5E
330
1F
100
AcDbEntity
  8
0
  6
SLD-Solid
 62
     7
370
    15
100
AcDbLine
 10
819.6867315447
 20
526.7352724201
 30
0.0
 11
819.6867315447
 21
528.2352724201
 31
0.0
  0
LINE
  5
5F
330
1F
100
AcDbEntity
  8
0
  6
SLD-Solid
 62
     7
370
    15
100
AcDbLine
 10
819.6867315447
 20
528.2352724201
 30
0.0
 11
819.1867315447
 21
528.7352724201
 31
0.0
  0
LINE
  5
60
330
1F
100
AcDbEntity
  8
0
  6
SLD-Solid
 62
     7
370
    15
100
AcDbLine
 10
787.9287863498
 20
651.0564713863
 30
0.0
 11
785.43412409
 21
651.2222283108
 31
0.0
  0
LINE
  5
61
330
1F
100
AcDbEntity
  8
0
  6
SLD-Solid
 62
     7
370
    15
100
AcDbLine
 10
796.1807572304
 20
650.5081721893
 30
0.0
 11
793.3687068555
 21
650.6950178514
 31
0.0
  0
LINE
  5
62
330
1F
100
AcDbEntity
  8
0
  6
SLD-Solid
 62
     7
370
    15
100
AcDbLine
 10
796.6778065049
 20
650.4539318104
 30
0.0
 11
796.1807572304
 21
650.5081721893
 31
0.0
  0
LINE
  5
63
330
1F
100
AcDbEntity
  8
0
  6
SLD-Solid
 62
     7
370
    15
100
AcDbLine
 10
805.5202779296
 20
589.4034033133
 30
0.0
 11
813.7947751151
 21
596.2977993222
 31
0.0
  0
LINE
  5
64
330
1F
100
AcDbEntity
  8
0
  6
SLD-Solid
 62
     7
370
    15
100
AcDbLine
 10
788.8705275155
 20
650.993749569
 30
0.0
 11
785.4341732953
 21
651.2220768725
 31
0.0
  0
LINE
  5
65
330
1F
100
AcDbEntity
  8
0
  6
SLD-Solid
 62
     7
370
    15
100
AcDbLine
 10
796.1808064357
 20
650.508020751
 30
0.0
 11
793.5497160867
 21
650.6828425901
 31
0.0
  0
LINE
  5
66
330
1F
100
AcDbEntity
  8
0
  6
SLD-Solid
 62
     7
370
    15
100
AcDbLine
 10
813.7947751151
 20
596.2977993222
 30
0.0
 11
829.5559692766
 21
610.603091089
 31
0.0
  0
LINE
  5
67
330
1F
100
AcDbEntity
  8
0
  6
SLD-Solid
 62
     7
370
    15
100
AcDbLine
 10
796.6778557102
 20
650.4537803721
 30
0.0
 11
796.1808064357
 21
650.508020751
 31
0.0
  0
ARC
  5
68
330
1F
100
AcDbEntity
  8
0
  6
SLD-Solid
 62
     7
370
    15
100
AcDbCircle
 10
828.8838900335
 20
611.3435703197
 30
0.0
 40
0.9999999999999948
100
AcDbArc
 50
312.227745318
 51
18.0
  0
LINE
  5
69
330
1F
100
AcDbEntity
  8
0
  6
SLD-Solid
 62
     7
370
    15
100
AcDbLine
 10
819.1867315447
 20
528.7352724201
 30
0.0
 11
819.1867315447
 21
530.0852724201
 31
0.0
  0
LINE
  5
6A
330
1F
100
AcDbEntity
  8
0
  6
SLD-Solid
 62
     7
370
    15
100
AcDbLine
 10
641.9867315448
 20
726.7352724201
 30
0.0
 11
639.9867315448
 21
728.7352724201
 31
0.0
  0
LINE
  5
6B
330
1F
100
AcDbEntity
  8
0
  6
SLD-Solid
 62
     7
370
    15
100
AcDbLine
 10
456.9867315448
 20
728.7352724202
 30
0.0
 11
454.9867315448
 21
726.7352724202
 31
0.0
  0
LINE
  5
6C
330
1F
100
AcDbEntity
  8
0
  6
SLD-Solid
 62
     7
370
    15
100
AcDbLine
 10
641.9867315448
 20
725.2352724201
 30
0.0
 11
641.9867315448
 21
726.7352724201
 31
0.0
  0
LINE
  5
6D
330
1F
100
AcDbEntity
  8
0
  6
SLD-Solid
 62
     7
370
    15
100
AcDbLine
 10
454.9867315448
 20
726.7352724202
 30
0.0
 11
454.9867315448
 21
725.2352724202
 31
0.0
  0
LINE
  5
6E
330
1F
100
AcDbEntity
  8
0
  6
SLD-Solid
 62
     7
370
    15
100
AcDbLine
 10
563.246866283
 20
725.1418398722
 30
0.0
 11
563.7244648288
 21
725.2352724201
 31
0.0
  0
LINE
  5
6F
330
1F
100
AcDbEntity
  8
0
  6
SLD-Solid
 62
     7
370
    15
100
AcDbLine
 10
533.2489982608
 20
725.2352724201
 30
0.0
 11
533.7265968067
 21
725.1418398722
 31
0.0
  0
SPLINE
  5
70
330
1F
100
AcDbEntity
  8
0
  6
SLD-Solid
 62
     7
370
    15
100
AcDbSpline
210
0.0
220
0.0
230
1.0
 70
     8
 71
     3
 72
    11
 73
     7
 74
     0
 42
0.00000001
 43
0.00000001
 40
0.0
 40
0.0
 40
0.0
 40
0.0
 40
0.4803500816887935
 40
0.8315132074405582
 40
0.9982614353220739
 40
0.9999999999999999
 40
0.9999999999999999
 40
0.9999999999999999
 40
0.9999999999999999
 10
821.1879841437158
 20
461.6385466304002
 30
0.0
 10
829.0904447150964
 20
461.6284212911764
 30
0.0
 10
842.7700517077279
 20
461.6108937552907
 30
0.0
 10
859.2174916812868
 20
461.7002157366231
 30
0.0
 10
867.7377504283959
 20
461.5678514037488
 30
0.0
 10
870.5076056715515
 20
461.4768600920793
 30
0.0
 10
870.5361869770389
 20
461.4759211800254
 30
0.0
  0
SPLINE
  5
71
330
1F
100
AcDbEntity
  8
0
  6
SLD-Solid
 62
     7
370
    15
100
AcDbSpline
210
0.0
220
0.0
230
1.0
 70
     8
 71
     3
 72
    12
 73
     8
 74
     0
 42
0.00000001
 43
0.00000001
 40
0.0
 40
0.0
 40
0.0
 40
0.0
 40
0.0026076324147809
 40
0.1688100824050585
 40
0.339699427839355
 40
0.6601392221893025
 40
1.0
 40
1.0
 40
1.0
 40
1.0
 10
870.3223465803442
 20
490.9867801344675
 30
0.0
 10
870.2796793602719
 20
490.9853012600001
 30
0.0
 10
867.5175350888716
 20
490.8895634868093
 30
0.0
 10
861.971479181568
 20
490.8107017117595
 30
0.0
 10
851.1910770941776
 20
490.842855563529
 30
0.0
 10
837.5751202148763
 20
490.8280631691146
 30
0.0
 10
826.7555408072554
 20
490.8306606061468
 30
0.0
 10
821.1866365413904
 20
490.8319975230107
 30
0.0
  0
ARC
  5
72
330
1F
100
AcDbEntity
  8
0
  6
SLD-Solid
 62
     7
370
    15
100
AcDbCircle
 10
832.1265661658
 20
476.2352724201
 30
0.0
 40
46.2499997094433
100
AcDbArc
 50
348.5111844164
 51
11.4945666253
  0
SPLINE
  5
73
330
1F
100
AcDbEntity
  8
0
  6
SLD-Solid
 62
     7
370
    15
100
AcDbSpline
210
0.0
220
0.0
230
1.0
 70
     8
 71
     3
 72
    11
 73
     7
 74
     0
 42
0.00000001
 43
0.00000001
 40
0.0
 40
0.0
 40
0.0
 40
0.0
 40
0.2517226031294453
 40
0.5030800978297699
 40
0.7535907592023564
 40
1.0
 40
1.0
 40
1.0
 40
1.0
 10
877.3593692494366
 20
485.573540664492
 30
0.0
 10
877.0966777744339
 20
486.3726180916894
 30
0.0
 10
876.5716758425438
 20
487.9696139325491
 30
0.0
 10
874.7712599274788
 20
489.752650984736
 30
0.0
 10
872.5838215762031
 20
490.8777856445167
 30
0.0
 10
871.0162186114532
 20
490.9446698094143
 30
0.0
 10
870.2388863799823
 20
490.9778358714332
 30
0.0
  0
SPLINE
  5
74
330
1F
100
AcDbEntity
  8
0
  6
SLD-Solid
 62
     7
370
    15
100
AcDbSpline
210
0.0
220
0.0
230
1.0
 70
     8
 71
     3
 72
    11
 73
     7
 74
     0
 42
0.00000001
 43
0.00000001
 40
0.0
 40
0.0
 40
0.0
 40
0.0
 40
0.2464087064884274
 40
0.4969194505856604
 40
0.7482775191767329
 40
1.0
 40
1.0
 40
1.0
 40
1.0
 10
870.2388863799823
 20
461.4927089687886
 30
0.0
 10
871.0162185075012
 20
461.5258762246019
 30
0.0
 10
872.583823237196
 20
461.5927628812104
 30
0.0
 10
874.7712668503744
 20
462.7179026447415
 30
0.0
 10
876.5716910895071
 20
464.5009314959391
 30
0.0
 10
877.096695910264
 20
466.0979273512548
 30
0.0
 10
877.3593884673086
 20
466.8970036801499
 30
0.0
  0
SPLINE
  5
75
330
1F
100
AcDbEntity
  8
0
  6
SLD-Solid
 62
     7
370
    15
100
AcDbSpline
210
0.0
220
0.0
230
1.0
 70
     8
 71
     3
 72
    17
 73
    13
 74
     0
 42
0.00000001
 43
0.00000001
 40
0.0
 40
0.0
 40
0.0
 40
0.0
 40
0.0099152086438473
 40
0.0207701955766591
 40
0.0330882103579713
 40
0.0453348638357588
 40
0.0596886377560172
 40
0.2530819189754225
 40
0.4464288555113566
 40
0.6397856114562414
 40
0.8331477452056385
 40
1.0
 40
1.0
 40
1.0
 40
1.0
 10
857.3651250139011
 20
461.6859564074912
 30
0.0
 10
857.2254538985528
 20
461.6731302548189
 30
0.0
 10
856.93287343087
 20
461.6462622675612
 30
0.0
 10
856.8032542297303
 20
461.6543542463456
 30
0.0
 10
856.9502780935302
 20
461.6488381337676
 30
0.0
 10
857.3573753273087
 20
461.647027672321
 30
0.0
 10
858.2939241292145
 20
461.6490166887083
 30
0.0
 10
860.6469368112307
 20
461.6458577090812
 30
0.0
 10
863.1882332750833
 20
461.6463855704631
 30
0.0
 10
865.5539993792374
 20
461.6457105999126
 30
0.0
 10
867.5034513398962
 20
461.6454778966195
 30
0.0
 10
868.5289778049574
 20
461.6453988560695
 30
0.0
 10
869.004004368273
 20
461.6453622442781
 30
0.0
  0
LINE
  5
76
330
1F
100
AcDbEntity
  8
0
  6
SLD-Solid
 62
     7
370
    15
100
AcDbLine
 10
646.5861435928
 20
717.0484073243
 30
0.0
 11
640.0845647194
 21
725.1418398722
 31
0.0
  0
LINE
  5
77
330
1F
100
AcDbEntity
  8
0
  6
SLD-Solid
 62
     7
370
    15
100
AcDbLine
 10
456.8888983703
 20
725.1418398722
 30
0.0
 11
450.3873194968
 21
717.0484073243
 31
0.0
  0
LINE
  5
78
330
1F
100
AcDbEntity
  8
0
  6
SLD-Solid
 62
     7
370
    15
100
AcDbLine
 10
450.3873194968
 20
717.0484073243
 30
0.0
 11
450.777122693
 21
716.7352724202
 31
0.0
  0
LINE
  5
79
330
1F
100
AcDbEntity
  8
0
  6
SLD-Solid
 62
     7
370
    15
100
AcDbLine
 10
646.1963403966
 20
716.7352724201
 30
0.0
 11
646.5861435928
 21
717.0484073243
 31
0.0
  0
LINE
  5
7A
330
1F
100
AcDbEntity
  8
0
  6
SLD-Solid
 62
     7
370
    15
100
AcDbLine
 10
813.2863872952
 20
561.6184947981
 30
0.0
 11
812.5255420821
 21
561.3712812026
 31
0.0
  0
ARC
  5
7B
330
1F
100
AcDbEntity
  8
0
  6
SLD-Solid
 62
     7
370
    15
100
AcDbCircle
 10
149.6867315447
 20
-170.7647275799
 30
0.0
 40
2.0
100
AcDbArc
 50
270.0
 51
0.0
  0
ARC
  5
7C
330
1F
100
AcDbEntity
  8
0
  6
SLD-Solid
 62
     7
370
    15
100
AcDbCircle
 10
96.6867315447
 20
-170.7647275799
 30
0.0
 40
2.0
100
AcDbArc
 50
180.0
 51
270.0
  0
LINE
  5
7D
330
1F
100
AcDbEntity
  8
0
  6
SLD-Solid
 62
     7
370
    15
100
AcDbLine
 10
151.6867315447
 20
-170.7647275799
 30
0.0
 11
151.6867315447
 21
-166.7647275799
 31
0.0
  0
LINE
  5
7E
330
1F
100
AcDbEntity
  8
0
  6
SLD-Solid
 62
     7
370
    15
100
AcDbLine
 10
94.6867315447
 20
-166.7647275799
 30
0.0
 11
94.6867315447
 21
-170.7647275799
 31
0.0
  0
LINE
  5
7F
330
1F
100
AcDbEntity
  8
0
  6
SLD-Solid
 62
     7
370
    15
100
AcDbLine
 10
151.4867315447
 20
-166.7647275799
 30
0.0
 11
151.4867315447
 21
-98.7647275799
 31
0.0
  0
LINE
  5
80
330
1F
100
AcDbEntity
  8
0
  6
SLD-Solid
 62
     7
370
    15
100
AcDbLine
 10
94.8867315447
 20
-98.7647275799
 30
0.0
 11
94.8867315447
 21
-166.7647275799
 31
0.0
  0
LINE
  5
81
330
1F
100
AcDbEntity
  8
0
  6
SLD-Solid
 62
     7
370
    15
100
AcDbLine
 10
758.8867315447
 20
25.2352724201
 30
0.0
 11
758.1367315447
 21
25.2352724201
 31
0.0
  0
LINE
  5
82
330
1F
100
AcDbEntity
  8
0
  6
SLD-Solid
 62
     7
370
    15
100
AcDbLine
 10
-1.6132684553
 20
509.5352724201
 30
0.0
 11
-0.6132684553
 21
508.5352724201
 31
0.0
  0
LINE
  5
83
330
1F
100
AcDbEntity
  8
0
  6
SLD-Solid
 62
     7
370
    15
100
AcDbLine
 10
22.3867315447
 20
508.5352724201
 30
0.0
 11
23.3867315447
 21
509.5352724201
 31
0.0
  0
LINE
  5
84
330
1F
100
AcDbEntity
  8
0
  6
SLD-Solid
 62
     7
370
    15
100
AcDbLine
 10
-1.6132684553
 20
521.7352724201
 30
0.0
 11
-1.6132684553
 21
509.5352724201
 31
0.0
  0
LINE
  5
85
330
1F
100
AcDbEntity
  8
0
  6
SLD-Solid
 62
     7
370
    15
100
AcDbLine
 10
23.3867315447
 20
509.5352724201
 30
0.0
 11
23.3867315447
 21
522.5352724201
 31
0.0
  0
LINE
  5
86
330
1F
100
AcDbEntity
  8
0
  6
SLD-Solid
 62
     7
370
    15
100
AcDbLine
 10
0.2367315447
 20
526.2423792013
 30
0.0
 11
0.2367315447
 21
525.5352724201
 31
0.0
  0
LINE
  5
87
330
1F
100
AcDbEntity
  8
0
  6
SLD-Solid
 62
     7
370
    15
100
AcDbLine
 10
21.5367315447
 20
522.5352724201
 30
0.0
 11
21.5367315447
 21
524.7352724201
 31
0.0
  0
LINE
  5
88
330
1F
100
AcDbEntity
  8
0
  6
SLD-Solid
 62
     7
370
    15
100
AcDbLine
 10
21.5367315447
 20
525.5352724201
 30
0.0
 11
21.5367315447
 21
526.2423792013
 31
0.0
  0
LINE
  5
89
330
1F
100
AcDbEntity
  8
0
  6
SLD-Solid
 62
     7
370
    15
100
AcDbLine
 10
790.1508618205
 20
667.3787038087
 30
0.0
 11
790.1101866074
 21
667.4700618331
 31
0.0
  0
LINE
  5
8A
330
1F
100
AcDbEntity
  8
0
  6
SLD-Solid
 62
     7
370
    15
100
AcDbLine
 10
785.4330021352
 20
665.4363641446
 30
0.0
 11
785.4736773483
 21
665.3450061202
 31
0.0
  0
ARC
  5
8B
330
1F
100
AcDbEntity
  8
0
  6
SLD-Solid
 62
     7
370
    15
100
AcDbCircle
 10
156.5867315447
 20
-6.2647275799
 30
0.0
 40
1.500000000000001
100
AcDbArc
 50
90.0
 51
180.0
  0
ARC
  5
8C
330
1F
100
AcDbEntity
  8
0
  6
SLD-Solid
 62
     7
370
    15
100
AcDbCircle
 10
89.7867315447
 20
-6.2647275799
 30
0.0
 40
1.500000000000001
100
AcDbArc
 50
0.0
 51
90.0
  0
ARC
  5
8D
330
1F
100
AcDbEntity
  8
0
  6
SLD-Solid
 62
     7
370
    15
100
AcDbCircle
 10
150.3867315447
 20
-92.7321616342
 30
0.0
 40
4.700000000000071
100
AcDbArc
 50
350.5402980318
 51
0.0
  0
ARC
  5
8E
330
1F
100
AcDbEntity
  8
0
  6
SLD-Solid
 62
     7
370
    15
100
AcDbCircle
 10
95.9867315447
 20
-92.7321616342
 30
0.0
 40
4.700000000000057
100
AcDbArc
 50
180.0
 51
189.4597019682
  0
LINE
  5
8F
330
1F
100
AcDbEntity
  8
0
  6
SLD-Solid
 62
     7
370
    15
100
AcDbLine
 10
155.0867315447
 20
-92.7321616342
 30
0.0
 11
155.0867315447
 21
-6.2647275799
 31
0.0
  0
LINE
  5
90
330
1F
100
AcDbEntity
  8
0
  6
SLD-Solid
 62
     7
370
    15
100
AcDbLine
 10
91.2867315447
 20
-6.2647275799
 30
0.0
 11
91.2867315447
 21
-92.7321616342
 31
0.0
  0
LINE
  5
91
330
1F
100
AcDbEntity
  8
0
  6
SLD-Solid
 62
     7
370
    15
100
AcDbLine
 10
91.3506447717
 20
-93.5046248587
 30
0.0
 11
92.2270813244
 21
-98.7647275799
 31
0.0
  0
LINE
  5
92
330
1F
100
AcDbEntity
  8
0
  6
SLD-Solid
 62
     7
370
    15
100
AcDbLine
 10
154.1463817651
 20
-98.7647275799
 30
0.0
 11
155.0228183177
 21
-93.5046248587
 31
0.0
  0
LINE
  5
93
330
1F
100
AcDbEntity
  8
0
  6
SLD-Solid
 62
     7
370
    15
100
AcDbLine
 10
793.567790333
 20
650.6918118724
 30
0.0
 11
792.9515497603
 21
650.7327577526
 31
0.0
  0
LINE
  5
94
330
1F
100
AcDbEntity
  8
0
  6
SLD-Solid
 62
     7
370
    15
100
AcDbLine
 10
795.985445136
 20
612.276465277
 30
0.0
 11
797.684489858
 21
613.5194792622
 31
0.0
  0
LINE
  5
95
330
1F
100
AcDbEntity
  8
0
  6
SLD-Solid
 62
     7
370
    15
100
AcDbLine
 10
793.2699613669
 20
627.1060009236
 30
0.0
 11
791.1647800237
 21
627.1129469312
 31
0.0
  0
ARC
  5
96
330
1F
100
AcDbEntity
  8
0
  6
SLD-Solid
 62
     7
370
    15
100
AcDbCircle
 10
739.6867315447
 20
-170.7647275799
 30
0.0
 40
2.0
100
AcDbArc
 50
270.0
 51
0.0
  0
ARC
  5
97
330
1F
100
AcDbEntity
  8
0
  6
SLD-Solid
 62
     7
370
    15
100
AcDbCircle
 10
686.6867315447
 20
-170.7647275799
 30
0.0
 40
2.0
100
AcDbArc
 50
180.0
 51
270.0
  0
LINE
  5
98
330
1F
100
AcDbEntity
  8
0
  6
SLD-Solid
 62
     7
370
    15
100
AcDbLine
 10
741.6867315447
 20
-170.7647275799
 30
0.0
 11
741.6867315447
 21
-166.7647275799
 31
0.0
  0
LINE
  5
99
330
1F
100
AcDbEntity
  8
0
  6
SLD-Solid
 62
     7
370
    15
100
AcDbLine
 10
684.6867315447
 20
-166.7647275799
 30
0.0
 11
684.6867315447
 21
-170.7647275799
 31
0.0
  0
LINE
  5
9A
330
1F
100
AcDbEntity
  8
0
  6
SLD-Solid
 62
     7
370
    15
100
AcDbLine
 10
51.5867315447
 20
755.4352724201
 30
0.0
 11
52.3867315447
 21
755.4352724201
 31
0.0
  0
LINE
  5
9B
330
1F
100
AcDbEntity
  8
0
  6
SLD-Solid
 62
     7
370
    15
100
AcDbLine
 10
52.3867315447
 20
759.4352724201
 30
0.0
 11
51.5867315447
 21
759.4352724201
 31
0.0
  0
LINE
  5
9C
330
1F
100
AcDbEntity
  8
0
  6
SLD-Solid
 62
     7
370
    15
100
AcDbLine
 10
51.5867315447
 20
725.4352724201
 30
0.0
 11
52.3867315447
 21
725.4352724201
 31
0.0
  0
LINE
  5
9D
330
1F
100
AcDbEntity
  8
0
  6
SLD-Solid
 62
     7
370
    15
100
AcDbLine
 10
52.3867315447
 20
729.4352724201
 30
0.0
 11
51.5867315447
 21
729.4352724201
 31
0.0
  0
LINE
  5
9E
330
1F
100
AcDbEntity
  8
0
  6
SLD-Solid
 62
     7
370
    15
100
AcDbLine
 10
51.5867315447
 20
721.0852724201
 30
0.0
 11
52.3867315447
 21
721.0852724201
 31
0.0
  0
LINE
  5
9F
330
1F
100
AcDbEntity
  8
0
  6
SLD-Solid
 62
     7
370
    15
100
AcDbLine
 10
741.4867315447
 20
-166.7647275799
 30
0.0
 11
741.4867315447
 21
-98.7647275799
 31
0.0
  0
LINE
  5
A0
330
1F
100
AcDbEntity
  8
0
  6
SLD-Solid
 62
     7
370
    15
100
AcDbLine
 10
684.8867315447
 20
-98.7647275799
 30
0.0
 11
684.8867315447
 21
-166.7647275799
 31
0.0
  0
LINE
  5
A1
330
1F
100
AcDbEntity
  8
0
  6
SLD-Solid
 62
     7
370
    15
100
AcDbLine
 10
789.6753851025
 20
650.9503668327
 30
0.0
 11
788.858924094
 21
651.0046162868
 31
0.0
  0
LINE
  5
A2
330
1F
100
AcDbEntity
  8
0
  6
SLD-Solid
 62
     7
370
    15
100
AcDbLine
 10
793.5678150691
 20
650.6917357425
 30
0.0
 11
792.7594299833
 21
650.7454485949
 31
0.0
  0
ARC
  5
A3
330
1F
100
AcDbEntity
  8
0
  6
SLD-Solid
 62
     7
370
    15
100
AcDbCircle
 10
746.5867315447
 20
-6.2647275799
 30
0.0
 40
1.500000000000114
100
AcDbArc
 50
90.0
 51
180.0
  0
ARC
  5
A4
330
1F
100
AcDbEntity
  8
0
  6
SLD-Solid
 62
     7
370
    15
100
AcDbCircle
 10
679.7867315447
 20
-6.2647275799
 30
0.0
 40
1.500000000000114
100
AcDbArc
 50
0.0
 51
90.0
  0
LINE
  5
A5
330
1F
100
AcDbEntity
  8
0
  6
SLD-Solid
 62
     7
370
    15
100
AcDbLine
 10
745.0867315447
 20
-92.7321616342
 30
0.0
 11
745.0867315447
 21
-6.2647275799
 31
0.0
  0
LINE
  5
A6
330
1F
100
AcDbEntity
  8
0
  6
SLD-Solid
 62
     7
370
    15
100
AcDbLine
 10
681.2867315447
 20
-6.2647275799
 30
0.0
 11
681.2867315447
 21
-92.7321616342
 31
0.0
  0
ARC
  5
A7
330
1F
100
AcDbEntity
  8
0
  6
SLD-Solid
 62
     7
370
    15
100
AcDbCircle
 10
740.3867315447
 20
-92.7321616342
 30
0.0
 40
4.699999999999932
100
AcDbArc
 50
350.5402980318
 51
0.0
  0
ARC
  5
A8
330
1F
100
AcDbEntity
  8
0
  6
SLD-Solid
 62
     7
370
    15
100
AcDbCircle
 10
685.9867315447
 20
-92.7321616342
 30
0.0
 40
4.700000000000003
100
AcDbArc
 50
180.0
 51
189.4597019682
  0
LINE
  5
A9
330
1F
100
AcDbEntity
  8
0
  6
SLD-Solid
 62
     7
370
    15
100
AcDbLine
 10
681.3506447717
 20
-93.5046248587
 30
0.0
 11
682.2270813244
 21
-98.7647275799
 31
0.0
  0
LINE
  5
AA
330
1F
100
AcDbEntity
  8
0
  6
SLD-Solid
 62
     7
370
    15
100
AcDbLine
 10
744.1463817651
 20
-98.7647275799
 30
0.0
 11
745.0228183177
 21
-93.5046248587
 31
0.0
  0
LINE
  5
AB
330
1F
100
AcDbEntity
  8
0
  6
SLD-Solid
 62
     7
370
    15
100
AcDbLine
 10
45.0867315447
 20
616.2352724201
 30
0.0
 11
52.5867315447
 21
616.2352724201
 31
0.0
  0
LINE
  5
AC
330
1F
100
AcDbEntity
  8
0
  6
SLD-Solid
 62
     7
370
    15
100
AcDbLine
 10
52.5867315447
 20
641.2352724201
 30
0.0
 11
45.0867315447
 21
641.2352724201
 31
0.0
  0
LINE
  5
AD
330
1F
100
AcDbEntity
  8
0
  6
SLD-Solid
 62
     7
370
    15
100
AcDbLine
 10
815.0867315447
 20
-3.2647275799
 30
0.0
 11
815.0867315447
 21
-2.7647275799
 31
0.0
  0
LINE
  5
AE
330
1F
100
AcDbEntity
  8
0
  6
SLD-Solid
 62
     7
370
    15
100
AcDbLine
 10
807.2867315447
 20
-2.7647275799
 30
0.0
 11
807.2867315447
 21
-3.2647275799
 31
0.0
  0
LINE
  5
AF
330
1F
100
AcDbEntity
  8
0
  6
SLD-Solid
 62
     7
370
    15
100
AcDbLine
 10
802.6867315447
 20
0.2352724201
 30
0.0
 11
803.1867315447
 21
-0.2647275799
 31
0.0
  0
LINE
  5
B0
330
1F
100
AcDbEntity
  8
0
  6
SLD-Solid
 62
     7
370
    15
100
AcDbLine
 10
819.1867315447
 20
-0.2647275799
 30
0.0
 11
819.6867315447
 21
0.2352724201
 31
0.0
  0
LINE
  5
B1
330
1F
100
AcDbEntity
  8
0
  6
SLD-Solid
 62
     7
370
    15
100
AcDbLine
 10
802.6867315447
 20
1.7352724201
 30
0.0
 11
802.6867315447
 21
0.2352724201
 31
0.0
  0
LINE
  5
B2
330
1F
100
AcDbEntity
  8
0
  6
SLD-Solid
 62
     7
370
    15
100
AcDbLine
 10
819.6867315447
 20
0.2352724201
 30
0.0
 11
819.6867315447
 21
1.7352724201
 31
0.0
  0
LINE
  5
B3
330
1F
100
AcDbEntity
  8
0
  6
SLD-Solid
 62
     7
370
    15
100
AcDbLine
 10
788.8705030463
 20
650.9938248774
 30
0.0
 11
785.4341488261
 21
651.2221521808
 31
0.0
  0
LINE
  5
B4
330
1F
100
AcDbEntity
  8
0
  6
SLD-Solid
 62
     7
370
    15
100
AcDbLine
 10
796.1807819665
 20
650.5080960594
 30
0.0
 11
793.5496916175
 21
650.6829178985
 31
0.0
  0
LINE
  5
B5
330
1F
100
AcDbEntity
  8
0
  6
SLD-Solid
 62
     7
370
    15
100
AcDbLine
 10
796.677831241
 20
650.4538556805
 30
0.0
 11
796.1807819665
 21
650.5080960594
 31
0.0
  0
LINE
  5
B6
330
1F
100
AcDbEntity
  8
0
  6
SLD-Solid
 62
     7
370
    15
100
AcDbLine
 10
793.2698659814
 20
627.1062944901
 30
0.0
 11
791.1646846382
 21
627.1132404978
 31
0.0
  0
LINE
  5
B7
330
1F
100
AcDbEntity
  8
0
  6
SLD-Solid
 62
     7
370
    15
100
AcDbLine
 10
793.2699368977
 20
627.1060762319
 30
0.0
 11
791.1647555546
 21
627.1130222396
 31
0.0
  0
LINE
  5
B8
330
1F
100
AcDbEntity
  8
0
  6
SLD-Solid
 62
   142
420
    32960
370
     0
100
AcDbLine
 10
207.0810938688
 20
725.2352724202
 30
0.0
 11
376.9867315448
 21
725.2352724202
 31
0.0
  0
LINE
  5
B9
330
1F
100
AcDbEntity
  8
0
  6
SLD-Solid
 62
   142
420
    32960
370
     0
100
AcDbLine
 10
189.9867315448
 20
725.2352724202
 30
0.0
 11
207.0810938688
 21
725.2352724202
 31
0.0
  0
LINE
  5
BA
330
1F
100
AcDbEntity
  8
0
  6
SLD-Solid
 62
     7
370
    15
100
AcDbLine
 10
207.0810938688
 20
726.7352724202
 30
0.0
 11
189.9867315448
 21
726.7352724202
 31
0.0
  0
LINE
  5
BB
330
1F
100
AcDbEntity
  8
0
  6
SLD-Solid
 62
     7
370
    15
100
AcDbLine
 10
376.9867315448
 20
726.7352724202
 30
0.0
 11
207.0810938688
 21
726.7352724202
 31
0.0
  0
LINE
  5
BC
330
1F
100
AcDbEntity
  8
0
  6
SLD-Solid
 62
     7
370
    15
100
AcDbLine
 10
208.7154390597
 20
728.7352724202
 30
0.0
 11
374.9867315448
 21
728.7352724202
 31
0.0
  0
LINE
  5
BD
330
1F
100
AcDbEntity
  8
0
  6
SLD-Solid
 62
     7
370
    15
100
AcDbLine
 10
191.9867315448
 20
728.7352724202
 30
0.0
 11
208.7154390597
 21
728.7352724202
 31
0.0
  0
LINE
  5
BE
330
1F
100
AcDbEntity
  8
0
  6
SLD-Solid
 62
   142
420
    32960
370
     0
100
AcDbLine
 10
105.7867315447
 20
725.9852724201
 30
0.0
 11
105.2867315447
 21
725.9852724201
 31
0.0
  0
LINE
  5
BF
330
1F
100
AcDbEntity
  8
0
  6
SLD-Solid
 62
   142
420
    32960
370
     0
100
AcDbLine
 10
105.2867315447
 20
717.9852724201
 30
0.0
 11
105.7867315447
 21
717.9852724201
 31
0.0
  0
LINE
  5
C0
330
1F
100
AcDbEntity
  8
0
  6
SLD-Solid
 62
   142
420
    32960
370
     0
100
AcDbLine
 10
788.0704595221
 20
651.0469834777
 30
0.0
 11
787.9296226065
 21
651.066418938
 31
0.0
  0
LINE
  5
C1
330
1F
100
AcDbEntity
  8
0
  6
SLD-Solid
 62
   142
420
    32960
370
     0
100
AcDbLine
 10
789.6887220426
 20
650.8660129225
 30
0.0
 11
790.4193900812
 21
650.8061571006
 31
0.0
  0
SPLINE
  5
C2
330
1F
100
AcDbEntity
  8
0
  6
SLD-Solid
 62
   142
420
    32960
370
     0
100
AcDbSpline
210
0.0
220
0.0
230
1.0
 70
     8
 71
     3
 72
     9
 73
     5
 74
     0
 42
0.00000001
 43
0.00000001
 40
0.0
 40
0.0
 40
0.0
 40
0.0
 40
0.9123818333514252
 40
1.0
 40
1.0
 40
1.0
 40
1.0
 10
791.3748933129622
 20
650.7556629922393
 30
0.0
 10
791.6862153438615
 20
650.7460232342612
 30
0.0
 10
792.0274343593209
 20
650.7354577477231
 30
0.0
 10
792.2210631108625
 20
650.7350827985488
 30
0.0
 10
792.2380285070831
 20
650.7350499461894
 30
0.0
  0
SPLINE
  5
C3
330
1F
100
AcDbEntity
  8
0
  6
SLD-Solid
 62
   142
420
    32960
370
     0
100
AcDbSpline
210
0.0
220
0.0
230
1.0
 70
     8
 71
     3
 72
     9
 73
     5
 74
     0
 42
0.00000001
 43
0.00000001
 40
0.0
 40
0.0
 40
0.0
 40
0.0
 40
0.496332067223692
 40
1.0
 40
1.0
 40
1.0
 40
1.0
 10
803.2661881690007
 20
614.4725272198458
 30
0.0
 10
802.8886731415868
 20
614.406430138183
 30
0.0
 10
802.128063355631
 20
614.273259049657
 30
0.0
 10
801.3663781342584
 20
614.14036361501
 30
0.0
 10
800.9827417133832
 20
614.073428446166
 30
0.0
  0
SPLINE
  5
C4
330
1F
100
AcDbEntity
  8
0
  6
SLD-Solid
 62
   142
420
    32960
370
     0
100
AcDbSpline
210
0.0
220
0.0
230
1.0
 70
     8
 71
     3
 72
     9
 73
     5
 74
     0
 42
0.00000001
 43
0.00000001
 40
0.0
 40
0.0
 40
0.0
 40
0.0
 40
0.4998981072624344
 40
1.0
 40
1.0
 40
1.0
 40
1.0
 10
803.2011792034359
 20
615.169360024186
 30
0.0
 10
803.2123999531264
 20
615.0531465359002
 30
0.0
 10
803.2348460266909
 20
614.8206721844324
 30
0.0
 10
803.2557393689775
 20
614.5885913062788
 30
0.0
 10
803.2661881690008
 20
614.4725272198458
 30
0.0
  0
SPLINE
  5
C5
330
1F
100
AcDbEntity
  8
0
  6
SLD-Solid
 62
   142
420
    32960
370
     0
100
AcDbSpline
210
0.0
220
0.0
230
1.0
 70
     8
 71
     3
 72
    12
 73
     8
 74
     0
 42
0.00000001
 43
0.00000001
 40
0.0
 40
0.0
 40
0.0
 40
0.0
 40
0.125109964181939
 40
0.250156028777407
 40
0.4998854219305749
 40
0.7498967401005182
 40
1.0
 40
1.0
 40
1.0
 40
1.0
 10
802.8019379980102
 20
615.5699644292885
 30
0.0
 10
802.8107228660846
 20
615.5461377569175
 30
0.0
 10
802.828288115385
 20
615.4984965815858
 30
0.0
 10
802.8779880235269
 20
615.4116952991322
 30
0.0
 10
802.9581903248662
 20
615.3184432799721
 30
0.0
 10
803.0731222449036
 20
615.2306960838577
 30
0.0
 10
803.1584879840613
 20
615.1898080381349
 30
0.0
 10
803.2011787005155
 20
615.1693602568168
 30
0.0
  0
SPLINE
  5
C6
330
1F
100
AcDbEntity
  8
0
  6
SLD-Solid
 62
   142
420
    32960
370
     0
100
AcDbSpline
210
0.0
220
0.0
230
1.0
 70
     8
 71
     3
 72
    16
 73
    12
 74
     0
 42
0.00000001
 43
0.00000001
 40
0.0
 40
0.0
 40
0.0
 40
0.0
 40
0.1250863805377627
 40
0.2500995968202128
 40
0.3751035203423685
 40
0.5000746512834429
 40
0.6250242473268839
 40
0.7499427910612616
 40
0.8748498777441138
 40
0.9374198567272971
 40
1.0
 40
1.0
 40
1.0
 40
1.0
 10
803.2203333008083
 20
616.4110188493522
 30
0.0
 10
803.1828599378667
 20
616.393780637794
 30
0.0
 10
803.1079351305226
 20
616.3593142974768
 30
0.0
 10
803.006777263489
 20
616.2831747897649
 30
0.0
 10
802.9168194884127
 20
616.1916367934349
 30
0.0
 10
802.8474444590337
 20
616.080520824548
 30
0.0
 10
802.7965359241052
 20
615.9588762068743
 30
0.0
 10
802.7683064095091
 20
615.828682138453
 30
0.0
 10
802.7702915452661
 20
615.7181461839284
 30
0.0
 10
802.7836788410027
 20
615.632013528751
 30
0.0
 10
802.7958498082386
 20
615.5906535733825
 30
0.0
 10
802.8019357860999
 20
615.569971916137
 30
0.0
  0
SPLINE
  5
C7
330
1F
100
AcDbEntity
  8
0
  6
SLD-Solid
 62
   142
420
    32960
370
     0
100
AcDbSpline
210
0.0
220
0.0
230
1.0
 70
     8
 71
     3
 72
    17
 73
    13
 74
     0
 42
0.00000001
 43
0.00000001
 40
0.0
 40
0.0
 40
0.0
 40
0.0
 40
0.0625881928241825
 40
0.1251529137077811
 40
0.2501008805885767
 40
0.3750040730281778
 40
0.5000096249504913
 40
0.6250016255043115
 40
0.7499345076396935
 40
0.8748676060176971
 40
0.9374272079982247
 40
1.0
 40
1.0
 40
1.0
 40
1.0
 10
804.0474610346303
 20
616.0449901705307
 30
0.0
 10
804.0400074537152
 20
616.0661924686914
 30
0.0
 10
804.025103087141
 20
616.1085891136879
 30
0.0
 10
803.9863997196794
 20
616.1887839297868
 30
0.0
 10
803.9230652697184
 20
616.2790939697303
 30
0.0
 10
803.8262500896061
 20
616.3653361019722
 30
0.0
 10
803.7147692052026
 20
616.4272670137907
 30
0.0
 10
803.5939524766219
 20
616.4657855842732
 30
0.0
 10
803.4673952358737
 20
616.4734080171046
 30
0.0
 10
803.3623268586441
 20
616.4581819630472
 30
0.0
 10
803.2803382249012
 20
616.4345103521758
 30
0.0
 10
803.2403363476856
 20
616.4188499005417
 30
0.0
 10
803.2203333008083
 20
616.4110188493522
 30
0.0
  0
SPLINE
  5
C8
330
1F
100
AcDbEntity
  8
0
  6
SLD-Solid
 62
   142
420
    32960
370
     0
100
AcDbSpline
210
0.0
220
0.0
230
1.0
 70
     8
 71
     3
 72
    13
 73
     9
 74
     0
 42
0.00000001
 43
0.00000001
 40
0.0
 40
0.0
 40
0.0
 40
0.0
 40
0.1252129687240311
 40
0.2503508891030219
 40
0.5000341053572733
 40
0.7496609058298934
 40
0.8747812225092372
 40
1.0
 40
1.0
 40
1.0
 40
1.0
 10
803.8714772602192
 20
615.292262014964
 30
0.0
 10
803.8927162230688
 20
615.317945438494
 30
0.0
 10
803.9351814188644
 20
615.3692968917936
 30
0.0
 10
804.0068597270882
 20
615.4833701509602
 30
0.0
 10
804.069937250762
 20
615.6429846651664
 30
0.0
 10
804.0886688086441
 20
615.8142901338132
 30
0.0
 10
804.0739945075575
 20
615.9485785400972
 30
0.0
 10
804.0563091303699
 20
616.012839866416
 30
0.0
 10
804.0474629638603
 20
616.0449831668791
 30
0.0
  0
SPLINE
  5
C9
330
1F
100
AcDbEntity
  8
0
  6
SLD-Solid
 62
   142
420
    32960
370
     0
100
AcDbSpline
210
0.0
220
0.0
230
1.0
 70
     8
 71
     3
 72
     9
 73
     5
 74
     0
 42
0.00000001
 43
0.00000001
 40
0.0
 40
0.0
 40
0.0
 40
0.0
 40
0.5000084574256581
 40
0.9999999999999999
 40
0.9999999999999999
 40
0.9999999999999999
 40
0.9999999999999999
 10
804.1235525297088
 20
614.4672524728499
 30
0.0
 10
804.0821986477946
 20
614.604578569498
 30
0.0
 10
803.9994922829319
 20
614.879226117172
 30
0.0
 10
803.914148453264
 20
615.1545849349177
 30
0.0
 10
803.8714772602192
 20
615.292262014964
 30
0.0
  0
SPLINE
  5
CA
330
1F
100
AcDbEntity
  8
0
  6
SLD-Solid
 62
   142
420
    32960
370
     0
100
AcDbSpline
210
0.0
220
0.0
230
1.0
 70
     8
 71
     3
 72
    17
 73
    13
 74
     0
 42
0.00000001
 43
0.00000001
 40
0.0
 40
0.0
 40
0.0
 40
0.0
 40
0.0625702169189215
 40
0.1251279424568648
 40
0.2501349728727784
 40
0.3750873360729454
 40
0.5000457796181919
 40
0.6249919778468942
 40
0.7499544397767041
 40
0.8749053120345703
 40
0.9374472680349298
 40
1.0
 40
1.0
 40
1.0
 40
1.0
 10
804.7306115907018
 20
616.3136153532394
 30
0.0
 10
804.742881500887
 20
616.2723768436283
 30
0.0
 10
804.7674188717191
 20
616.189908057172
 30
0.0
 10
804.8022090776328
 20
616.0203067428404
 30
0.0
 10
804.8246115062783
 20
615.8028513519236
 30
0.0
 10
804.8042296483095
 20
615.5388774633973
 30
0.0
 10
804.7422922172625
 20
615.2809877309292
 30
0.0
 10
804.6395804154103
 20
615.0367707165108
 30
0.0
 10
804.4975626708385
 20
614.8157296745603
 30
0.0
 10
804.3523432496402
 20
614.6559685809676
 30
0.0
 10
804.2246339369595
 20
614.5434724076458
 30
0.0
 10
804.1572482670483
 20
614.4926605768005
 30
0.0
 10
804.1235525297088
 20
614.4672524728499
 30
0.0
  0
SPLINE
  5
CB
330
1F
100
AcDbEntity
  8
0
  6
SLD-Solid
 62
   142
420
    32960
370
     0
100
AcDbSpline
210
0.0
220
0.0
230
1.0
 70
     8
 71
     3
 72
    17
 73
    13
 74
     0
 42
0.00000001
 43
0.00000001
 40
0.0
 40
0.0
 40
0.0
 40
0.0
 40
0.0625643078841556
 40
0.1251082847994332
 40
0.2500544378946396
 40
0.3722205946401608
 40
0.4999775367650033
 40
0.6249324855518076
 40
0.749897692432263
 40
0.8748587485723921
 40
0.9374185882520447
 40
1.0
 40
1.0
 40
1.0
 40
1.0
 10
802.9325114142096
 20
617.1736134115304
 30
0.0
 10
802.9763114968385
 20
617.1906149098581
 30
0.0
 10
803.0638974287718
 20
617.2246123816877
 30
0.0
 10
803.2440327790805
 20
617.2738788890791
 30
0.0
 10
803.4736756236696
 20
617.298855530213
 30
0.0
 10
803.7499101490846
 20
617.2648710411682
 30
0.0
 10
804.0124493861616
 20
617.1705380168704
 30
0.0
 10
804.2550012557534
 20
617.024789083538
 30
0.0
 10
804.4639474611238
 20
616.8305318091423
 30
0.0
 10
804.5982797851763
 20
616.6289265812954
 30
0.0
 10
804.6823198228022
 20
616.4530047002335
 30
0.0
 10
804.7145124849262
 20
616.3600838081928
 30
0.0
 10
804.7306115907018
 20
616.3136153532394
 30
0.0
  0
SPLINE
  5
CC
330
1F
100
AcDbEntity
  8
0
  6
SLD-Solid
 62
   142
420
    32960
370
     0
100
AcDbSpline
210
0.0
220
0.0
230
1.0
 70
     8
 71
     3
 72
    19
 73
    15
 74
     0
 42
0.00000001
 43
0.00000001
 40
0.0
 40
0.0
 40
0.0
 40
0.0
 40
0.062563624195152
 40
0.1251094395618579
 40
0.1876542639276384
 40
0.2501954071452516
 40
0.3216525366447095
 40
0.3931172035824156
 40
0.5002367421284876
 40
0.6251150582598995
 40
0.7499809907806676
 40
0.8749164961190419
 40
0.937450104153176
 40
1.0
 40
1.0
 40
1.0
 40
1.0
 10
802.0994953171287
 20
615.3248285726477
 30
0.0
 10
802.0860372416661
 20
615.3694985364358
 30
0.0
 10
802.0591249216019
 20
615.4588257486402
 30
0.0
 10
802.0335921414604
 20
615.5979693739503
 30
0.0
 10
802.0180646784095
 20
615.7392806150064
 30
0.0
 10
802.0189314221018
 20
615.8890514397285
 30
0.0
 10
802.033393183599
 20
616.0453903783412
 30
0.0
 10
802.0754742238773
 20
616.2317587420135
 30
0.0
 10
802.1543613710257
 20
616.4492412993029
 30
0.0
 10
802.288686332765
 20
616.6834921576749
 30
0.0
 10
802.4730656390144
 20
616.8924583584446
 30
0.0
 10
802.6544982245882
 20
617.0304764955157
 30
0.0
 10
802.8108111298707
 20
617.1184970898771
 30
0.0
 10
802.8919411313016
 20
617.1552397094929
 30
0.0
 10
802.9325114142096
 20
617.1736134115304
 30
0.0
  0
SPLINE
  5
CD
330
1F
100
AcDbEntity
  8
0
  6
SLD-Solid
 62
   142
420
    32960
370
     0
100
AcDbSpline
210
0.0
220
0.0
230
1.0
 70
     8
 71
     3
 72
     9
 73
     5
 74
     0
 42
0.00000001
 43
0.00000001
 40
0.0
 40
0.0
 40
0.0
 40
0.0
 40
0.5000907651095579
 40
1.0
 40
1.0
 40
1.0
 40
1.0
 10
802.2211859076372
 20
615.0718202760578
 30
0.0
 10
802.1969199595798
 20
615.1115171946344
 30
0.0
 10
802.1483968718717
 20
615.1908966220228
 30
0.0
 10
802.1157938625659
 20
615.2801899922545
 30
0.0
 10
802.0994953171286
 20
615.3248285726477
 30
0.0
  0
LINE
  5
CE
330
1F
100
AcDbEntity
  8
0
  6
SLD-Solid
 62
   142
420
    32960
370
     0
100
AcDbLine
 10
801.4681398857
 20
614.94695825
 30
0.0
 11
802.2211855098
 21
615.0718199738
 31
0.0
  0
SPLINE
  5
CF
330
1F
100
AcDbEntity
  8
0
  6
SLD-Solid
 62
   142
420
    32960
370
     0
100
AcDbSpline
210
0.0
220
0.0
230
1.0
 70
     8
 71
     3
 72
     9
 73
     5
 74
     0
 42
0.00000001
 43
0.00000001
 40
0.0
 40
0.0
 40
0.0
 40
0.0
 40
0.5000030761515158
 40
1.0
 40
1.0
 40
1.0
 40
1.0
 10
801.0215688043545
 20
616.3028786344735
 30
0.0
 10
801.0976394257802
 20
616.0766361116134
 30
0.0
 10
801.2497797326185
 20
615.6241538497013
 30
0.0
 10
801.3953534665543
 20
615.1726891906974
 30
0.0
 10
801.4681398857155
 20
614.9469582499687
 30
0.0
  0
LINE
  5
D0
330
1F
100
AcDbEntity
  8
0
  6
SLD-Solid
 62
   142
420
    32960
370
     0
100
AcDbLine
 10
800.3492316576
 20
616.0192785022
 30
0.0
 11
801.0215688044
 21
616.3028786345
 31
0.0
  0
SPLINE
  5
D1
330
1F
100
AcDbEntity
  8
0
  6
SLD-Solid
 62
   142
420
    32960
370
     0
100
AcDbSpline
210
0.0
220
0.0
230
1.0
 70
     8
 71
     3
 72
    11
 73
     7
 74
     0
 42
0.00000001
 43
0.00000001
 40
0.0
 40
0.0
 40
0.0
 40
0.0
 40
0.2500092344260203
 40
0.4999993581482114
 40
0.7499898028806392
 40
1.0
 40
1.0
 40
1.0
 40
1.0
 10
800.9827417133832
 20
614.073428446166
 30
0.0
 10
800.931887726363
 20
614.2352205093123
 30
0.0
 10
800.8301836396009
 20
614.5587922682203
 30
0.0
 10
800.6732278533673
 20
615.0450828859236
 30
0.0
 10
800.5133750358242
 20
615.5318820810132
 30
0.0
 10
800.4039475580045
 20
615.8568087497378
 30
0.0
 10
800.3492316576435
 20
616.0192785021691
 30
0.0
  0
LINE
  5
D2
330
1F
100
AcDbEntity
  8
0
  6
SLD-Solid
 62
     7
370
    15
100
AcDbLine
 10
42.2867315447
 20
685.5352724201
 30
0.0
 11
42.2321553661
 21
685.5352724201
 31
0.0
  0
LINE
  5
D3
330
1F
100
AcDbEntity
  8
0
  6
SLD-Solid
 62
   142
420
    32960
370
     0
100
AcDbLine
 10
42.2867315447
 20
685.5352724201
 30
0.0
 11
42.2867315447
 21
683.4852724201
 31
0.0
  0
SPLINE
  5
D4
330
1F
100
AcDbEntity
  8
0
  6
SLD-Solid
 62
   142
420
    32960
370
     0
100
AcDbSpline
210
0.0
220
0.0
230
1.0
 70
     8
 71
     3
 72
    14
 73
    10
 74
     0
 42
0.00000001
 43
0.00000001
 40
0.0
 40
0.0
 40
0.0
 40
0.0
 40
0.25
 40
0.25
 40
0.5
 40
0.5
 40
0.75
 40
0.75
 40
1.0
 40
1.0
 40
1.0
 40
1.0
 10
-20.65619738744656
 20
683.4852724201118
 30
0.0
 10
-20.65678664309772
 20
683.7536167926056
 30
0.0
 10
-20.65737589874878
 20
684.0218555830483
 30
0.0
 10
-20.65855441005032
 20
684.5176913298718
 30
0.0
 10
-20.65914366570149
 20
684.7450931960603
 30
0.0
 10
-20.66032217700337
 20
685.1245894470279
 30
0.0
 10
-20.66091143265453
 20
685.2765345162378
 30
0.0
 10
-20.66208994395652
 20
685.4819164072816
 30
0.0
 10
-20.66267919960757
 20
685.5352724201115
 30
0.0
 10
-20.6632684552584
 20
685.5352724201116
 30
0.0
  0
LINE
  5
D5
330
1F
100
AcDbEntity
  8
0
  6
SLD-Solid
 62
     7
370
    15
100
AcDbLine
 10
-20.6632684553
 20
685.5352724201
 30
0.0
 11
42.2321553661
 21
685.5352724201
 31
0.0
  0
LINE
  5
D6
330
1F
100
AcDbEntity
  8
0
  6
SLD-Solid
 62
     7
370
    15
100
AcDbLine
 10
-20.6632684553
 20
526.3352724201
 30
0.0
 11
-10.7132684553
 21
526.3352724201
 31
0.0
  0
LINE
  5
D7
330
1F
100
AcDbEntity
  8
0
  6
SLD-Solid
 62
   142
420
    32960
370
     0
100
AcDbLine
 10
-20.6632684553
 20
683.4782013523
 30
0.0
 11
-10.7132684553
 21
673.5282013523
 31
0.0
  0
LINE
  5
D8
330
1F
100
AcDbEntity
  8
0
  6
SLD-Solid
 62
   142
420
    32960
370
     0
100
AcDbLine
 10
-10.7132684553
 20
526.3352724201
 30
0.0
 11
-10.7132684553
 21
673.5282013523
 31
0.0
  0
LINE
  5
D9
330
1F
100
AcDbEntity
  8
0
  6
SLD-Solid
 62
     7
370
    15
100
AcDbLine
 10
-22.7132684553
 20
526.3352724201
 30
0.0
 11
-22.7132684553
 21
683.4852724201
 31
0.0
  0
LINE
  5
DA
330
1F
100
AcDbEntity
  8
0
  6
SLD-Solid
 62
   142
420
    32960
370
     0
100
AcDbLine
 10
-20.6632684553
 20
526.3352724201
 30
0.0
 11
-22.7132684553
 21
526.3352724201
 31
0.0
  0
SPLINE
  5
DB
330
1F
100
AcDbEntity
  8
0
  6
SLD-Solid
 62
   142
420
    32960
370
     0
100
AcDbSpline
210
0.0
220
0.0
230
1.0
 70
     8
 71
     3
 72
    14
 73
    10
 74
     0
 42
0.00000001
 43
0.00000001
 40
0.0
 40
0.0
 40
0.0
 40
0.0
 40
0.25
 40
0.25
 40
0.5
 40
0.5
 40
0.75
 40
0.75
 40
1.0
 40
1.0
 40
1.0
 40
1.0
 10
-22.71326845525839
 20
683.4852724201118
 30
0.0
 10
-22.71326845525839
 20
683.4846831644606
 30
0.0
 10
-22.65991244242854
 20
683.4840939088097
 30
0.0
 10
-22.4545305513843
 20
683.4829153975078
 30
0.0
 10
-22.30258548217473
 20
683.4823261418567
 30
0.0
 10
-21.92308923120706
 20
683.4811476305549
 30
0.0
 10
-21.69568736501876
 20
683.4805583749038
 30
0.0
 10
-21.19985161819499
 20
683.4793798636017
 30
0.0
 10
-20.93161282775263
 20
683.4787906079508
 30
0.0
 10
-20.6632684552584
 20
683.4782013522998
 30
0.0
  0
LINE
  5
DC
330
1F
100
AcDbEntity
  8
0
  6
SLD-Solid
 62
     7
370
    15
100
AcDbLine
 10
-10.7061973874
 20
673.5352724201
 30
0.0
 11
42.2867315447
 21
673.5352724201
 31
0.0
  0
LINE
  5
DD
330
1F
100
AcDbEntity
  8
0
  6
SLD-Solid
 62
   142
420
    32960
370
     0
100
AcDbLine
 10
-10.7061973874
 20
673.5352724201
 30
0.0
 11
-20.6561973874
 21
683.4852724201
 31
0.0
  0
LINE
  5
DE
330
1F
100
AcDbEntity
  8
0
  6
SLD-Solid
 62
   142
420
    32960
370
     0
100
AcDbLine
 10
42.2867315447
 20
673.5352724201
 30
0.0
 11
42.2867315447
 21
683.4852724201
 31
0.0
  0
ARC
  5
DF
330
1F
100
AcDbEntity
  8
0
  6
SLD-Solid
 62
   142
420
    32960
370
     0
100
AcDbCircle
 10
-20.6632684553
 20
683.4852724201
 30
0.0
 40
2.049999999999994
100
AcDbArc
 50
90.0
 51
180.0
  0
SPLINE
  5
E0
330
1F
100
AcDbEntity
  8
0
  6
SLD-Solid
 62
   142
420
    32960
370
     0
100
AcDbSpline
210
0.0
220
0.0
230
1.0
 70
     8
 71
     3
 72
     8
 73
     4
 74
     0
 42
0.00000001
 43
0.00000001
 40
0.0
 40
0.0
 40
0.0
 40
0.0
 40
1.0
 40
1.0
 40
1.0
 40
1.0
 10
42.2867220678817
 20
685.5345460658377
 30
0.0
 10
42.32814841818416
 20
685.533442992411
 30
0.0
 10
42.3695413007284
 20
685.5310833752707
 30
0.0
 10
42.41082463873863
 20
685.5274715512023
 30
0.0
  0
LINE
  5
E1
330
1F
100
AcDbEntity
  8
0
  6
SLD-Solid
 62
   142
420
    32960
370
     0
100
AcDbLine
 10
47.3374296294
 20
685.0964494648
 30
0.0
 11
42.4108246387
 21
685.5274715512
 31
0.0
  0
ARC
  5
E2
330
1F
100
AcDbEntity
  8
0
  6
SLD-Solid
 62
   142
420
    32960
370
     0
100
AcDbCircle
 10
-20.6632684553
 20
527.5852724201
 30
0.0
 40
2.050000000000072
100
AcDbArc
 50
217.5718693197
 51
270.0
  0
LINE
  5
E3
330
1F
100
AcDbEntity
  8
0
  6
SLD-Solid
 62
   142
420
    32960
370
     0
100
AcDbLine
 10
-20.6632684553
 20
526.2423792013
 30
0.0
 11
-20.6632684553
 21
525.5352724201
 31
0.0
  0
ARC
  5
E4
330
1F
100
AcDbEntity
  8
0
  6
SLD-Solid
 62
   142
420
    32960
370
     0
100
AcDbCircle
 10
-20.6632684553
 20
683.4852724201
 30
0.0
 40
1.25
100
AcDbArc
 50
90.0
 51
180.0
  0
LINE
  5
E5
330
1F
100
AcDbEntity
  8
0
  6
SLD-Solid
 62
   142
420
    32960
370
     0
100
AcDbLine
 10
784.1867315447
 20
529.2352724201
 30
0.0
 11
806.1867315447
 21
529.2352724201
 31
0.0
  0
LINE
  5
E6
330
1F
100
AcDbEntity
  8
0
  6
SLD-Solid
 62
   142
420
    32960
370
     0
100
AcDbLine
 10
806.1867315447
 20
529.2352724201
 30
0.0
 11
806.1867315447
 21
527.2352724201
 31
0.0
  0
LINE
  5
E7
330
1F
100
AcDbEntity
  8
0
  6
SLD-Solid
 62
   142
420
    32960
370
     0
100
AcDbLine
 10
784.1867315447
 20
529.2352724201
 30
0.0
 11
784.1867315447
 21
527.2352724201
 31
0.0
  0
LINE
  5
E8
330
1F
100
AcDbEntity
  8
0
  6
SLD-Solid
 62
   142
420
    32960
370
     0
100
AcDbLine
 10
806.1867315447
 20
527.2352724201
 30
0.0
 11
806.1867315447
 21
526.2352724201
 31
0.0
  0
LINE
  5
E9
330
1F
100
AcDbEntity
  8
0
  6
SLD-Solid
 62
   142
420
    32960
370
     0
100
AcDbLine
 10
784.1867315447
 20
527.2352724201
 30
0.0
 11
781.1867315447
 21
527.2352724201
 31
0.0
  0
LINE
  5
EA
330
1F
100
AcDbEntity
  8
0
  6
SLD-Solid
 62
   142
420
    32960
370
     0
100
AcDbLine
 10
781.1867315447
 20
527.2352724201
 30
0.0
 11
781.1867315447
 21
526.2352724201
 31
0.0
  0
LINE
  5
EB
330
1F
100
AcDbEntity
  8
0
  6
SLD-Solid
 62
   142
420
    32960
370
     0
100
AcDbLine
 10
375.0845647194
 20
725.1418398723
 30
0.0
 11
191.8888983703
 21
725.1418398723
 31
0.0
  0
LINE
  5
EC
330
1F
100
AcDbEntity
  8
0
  6
SLD-Solid
 62
   142
420
    32960
370
     0
100
AcDbLine
 10
381.5861435929
 20
717.0484073244
 30
0.0
 11
185.3873194968
 21
717.0484073244
 31
0.0
  0
LINE
  5
ED
330
1F
100
AcDbEntity
  8
0
  6
SLD-Solid
 62
     7
370
    15
100
AcDbLine
 10
154.7867315447
 20
679.5352724201
 30
0.0
 11
53.3867315447
 21
679.5352724201
 31
0.0
  0
LINE
  5
EE
330
1F
100
AcDbEntity
  8
0
  6
SLD-Solid
 62
   142
420
    32960
370
     0
100
AcDbLine
 10
53.3867315447
 20
680.0352724201
 30
0.0
 11
53.3867315447
 21
679.5352724201
 31
0.0
  0
ARC
  5
EF
330
1F
100
AcDbEntity
  8
0
  6
SLD-Solid
 62
   142
420
    32960
370
     0
100
AcDbCircle
 10
53.3867315447
 20
680.5352724201
 30
0.0
 40
0.5000000000000568
100
AcDbArc
 50
180.0
 51
270.0
  0
LINE
  5
F0
330
1F
100
AcDbEntity
  8
0
  6
SLD-Solid
 62
   142
420
    32960
370
     0
100
AcDbLine
 10
155.2867315447
 20
680.5352724201
 30
0.0
 11
155.2867315447
 21
694.6852724201
 31
0.0
  0
ARC
  5
F1
330
1F
100
AcDbEntity
  8
0
  6
SLD-Solid
 62
   142
420
    32960
370
     0
100
AcDbCircle
 10
154.5367315447
 20
694.6852724201
 30
0.0
 40
0.75
100
AcDbArc
 50
0.0
 51
90.0
  0
ARC
  5
F2
330
1F
100
AcDbEntity
  8
0
  6
SLD-Solid
 62
   142
420
    32960
370
     0
100
AcDbCircle
 10
132.3367315447
 20
697.9852724201
 30
0.0
 40
2.549999999999955
100
AcDbArc
 50
180.0
 51
270.0
  0
LINE
  5
F3
330
1F
100
AcDbEntity
  8
0
  6
SLD-Solid
 62
   142
420
    32960
370
     0
100
AcDbLine
 10
129.7867315447
 20
697.9852724201
 30
0.0
 11
129.7867315447
 21
714.6852724201
 31
0.0
  0
ARC
  5
F4
330
1F
100
AcDbEntity
  8
0
  6
SLD-Solid
 62
   142
420
    32960
370
     0
100
AcDbCircle
 10
129.0367315447
 20
714.6852724201
 30
0.0
 40
0.7500000000000284
100
AcDbArc
 50
0.0
 51
90.0
  0
LINE
  5
F5
330
1F
100
AcDbEntity
  8
0
  6
SLD-Solid
 62
   142
420
    32960
370
     0
100
AcDbLine
 10
129.0367315447
 20
715.4352724201
 30
0.0
 11
107.8367315447
 21
715.4352724201
 31
0.0
  0
ARC
  5
F6
330
1F
100
AcDbEntity
  8
0
  6
SLD-Solid
 62
   142
420
    32960
370
     0
100
AcDbCircle
 10
107.8367315447
 20
717.9852724201
 30
0.0
 40
2.550000000000054
100
AcDbArc
 50
180.0
 51
270.0
  0
LINE
  5
F7
330
1F
100
AcDbEntity
  8
0
  6
SLD-Solid
 62
   142
420
    32960
370
     0
100
AcDbLine
 10
105.2867315447
 20
717.9852724201
 30
0.0
 11
105.2867315447
 21
732.8694118185
 31
0.0
  0
ARC
  5
F8
330
1F
100
AcDbEntity
  8
0
  6
SLD-Solid
 62
   142
420
    32960
370
     0
100
AcDbCircle
 10
53.6367315447
 20
764.7320416777
 30
0.0
 40
0.7499999999995879
100
AcDbArc
 50
75.0
 51
180.0000000001
  0
LINE
  5
F9
330
1F
100
AcDbEntity
  8
0
  6
SLD-Solid
 62
   142
420
    32960
370
     0
100
AcDbLine
 10
52.8867315447
 20
764.7320416777
 30
0.0
 11
52.8867315447
 21
680.5352724201
 31
0.0
  0
LINE
  5
FA
330
1F
100
AcDbEntity
  8
0
  6
SLD-Solid
 62
   142
420
    32960
370
     0
100
AcDbLine
 10
155.7867315447
 20
680.5352724201
 30
0.0
 11
155.2867315447
 21
680.5352724201
 31
0.0
  0
ARC
  5
FB
330
1F
100
AcDbEntity
  8
0
  6
SLD-Solid
 62
   142
420
    32960
370
     0
100
AcDbCircle
 10
154.7867315447
 20
680.5352724201
 30
0.0
 40
1.0
100
AcDbArc
 50
270.0
 51
0.0
  0
LINE
  5
FC
330
1F
100
AcDbEntity
  8
0
  6
SLD-Solid
 62
   142
420
    32960
370
     0
100
AcDbLine
 10
53.9602553511
 20
765.9394489606
 30
0.0
 11
53.9645838756
 21
765.9382891359
 31
0.0
  0
LINE
  5
FD
330
1F
100
AcDbEntity
  8
0
  6
SLD-Solid
 62
   142
420
    32960
370
     0
100
AcDbLine
 10
53.8308458286
 20
765.4564860474
 30
0.0
 11
53.9602553511
 21
765.9394489606
 31
0.0
  0
LINE
  5
FE
330
1F
100
AcDbEntity
  8
0
  6
SLD-Solid
 62
   142
420
    32960
370
     0
100
AcDbLine
 10
105.2867315447
 20
732.8694118185
 30
0.0
 11
105.7867315447
 21
732.8694118185
 31
0.0
  0
LINE
  5
FF
330
1F
100
AcDbEntity
  8
0
  6
SLD-Solid
 62
   142
420
    32960
370
     0
100
AcDbLine
 10
132.3367315447
 20
695.9352724201
 30
0.0
 11
132.3367315447
 21
695.4352724201
 31
0.0
  0
LINE
  5
100
330
1F
100
AcDbEntity
  8
0
  6
SLD-Solid
 62
   142
420
    32960
370
     0
100
AcDbLine
 10
154.5367315447
 20
695.9352724201
 30
0.0
 11
154.5367315447
 21
695.4352724201
 31
0.0
  0
LINE
  5
101
330
1F
100
AcDbEntity
  8
0
  6
SLD-Solid
 62
   142
420
    32960
370
     0
100
AcDbLine
 10
764.6867315447
 20
12.7352724201
 30
0.0
 11
764.6867315447
 21
17.7352724201
 31
0.0
  0
LINE
  5
102
330
1F
100
AcDbEntity
  8
0
  6
SLD-Solid
 62
     7
370
    15
100
AcDbLine
 10
764.6867315447
 20
2.7352724201
 30
0.0
 11
764.6867315447
 21
12.7352724201
 31
0.0
  0
LINE
  5
103
330
1F
100
AcDbEntity
  8
0
  6
SLD-Solid
 62
   142
420
    32960
370
     0
100
AcDbLine
 10
764.6867315447
 20
14.4852724201
 30
0.0
 11
764.6867315447
 21
11.6852724201
 31
0.0
  0
LINE
  5
104
330
1F
100
AcDbEntity
  8
0
  6
SLD-Solid
 62
   142
420
    32960
370
     0
100
AcDbLine
 10
764.6867315447
 20
14.4852724201
 30
0.0
 11
764.6867315447
 21
11.6852724201
 31
0.0
  0
LINE
  5
105
330
1F
100
AcDbEntity
  8
0
  6
SLD-Solid
 62
   142
420
    32960
370
     0
100
AcDbLine
 10
764.6867315447
 20
14.4852724201
 30
0.0
 11
764.6867315447
 21
11.6852724201
 31
0.0
  0
LINE
  5
106
330
1F
100
AcDbEntity
  8
0
  6
SLD-Solid
 62
   142
420
    32960
370
     0
100
AcDbLine
 10
762.1867315447
 20
2.7352724201
 30
0.0
 11
762.1867315447
 21
12.7352724201
 31
0.0
  0
LINE
  5
107
330
1F
100
AcDbEntity
  8
0
  6
SLD-Solid
 62
   142
420
    32960
370
     0
100
AcDbLine
 10
762.1867315447
 20
12.7352724201
 30
0.0
 11
764.6867315447
 21
12.7352724201
 31
0.0
  0
LINE
  5
108
330
1F
100
AcDbEntity
  8
0
  6
SLD-Solid
 62
     7
370
    15
100
AcDbLine
 10
817.2951322153
 20
-0.2647275799
 30
0.0
 11
819.1867315447
 21
-0.2647275799
 31
0.0
  0
LINE
  5
109
330
1F
100
AcDbEntity
  8
0
  6
SLD-Solid
 62
     7
370
    15
100
AcDbLine
 10
779.1847167263
 20
-0.2647275799
 30
0.0
 11
817.2951322153
 21
-0.2647275799
 31
0.0
  0
LINE
  5
10A
330
1F
100
AcDbEntity
  8
0
  6
SLD-Solid
 62
     7
370
    15
100
AcDbLine
 10
775.3669663072
 20
-0.2647275799
 30
0.0
 11
779.1847167263
 21
-0.2647275799
 31
0.0
  0
LINE
  5
10B
330
1F
100
AcDbEntity
  8
0
  6
SLD-Solid
 62
     7
370
    15
100
AcDbLine
 10
767.6867315447
 20
-0.2647275799
 30
0.0
 11
775.3669663072
 21
-0.2647275799
 31
0.0
  0
ARC
  5
10C
330
1F
100
AcDbEntity
  8
0
  6
SLD-Solid
 62
     7
370
    15
100
AcDbCircle
 10
767.6867315447
 20
2.7352724201
 30
0.0
 40
5.5
100
AcDbArc
 50
180.0
 51
270.0
  0
ARC
  5
10D
330
1F
100
AcDbEntity
  8
0
  6
SLD-Solid
 62
   142
420
    32960
370
     0
100
AcDbCircle
 10
767.6867315447
 20
2.7352724201
 30
0.0
 40
3.000000000000003
100
AcDbArc
 50
180.0
 51
270.0
  0
LINE
  5
10E
330
1F
100
AcDbEntity
  8
0
  6
SLD-Solid
 62
     7
370
    15
100
AcDbLine
 10
767.6867315447
 20
-2.7647275799
 30
0.0
 11
775.3669663072
 21
-2.7647275799
 31
0.0
  0
LINE
  5
10F
330
1F
100
AcDbEntity
  8
0
  6
SLD-Solid
 62
     7
370
    15
100
AcDbLine
 10
775.3669663072
 20
-2.7647275799
 30
0.0
 11
779.1847167263
 21
-2.7647275799
 31
0.0
  0
LINE
  5
110
330
1F
100
AcDbEntity
  8
0
  6
SLD-Solid
 62
     7
370
    15
100
AcDbLine
 10
779.1847167263
 20
-2.7647275799
 30
0.0
 11
817.2951322153
 21
-2.7647275799
 31
0.0
  0
LINE
  5
111
330
1F
100
AcDbEntity
  8
0
  6
SLD-Solid
 62
     7
370
    15
100
AcDbLine
 10
817.2951322153
 20
-2.7647275799
 30
0.0
 11
819.1867315447
 21
-2.7647275799
 31
0.0
  0
LINE
  5
112
330
1F
100
AcDbEntity
  8
0
  6
SLD-Solid
 62
     7
370
    15
100
AcDbLine
 10
135.040800177
 20
715.5457625102
 30
0.0
 11
135.0202007021
 21
715.7812155857
 31
0.0
  0
LINE
  5
113
330
1F
100
AcDbEntity
  8
0
  6
SLD-Solid
 62
     7
370
    15
100
AcDbLine
 10
135.0367315447
 20
715.7812155857
 30
0.0
 11
135.0202007021
 21
715.7812155857
 31
0.0
  0
LINE
  5
114
330
1F
100
AcDbEntity
  8
0
  6
SLD-Solid
 62
     7
370
    15
100
AcDbLine
 10
135.0202007021
 20
716.7352724201
 30
0.0
 11
134.9367315447
 21
716.7352724201
 31
0.0
  0
LINE
  5
115
330
1F
100
AcDbEntity
  8
0
  6
SLD-Solid
 62
     7
370
    15
100
AcDbLine
 10
135.0202007021
 20
715.7812155857
 30
0.0
 11
134.9367315447
 21
716.7352724201
 31
0.0
  0
LINE
  5
116
330
1F
100
AcDbEntity
  8
0
  6
SLD-Solid
 62
   142
420
    32960
370
     0
100
AcDbLine
 10
136.6865048153
 20
696.7352724201
 30
0.0
 11
136.2073034937
 21
702.2125685897
 31
0.0
  0
LINE
  5
117
330
1F
100
AcDbEntity
  8
0
  6
SLD-Solid
 62
   142
420
    32960
370
     0
100
AcDbLine
 10
691.9705788015
 20
695.5252724201
 30
0.0
 11
691.9700547237
 21
695.5352724201
 31
0.0
  0
LINE
  5
118
330
1F
100
AcDbEntity
  8
0
  6
SLD-Solid
 62
   142
420
    32960
370
     0
100
AcDbLine
 10
691.9071653886
 20
696.7352724201
 30
0.0
 11
691.8547576093
 21
697.7352724201
 31
0.0
  0
LINE
  5
119
330
1F
100
AcDbEntity
  8
0
  6
SLD-Solid
 62
   142
420
    32960
370
     0
100
AcDbLine
 10
809.0866646256
 20
596.2815624675
 30
0.0
 11
808.5145846657
 21
595.8446493293
 31
0.0
  0
LINE
  5
11A
330
1F
100
AcDbEntity
  8
0
  6
SLD-Solid
 62
   142
420
    32960
370
     0
100
AcDbLine
 10
809.8718359904
 20
595.9445099723
 30
0.0
 11
810.035851087
 21
596.0799397709
 31
0.0
  0
ARC
  5
11B
330
1F
100
AcDbEntity
  8
0
  6
SLD-Solid
 62
     7
370
    15
100
AcDbCircle
 10
825.9943794837
 20
562.1463417032
 30
0.0
 40
10.00000000000012
100
AcDbArc
 50
320.1368571726
 51
70.1368571726
  0
ARC
  5
11C
330
1F
100
AcDbEntity
  8
0
  6
SLD-Solid
 62
     7
370
    15
100
AcDbCircle
 10
825.9943794837
 20
562.1463417032
 30
0.0
 40
10.80000000000008
100
AcDbArc
 50
320.1368571726
 51
70.1368571726
  0
LINE
  5
11D
330
1F
100
AcDbEntity
  8
0
  6
SLD-Solid
 62
     7
370
    15
100
AcDbLine
 10
827.9169337115
 20
548.8470038002
 30
0.0
 11
833.6701557252
 21
555.7367817268
 31
0.0
  0
LINE
  5
11E
330
1F
100
AcDbEntity
  8
0
  6
SLD-Solid
 62
   142
420
    32960
370
     0
100
AcDbLine
 10
826.6350217162
 20
547.3118485519
 30
0.0
 11
827.9169337115
 21
548.8470038002
 31
0.0
  0
LINE
  5
11F
330
1F
100
AcDbEntity
  8
0
  6
SLD-Solid
 62
     7
370
    15
100
AcDbLine
 10
829.6639452956
 20
572.303816131
 30
0.0
 11
811.9141560331
 21
578.7162388556
 31
0.0
  0
LINE
  5
120
330
1F
100
AcDbEntity
  8
0
  6
SLD-Solid
 62
   142
420
    32960
370
     0
100
AcDbLine
 10
807.2116215757
 20
580.4151119166
 30
0.0
 11
811.9141560331
 21
578.7162388556
 31
0.0
  0
LINE
  5
121
330
1F
100
AcDbEntity
  8
0
  6
SLD-Solid
 62
   142
420
    32960
370
     0
100
AcDbLine
 10
807.2116215757
 20
580.4151119166
 30
0.0
 11
806.939801886
 21
580.5133115476
 31
0.0
  0
LINE
  5
122
330
1F
100
AcDbEntity
  8
0
  6
SLD-Solid
 62
     7
370
    15
100
AcDbLine
 10
829.3921256058
 20
571.5514106178
 30
0.0
 11
811.6423363433
 21
577.9638333424
 31
0.0
  0
LINE
  5
123
330
1F
100
AcDbEntity
  8
0
  6
SLD-Solid
 62
   142
420
    32960
370
     0
100
AcDbLine
 10
811.9141560331
 20
578.7162388556
 30
0.0
 11
811.6423363433
 21
577.9638333424
 31
0.0
  0
LINE
  5
124
330
1F
100
AcDbEntity
  8
0
  6
SLD-Solid
 62
     7
370
    15
100
AcDbLine
 10
828.5309958108
 20
548.3342390021
 30
0.0
 11
834.2842178245
 21
555.2240169286
 31
0.0
  0
LINE
  5
125
330
1F
100
AcDbEntity
  8
0
  6
SLD-Solid
 62
   142
420
    32960
370
     0
100
AcDbLine
 10
828.5309958108
 20
548.3342390021
 30
0.0
 11
827.2490838155
 21
546.7990837538
 31
0.0
  0
LINE
  5
126
330
1F
100
AcDbEntity
  8
0
  6
SLD-Solid
 62
   142
420
    32960
370
     0
100
AcDbLine
 10
827.9169337115
 20
548.8470038002
 30
0.0
 11
828.5309958108
 21
548.3342390021
 31
0.0
  0
LINE
  5
127
330
1F
100
AcDbEntity
  8
0
  6
SLD-Solid
 62
   142
420
    32960
370
     0
100
AcDbLine
 10
811.6423363433
 20
577.9638333424
 30
0.0
 11
806.939801886
 21
579.6627064035
 31
0.0
  0
LINE
  5
128
330
1F
100
AcDbEntity
  8
0
  6
SLD-Solid
 62
   142
420
    32960
370
     0
100
AcDbLine
 10
806.939801886
 20
579.6627064035
 30
0.0
 11
806.6679821962
 21
579.7609060344
 31
0.0
  0
LINE
  5
129
330
1F
100
AcDbEntity
  8
0
  6
SLD-Solid
 62
   142
420
    32960
370
     0
100
AcDbLine
 10
827.2490838155
 20
546.7990837538
 30
0.0
 11
826.6350217162
 21
547.3118485519
 31
0.0
  0
ARC
  5
12A
330
1F
100
AcDbEntity
  8
0
  6
SLD-Solid
 62
   142
420
    32960
370
     0
100
AcDbCircle
 10
806.2432639309
 20
578.5852724201
 30
0.0
 40
2.050000000000068
100
AcDbArc
 50
70.1368571726
 51
90.0
  0
LINE
  5
12B
330
1F
100
AcDbEntity
  8
0
  6
SLD-Solid
 62
   142
420
    32960
370
     0
100
AcDbLine
 10
811.1843851069
 20
578.8735557607
 30
0.0
 11
811.8801785719
 21
578.6221881664
 31
0.0
  0
LINE
  5
12C
330
1F
100
AcDbEntity
  8
0
  6
SLD-Solid
 62
   142
420
    32960
370
     0
100
AcDbLine
 10
811.1843851069
 20
578.8735557607
 30
0.0
 11
811.2183625681
 21
578.9676064499
 31
0.0
  0
SPLINE
  5
12D
330
1F
100
AcDbEntity
  8
0
  6
SLD-Solid
 62
   142
420
    32960
370
     0
100
AcDbSpline
210
0.0
220
0.0
230
1.0
 70
     8
 71
     3
 72
    16
 73
    12
 74
     0
 42
0.00000001
 43
0.00000001
 40
0.0
 40
0.0
 40
0.0
 40
0.0
 40
0.2500000000000013
 40
0.2500000000000013
 40
0.5000000000000027
 40
0.5000000000000027
 40
0.750000000000004
 40
0.750000000000004
 40
0.875000000000002
 40
0.875000000000002
 40
1.0
 40
1.0
 40
1.0
 40
1.0
 10
821.1867315447412
 20
4.285272420111285
 30
0.0
 10
821.1867315447412
 20
4.132643630886501
 30
0.0
 10
821.1415333704051
 20
3.98413605761655
 30
0.0
 10
820.9596482498902
 20
3.693765031474894
 30
0.0
 10
820.8278989554436
 20
3.559096559407671
 30
0.0
 10
820.4606284949776
 20
3.331465891565855
 30
0.0
 10
820.2373999814997
 20
3.242527942053319
 30
0.0
 10
819.846194414727
 20
3.140593293818328
 30
0.0
 10
819.710786876988
 20
3.113105002616467
 30
0.0
 10
819.4301697622523
 20
3.069251301943188
 30
0.0
 10
819.2837431224513
 20
3.052870022777487
 30
0.0
 10
819.1367315447413
 20
3.042343487923149
 30
0.0
  0
SPLINE
  5
12E
330
1F
100
AcDbEntity
  8
0
  6
SLD-Solid
 62
   142
420
    32960
370
     0
100
AcDbSpline
210
0.0
220
0.0
230
1.0
 70
     8
 71
     3
 72
    20
 73
    16
 74
     0
 42
0.00000001
 43
0.00000001
 40
0.0
 40
0.0
 40
0.0
 40
0.0
 40
0.1250000000000011
 40
0.1250000000000011
 40
0.2500000000000021
 40
0.2500000000000021
 40
0.3750000000000032
 40
0.3750000000000032
 40
0.5000000000000042
 40
0.5000000000000042
 40
0.6250000000000053
 40
0.6250000000000053
 40
0.7500000000000063
 40
0.7500000000000063
 40
1.0
 40
1.0
 40
1.0
 40
1.0
 10
819.1367315447451
 20
525.4282013522995
 30
0.0
 10
819.2825359683295
 20
525.4115398057961
 30
0.0
 10
819.4253032409447
 20
525.391883897858
 30
0.0
 10
819.7047873355145
 20
525.3447802067271
 30
0.0
 10
819.8429149848831
 20
525.3169693858567
 30
0.0
 10
820.1013573295526
 20
525.2526629222305
 30
0.0
 10
820.2226414943794
 20
525.2160699580554
 30
0.0
 10
820.449049032421
 20
525.1301936881505
 30
0.0
 10
820.5520671752598
 20
525.0814672946888
 30
0.0
 10
820.7334202185781
 20
524.9705884027023
 30
0.0
 10
820.8127577328847
 20
524.9050824052754
 30
0.0
 10
820.9481027743368
 20
524.7687957371098
 30
0.0
 10
821.0041105718954
 20
524.6986546564634
 30
0.0
 10
821.139924817901
 20
524.4845344285162
 30
0.0
 10
821.1867315447452
 20
524.3358189015663
 30
0.0
 10
821.1867315447452
 20
524.1852724201112
 30
0.0
  0
LINE
  5
12F
330
1F
100
AcDbEntity
  8
0
  6
SLD-Solid
 62
     7
370
    15
100
AcDbLine
 10
821.1867315447
 20
524.1852724201
 30
0.0
 11
821.1867315447
 21
4.2852724201
 31
0.0
  0
LINE
  5
130
330
1F
100
AcDbEntity
  8
0
  6
SLD-Solid
 62
     7
370
    15
100
AcDbLine
 10
819.1367315447
 20
525.4282013523
 30
0.0
 11
771.1867315447
 21
525.4282013523
 31
0.0
  0
LINE
  5
131
330
1F
100
AcDbEntity
  8
0
  6
SLD-Solid
 62
     7
370
    15
100
AcDbLine
 10
819.1367315447
 20
3.0423434879
 30
0.0
 11
771.1867315447
 21
3.0423434879
 31
0.0
  0
CIRCLE
  5
132
330
1F
100
AcDbEntity
  8
0
  6
SLD-Solid
 62
     7
370
    15
100
AcDbCircle
 10
791.1867315447
 20
32.2352724201
 30
0.0
 40
1.599999999999909
  0
CIRCLE
  5
133
330
1F
100
AcDbEntity
  8
0
  6
SLD-Solid
 62
   142
420
    32960
370
     0
100
AcDbCircle
 10
791.1867315447
 20
496.2352724201
 30
0.0
 40
1.600000000000136
  0
CIRCLE
  5
134
330
1F
100
AcDbEntity
  8
0
  6
SLD-Solid
 62
   142
420
    32960
370
     0
100
AcDbCircle
 10
791.1867315447
 20
264.2352724201
 30
0.0
 40
1.599999999999909
  0
LINE
  5
135
330
1F
100
AcDbEntity
  8
0
  6
SLD-Solid
 62
   142
420
    32960
370
     0
100
AcDbLine
 10
771.1867315447
 20
525.4282013523
 30
0.0
 11
771.1867315447
 21
3.0423434879
 31
0.0
  0
SPLINE
  5
136
330
1F
100
AcDbEntity
  8
0
  6
SLD-Solid
 62
   142
420
    32960
370
     0
100
AcDbSpline
210
0.0
220
0.0
230
1.0
 70
     8
 71
     3
 72
    14
 73
    10
 74
     0
 42
0.00000001
 43
0.00000001
 40
0.0
 40
0.0
 40
0.0
 40
0.0
 40
0.25
 40
0.25
 40
0.5
 40
0.5
 40
0.75
 40
0.75
 40
1.0
 40
1.0
 40
1.0
 40
1.0
 10
821.1867315447453
 20
524.1852724201111
 30
0.0
 10
821.1867315447453
 20
524.4536167926052
 30
0.0
 10
821.1333755319154
 20
524.7218555830477
 30
0.0
 10
820.9279936408716
 20
525.2176913298714
 30
0.0
 10
820.7760485716615
 20
525.4450931960598
 30
0.0
 10
820.396552320694
 20
525.8245894470275
 30
0.0
 10
820.1691504545057
 20
525.9765345162374
 30
0.0
 10
819.6733147076819
 20
526.1819164072814
 30
0.0
 10
819.4050759172395
 20
526.2352724201112
 30
0.0
 10
819.1367315447453
 20
526.2352724201112
 30
0.0
  0
LINE
  5
137
330
1F
100
AcDbEntity
  8
0
  6
SLD-Solid
 62
     7
370
    15
100
AcDbLine
 10
819.1367315447
 20
2.2352724201
 30
0.0
 11
819.1367315447
 21
3.0352724201
 31
0.0
  0
LINE
  5
138
330
1F
100
AcDbEntity
  8
0
  6
SLD-Solid
 62
     7
370
    15
100
AcDbLine
 10
819.1367315447
 20
2.2352724201
 30
0.0
 11
771.1867315447
 21
2.2352724201
 31
0.0
  0
LINE
  5
139
330
1F
100
AcDbEntity
  8
0
  6
SLD-Solid
 62
     7
370
    15
100
AcDbLine
 10
771.1867315447
 20
3.0352724201
 30
0.0
 11
771.1867315447
 21
2.2352724201
 31
0.0
  0
LINE
  5
13A
330
1F
100
AcDbEntity
  8
0
  6
SLD-Solid
 62
   142
420
    32960
370
     0
100
AcDbLine
 10
771.1867315447
 20
3.0352724201
 30
0.0
 11
819.1367315447
 21
3.0352724201
 31
0.0
  0
SPLINE
  5
13B
330
1F
100
AcDbEntity
  8
0
  6
SLD-Solid
 62
     7
370
    15
100
AcDbSpline
210
0.0
220
0.0
230
1.0
 70
     8
 71
     3
 72
    14
 73
    10
 74
     0
 42
0.00000001
 43
0.00000001
 40
0.0
 40
0.0
 40
0.0
 40
0.0
 40
0.25
 40
0.25
 40
0.5
 40
0.5
 40
0.75
 40
0.75
 40
1.0
 40
1.0
 40
1.0
 40
1.0
 10
819.1367315447411
 20
2.235272420111289
 30
0.0
 10
819.4051180254636
 20
2.235272420111289
 30
0.0
 10
819.6733147076778
 20
2.288628432941253
 30
0.0
 10
820.1691504545015
 20
2.494010323985052
 30
0.0
 10
820.3965523206898
 20
2.645955393194954
 30
0.0
 10
820.7760485716575
 20
3.025451644162624
 30
0.0
 10
820.9279936408673
 20
3.252853510350928
 30
0.0
 10
821.1333755319113
 20
3.748689257174698
 30
0.0
 10
821.1867315447412
 20
4.016885939388926
 30
0.0
 10
821.1867315447412
 20
4.285272420111175
 30
0.0
  0
LINE
  5
13C
330
1F
100
AcDbEntity
  8
0
  6
SLD-Solid
 62
     7
370
    15
100
AcDbLine
 10
771.1867315447
 20
525.4352724201
 30
0.0
 11
771.1867315447
 21
526.2352724201
 31
0.0
  0
LINE
  5
13D
330
1F
100
AcDbEntity
  8
0
  6
SLD-Solid
 62
     7
370
    15
100
AcDbLine
 10
819.1367315447
 20
526.2352724201
 30
0.0
 11
771.1867315447
 21
526.2352724201
 31
0.0
  0
LINE
  5
13E
330
1F
100
AcDbEntity
  8
0
  6
SLD-Solid
 62
   142
420
    32960
370
     0
100
AcDbLine
 10
819.1367315447
 20
526.2352724201
 30
0.0
 11
819.1367315447
 21
525.4352724201
 31
0.0
  0
LINE
  5
13F
330
1F
100
AcDbEntity
  8
0
  6
SLD-Solid
 62
   142
420
    32960
370
     0
100
AcDbLine
 10
771.1867315447
 20
525.4352724201
 30
0.0
 11
819.1367315447
 21
525.4352724201
 31
0.0
  0
LINE
  5
140
330
1F
100
AcDbEntity
  8
0
  6
SLD-Solid
 62
   142
420
    32960
370
     0
100
AcDbLine
 10
53.1867315447
 20
680.0770148506
 30
0.0
 11
53.1867315447
 21
678.0752030892
 31
0.0
  0
LINE
  5
141
330
1F
100
AcDbEntity
  8
0
  6
SLD-Solid
 62
   142
420
    32960
370
     0
100
AcDbLine
 10
52.3867315447
 20
-0.2647275799
 30
0.0
 11
52.3867315447
 21
-1.2647275799
 31
0.0
  0
LINE
  5
142
330
1F
100
AcDbEntity
  8
0
  6
SLD-Solid
 62
   142
420
    32960
370
     0
100
AcDbLine
 10
52.3867315447
 20
680.5352724201
 30
0.0
 11
52.3867315447
 21
-0.2647275799
 31
0.0
  0
LINE
  5
143
330
1F
100
AcDbEntity
  8
0
  6
SLD-Solid
 62
   142
420
    32960
370
     0
100
AcDbLine
 10
52.8867315447
 20
736.7352724201
 30
0.0
 11
52.3867315447
 21
736.7352724201
 31
0.0
  0
LINE
  5
144
330
1F
100
AcDbEntity
  8
0
  6
SLD-Solid
 62
   142
420
    32960
370
     0
100
AcDbLine
 10
52.5867315447
 20
-1.2647275799
 30
0.0
 11
52.3867315447
 21
-1.2647275799
 31
0.0
  0
LINE
  5
145
330
1F
100
AcDbEntity
  8
0
  6
SLD-Solid
 62
   142
420
    32960
370
     0
100
AcDbLine
 10
52.5867315447
 20
53.4278521863
 30
0.0
 11
52.3867315447
 21
53.4278521863
 31
0.0
  0
LINE
  5
146
330
1F
100
AcDbEntity
  8
0
  6
SLD-Solid
 62
   142
420
    32960
370
     0
100
AcDbLine
 10
52.5867315447
 20
44.0521560813
 30
0.0
 11
52.3867315447
 21
44.0521560813
 31
0.0
  0
LINE
  5
147
330
1F
100
AcDbEntity
  8
0
  6
SLD-Solid
 62
   142
420
    32960
370
     0
100
AcDbLine
 10
793.5325182496
 20
650.6929858918
 30
0.0
 11
793.5524596848
 21
650.6926767742
 31
0.0
  0
SPLINE
  5
148
330
1F
100
AcDbEntity
  8
0
  6
SLD-Solid
 62
   142
420
    32960
370
     0
100
AcDbSpline
210
0.0
220
0.0
230
1.0
 70
     8
 71
     3
 72
    18
 73
    14
 74
     0
 42
0.00000001
 43
0.00000001
 40
0.0
 40
0.0
 40
0.0
 40
0.0
 40
0.0312995111645832
 40
0.0625945874393663
 40
0.1251614958756792
 40
0.17521703074788
 40
0.2502176268373639
 40
0.3698155274565563
 40
0.4997006321671907
 40
0.6246497396546692
 40
0.7497209249591802
 40
0.8748503206752892
 40
1.0
 40
1.0
 40
1.0
 40
1.0
 10
793.5524596848229
 20
650.6926767741724
 30
0.0
 10
793.5522955946665
 20
650.692637844827
 30
0.0
 10
793.5519674376037
 20
650.6925599916522
 30
0.0
 10
793.5421261869337
 20
650.6924923393195
 30
0.0
 10
793.5202571042372
 20
650.6924418917857
 30
0.0
 10
793.4670229195945
 20
650.6929976029286
 30
0.0
 10
793.3613518583824
 20
650.6948968655821
 30
0.0
 10
793.1444278998823
 20
650.7009946716166
 30
0.0
 10
792.8139436289516
 20
650.7141746982189
 30
0.0
 10
792.4397679360027
 20
650.7323437086309
 30
0.0
 10
792.0499379442642
 20
650.7545651888263
 30
0.0
 10
791.6548032163845
 20
650.7790802606585
 30
0.0
 10
791.3903835941028
 20
650.7965141819471
 30
0.0
 10
791.2581630681545
 20
650.8052318490487
 30
0.0
  0
SPLINE
  5
149
330
1F
100
AcDbEntity
  8
0
  6
SLD-Solid
 62
   142
420
    32960
370
     0
100
AcDbSpline
210
0.0
220
0.0
230
1.0
 70
     8
 71
     3
 72
    14
 73
    10
 74
     0
 42
0.00000001
 43
0.00000001
 40
0.0
 40
0.0
 40
0.0
 40
0.0
 40
0.1250553932925068
 40
0.2501032493441086
 40
0.5001236321706475
 40
0.7499715960343036
 40
0.8749544500389098
 40
0.9374688794932784
 40
0.9999999999999999
 40
0.9999999999999999
 40
0.9999999999999999
 40
0.9999999999999999
 10
791.2581630681545
 20
650.8052318490487
 30
0.0
 10
791.1812117535164
 20
650.8104052327712
 30
0.0
 10
791.0273137621896
 20
650.82075168841
 30
0.0
 10
790.7198107446512
 20
650.8419450666266
 30
0.0
 10
790.3368972760295
 20
650.8695269173625
 30
0.0
 10
789.9610691612007
 20
650.8986808178207
 30
0.0
 10
789.7091354231145
 20
650.919608320376
 30
0.0
 10
789.5733727325548
 20
650.9315897448192
 30
0.0
 10
789.5081745580151
 20
650.9374839988626
 30
0.0
 10
789.4755711194263
 20
650.940431519266
 30
0.0
  0
SPLINE
  5
14A
330
1F
100
AcDbEntity
  8
0
  6
SLD-Solid
 62
   142
420
    32960
370
     0
100
AcDbSpline
210
0.0
220
0.0
230
1.0
 70
     8
 71
     3
 72
    13
 73
     9
 74
     0
 42
0.00000001
 43
0.00000001
 40
0.0
 40
0.0
 40
0.0
 40
0.0
 40
0.1251713704823911
 40
0.2502865226305418
 40
0.4999512569307941
 40
0.7496532036844437
 40
0.8747965534411233
 40
0.9999999999999999
 40
0.9999999999999999
 40
0.9999999999999999
 40
0.9999999999999999
 10
789.4755679330184
 20
650.940431818783
 30
0.0
 10
789.4291373772348
 20
650.9447667837161
 30
0.0
 10
789.3362971190667
 20
650.9534347666151
 30
0.0
 10
789.1707335592034
 20
650.9696515924842
 30
0.0
 10
789.0035017879344
 20
650.9872081760456
 30
0.0
 10
788.9057495552312
 20
650.9984773135678
 30
0.0
 10
788.8702714196529
 20
651.0031141974729
 30
0.0
 10
788.8660565192454
 20
651.0037986584273
 30
0.0
 10
788.8639485631393
 20
651.0041409710581
 30
0.0
  0
SPLINE
  5
14B
330
1F
100
AcDbEntity
  8
0
  6
SLD-Solid
 62
   142
420
    32960
370
     0
100
AcDbSpline
210
0.0
220
0.0
230
1.0
 70
     8
 71
     3
 72
    13
 73
     9
 74
     0
 42
0.00000001
 43
0.00000001
 40
0.0
 40
0.0
 40
0.0
 40
0.0
 40
0.0427271562437367
 40
0.2820231572481811
 40
0.5202885061822794
 40
0.7600182588244995
 40
0.8796329299929048
 40
1.0
 40
1.0
 40
1.0
 40
1.0
 10
792.7630999770868
 20
650.7451205025127
 30
0.0
 10
792.7627373427141
 20
650.7451494330642
 30
0.0
 10
792.7603437527897
 20
650.7453403909043
 30
0.0
 10
792.7442035818204
 20
650.7461543866316
 30
0.0
 10
792.6756094461198
 20
650.7498238198864
 30
0.0
 10
792.5930730880652
 20
650.7543503694884
 30
0.0
 10
792.5157743981707
 20
650.7587389470674
 30
0.0
 10
792.4743731487808
 20
650.7611286169258
 30
0.0
 10
792.4536076227903
 20
650.7623271979417
 30
0.0
  0
SPLINE
  5
14C
330
1F
100
AcDbEntity
  8
0
  6
SLD-Solid
 62
   142
420
    32960
370
     0
100
AcDbSpline
210
0.0
220
0.0
230
1.0
 70
     8
 71
     3
 72
    13
 73
     9
 74
     0
 42
0.00000001
 43
0.00000001
 40
0.0
 40
0.0
 40
0.0
 40
0.0
 40
0.0625234477983392
 40
0.1250288441722443
 40
0.2500295548750029
 40
0.4999123112427228
 40
0.7499314087066188
 40
1.0
 40
1.0
 40
1.0
 40
1.0
 10
792.4536076227903
 20
650.7623271979415
 30
0.0
 10
792.4303068582333
 20
650.7636890886604
 30
0.0
 10
792.3837120563874
 20
650.7664124769003
 30
0.0
 10
792.2867247759276
 20
650.7721628269769
 30
0.0
 10
792.1098145537346
 20
650.7829356953333
 30
0.0
 10
791.8489978653373
 20
650.7993137356414
 30
0.0
 10
791.5321237842895
 20
650.8198569211486
 30
0.0
 10
791.3203685741081
 20
650.8339046509303
 30
0.0
 10
791.214480490279
 20
650.840929210975
 30
0.0
  0
SPLINE
  5
14D
330
1F
100
AcDbEntity
  8
0
  6
SLD-Solid
 62
   142
420
    32960
370
     0
100
AcDbSpline
210
0.0
220
0.0
230
1.0
 70
     8
 71
     3
 72
    16
 73
    12
 74
     0
 42
0.00000001
 43
0.00000001
 40
0.0
 40
0.0
 40
0.0
 40
0.0
 40
0.125263146179131
 40
0.2505188863277839
 40
0.3757538585426589
 40
0.5009662291660283
 40
0.6260366187426425
 40
0.7509240976724842
 40
0.8647214306627546
 40
0.9776019377437084
 40
1.0
 40
1.0
 40
1.0
 40
1.0
 10
791.214480490279
 20
650.840929210975
 30
0.0
 10
791.1359091141362
 20
650.8461835297647
 30
0.0
 10
790.9787710072873
 20
650.8566918566892
 30
0.0
 10
790.7432853918093
 20
650.8726248884881
 30
0.0
 10
790.5092054939154
 20
650.888766153978
 30
0.0
 10
790.2774663381849
 20
650.904998609064
 30
0.0
 10
790.0533522966766
 20
650.921234698892
 30
0.0
 10
789.8613044555295
 20
650.9358088353138
 30
0.0
 10
789.7167345068257
 20
650.9470445196287
 30
0.0
 10
789.6734203613771
 20
650.950484248034
 30
0.0
 10
789.6715939047601
 20
650.9505306533104
 30
0.0
 10
789.6712914984795
 20
650.9505383366286
 30
0.0
  0
SPLINE
  5
14E
330
1F
100
AcDbEntity
  8
0
  6
SLD-Solid
 62
   142
420
    32960
370
     0
100
AcDbSpline
210
0.0
220
0.0
230
1.0
 70
     8
 71
     3
 72
    18
 73
    14
 74
     0
 42
0.00000001
 43
0.00000001
 40
0.0
 40
0.0
 40
0.0
 40
0.0
 40
0.0625056993940019
 40
0.1249366024064348
 40
0.1873950569475885
 40
0.2498256751883443
 40
0.3219622618204896
 40
0.3747766092284835
 40
0.4997092147424261
 40
0.6247460768752816
 40
0.7498233215064729
 40
0.8702808453861013
 40
1.0
 40
1.0
 40
1.0
 40
1.0
 10
789.6712914984795
 20
650.9505383366286
 30
0.0
 10
789.6734427462914
 20
650.9502993455442
 30
0.0
 10
789.677742667661
 20
650.9498216493598
 30
0.0
 10
789.7166831761787
 20
650.9464082283125
 30
0.0
 10
789.7777558257903
 20
650.9412674279228
 30
0.0
 10
789.8631058401776
 20
650.9342961542319
 30
0.0
 10
789.9648636850475
 20
650.9264142505277
 30
0.0
 10
790.1118043217756
 20
650.9153974425769
 30
0.0
 10
790.3003918742244
 20
650.9016272897234
 30
0.0
 10
790.5415815325248
 20
650.8846855168224
 30
0.0
 10
790.7820745902065
 20
650.868200688938
 30
0.0
 10
791.0262716083265
 20
650.8516961213716
 30
0.0
 10
791.1892124014083
 20
650.8408338478614
 30
0.0
 10
791.2736988613691
 20
650.8352016484678
 30
0.0
  0
SPLINE
  5
14F
330
1F
100
AcDbEntity
  8
0
  6
SLD-Solid
 62
   142
420
    32960
370
     0
100
AcDbSpline
210
0.0
220
0.0
230
1.0
 70
     8
 71
     3
 72
    18
 73
    14
 74
     0
 42
0.00000001
 43
0.00000001
 40
0.0
 40
0.0
 40
0.0
 40
0.0
 40
0.1251150348332565
 40
0.2502142338132816
 40
0.3753103425832145
 40
0.5003678378249611
 40
0.6304875666387484
 40
0.7500246333156902
 40
0.812611944387456
 40
0.8749668753729627
 40
0.9374460115586833
 40
0.9687143461569351
 40
1.0
 40
1.0
 40
1.0
 40
1.0
 10
791.2736988613691
 20
650.8352016484678
 30
0.0
 10
791.3505498446166
 20
650.8301153607771
 30
0.0
 10
791.5042420840562
 20
650.8199434291689
 30
0.0
 10
791.7344494969653
 20
650.8049628993181
 30
0.0
 10
791.9634551432399
 20
650.7903601722187
 30
0.0
 10
792.1925034922783
 20
650.7761673806754
 30
0.0
 10
792.4090694200432
 20
650.763427445412
 30
0.0
 10
792.5664211185839
 20
650.7548616603341
 30
0.0
 10
792.6649181043481
 20
650.749748964571
 30
0.0
 10
792.7231976632798
 20
650.7468427137363
 30
0.0
 10
792.7508988671004
 20
650.7455782847347
 30
0.0
 10
792.7617436540127
 20
650.7451332852409
 30
0.0
 10
792.7626477859533
 20
650.7451247642086
 30
0.0
 10
792.7630999770868
 20
650.7451205025127
 30
0.0
  0
LINE
  5
150
330
1F
100
AcDbEntity
  8
0
  6
SLD-Solid
 62
   142
420
    32960
370
     0
100
AcDbLine
 10
764.6867315447
 20
533.0852724201
 30
0.0
 11
764.6867315447
 21
539.447597893
 31
0.0
  0
SPLINE
  5
151
330
1F
100
AcDbEntity
  8
0
  6
SLD-Solid
 62
   142
420
    32960
370
     0
100
AcDbSpline
210
0.0
220
0.0
230
1.0
 70
     8
 71
     3
 72
    11
 73
     7
 74
     0
 42
0.00000001
 43
0.00000001
 40
0.0
 40
0.0
 40
0.0
 40
0.0
 40
0.2716412431743649
 40
0.5432824863487523
 40
0.8149237295231421
 40
1.0
 40
1.0
 40
1.0
 40
1.0
 10
769.3867315447411
 20
522.585272420112
 30
0.0
 10
769.4174484760397
 20
522.6835465302688
 30
0.0
 10
769.4788823386364
 20
522.8800947505821
 30
0.0
 10
769.9544101192712
 20
523.1749170810526
 30
0.0
 10
770.5550655322269
 20
523.438422018173
 30
0.0
 10
771.0045758544358
 20
523.6036528451364
 30
0.0
 10
771.1867315447446
 20
523.670609561943
 30
0.0
  0
SPLINE
  5
152
330
1F
100
AcDbEntity
  8
0
  6
SLD-Solid
 62
   142
420
    32960
370
     0
100
AcDbSpline
210
0.0
220
0.0
230
1.0
 70
     8
 71
     3
 72
    12
 73
     8
 74
     0
 42
0.00000001
 43
0.00000001
 40
0.0
 40
0.0
 40
0.0
 40
0.0
 40
0.1622307853866075
 40
0.4106775957262885
 40
0.6591247578680507
 40
0.9075717193364373
 40
1.0
 40
1.0
 40
1.0
 40
1.0
 10
771.1867315447422
 20
4.799539081780657
 30
0.0
 10
771.0270614172916
 20
4.858272729620805
 30
0.0
 10
770.6228659750118
 20
5.006953469997743
 30
0.0
 10
770.0580241343662
 20
5.245624724886822
 30
0.0
 10
769.5926396284569
 20
5.515322192351013
 30
0.0
 10
769.4041429445828
 20
5.729130441653241
 30
0.0
 10
769.390445582746
 20
5.851965664341263
 30
0.0
 10
769.386731544741
 20
5.885272420111997
 30
0.0
  0
LINE
  5
153
330
1F
100
AcDbEntity
  8
0
  6
SLD-Solid
 62
     7
370
    15
100
AcDbLine
 10
769.3867315447
 20
5.8852724201
 30
0.0
 11
769.3867315447
 21
522.5852724201
 31
0.0
  0
SPLINE
  5
154
330
1F
100
AcDbEntity
  8
0
  6
SLD-Solid
 62
   142
420
    32960
370
     0
100
AcDbSpline
210
0.0
220
0.0
230
1.0
 70
     8
 71
     3
 72
    12
 73
     8
 74
     0
 42
0.00000001
 43
0.00000001
 40
0.0
 40
0.0
 40
0.0
 40
0.0
 40
0.1622307853873928
 40
0.4106775957268651
 40
0.6591247578683959
 40
0.9075717193365895
 40
1.0
 40
1.0
 40
1.0
 40
1.0
 10
771.1867315447446
 20
524.5898680169021
 30
0.0
 10
771.027061417293
 20
524.5707453424468
 30
0.0
 10
770.6228659750124
 20
524.5223374280645
 30
0.0
 10
770.058024134366
 20
524.1551485614689
 30
0.0
 10
769.5926396284568
 20
523.5779815802756
 30
0.0
 10
769.4041429445828
 20
523.0115016504012
 30
0.0
 10
769.3904455827459
 20
522.6761916784417
 30
0.0
 10
769.3867315447409
 20
522.585272420112
 30
0.0
  0
SPLINE
  5
155
330
1F
100
AcDbEntity
  8
0
  6
SLD-Solid
 62
   142
420
    32960
370
     0
100
AcDbSpline
210
0.0
220
0.0
230
1.0
 70
     8
 71
     3
 72
    11
 73
     7
 74
     0
 42
0.00000001
 43
0.00000001
 40
0.0
 40
0.0
 40
0.0
 40
0.0
 40
0.271641243174561
 40
0.543282486349122
 40
0.8149237295236829
 40
1.0
 40
1.0
 40
1.0
 40
1.0
 10
769.3867315447411
 20
5.885272420111997
 30
0.0
 10
769.4174484760396
 20
5.616355515020544
 30
0.0
 10
769.4788823386364
 20
5.07852170483758
 30
0.0
 10
769.9544101192711
 20
4.405269063119777
 30
0.0
 10
770.5550655322261
 20
3.966741835471244
 30
0.0
 10
771.0045758544342
 20
3.908572537230259
 30
0.0
 10
771.1867315447422
 20
3.885000511956671
 30
0.0
  0
LINE
  5
156
330
1F
100
AcDbEntity
  8
0
  6
SLD-Solid
 62
     7
370
    15
100
AcDbLine
 10
819.6867315447
 20
528.2352724201
 30
0.0
 11
806.1867315447
 21
528.2352724201
 31
0.0
  0
LINE
  5
157
330
1F
100
AcDbEntity
  8
0
  6
SLD-Solid
 62
   142
420
    32960
370
     0
100
AcDbLine
 10
819.6867315447
 20
526.7352724201
 30
0.0
 11
806.1867315447
 21
526.7352724201
 31
0.0
  0
LINE
  5
158
330
1F
100
AcDbEntity
  8
0
  6
SLD-Solid
 62
   142
420
    32960
370
     0
100
AcDbLine
 10
819.1867315447
 20
528.7352724201
 30
0.0
 11
806.1867315447
 21
528.7352724201
 31
0.0
  0
LINE
  5
159
330
1F
100
AcDbEntity
  8
0
  6
SLD-Solid
 62
     7
370
    15
100
AcDbLine
 10
696.3266086434
 20
702.2125685897
 30
0.0
 11
696.9367315447
 21
715.6352724201
 31
0.0
  0
LINE
  5
15A
330
1F
100
AcDbEntity
  8
0
  6
SLD-Solid
 62
   142
420
    32960
370
     0
100
AcDbLine
 10
696.3266086434
 20
702.2125685897
 30
0.0
 11
696.3049133629
 21
701.7352724201
 31
0.0
  0
LINE
  5
15B
330
1F
100
AcDbEntity
  8
0
  6
SLD-Solid
 62
     7
370
    15
100
AcDbLine
 10
135.0367315447
 20
715.6352724201
 30
0.0
 11
135.6468544461
 21
702.2125685897
 31
0.0
  0
LINE
  5
15C
330
1F
100
AcDbEntity
  8
0
  6
SLD-Solid
 62
     7
370
    15
100
AcDbLine
 10
135.0367315447
 20
715.6352724201
 30
0.0
 11
135.116438232
 21
715.6352724201
 31
0.0
  0
LINE
  5
15D
330
1F
100
AcDbEntity
  8
0
  6
SLD-Solid
 62
     7
370
    15
100
AcDbLine
 10
696.9239631722
 20
715.6352724201
 30
0.0
 11
696.9367315447
 21
715.6352724201
 31
0.0
  0
LINE
  5
15E
330
1F
100
AcDbEntity
  8
0
  6
SLD-Solid
 62
   142
420
    32960
370
     0
100
AcDbLine
 10
135.6468544461
 20
702.2125685897
 30
0.0
 11
136.290772651
 21
702.2125685897
 31
0.0
  0
LINE
  5
15F
330
1F
100
AcDbEntity
  8
0
  6
SLD-Solid
 62
   142
420
    32960
370
     0
100
AcDbLine
 10
157.9867315447
 20
697.7352724201
 30
0.0
 11
157.9867315447
 21
695.2352724201
 31
0.0
  0
ARC
  5
160
330
1F
100
AcDbEntity
  8
0
  6
SLD-Solid
 62
   142
420
    32960
370
     0
100
AcDbCircle
 10
158.4867315447
 20
695.2352724201
 30
0.0
 40
0.5000000000000568
100
AcDbArc
 50
180.0
 51
182.6025622025
  0
LINE
  5
161
330
1F
100
AcDbEntity
  8
0
  6
SLD-Solid
 62
   142
420
    32960
370
     0
100
AcDbLine
 10
157.9872472746
 20
695.2125685897
 30
0.0
 11
158.4867315447
 21
695.2125685897
 31
0.0
  0
LINE
  5
162
330
1F
100
AcDbEntity
  8
0
  6
SLD-Solid
 62
   142
420
    32960
370
     0
100
AcDbLine
 10
673.4867315447
 20
695.2125685897
 30
0.0
 11
673.9862158148
 21
695.2125685897
 31
0.0
  0
ARC
  5
163
330
1F
100
AcDbEntity
  8
0
  6
SLD-Solid
 62
   142
420
    32960
370
     0
100
AcDbCircle
 10
673.4867315447
 20
695.2352724201
 30
0.0
 40
0.4999999999999377
100
AcDbArc
 50
357.3974377975
 51
0.0
  0
LINE
  5
164
330
1F
100
AcDbEntity
  8
0
  6
SLD-Solid
 62
   142
420
    32960
370
     0
100
AcDbLine
 10
673.9867315447
 20
695.2352724201
 30
0.0
 11
673.9867315447
 21
697.7352724201
 31
0.0
  0
LINE
  5
165
330
1F
100
AcDbEntity
  8
0
  6
SLD-Solid
 62
   142
420
    32960
370
     0
100
AcDbLine
 10
695.7496287532
 20
702.2125685897
 30
0.0
 11
696.3266086434
 21
702.2125685897
 31
0.0
  0
LINE
  5
166
330
1F
100
AcDbEntity
  8
0
  6
SLD-Solid
 62
     7
370
    15
100
AcDbLine
 10
135.0367315447
 20
715.6352724201
 30
0.0
 11
135.0367315447
 21
716.5463240242
 31
0.0
  0
LINE
  5
167
330
1F
100
AcDbEntity
  8
0
  6
SLD-Solid
 62
     7
370
    15
100
AcDbLine
 10
696.9367315447
 20
715.6352724201
 30
0.0
 11
696.9367315447
 21
715.7812155857
 31
0.0
  0
LINE
  5
168
330
1F
100
AcDbEntity
  8
0
  6
SLD-Solid
 62
   142
420
    32960
370
     0
100
AcDbLine
 10
135.6685497266
 20
701.7352724201
 30
0.0
 11
135.6468544461
 21
702.2125685897
 31
0.0
  0
LINE
  5
169
330
1F
100
AcDbEntity
  8
0
  6
SLD-Solid
 62
     7
370
    15
100
AcDbLine
 10
797.6641565133
 20
645.9427386375
 30
0.0
 11
796.1808064357
 21
650.508020751
 31
0.0
  0
LINE
  5
16A
330
1F
100
AcDbEntity
  8
0
  6
SLD-Solid
 62
     7
370
    15
100
AcDbLine
 10
813.7947751151
 20
596.2977993222
 30
0.0
 11
812.3114250375
 21
600.8630814358
 31
0.0
  0
SPLINE
  5
16B
330
1F
100
AcDbEntity
  8
0
  6
SLD-Solid
 62
   142
420
    32960
370
     0
100
AcDbSpline
210
0.0
220
0.0
230
1.0
 70
     8
 71
     3
 72
     8
 73
     4
 74
     0
 42
0.00000001
 43
0.00000001
 40
0.0
 40
0.0
 40
0.0
 40
0.0
 40
1.0
 40
1.0
 40
1.0
 40
1.0
 10
810.604276695702
 20
597.8361068131061
 30
0.0
 10
810.3652142861408
 20
597.6505504235541
 30
0.0
 10
810.1261591564069
 20
597.4649716289973
 30
0.0
 10
809.887111296723
 20
597.2793704595272
 30
0.0
  0
SPLINE
  5
16C
330
1F
100
AcDbEntity
  8
0
  6
SLD-Solid
 62
   142
420
    32960
370
     0
100
AcDbSpline
210
0.0
220
0.0
230
1.0
 70
     8
 71
     3
 72
     9
 73
     5
 74
     0
 42
0.00000001
 43
0.00000001
 40
0.0
 40
0.0
 40
0.0
 40
0.0
 40
0.4999955739392667
 40
1.0
 40
1.0
 40
1.0
 40
1.0
 10
810.7289100057562
 20
597.4778952353183
 30
0.0
 10
810.7089707268589
 20
597.5366812381659
 30
0.0
 10
810.669091816051
 20
597.6542542846319
 30
0.0
 10
810.6258870783324
 20
597.7754929943321
 30
0.0
 10
810.6042845182462
 20
597.8361128857921
 30
0.0
  0
LINE
  5
16D
330
1F
100
AcDbEntity
  8
0
  6
SLD-Solid
 62
   142
420
    32960
370
     0
100
AcDbLine
 10
810.7289100058
 20
597.4778952353
 30
0.0
 11
810.0116057561
 21
596.9213117232
 31
0.0
  0
SPLINE
  5
16E
330
1F
100
AcDbEntity
  8
0
  6
SLD-Solid
 62
   142
420
    32960
370
     0
100
AcDbSpline
210
0.0
220
0.0
230
1.0
 70
     8
 71
     3
 72
    11
 73
     7
 74
     0
 42
0.00000001
 43
0.00000001
 40
0.0
 40
0.0
 40
0.0
 40
0.0
 40
0.2500151131446911
 40
0.5000078356072749
 40
0.7499966392901823
 40
1.0
 40
1.0
 40
1.0
 40
1.0
 10
810.2510229540687
 20
596.1390448963753
 30
0.0
 10
810.2336804262129
 20
596.2013039007094
 30
0.0
 10
810.1989969236516
 20
596.325816333628
 30
0.0
 10
810.1410862370369
 20
596.5192214958695
 30
0.0
 10
810.0792648635429
 20
596.7170080404434
 30
0.0
 10
810.0341540137024
 20
596.8532051263157
 30
0.0
 10
810.0115979320918
 20
596.9213056519075
 30
0.0
  0
SPLINE
  5
16F
330
1F
100
AcDbEntity
  8
0
  6
SLD-Solid
 62
   142
420
    32960
370
     0
100
AcDbSpline
210
0.0
220
0.0
230
1.0
 70
     8
 71
     3
 72
     8
 73
     4
 74
     0
 42
0.00000001
 43
0.00000001
 40
0.0
 40
0.0
 40
0.0
 40
0.0
 40
1.0
 40
1.0
 40
1.0
 40
1.0
 10
809.6370924986394
 20
595.6619008144421
 30
0.0
 10
809.8417421481562
 20
595.8209298697616
 30
0.0
 10
810.0463856298593
 20
595.9799779076598
 30
0.0
 10
810.2510229540687
 20
596.1390448963753
 30
0.0
  0
SPLINE
  5
170
330
1F
100
AcDbEntity
  8
0
  6
SLD-Solid
 62
   142
420
    32960
370
     0
100
AcDbSpline
210
0.0
220
0.0
230
1.0
 70
     8
 71
     3
 72
    11
 73
     7
 74
     0
 42
0.00000001
 43
0.00000001
 40
0.0
 40
0.0
 40
0.0
 40
0.0
 40
0.2528456380631628
 40
0.50379202054821
 40
0.7528423195117101
 40
1.0
 40
1.0
 40
1.0
 40
1.0
 10
807.1514407352659
 20
594.6917452436153
 30
0.0
 10
807.363475696708
 20
594.7706713368343
 30
0.0
 10
807.78595291431
 20
594.9279306681849
 30
0.0
 10
808.4116748375237
 20
595.1691768787189
 30
0.0
 10
809.0288633887536
 20
595.4128688956442
 30
0.0
 10
809.4348656483743
 20
595.5791015209928
 30
0.0
 10
809.6370924986394
 20
595.6619008144421
 30
0.0
  0
SPLINE
  5
171
330
1F
100
AcDbEntity
  8
0
  6
SLD-Solid
 62
   142
420
    32960
370
     0
100
AcDbSpline
210
0.0
220
0.0
230
1.0
 70
     8
 71
     3
 72
     9
 73
     5
 74
     0
 42
0.00000001
 43
0.00000001
 40
0.0
 40
0.0
 40
0.0
 40
0.0
 40
0.5000039696612368
 40
1.0
 40
1.0
 40
1.0
 40
1.0
 10
807.0249771655106
 20
595.0569187841321
 30
0.0
 10
807.0468757353677
 20
594.995150389511
 30
0.0
 10
807.090672527365
 20
594.8716145810592
 30
0.0
 10
807.1311847731788
 20
594.7517013720867
 30
0.0
 10
807.1514407352659
 20
594.6917452436153
 30
0.0
  0
SPLINE
  5
172
330
1F
100
AcDbEntity
  8
0
  6
SLD-Solid
 62
   142
420
    32960
370
     0
100
AcDbSpline
210
0.0
220
0.0
230
1.0
 70
     8
 71
     3
 72
     8
 73
     4
 74
     0
 42
0.00000001
 43
0.00000001
 40
0.0
 40
0.0
 40
0.0
 40
0.0
 40
1.0
 40
1.0
 40
1.0
 40
1.0
 10
809.2731052352088
 20
596.802315068343
 30
0.0
 10
808.5236617329217
 20
596.2207239861142
 30
0.0
 10
807.7742857993633
 20
595.6389249487213
 30
0.0
 10
807.0249771655106
 20
595.0569187841321
 30
0.0
  0
SPLINE
  5
173
330
1F
100
AcDbEntity
  8
0
  6
SLD-Solid
 62
   142
420
    32960
370
     0
100
AcDbSpline
210
0.0
220
0.0
230
1.0
 70
     8
 71
     3
 72
     8
 73
     4
 74
     0
 42
0.00000001
 43
0.00000001
 40
0.0
 40
0.0
 40
0.0
 40
0.0
 40
1.0
 40
1.0
 40
1.0
 40
1.0
 10
809.20925883769
 20
596.9791496659939
 30
0.0
 10
809.2307821269576
 20
596.9194625959161
 30
0.0
 10
809.2520648128834
 20
596.860516026782
 30
0.0
 10
809.2731052352088
 20
596.8023150683429
 30
0.0
  0
SPLINE
  5
174
330
1F
100
AcDbEntity
  8
0
  6
SLD-Solid
 62
   142
420
    32960
370
     0
100
AcDbSpline
210
0.0
220
0.0
230
1.0
 70
     8
 71
     3
 72
     8
 73
     4
 74
     0
 42
0.00000001
 43
0.00000001
 40
0.0
 40
0.0
 40
0.0
 40
0.0
 40
1.0
 40
1.0
 40
1.0
 40
1.0
 10
809.8231589323273
 20
597.4563208664765
 30
0.0
 10
809.618518168397
 20
597.2972865715865
 30
0.0
 10
809.4138848073574
 20
597.1382294929427
 30
0.0
 10
809.20925883769
 20
596.9791496659939
 30
0.0
  0
SPLINE
  5
175
330
1F
100
AcDbEntity
  8
0
  6
SLD-Solid
 62
   142
420
    32960
370
     0
100
AcDbSpline
210
0.0
220
0.0
230
1.0
 70
     8
 71
     3
 72
     8
 73
     4
 74
     0
 42
0.00000001
 43
0.00000001
 40
0.0
 40
0.0
 40
0.0
 40
0.0
 40
1.0
 40
1.0
 40
1.0
 40
1.0
 10
809.887111296723
 20
597.2793704595272
 30
0.0
 10
809.8660378777155
 20
597.3376028635736
 30
0.0
 10
809.8447198583041
 20
597.396588070256
 30
0.0
 10
809.8231589323273
 20
597.4563208664765
 30
0.0
  0
SPLINE
  5
176
330
1F
100
AcDbEntity
  8
0
  6
SLD-Solid
 62
   142
420
    32960
370
     0
100
AcDbSpline
210
0.0
220
0.0
230
1.0
 70
     8
 71
     3
 72
     9
 73
     5
 74
     0
 42
0.00000001
 43
0.00000001
 40
0.0
 40
0.0
 40
0.0
 40
0.0
 40
0.7193532133556207
 40
1.0
 40
1.0
 40
1.0
 40
1.0
 10
807.3360854729352
 20
595.3294589356204
 30
0.0
 10
807.2538233733675
 20
595.1853672542793
 30
0.0
 10
807.1394677299363
 20
594.9850599800977
 30
0.0
 10
807.1473379713865
 20
594.8509760130478
 30
0.0
 10
807.1495467293597
 20
594.8133457785548
 30
0.0
  0
SPLINE
  5
177
330
1F
100
AcDbEntity
  8
0
  6
SLD-Solid
 62
   142
420
    32960
370
     0
100
AcDbSpline
210
0.0
220
0.0
230
1.0
 70
     8
 71
     3
 72
    10
 73
     6
 74
     0
 42
0.00000001
 43
0.00000001
 40
0.0
 40
0.0
 40
0.0
 40
0.0
 40
0.4859688459954521
 40
0.9712863555306219
 40
1.0
 40
1.0
 40
1.0
 40
1.0
 10
808.8856404522863
 20
595.6211131699528
 30
0.0
 10
808.9352251399692
 20
595.6002655653527
 30
0.0
 10
809.0343280577521
 20
595.5585982978715
 30
0.0
 10
809.1900981979056
 20
595.5704585941864
 30
0.0
 10
809.2905482181609
 20
595.6180576648372
 30
0.0
 10
809.2961593297562
 20
595.6207165363493
 30
0.0
  0
SPLINE
  5
178
330
1F
100
AcDbEntity
  8
0
  6
SLD-Solid
 62
   142
420
    32960
370
     0
100
AcDbSpline
210
0.0
220
0.0
230
1.0
 70
     8
 71
     3
 72
    16
 73
    12
 74
     0
 42
0.00000001
 43
0.00000001
 40
0.0
 40
0.0
 40
0.0
 40
0.0
 40
0.1251550241341825
 40
0.2502776384447941
 40
0.3753266900137937
 40
0.5003123172052273
 40
0.6252569473066905
 40
0.7501103526638685
 40
0.8749032999777906
 40
0.9374290942462119
 40
1.0
 40
1.0
 40
1.0
 40
1.0
 10
809.0805704126769
 20
596.2883000714293
 30
0.0
 10
809.0898174069434
 20
596.2640972040944
 30
0.0
 10
809.1083090008985
 20
596.215697736937
 30
0.0
 10
809.1498150665952
 20
596.1556636562311
 30
0.0
 10
809.2080065163993
 20
596.1119835408563
 30
0.0
 10
809.2834969551999
 20
596.0866021298926
 30
0.0
 10
809.3845882172312
 20
596.09274680245
 30
0.0
 10
809.5019550772676
 20
596.123641678354
 30
0.0
 10
809.6146645783933
 20
596.1786132930243
 30
0.0
 10
809.7074694121403
 20
596.2379812681777
 30
0.0
 10
809.753639891019
 20
596.2720892845285
 30
0.0
 10
809.7767334552938
 20
596.2891494425996
 30
0.0
  0
LINE
  5
179
330
1F
100
AcDbEntity
  8
0
  6
SLD-Solid
 62
   142
420
    32960
370
     0
100
AcDbLine
 10
809.0805704127
 20
596.2883000714
 30
0.0
 11
808.5084903904
 21
595.8513855092
 31
0.0
  0
SPLINE
  5
17A
330
1F
100
AcDbEntity
  8
0
  6
SLD-Solid
 62
   142
420
    32960
370
     0
100
AcDbSpline
210
0.0
220
0.0
230
1.0
 70
     8
 71
     3
 72
     9
 73
     5
 74
     0
 42
0.00000001
 43
0.00000001
 40
0.0
 40
0.0
 40
0.0
 40
0.0
 40
0.333457623752979
 40
1.0
 40
1.0
 40
1.0
 40
1.0
 10
808.3127887352582
 20
595.3200157615031
 30
0.0
 10
808.2985625133781
 20
595.3038803014907
 30
0.0
 10
808.2558997554538
 20
595.2554919640742
 30
0.0
 10
808.2035980713914
 20
595.2137738572387
 30
0.0
 10
808.1687367826149
 20
595.1859669711762
 30
0.0
  0
SPLINE
  5
17B
330
1F
100
AcDbEntity
  8
0
  6
SLD-Solid
 62
   142
420
    32960
370
     0
100
AcDbSpline
210
0.0
220
0.0
230
1.0
 70
     8
 71
     3
 72
    10
 73
     6
 74
     0
 42
0.00000001
 43
0.00000001
 40
0.0
 40
0.0
 40
0.0
 40
0.0
 40
0.4999990035399885
 40
0.7446719237224282
 40
1.0
 40
1.0
 40
1.0
 40
1.0
 10
807.7817541584443
 20
595.1295896859759
 30
0.0
 10
807.7862494098272
 20
595.1176544275816
 30
0.0
 10
807.7929443981593
 20
595.0998786884985
 30
0.0
 10
807.8081235486356
 20
595.081326005221
 30
0.0
 10
807.8182065730289
 20
595.0744541873537
 30
0.0
 10
807.8233555212103
 20
595.0709450582743
 30
0.0
  0
LINE
  5
17C
330
1F
100
AcDbEntity
  8
0
  6
SLD-Solid
 62
   142
420
    32960
370
     0
100
AcDbLine
 10
800.3451853744
 20
616.0197132268
 30
0.0
 11
801.0175234349
 21
616.3033105467
 31
0.0
  0
SPLINE
  5
17D
330
1F
100
AcDbEntity
  8
0
  6
SLD-Solid
 62
   142
420
    32960
370
     0
100
AcDbSpline
210
0.0
220
0.0
230
1.0
 70
     8
 71
     3
 72
     9
 73
     5
 74
     0
 42
0.00000001
 43
0.00000001
 40
0.0
 40
0.0
 40
0.0
 40
0.0
 40
0.4999969146687395
 40
1.0
 40
1.0
 40
1.0
 40
1.0
 10
801.4639619041378
 20
614.9477983003397
 30
0.0
 10
801.3911973187942
 20
615.1734613852421
 30
0.0
 10
801.2456672500898
 20
615.6247903400459
 30
0.0
 10
801.0935716861336
 20
616.0771362140749
 30
0.0
 10
801.0175234348904
 20
616.3033105467262
 30
0.0
  0
LINE
  5
17E
330
1F
100
AcDbEntity
  8
0
  6
SLD-Solid
 62
   142
420
    32960
370
     0
100
AcDbLine
 10
801.4639619041
 20
614.9477983003
 30
0.0
 11
802.2169909965
 21
615.0727126191
 31
0.0
  0
SPLINE
  5
17F
330
1F
100
AcDbEntity
  8
0
  6
SLD-Solid
 62
   142
420
    32960
370
     0
100
AcDbSpline
210
0.0
220
0.0
230
1.0
 70
     8
 71
     3
 72
     9
 73
     5
 74
     0
 42
0.00000001
 43
0.00000001
 40
0.0
 40
0.0
 40
0.0
 40
0.0
 40
0.499905991303756
 40
1.0
 40
1.0
 40
1.0
 40
1.0
 10
802.0953266810542
 20
615.3256398605175
 30
0.0
 10
802.1116208328982
 20
615.2810149158181
 30
0.0
 10
802.1442152649065
 20
615.191748242732
 30
0.0
 10
802.1927293788085
 20
615.1123961335271
 30
0.0
 10
802.2169909965079
 20
615.0727126191363
 30
0.0
  0
SPLINE
  5
180
330
1F
100
AcDbEntity
  8
0
  6
SLD-Solid
 62
   142
420
    32960
370
     0
100
AcDbSpline
210
0.0
220
0.0
230
1.0
 70
     8
 71
     3
 72
    19
 73
    15
 74
     0
 42
0.00000001
 43
0.00000001
 40
0.0
 40
0.0
 40
0.0
 40
0.0
 40
0.0625583465051463
 40
0.125100163386034
 40
0.2500501157123657
 40
0.3749255740713183
 40
0.4998063905395658
 40
0.5999962464121475
 40
0.6748725249125267
 40
0.7498430831687711
 40
0.8123758319883253
 40
0.874911136246443
 40
0.9374468170257417
 40
1.0
 40
1.0
 40
1.0
 40
1.0
 10
802.9284744731473
 20
617.1740193838289
 30
0.0
 10
802.8879040428003
 20
617.1556462159404
 30
0.0
 10
802.8067739019222
 20
617.1189047348558
 30
0.0
 10
802.650459937978
 20
617.0308918667317
 30
0.0
 10
802.4690247688983
 20
616.8928918640579
 30
0.0
 10
802.2846325955903
 20
616.6839738059015
 30
0.0
 10
802.1529034124342
 20
616.4542855848824
 30
0.0
 10
802.0738513187757
 20
616.2399909740811
 30
0.0
 10
802.0302793528897
 20
616.0539665057145
 30
0.0
 10
802.0148049845678
 20
615.8923863825445
 30
0.0
 10
802.0139411827556
 20
615.7399738232102
 30
0.0
 10
802.0294477981091
 20
615.5987009437348
 30
0.0
 10
802.054969709737
 20
615.4595971088282
 30
0.0
 10
802.0818731025248
 20
615.3702964415473
 30
0.0
 10
802.0953266810542
 20
615.3256398605175
 30
0.0
  0
SPLINE
  5
181
330
1F
100
AcDbEntity
  8
0
  6
SLD-Solid
 62
   142
420
    32960
370
     0
100
AcDbSpline
210
0.0
220
0.0
230
1.0
 70
     8
 71
     3
 72
    17
 73
    13
 74
     0
 42
0.00000001
 43
0.00000001
 40
0.0
 40
0.0
 40
0.0
 40
0.0
 40
0.0625713784685271
 40
0.1251215088470923
 40
0.2500656599897295
 40
0.3750200963256021
 40
0.4999716825898503
 40
0.6277208470488687
 40
0.7499098671822583
 40
0.8748726880329769
 40
0.9374260668416146
 40
1.0
 40
1.0
 40
1.0
 40
1.0
 10
804.7264310992592
 20
616.3144631281809
 30
0.0
 10
804.710336767956
 20
616.360916868769
 30
0.0
 10
804.6781535706887
 20
616.4538085751086
 30
0.0
 10
804.5941317172169
 20
616.6296735700126
 30
0.0
 10
804.4598190109615
 20
616.8312110294945
 30
0.0
 10
804.2508958352174
 20
617.0253895683755
 30
0.0
 10
804.0083731602643
 20
617.17106552788
 30
0.0
 10
803.7458520141358
 20
617.2653395381712
 30
0.0
 10
803.4696331482471
 20
617.2992889595453
 30
0.0
 10
803.2399917592862
 20
617.2742913317877
 30
0.0
 10
803.0598600765054
 20
617.2250188830302
 30
0.0
 10
802.9722744700894
 20
617.191021078474
 30
0.0
 10
802.9284744731473
 20
617.1740193838289
 30
0.0
  0
SPLINE
  5
182
330
1F
100
AcDbEntity
  8
0
  6
SLD-Solid
 62
   142
420
    32960
370
     0
100
AcDbSpline
210
0.0
220
0.0
230
1.0
 70
     8
 71
     3
 72
    17
 73
    13
 74
     0
 42
0.00000001
 43
0.00000001
 40
0.0
 40
0.0
 40
0.0
 40
0.0
 40
0.0625627776868305
 40
0.1251141196029149
 40
0.2500805960564299
 40
0.3750527100507519
 40
0.5000013317453199
 40
0.6249551927360113
 40
0.7498969439063317
 40
0.8748889489927849
 40
0.937438343451694
 40
1.0
 40
1.0
 40
1.0
 40
1.0
 10
804.119231700333
 20
614.468532163538
 30
0.0
 10
804.1529282715798
 20
614.4939374477472
 30
0.0
 10
804.2203152547203
 20
614.5447433723657
 30
0.0
 10
804.348028117111
 20
614.6572233861167
 30
0.0
 10
804.4932538323226
 20
614.8169555571582
 30
0.0
 10
804.6352858057246
 20
615.0379516899452
 30
0.0
 10
804.7380166053647
 20
615.2821141002213
 30
0.0
 10
804.7999759105053
 20
615.5399413030362
 30
0.0
 10
804.8203817190788
 20
615.803846589063
 30
0.0
 10
804.7979997517909
 20
616.0212428087586
 30
0.0
 10
804.763225912073
 20
616.1907941528939
 30
0.0
 10
804.7386968382258
 20
616.2732374430062
 30
0.0
 10
804.7264310992592
 20
616.3144631281809
 30
0.0
  0
SPLINE
  5
183
330
1F
100
AcDbEntity
  8
0
  6
SLD-Solid
 62
   142
420
    32960
370
     0
100
AcDbSpline
210
0.0
220
0.0
230
1.0
 70
     8
 71
     3
 72
     9
 73
     5
 74
     0
 42
0.00000001
 43
0.00000001
 40
0.0
 40
0.0
 40
0.0
 40
0.0
 40
0.4999915155782899
 40
1.0
 40
1.0
 40
1.0
 40
1.0
 10
803.8672389321305
 20
615.293287792799
 30
0.0
 10
803.9098962264864
 20
615.1556531178978
 30
0.0
 10
803.9952122629127
 20
614.8803790970136
 30
0.0
 10
804.077891420203
 20
614.6058160277025
 30
0.0
 10
804.119231700333
 20
614.468532163538
 30
0.0
  0
SPLINE
  5
184
330
1F
100
AcDbEntity
  8
0
  6
SLD-Solid
 62
   142
420
    32960
370
     0
100
AcDbSpline
210
0.0
220
0.0
230
1.0
 70
     8
 71
     3
 72
    13
 73
     9
 74
     0
 42
0.00000001
 43
0.00000001
 40
0.0
 40
0.0
 40
0.0
 40
0.0
 40
0.1252132507906223
 40
0.2503205428081655
 40
0.4999327495225281
 40
0.7496225238635178
 40
0.8747717100022774
 40
1.0
 40
1.0
 40
1.0
 40
1.0
 10
804.0432826492714
 20
616.0458314636128
 30
0.0
 10
804.0521263821344
 20
616.013695631086
 30
0.0
 10
804.0698063640591
 20
615.9494511602255
 30
0.0
 10
804.084468651683
 20
615.8151957157933
 30
0.0
 10
804.0657201624863
 20
615.643929732148
 30
0.0
 10
804.0026305429127
 20
615.4843556324851
 30
0.0
 10
803.9309463964186
 20
615.3703079471326
 30
0.0
 10
803.8884792258965
 20
615.3189665844795
 30
0.0
 10
803.8672389321305
 20
615.2932877927989
 30
0.0
  0
SPLINE
  5
185
330
1F
100
AcDbEntity
  8
0
  6
SLD-Solid
 62
   142
420
    32960
370
     0
100
AcDbSpline
210
0.0
220
0.0
230
1.0
 70
     8
 71
     3
 72
    17
 73
    13
 74
     0
 42
0.00000001
 43
0.00000001
 40
0.0
 40
0.0
 40
0.0
 40
0.0
 40
0.0625820088413927
 40
0.1251506259510329
 40
0.2501000092854691
 40
0.3750446097038443
 40
0.5000411091552244
 40
0.6250436569434921
 40
0.7499362197475586
 40
0.8748672129464596
 40
0.9374220428777728
 40
1.0
 40
1.0
 40
1.0
 40
1.0
 10
803.2162183567375
 20
616.4116648902263
 30
0.0
 10
803.2362213481381
 20
616.4194960781185
 30
0.0
 10
803.276223050561
 20
616.4351567781309
 30
0.0
 10
803.3582101891024
 20
616.4588311156957
 30
0.0
 10
803.4632743837018
 20
616.4740649580466
 30
0.0
 10
803.5898248360899
 20
616.4664599260128
 30
0.0
 10
803.7106338836135
 20
616.4279666026356
 30
0.0
 10
803.8221053053223
 20
616.3660662443441
 30
0.0
 10
803.9189102152833
 20
616.2798592467567
 30
0.0
 10
803.9822359268289
 20
616.1895797522275
 30
0.0
 10
804.0209311450193
 20
616.1094105443116
 30
0.0
 10
804.0358312299036
 20
616.0670271016319
 30
0.0
 10
804.0432826492714
 20
616.0458314636127
 30
0.0
  0
SPLINE
  5
186
330
1F
100
AcDbEntity
  8
0
  6
SLD-Solid
 62
   142
420
    32960
370
     0
100
AcDbSpline
210
0.0
220
0.0
230
1.0
 70
     8
 71
     3
 72
    16
 73
    12
 74
     0
 42
0.00000001
 43
0.00000001
 40
0.0
 40
0.0
 40
0.0
 40
0.0
 40
0.0625768915255163
 40
0.1251365117523649
 40
0.2500258664707028
 40
0.3749336302796858
 40
0.4998800117691394
 40
0.6248549835766074
 40
0.7498694666724844
 40
0.8748972018541715
 40
1.0
 40
1.0
 40
1.0
 40
1.0
 10
802.7977646353863
 20
615.570790263982
 30
0.0
 10
802.791679855586
 20
615.5914681500416
 30
0.0
 10
802.7795119753924
 20
615.6328182150388
 30
0.0
 10
802.7661321171624
 20
615.718929677731
 30
0.0
 10
802.7641572484246
 20
615.8294383115808
 30
0.0
 10
802.7923980796883
 20
615.9596004902346
 30
0.0
 10
802.8433158023946
 20
616.0812174706022
 30
0.0
 10
802.9126986432684
 20
616.192310776185
 30
0.0
 10
803.0026604241323
 20
616.2838325854805
 30
0.0
 10
803.1038205880632
 20
616.3599621035137
 30
0.0
 10
803.1787449390342
 20
616.3944271803878
 30
0.0
 10
803.2162183567375
 20
616.4116648902263
 30
0.0
  0
SPLINE
  5
187
330
1F
100
AcDbEntity
  8
0
  6
SLD-Solid
 62
   142
420
    32960
370
     0
100
AcDbSpline
210
0.0
220
0.0
230
1.0
 70
     8
 71
     3
 72
    12
 73
     8
 74
     0
 42
0.00000001
 43
0.00000001
 40
0.0
 40
0.0
 40
0.0
 40
0.0
 40
0.2501215802572608
 40
0.5001385013493825
 40
0.7498605984541639
 40
0.874899045678315
 40
1.0
 40
1.0
 40
1.0
 40
1.0
 10
803.1969557632584
 20
615.1703399817416
 30
0.0
 10
803.1542686619555
 20
615.1907770657498
 30
0.0
 10
803.0689123210489
 20
615.2316426822129
 30
0.0
 10
802.9539918760353
 20
615.3193521396267
 30
0.0
 10
802.8737989939345
 20
615.412570862918
 30
0.0
 10
802.8241076858831
 20
615.4993442755223
 30
0.0
 10
802.80654711495
 20
615.5469709673658
 30
0.0
 10
802.7977646353863
 20
615.570790263982
 30
0.0
  0
SPLINE
  5
188
330
1F
100
AcDbEntity
  8
0
  6
SLD-Solid
 62
   142
420
    32960
370
     0
100
AcDbSpline
210
0.0
220
0.0
230
1.0
 70
     8
 71
     3
 72
     9
 73
     5
 74
     0
 42
0.00000001
 43
0.00000001
 40
0.0
 40
0.0
 40
0.0
 40
0.0
 40
0.5001021414443587
 40
1.0
 40
1.0
 40
1.0
 40
1.0
 10
803.2619014092766
 20
614.4737020549278
 30
0.0
 10
803.2514630557661
 20
614.5897337457044
 30
0.0
 10
803.2305906126282
 20
614.8217497303617
 30
0.0
 10
803.2081658527168
 20
615.0541590570313
 30
0.0
 10
803.1969557632584
 20
615.1703399817416
 30
0.0
  0
SPLINE
  5
189
330
1F
100
AcDbEntity
  8
0
  6
SLD-Solid
 62
   142
420
    32960
370
     0
100
AcDbSpline
210
0.0
220
0.0
230
1.0
 70
     8
 71
     3
 72
     9
 73
     5
 74
     0
 42
0.00000001
 43
0.00000001
 40
0.0
 40
0.0
 40
0.0
 40
0.0
 40
0.5036675688378655
 40
1.0
 40
1.0
 40
1.0
 40
1.0
 10
800.9785071622856
 20
614.0744425996179
 30
0.0
 10
801.3621345516596
 20
614.141403777706
 30
0.0
 10
802.1238023919359
 20
614.2743509480847
 30
0.0
 10
802.8843947533918
 20
614.4075774308444
 30
0.0
 10
803.2619014092766
 20
614.4737020549278
 30
0.0
  0
SPLINE
  5
18A
330
1F
100
AcDbEntity
  8
0
  6
SLD-Solid
 62
   142
420
    32960
370
     0
100
AcDbSpline
210
0.0
220
0.0
230
1.0
 70
     8
 71
     3
 72
    11
 73
     7
 74
     0
 42
0.00000001
 43
0.00000001
 40
0.0
 40
0.0
 40
0.0
 40
0.0
 40
0.2500102014516305
 40
0.5000006436975306
 40
0.7499907640102907
 40
1.0
 40
1.0
 40
1.0
 40
1.0
 10
800.3451853743973
 20
616.019713226754
 30
0.0
 10
800.3998853378777
 20
615.8572919878852
 30
0.0
 10
800.5092809417035
 20
615.5324623468827
 30
0.0
 10
800.6690864957253
 20
615.0458082128184
 30
0.0
 10
800.8259953943885
 20
614.5596623014275
 30
0.0
 10
800.9276686106167
 20
614.2361866225308
 30
0.0
 10
800.9785071622856
 20
614.0744425996179
 30
0.0
  0
SPLINE
  5
18B
330
1F
100
AcDbEntity
  8
0
  6
SLD-Solid
 62
   142
420
    32960
370
     0
100
AcDbSpline
210
0.0
220
0.0
230
1.0
 70
     8
 71
     3
 72
    10
 73
     6
 74
     0
 42
0.00000001
 43
0.00000001
 40
0.0
 40
0.0
 40
0.0
 40
0.0
 40
0.5009788267465898
 40
0.9997108583460689
 40
1.0
 40
1.0
 40
1.0
 40
1.0
 10
791.1984276720716
 20
650.8032397429411
 30
0.0
 10
791.4626183151423
 20
650.7858698151953
 30
0.0
 10
791.98981475629
 20
650.7512078605397
 30
0.0
 10
792.5370519225606
 20
650.7201324879659
 30
0.0
 10
792.7608340656093
 20
650.7103742077859
 30
0.0
 10
792.760963728923
 20
650.7103685536666
 30
0.0
  0
SPLINE
  5
18C
330
1F
100
AcDbEntity
  8
0
  6
SLD-Solid
 62
   142
420
    32960
370
     0
100
AcDbSpline
210
0.0
220
0.0
230
1.0
 70
     8
 71
     3
 72
    18
 73
    14
 74
     0
 42
0.00000001
 43
0.00000001
 40
0.0
 40
0.0
 40
0.0
 40
0.0
 40
0.1251615752902268
 40
0.2503026028558716
 40
0.3753841869036743
 40
0.5003399629435734
 40
0.6302195788122487
 40
0.7498108645913478
 40
0.8125874632032583
 40
0.8748654797413357
 40
0.9374191148115163
 40
0.9687073650343846
 40
1.0
 40
1.0
 40
1.0
 40
1.0
 10
791.2574960302495
 20
650.795266325879
 30
0.0
 10
791.38971654329
 20
650.7865486579904
 30
0.0
 10
791.6541358627832
 20
650.7691147533887
 30
0.0
 10
792.0492691039631
 20
650.7445993063046
 30
0.0
 10
792.439096449562
 20
650.7223768202535
 30
0.0
 10
792.8132596929007
 20
650.7042064995488
 30
0.0
 10
793.1437552571539
 20
650.6910222379552
 30
0.0
 10
793.3524867296975
 20
650.685155010732
 30
0.0
 10
793.4618882910764
 20
650.68307590746
 30
0.0
 10
793.5177121625687
 20
650.6824628275236
 30
0.0
 10
793.5414658254483
 20
650.6825143244544
 30
0.0
 10
793.5513039488753
 20
650.6825820957783
 30
0.0
 10
793.5516324418037
 20
650.6826598818348
 30
0.0
 10
793.5517966997759
 20
650.682698777588
 30
0.0
  0
SPLINE
  5
18D
330
1F
100
AcDbEntity
  8
0
  6
SLD-Solid
 62
   142
420
    32960
370
     0
100
AcDbSpline
210
0.0
220
0.0
230
1.0
 70
     8
 71
     3
 72
    14
 73
    10
 74
     0
 42
0.00000001
 43
0.00000001
 40
0.0
 40
0.0
 40
0.0
 40
0.0
 40
0.0625271511718556
 40
0.1250385665834419
 40
0.2500185759795618
 40
0.4998671003519281
 40
0.7498915699466138
 40
0.8749419633117798
 40
1.0
 40
1.0
 40
1.0
 40
1.0
 10
789.4749058341579
 20
650.9304606020349
 30
0.0
 10
789.5075092942736
 20
650.9275133146302
 30
0.0
 10
789.5727080094259
 20
650.9216194815438
 30
0.0
 10
789.7084717215037
 20
650.9096388667361
 30
0.0
 10
789.9604069422887
 20
650.8887125388877
 30
0.0
 10
790.3362336713926
 20
650.8595600739397
 30
0.0
 10
790.7191445167697
 20
650.83197912082
 30
0.0
 10
791.0266468508523
 20
650.8107860668243
 30
0.0
 10
791.1805447360754
 20
650.8004396782561
 30
0.0
 10
791.2574960302495
 20
650.795266325879
 30
0.0
  0
SPLINE
  5
18E
330
1F
100
AcDbEntity
  8
0
  6
SLD-Solid
 62
   142
420
    32960
370
     0
100
AcDbSpline
210
0.0
220
0.0
230
1.0
 70
     8
 71
     3
 72
    13
 73
     9
 74
     0
 42
0.00000001
 43
0.00000001
 40
0.0
 40
0.0
 40
0.0
 40
0.0
 40
0.1251938662589926
 40
0.2503283849861653
 40
0.50001923697101
 40
0.7496882904451582
 40
0.8748125585586172
 40
1.0
 40
1.0
 40
1.0
 40
1.0
 10
788.8632855719827
 20
650.9941629932769
 30
0.0
 10
788.8653935160602
 20
650.9938207410916
 30
0.0
 10
788.8696084049546
 20
650.9931363989641
 30
0.0
 10
788.9050868587551
 20
650.9885001370435
 30
0.0
 10
789.0028429239642
 20
650.9772319879515
 30
0.0
 10
789.1700742978163
 20
650.9596774006005
 30
0.0
 10
789.3356355196013
 20
650.9434623761166
 30
0.0
 10
789.4284745857734
 20
650.9347952558608
 30
0.0
 10
789.4749058341579
 20
650.9304606020349
 30
0.0
  0
SPLINE
  5
18F
330
1F
100
AcDbEntity
  8
0
  6
SLD-Solid
 62
   142
420
    32960
370
     0
100
AcDbSpline
210
0.0
220
0.0
230
1.0
 70
     8
 71
     3
 72
    19
 73
    15
 74
     0
 42
0.00000001
 43
0.00000001
 40
0.0
 40
0.0
 40
0.0
 40
0.0
 40
0.1252636569322571
 40
0.2504606304605752
 40
0.3754117004534112
 40
0.5012496476207029
 40
0.5377354893582932
 40
0.5727333229857112
 40
0.627109413691893
 40
0.7507320422279413
 40
0.8205725051889293
 40
0.8746429677350859
 40
0.9790193147360947
 40
1.0
 40
1.0
 40
1.0
 40
1.0
 10
791.1984276720716
 20
650.8032397429411
 30
0.0
 10
791.0645032823828
 20
650.8123238695326
 30
0.0
 10
790.796725796902
 20
650.8304872868318
 30
0.0
 10
790.3970837103858
 20
650.8590689780199
 30
0.0
 10
790.0019087046011
 20
650.8889695689414
 30
0.0
 10
789.7147247251197
 20
650.9128104776241
 30
0.0
 10
789.530435875984
 20
650.9288534435706
 30
0.0
 10
789.4184021440753
 20
650.9389106366659
 30
0.0
 10
789.2394906548379
 20
650.9553886392279
 30
0.0
 10
789.0699333932906
 20
650.9723089206017
 30
0.0
 10
788.9577520355224
 20
650.9841500269238
 30
0.0
 10
788.8873063351851
 20
650.9917602899169
 30
0.0
 10
788.8641242369503
 20
650.9943234135179
 30
0.0
 10
788.863405812793
 20
650.9941859929975
 30
0.0
 10
788.8632855719827
 20
650.994162993277
 30
0.0
  0
LINE
  5
190
330
1F
100
AcDbEntity
  8
0
  6
SLD-Solid
 62
   142
420
    32960
370
     0
100
AcDbLine
 10
794.6250521767
 20
639.5542995624
 30
0.0
 11
796.9846732873
 21
639.7024555704
 31
0.0
  0
SPLINE
  5
191
330
1F
100
AcDbEntity
  8
0
  6
SLD-Solid
 62
   142
420
    32960
370
     0
100
AcDbSpline
210
0.0
220
0.0
230
1.0
 70
     8
 71
     3
 72
     8
 73
     4
 74
     0
 42
0.00000001
 43
0.00000001
 40
0.0
 40
0.0
 40
0.0
 40
0.0
 40
1.0
 40
1.0
 40
1.0
 40
1.0
 10
793.2865281010525
 20
640.1109848475656
 30
0.0
 10
794.4540755366478
 20
640.184297293496
 30
0.0
 10
795.6215575816872
 20
640.2578109908634
 30
0.0
 10
796.7889741872649
 20
640.331526090185
 30
0.0
  0
SPLINE
  5
192
330
1F
100
AcDbEntity
  8
0
  6
SLD-Solid
 62
   142
420
    32960
370
     0
100
AcDbSpline
210
0.0
220
0.0
230
1.0
 70
     8
 71
     3
 72
     9
 73
     5
 74
     0
 42
0.00000001
 43
0.00000001
 40
0.0
 40
0.0
 40
0.0
 40
0.0
 40
0.5000002533571842
 40
0.9999999999999999
 40
0.9999999999999999
 40
0.9999999999999999
 40
0.9999999999999999
 10
793.0687162746178
 20
640.7798230037596
 30
0.0
 10
793.1052853757532
 20
640.6694313966752
 30
0.0
 10
793.1784235409638
 20
640.4486482943807
 30
0.0
 10
793.2504932598625
 20
640.2235392918155
 30
0.0
 10
793.2865281010525
 20
640.1109848475658
 30
0.0
  0
SPLINE
  5
193
330
1F
100
AcDbEntity
  8
0
  6
SLD-Solid
 62
   142
420
    32960
370
     0
100
AcDbSpline
210
0.0
220
0.0
230
1.0
 70
     8
 71
     3
 72
     9
 73
     5
 74
     0
 42
0.00000001
 43
0.00000001
 40
0.0
 40
0.0
 40
0.0
 40
0.0
 40
0.4978933901263126
 40
1.0
 40
1.0
 40
1.0
 40
1.0
 10
794.1999222509525
 20
640.2827422796105
 30
0.0
 10
793.9290388317356
 20
640.3622653437312
 30
0.0
 10
793.3849797528469
 20
640.5219844034697
 30
0.0
 10
792.8401577607398
 20
640.6785983279233
 30
0.0
 10
792.5665990372981
 20
640.7572352145897
 30
0.0
  0
SPLINE
  5
194
330
1F
100
AcDbEntity
  8
0
  6
SLD-Solid
 62
   142
420
    32960
370
     0
100
AcDbSpline
210
0.0
220
0.0
230
1.0
 70
     8
 71
     3
 72
    17
 73
    13
 74
     0
 42
0.00000001
 43
0.00000001
 40
0.0
 40
0.0
 40
0.0
 40
0.0
 40
0.0625828327880251
 40
0.1251475851228452
 40
0.2501263684710527
 40
0.3738523636076292
 40
0.5000343517336145
 40
0.6278306699013623
 40
0.7499469008274621
 40
0.8748604327670351
 40
0.9374196577040212
 40
1.0
 40
1.0
 40
1.0
 40
1.0
 10
795.2292579442831
 20
641.347820108439
 30
0.0
 10
795.1859018491888
 20
641.3442540571584
 30
0.0
 10
795.099202184765
 20
641.3371229848449
 30
0.0
 10
794.9309638542081
 20
641.3110990608278
 30
0.0
 10
794.7340454540539
 20
641.2563614936746
 30
0.0
 10
794.5278253938181
 20
641.1548188950884
 30
0.0
 10
794.3618351090648
 20
641.0191432809435
 30
0.0
 10
794.2376258210169
 20
640.859734981375
 30
0.0
 10
794.1654136232389
 20
640.6789095637555
 30
0.0
 10
794.1523722953788
 20
640.5170249667474
 30
0.0
 10
794.1715757487335
 20
640.3834034363576
 30
0.0
 10
794.1904723539426
 20
640.3162997731174
 30
0.0
 10
794.1999222509525
 20
640.2827422796105
 30
0.0
  0
SPLINE
  5
195
330
1F
100
AcDbEntity
  8
0
  6
SLD-Solid
 62
   142
420
    32960
370
     0
100
AcDbSpline
210
0.0
220
0.0
230
1.0
 70
     8
 71
     3
 72
    17
 73
    13
 74
     0
 42
0.00000001
 43
0.00000001
 40
0.0
 40
0.0
 40
0.0
 40
0.0
 40
0.0625792467947734
 40
0.1251386172827293
 40
0.2500882291406213
 40
0.3750454651190099
 40
0.5000166197722127
 40
0.627588809270521
 40
0.7499048935735665
 40
0.8748659115759306
 40
0.9374228974929658
 40
1.0
 40
1.0
 40
1.0
 40
1.0
 10
796.8921565859708
 20
640.4297846280646
 30
0.0
 10
796.8801383948875
 20
640.4632161046965
 30
0.0
 10
796.856105829917
 20
640.5300684395153
 30
0.0
 10
796.7900250061774
 20
640.6608349811263
 30
0.0
 10
796.677223989451
 20
640.8174669494687
 30
0.0
 10
796.4921423371154
 20
640.9831511511763
 30
0.0
 10
796.2717216397197
 20
641.1245401741112
 30
0.0
 10
796.0278289216271
 20
641.2378781715663
 30
0.0
 10
795.7644055663058
 20
641.3158161745923
 30
0.0
 10
795.5400763245442
 20
641.346773178356
 30
0.0
 10
795.3609119509026
 20
641.3539923825962
 30
0.0
 10
795.2731473161784
 20
641.3498777536477
 30
0.0
 10
795.2292579442831
 20
641.347820108439
 30
0.0
  0
SPLINE
  5
196
330
1F
100
AcDbEntity
  8
0
  6
SLD-Solid
 62
   142
420
    32960
370
     0
100
AcDbSpline
210
0.0
220
0.0
230
1.0
 70
     8
 71
     3
 72
    16
 73
    12
 74
     0
 42
0.00000001
 43
0.00000001
 40
0.0
 40
0.0
 40
0.0
 40
0.0
 40
0.0626347164105525
 40
0.1252462045551208
 40
0.2503234762037551
 40
0.4994982808584689
 40
0.624590216836563
 40
0.7496705979364886
 40
0.8747389694974402
 40
0.937359146807854
 40
0.9999999999999999
 40
0.9999999999999999
 40
0.9999999999999999
 40
0.9999999999999999
 10
795.8957238134421
 20
639.2916811742904
 30
0.0
 10
795.9391512150191
 20
639.2952963545339
 30
0.0
 10
796.0259899129951
 20
639.3025253743209
 30
0.0
 10
796.1924113886898
 20
639.3348290458747
 30
0.0
 10
796.4631509488261
 20
639.4264701320401
 30
0.0
 10
796.703398693577
 20
639.6107289351921
 30
0.0
 10
796.8665041603941
 20
639.834442655844
 30
0.0
 10
796.9327873614391
 20
640.0251268722219
 30
0.0
 10
796.9419624524625
 20
640.1931555141277
 30
0.0
 10
796.92051091269
 20
640.3287206847627
 30
0.0
 10
796.9016090682048
 20
640.3960929400894
 30
0.0
 10
796.8921565859708
 20
640.4297846280646
 30
0.0
  0
SPLINE
  5
197
330
1F
100
AcDbEntity
  8
0
  6
SLD-Solid
 62
   142
420
    32960
370
     0
100
AcDbSpline
210
0.0
220
0.0
230
1.0
 70
     8
 71
     3
 72
    13
 73
     9
 74
     0
 42
0.00000001
 43
0.00000001
 40
0.0
 40
0.0
 40
0.0
 40
0.0
 40
0.286247450862355
 40
0.5000653653800962
 40
0.6274835430651564
 40
0.7500272884545184
 40
0.8750054630897166
 40
1.0
 40
1.0
 40
1.0
 40
1.0
 10
794.8041841533737
 20
639.4938170354235
 30
0.0
 10
794.9069677331652
 20
639.4629378086979
 30
0.0
 10
795.0865274400853
 20
639.4089927630787
 30
0.0
 10
795.3140700531012
 20
639.3483099899373
 30
0.0
 10
795.4843649376627
 20
639.3138496357992
 30
0.0
 10
795.6227671705818
 20
639.2956891833697
 30
0.0
 10
795.760131164754
 20
639.2867054545188
 30
0.0
 10
795.8505242916145
 20
639.2900225286586
 30
0.0
 10
795.8957238134421
 20
639.2916811742904
 30
0.0
  0
SPLINE
  5
198
330
1F
100
AcDbEntity
  8
0
  6
SLD-Solid
 62
   142
420
    32960
370
     0
100
AcDbSpline
210
0.0
220
0.0
230
1.0
 70
     8
 71
     3
 72
     9
 73
     5
 74
     0
 42
0.00000001
 43
0.00000001
 40
0.0
 40
0.0
 40
0.0
 40
0.0
 40
0.5030935291777731
 40
1.0
 40
1.0
 40
1.0
 40
1.0
 10
792.3922806010478
 20
640.2121971473163
 30
0.0
 10
792.7972009194224
 20
640.0934347281615
 30
0.0
 10
793.6020618347208
 20
639.8573704334193
 30
0.0
 10
794.4051329297322
 20
639.6145006181822
 30
0.0
 10
794.8041841533737
 20
639.4938170354235
 30
0.0
  0
SPLINE
  5
199
330
1F
100
AcDbEntity
  8
0
  6
SLD-Solid
 62
   142
420
    32960
370
     0
100
AcDbSpline
210
0.0
220
0.0
230
1.0
 70
     8
 71
     3
 72
     9
 73
     5
 74
     0
 42
0.00000001
 43
0.00000001
 40
0.0
 40
0.0
 40
0.0
 40
0.0
 40
0.4997022537551675
 40
1.0
 40
1.0
 40
1.0
 40
1.0
 10
792.5665990372981
 20
640.7572352145897
 30
0.0
 10
792.5377258353941
 20
640.6671135527696
 30
0.0
 10
792.4799450235466
 20
640.4867628316296
 30
0.0
 10
792.4215136736907
 20
640.3037553686106
 30
0.0
 10
792.3922806010478
 20
640.2121971473163
 30
0.0
  0
SPLINE
  5
19A
330
1F
100
AcDbEntity
  8
0
  6
SLD-Solid
 62
   142
420
    32960
370
     0
100
AcDbSpline
210
0.0
220
0.0
230
1.0
 70
     8
 71
     3
 72
    10
 73
     6
 74
     0
 42
0.00000001
 43
0.00000001
 40
0.0
 40
0.0
 40
0.0
 40
0.0
 40
0.5
 40
0.5
 40
1.0
 40
1.0
 40
1.0
 40
1.0
 10
812.3114250375231
 20
600.8630814357839
 30
0.0
 10
812.0776111927041
 20
600.9055484915028
 30
0.0
 10
811.8812775826996
 20
601.0004998102459
 30
0.0
 10
811.5633367148342
 20
601.2938225330396
 30
0.0
 10
811.4482030122722
 20
601.4855831492175
 30
0.0
 10
811.3722073833385
 20
601.7194736452838
 30
0.0
  0
LINE
  5
19B
330
1F
100
AcDbEntity
  8
0
  6
SLD-Solid
 62
   142
420
    32960
370
     0
100
AcDbLine
 10
805.5202779296
 20
589.4034033133
 30
0.0
 11
785.4341732953
 21
651.2220768725
 31
0.0
  0
LINE
  5
19C
330
1F
100
AcDbEntity
  8
0
  6
SLD-Solid
 62
     7
370
    15
100
AcDbLine
 10
798.2310108177
 20
644.1981404766
 30
0.0
 11
811.744570733
 21
602.6076795967
 31
0.0
  0
ARC
  5
19D
330
1F
100
AcDbEntity
  8
0
  6
SLD-Solid
 62
   142
420
    32960
370
     0
100
AcDbCircle
 10
810.9527792798
 20
602.4174669325
 30
0.0
 40
0.8143184653804292
100
AcDbArc
 50
301.001895257
 51
13.508234223
  0
SPLINE
  5
19E
330
1F
100
AcDbEntity
  8
0
  6
SLD-Solid
 62
     7
370
    15
100
AcDbSpline
210
0.0
220
0.0
230
1.0
 70
     8
 71
     3
 72
    17
 73
    13
 74
     0
 42
0.00000001
 43
0.00000001
 40
0.0
 40
0.0
 40
0.0
 40
0.0
 40
0.0000166887075715
 40
0.0000166887075715
 40
0.0000166887075715
 40
0.0000336582619935
 40
0.0000336582619935
 40
0.0000336582619935
 40
0.0000426621382239
 40
0.0000426621382239
 40
0.0000426621382239
 40
0.0000451385286554
 40
0.0000451385286554
 40
0.0000451385286554
 40
0.0000451385286554
 10
797.6641565132633
 20
645.942738637482
 30
0.0
 10
797.6651112946209
 20
645.9398001226158
 30
0.0
 10
797.6663942119299
 20
645.9368292094454
 30
0.0
 10
797.668255047844
 20
645.9338905930305
 30
0.0
 10
797.6701328913464
 20
645.9309251183753
 30
0.0
 10
797.6726548319056
 20
645.927908906194
 30
0.0
 10
797.6762347766744
 20
645.9252213601501
 30
0.0
 10
797.6781501017982
 20
645.9237834819727
 30
0.0
 10
797.6804225678706
 20
645.9224199505608
 30
0.0
 10
797.6829642507432
 20
645.9212793201568
 30
0.0
 10
797.68367277593
 20
645.9209613554813
 30
0.0
 10
797.6844042218827
 20
645.9206589361296
 30
0.0
 10
797.685153132366
 20
645.9203748753963
 30
0.0
  0
SPLINE
  5
19F
330
1F
100
AcDbEntity
  8
0
  6
SLD-Solid
 62
   142
420
    32960
370
     0
100
AcDbSpline
210
0.0
220
0.0
230
1.0
 70
     8
 71
     3
 72
    12
 73
     8
 74
     0
 42
0.00000001
 43
0.00000001
 40
0.0
 40
0.0
 40
0.0
 40
0.0
 40
0.2499999999999996
 40
0.2499999999999996
 40
0.4999999999999991
 40
0.4999999999999991
 40
1.0
 40
1.0
 40
1.0
 40
1.0
 10
797.685153132366
 20
645.9203748753963
 30
0.0
 10
797.7686782632883
 20
645.8886939062276
 30
0.0
 10
797.8483094615794
 20
645.8469468518556
 30
0.0
 10
797.9999779799284
 20
645.7438223148064
 30
0.0
 10
798.070882102782
 20
645.6828168233535
 30
0.0
 10
798.2590897111147
 20
645.4803983371007
 30
0.0
 10
798.3542129065706
 20
645.3150903053281
 30
0.0
 10
798.4024761141421
 20
645.1483700422743
 30
0.0
  0
SPLINE
  5
1A0
330
1F
100
AcDbEntity
  8
0
  6
SLD-Solid
 62
   142
420
    32960
370
     0
100
AcDbSpline
210
0.0
220
0.0
230
1.0
 70
     8
 71
     3
 72
    10
 73
     6
 74
     0
 42
0.00000001
 43
0.00000001
 40
0.0
 40
0.0
 40
0.0
 40
0.0
 40
0.5
 40
0.5
 40
1.0
 40
1.0
 40
1.0
 40
1.0
 10
811.744570733039
 20
602.6076795966713
 30
0.0
 10
811.8054221770408
 20
602.4203981092536
 30
0.0
 10
811.8923859183071
 20
602.2670850153677
 30
0.0
 10
812.128632458742
 20
602.0368162359786
 30
0.0
 10
812.2728216050061
 20
601.9658645679006
 30
0.0
 10
812.4418199967682
 20
601.9397125019761
 30
0.0
  0
SPLINE
  5
1A1
330
1F
100
AcDbEntity
  8
0
  6
SLD-Solid
 62
   142
420
    32960
370
     0
100
AcDbSpline
210
0.0
220
0.0
230
1.0
 70
     8
 71
     3
 72
    14
 73
    10
 74
     0
 42
0.00000001
 43
0.00000001
 40
0.0
 40
0.0
 40
0.0
 40
0.0
 40
0.25
 40
0.25
 40
0.5
 40
0.5
 40
0.75
 40
0.75
 40
1.0
 40
1.0
 40
1.0
 40
1.0
 10
800.9438092672021
 20
645.3877777607263
 30
0.0
 10
800.6826816423732
 20
645.4371541073423
 30
0.0
 10
800.4280560460421
 20
645.4718133966022
 30
0.0
 10
799.9323999667758
 20
645.5100824665567
 30
0.0
 10
799.6894389617113
 20
645.5132668697976
 30
0.0
 10
799.2443505542801
 20
645.4819390424175
 30
0.0
 10
799.0374826574674
 20
645.4476372509113
 30
0.0
 10
798.6724950420178
 20
645.3324375343003
 30
0.0
 10
798.5195583601128
 20
645.253340130293
 30
0.0
 10
798.4024761141412
 20
645.148370042278
 30
0.0
  0
SPLINE
  5
1A2
330
1F
100
AcDbEntity
  8
0
  6
SLD-Solid
 62
   142
420
    32960
370
     0
100
AcDbSpline
210
0.0
220
0.0
230
1.0
 70
     8
 71
     3
 72
    12
 73
     8
 74
     0
 42
0.00000001
 43
0.00000001
 40
0.0
 40
0.0
 40
0.0
 40
0.0
 40
0.2499999999999994
 40
0.2499999999999994
 40
0.4999999999999989
 40
0.4999999999999989
 40
1.0
 40
1.0
 40
1.0
 40
1.0
 10
812.3152665696621
 20
600.8935156024261
 30
0.0
 10
812.3642182135795
 20
600.9682408850335
 30
0.0
 10
812.4041029033939
 20
601.0488210054635
 30
0.0
 10
812.4661902302229
 20
601.2213990267958
 30
0.0
 10
812.4876947423949
 20
601.312429903872
 30
0.0
 10
812.5209792949966
 20
601.5868155557731
 30
0.0
 10
812.5007699535314
 20
601.7764645742219
 30
0.0
 10
812.4418199967669
 20
601.9397125019797
 30
0.0
  0
SPLINE
  5
1A3
330
1F
100
AcDbEntity
  8
0
  6
SLD-Solid
 62
   142
420
    32960
370
     0
100
AcDbSpline
210
0.0
220
0.0
230
1.0
 70
     8
 71
     3
 72
    14
 73
    10
 74
     0
 42
0.00000001
 43
0.00000001
 40
0.0
 40
0.0
 40
0.0
 40
0.0
 40
0.0000095361705259
 40
0.0000095361705259
 40
0.0000095361705259
 40
0.0000219642949668
 40
0.0000219642949668
 40
0.0000219642949668
 40
0.0000450544384129
 40
0.0000450544384129
 40
0.0000450544384129
 40
0.0000450544384129
 10
812.3152665696621
 20
600.8935156024261
 30
0.0
 10
812.313600167181
 20
600.8909718186762
 30
0.0
 10
812.3123002524349
 20
600.8883403797055
 30
0.0
 10
812.3114079393157
 20
600.8858710456418
 30
0.0
 10
812.3102442401694
 20
600.882650694086
 30
0.0
 10
812.3096986459788
 20
600.8795953250751
 30
0.0
 10
812.3095301427563
 20
600.8768049278195
 30
0.0
 10
812.3092178000811
 20
600.8716325629821
 30
0.0
 10
812.3101061681392
 20
600.8671404983724
 30
0.0
 10
812.3114250375226
 20
600.8630814357837
 30
0.0
  0
LINE
  5
1A4
330
1F
100
AcDbEntity
  8
0
  6
SLD-Solid
 62
     7
370
    15
100
AcDbLine
 10
815.888079229
 20
648.3067424715
 30
0.0
 11
817.3579338685
 21
648.1447838503
 31
0.0
  0
SPLINE
  5
1A5
330
1F
100
AcDbEntity
  8
0
  6
SLD-Solid
 62
   142
420
    32960
370
     0
100
AcDbSpline
210
0.0
220
0.0
230
1.0
 70
     8
 71
     3
 72
    16
 73
    12
 74
     0
 42
0.00000001
 43
0.00000001
 40
0.0
 40
0.0
 40
0.0
 40
0.0
 40
0.2499999999999968
 40
0.2499999999999968
 40
0.3749999999999937
 40
0.3749999999999937
 40
0.4999999999999906
 40
0.4999999999999906
 40
0.7499999999999952
 40
0.7499999999999952
 40
1.0
 40
1.0
 40
1.0
 40
1.0
 10
797.6851531323662
 20
645.9203748753963
 30
0.0
 10
797.8298747704546
 20
646.066967241555
 30
0.0
 10
798.0171801299913
 20
646.1892790204483
 30
0.0
 10
798.3584227610068
 20
646.3415221333285
 30
0.0
 10
798.4821861104867
 20
646.386724365242
 30
0.0
 10
798.7414748221482
 20
646.4645068591416
 30
0.0
 10
798.8779255507526
 20
646.4975257048096
 30
0.0
 10
799.3068613327167
 20
646.5803506237703
 30
0.0
 10
799.6235973779991
 20
646.6140563671158
 30
0.0
 10
800.2761395810622
 20
646.638498076361
 30
0.0
 10
800.6136959972653
 20
646.6302200658281
 30
0.0
 10
800.9624270453794
 20
646.6019689491301
 30
0.0
  0
SPLINE
  5
1A6
330
1F
100
AcDbEntity
  8
0
  6
SLD-Solid
 62
   142
420
    32960
370
     0
100
AcDbSpline
210
0.0
220
0.0
230
1.0
 70
     8
 71
     3
 72
     8
 73
     4
 74
     0
 42
0.00000001
 43
0.00000001
 40
0.0
 40
0.0
 40
0.0
 40
0.0
 40
1.0
 40
1.0
 40
1.0
 40
1.0
 10
796.9102191822333
 20
650.4272804414529
 30
0.0
 10
803.2376592707798
 20
649.7331438844686
 30
0.0
 10
809.5641883508548
 20
649.0312195474579
 30
0.0
 10
815.8880792290133
 20
648.306742471549
 30
0.0
  0
SPLINE
  5
1A7
330
1F
100
AcDbEntity
  8
0
  6
SLD-Solid
 62
   142
420
    32960
370
     0
100
AcDbSpline
210
0.0
220
0.0
230
1.0
 70
     8
 71
     3
 72
    10
 73
     6
 74
     0
 42
0.00000001
 43
0.00000001
 40
0.0
 40
0.0
 40
0.0
 40
0.0
 40
0.5
 40
0.5
 40
1.0
 40
1.0
 40
1.0
 40
1.0
 10
796.9102191822334
 20
650.4272804414529
 30
0.0
 10
796.8474155884664
 20
650.4341701582631
 30
0.0
 10
796.7876422229696
 20
650.440957242547
 30
0.0
 10
796.702461196055
 20
650.4508071343828
 30
0.0
 10
796.6778518193366
 20
650.4537447167494
 30
0.0
 10
796.677855282363
 20
650.4537764513129
 30
0.0
  0
ARC
  5
1A8
330
1F
100
AcDbEntity
  8
0
  6
SLD-Solid
 62
   142
420
    32960
370
     0
100
AcDbCircle
 10
823.803439236
 20
610.7230267491
 30
0.0
 40
5.651480467572531
100
AcDbArc
 50
33.9496313682
 51
44.8769008127
  0
ARC
  5
1A9
330
1F
100
AcDbEntity
  8
0
  6
SLD-Solid
 62
   142
420
    32960
370
     0
100
AcDbCircle
 10
812.756921743
 20
644.7207117804
 30
0.0
 40
5.651480467564286
100
AcDbArc
 50
351.1230991873
 51
2.0503686318
  0
ARC
  5
1AA
330
1F
100
AcDbEntity
  8
0
  6
SLD-Solid
 62
   142
420
    32960
370
     0
100
AcDbCircle
 10
796.8055143208
 20
646.0584705618
 30
0.0
 40
4.192292200795952
100
AcDbArc
 50
350.794127652
 51
7.4489224795
  0
LINE
  5
1AB
330
1F
100
AcDbEntity
  8
0
  6
SLD-Solid
 62
     7
370
    15
100
AcDbLine
 10
819.1982480514
 20
644.3889791727
 30
0.0
 11
828.8195941512
 21
614.7775206756
 31
0.0
  0
ARC
  5
1AC
330
1F
100
AcDbEntity
  8
0
  6
SLD-Solid
 62
   142
420
    32960
370
     0
100
AcDbCircle
 10
818.1951206345
 20
645.0302940087
 30
0.0
 40
1.190608807906979
100
AcDbArc
 50
277.0237736414
 51
327.4085911735
  0
ARC
  5
1AD
330
1F
100
AcDbEntity
  8
0
  6
SLD-Solid
 62
   142
420
    32960
370
     0
100
AcDbCircle
 10
828.3850024262
 20
613.6690625727
 30
0.0
 40
1.190608807906655
100
AcDbArc
 50
68.5914088265
 51
118.9762263586
  0
LINE
  5
1AE
330
1F
100
AcDbEntity
  8
0
  6
SLD-Solid
 62
     7
370
    15
100
AcDbLine
 10
828.8195941512
 20
614.7775206756
 30
0.0
 11
829.8349465498
 21
611.6525873141
 31
0.0
  0
ARC
  5
1AF
330
1F
100
AcDbEntity
  8
0
  6
SLD-Solid
 62
   142
420
    32960
370
     0
100
AcDbCircle
 10
828.0117118787
 20
614.563486361
 30
0.0
 40
0.8357538238401557
100
AcDbArc
 50
305.0355498025
 51
14.8386162464
  0
LINE
  5
1B0
330
1F
100
AcDbEntity
  8
0
  6
SLD-Solid
 62
     7
370
    15
100
AcDbLine
 10
818.2013642445
 20
647.4570720536
 30
0.0
 11
819.1982480514
 21
644.3889791727
 31
0.0
  0
SPLINE
  5
1B1
330
1F
100
AcDbEntity
  8
0
  6
SLD-Solid
 62
     7
370
    15
100
AcDbSpline
210
0.0
220
0.0
230
1.0
 70
     8
 71
     3
 72
    10
 73
     6
 74
     0
 42
0.00000001
 43
0.00000001
 40
0.0
 40
0.0
 40
0.0
 40
0.0
 40
0.5
 40
0.5
 40
1.0
 40
1.0
 40
1.0
 40
1.0
 10
817.3579338685146
 20
648.1447838503269
 30
0.0
 10
817.5501397050967
 20
648.123599009772
 30
0.0
 10
817.7322280313423
 20
648.0464698947751
 30
0.0
 10
818.0284887277116
 20
647.8050996012081
 30
0.0
 10
818.1416140440216
 20
647.6409642618573
 30
0.0
 10
818.2013642444607
 20
647.4570720536236
 30
0.0
  0
ARC
  5
1B2
330
1F
100
AcDbEntity
  8
0
  6
SLD-Solid
 62
   142
420
    32960
370
     0
100
AcDbCircle
 10
818.4188513498
 20
644.0872752851
 30
0.0
 40
0.8357538238399936
100
AcDbArc
 50
21.1613837536
 51
90.9644501976
  0
LINE
  5
1B3
330
1F
100
AcDbEntity
  8
0
  6
SLD-Solid
 62
     7
370
    15
100
AcDbLine
 10
817.2951322153
 20
530.0852724201
 30
0.0
 11
819.1867315447
 21
530.0852724201
 31
0.0
  0
LINE
  5
1B4
330
1F
100
AcDbEntity
  8
0
  6
SLD-Solid
 62
   142
420
    32960
370
     0
100
AcDbLine
 10
767.6867315447
 20
530.0852724201
 30
0.0
 11
775.3669663072
 21
530.0852724201
 31
0.0
  0
LINE
  5
1B5
330
1F
100
AcDbEntity
  8
0
  6
SLD-Solid
 62
   142
420
    32960
370
     0
100
AcDbLine
 10
775.3669663072
 20
530.0852724201
 30
0.0
 11
779.1847167263
 21
530.0852724201
 31
0.0
  0
LINE
  5
1B6
330
1F
100
AcDbEntity
  8
0
  6
SLD-Solid
 62
   142
420
    32960
370
     0
100
AcDbLine
 10
779.1847167263
 20
530.0852724201
 30
0.0
 11
817.2951322153
 21
530.0852724201
 31
0.0
  0
LINE
  5
1B7
330
1F
100
AcDbEntity
  8
0
  6
SLD-Solid
 62
   142
420
    32960
370
     0
100
AcDbLine
 10
817.2951322153
 20
530.0852724201
 30
0.0
 11
817.2951322153
 21
528.7352724201
 31
0.0
  0
LINE
  5
1B8
330
1F
100
AcDbEntity
  8
0
  6
SLD-Solid
 62
   142
420
    32960
370
     0
100
AcDbLine
 10
784.1867315447
 20
527.5852724201
 30
0.0
 11
767.6867315447
 21
527.5852724201
 31
0.0
  0
LINE
  5
1B9
330
1F
100
AcDbEntity
  8
0
  6
SLD-Solid
 62
   142
420
    32960
370
     0
100
AcDbLine
 10
764.6867315447
 20
533.0852724201
 30
0.0
 11
764.5259128681
 21
533.0852724201
 31
0.0
  0
LINE
  5
1BA
330
1F
100
AcDbEntity
  8
0
  6
SLD-Solid
 62
   142
420
    32960
370
     0
100
AcDbLine
 10
762.3181264922
 20
533.0852724201
 30
0.0
 11
762.1867315447
 21
533.0852724201
 31
0.0
  0
ARC
  5
1BB
330
1F
100
AcDbEntity
  8
0
  6
SLD-Solid
 62
   142
420
    32960
370
     0
100
AcDbCircle
 10
767.6867315447
 20
533.0852724201
 30
0.0
 40
3.000000000000019
100
AcDbArc
 50
238.2116693829
 51
270.0
  0
LINE
  5
1BC
330
1F
100
AcDbEntity
  8
0
  6
SLD-Solid
 62
   142
420
    32960
370
     0
100
AcDbLine
 10
764.6916922163
 20
532.9128212064
 30
0.0
 11
764.6867315447
 21
533.0852724201
 31
0.0
  0
ARC
  5
1BD
330
1F
100
AcDbEntity
  8
0
  6
SLD-Solid
 62
   142
420
    32960
370
     0
100
AcDbCircle
 10
767.6867315447
 20
533.0852724201
 30
0.0
 40
5.500000000000114
100
AcDbArc
 50
180.0
 51
270.0
  0
LINE
  5
1BE
330
1F
100
AcDbEntity
  8
0
  6
SLD-Solid
 62
   142
420
    32960
370
     0
100
AcDbLine
 10
821.1867315447
 20
32.2352724201
 30
0.0
 11
822.7867315447
 21
32.2352724201
 31
0.0
  0
LINE
  5
1BF
330
1F
100
AcDbEntity
  8
0
  6
SLD-Solid
 62
   142
420
    32960
370
     0
100
AcDbLine
 10
821.1867315447
 20
92.2352724201
 30
0.0
 11
822.7867315447
 21
92.2352724201
 31
0.0
  0
LINE
  5
1C0
330
1F
100
AcDbEntity
  8
0
  6
SLD-Solid
 62
     7
370
    15
100
AcDbLine
 10
456.9867315448
 20
728.7352724202
 30
0.0
 11
639.9867315448
 21
728.7352724201
 31
0.0
  0
LINE
  5
1C1
330
1F
100
AcDbEntity
  8
0
  6
SLD-Solid
 62
     7
370
    15
100
AcDbLine
 10
641.9867315448
 20
726.7352724201
 30
0.0
 11
454.9867315448
 21
726.7352724202
 31
0.0
  0
LINE
  5
1C2
330
1F
100
AcDbEntity
  8
0
  6
SLD-Solid
 62
   142
420
    32960
370
     0
100
AcDbLine
 10
454.9867315448
 20
725.2352724202
 30
0.0
 11
641.9867315448
 21
725.2352724201
 31
0.0
  0
SPLINE
  5
1C3
330
1F
100
AcDbEntity
  8
0
  6
SLD-Solid
 62
   142
420
    32960
370
     0
100
AcDbSpline
210
0.0
220
0.0
230
1.0
 70
     8
 71
     3
 72
    11
 73
     7
 74
     0
 42
0.00000001
 43
0.00000001
 40
0.0
 40
0.0
 40
0.0
 40
0.0
 40
0.250003375436685
 40
0.4999921878809034
 40
0.7499849073600524
 40
1.0
 40
1.0
 40
1.0
 40
1.0
 10
810.0176990459245
 20
596.9145468090452
 30
0.0
 10
810.040262169839
 20
596.8464251311912
 30
0.0
 10
810.0853871033395
 20
596.7101857436511
 30
0.0
 10
810.147228405419
 20
596.5123382567311
 30
0.0
 10
810.2051582164233
 20
596.318873844983
 30
0.0
 10
810.2398536615052
 20
596.1943236126152
 30
0.0
 10
810.2572021602807
 20
596.1320457098923
 30
0.0
  0
SPLINE
  5
1C4
330
1F
100
AcDbEntity
  8
0
  6
SLD-Solid
 62
   142
420
    32960
370
     0
100
AcDbSpline
210
0.0
220
0.0
230
1.0
 70
     8
 71
     3
 72
     8
 73
     4
 74
     0
 42
0.00000001
 43
0.00000001
 40
0.0
 40
0.0
 40
0.0
 40
0.0
 40
1.0
 40
1.0
 40
1.0
 40
1.0
 10
810.2572021602807
 20
596.1320457098923
 30
0.0
 10
810.0525646518654
 20
595.9729792881047
 30
0.0
 10
809.8479209858463
 20
595.813931817473
 30
0.0
 10
809.6432711519033
 20
595.6549033297584
 30
0.0
  0
SPLINE
  5
1C5
330
1F
100
AcDbEntity
  8
0
  6
SLD-Solid
 62
   142
420
    32960
370
     0
100
AcDbSpline
210
0.0
220
0.0
230
1.0
 70
     8
 71
     3
 72
    11
 73
     7
 74
     0
 42
0.00000001
 43
0.00000001
 40
0.0
 40
0.0
 40
0.0
 40
0.0
 40
0.247158520697722
 40
0.4962090954966916
 40
0.7471551958245259
 40
1.0
 40
1.0
 40
1.0
 40
1.0
 10
809.6432711519033
 20
595.6549033297584
 30
0.0
 10
809.4410385211407
 20
595.5721229883225
 30
0.0
 10
809.0350251233125
 20
595.4059286033062
 30
0.0
 10
808.4178177711951
 20
595.162294664796
 30
0.0
 10
807.7920765285612
 20
594.9211075978111
 30
0.0
 10
807.3695851317239
 20
594.7638880347479
 30
0.0
 10
807.15754328352
 20
594.6849819860679
 30
0.0
  0
SPLINE
  5
1C6
330
1F
100
AcDbEntity
  8
0
  6
SLD-Solid
 62
   142
420
    32960
370
     0
100
AcDbSpline
210
0.0
220
0.0
230
1.0
 70
     8
 71
     3
 72
     9
 73
     5
 74
     0
 42
0.00000001
 43
0.00000001
 40
0.0
 40
0.0
 40
0.0
 40
0.0
 40
0.4999960425239234
 40
1.0
 40
1.0
 40
1.0
 40
1.0
 10
807.1575432328682
 20
594.6849821372842
 30
0.0
 10
807.1372815241007
 20
594.7449562760825
 30
0.0
 10
807.0967577858223
 20
594.8649055030713
 30
0.0
 10
807.0529486911246
 20
594.9884785305607
 30
0.0
 10
807.0310439704023
 20
595.0502655333428
 30
0.0
  0
SPLINE
  5
1C7
330
1F
100
AcDbEntity
  8
0
  6
SLD-Solid
 62
   142
420
    32960
370
     0
100
AcDbSpline
210
0.0
220
0.0
230
1.0
 70
     8
 71
     3
 72
     8
 73
     4
 74
     0
 42
0.00000001
 43
0.00000001
 40
0.0
 40
0.0
 40
0.0
 40
0.0
 40
1.0
 40
1.0
 40
1.0
 40
1.0
 10
807.0310439704023
 20
595.0502655333428
 30
0.0
 10
807.7803519982847
 20
595.6322735629167
 30
0.0
 10
808.5297273251005
 20
596.2140744676715
 30
0.0
 10
809.279170219873
 20
596.7956674196379
 30
0.0
  0
SPLINE
  5
1C8
330
1F
100
AcDbEntity
  8
0
  6
SLD-Solid
 62
   142
420
    32960
370
     0
100
AcDbSpline
210
0.0
220
0.0
230
1.0
 70
     8
 71
     3
 72
     8
 73
     4
 74
     0
 42
0.00000001
 43
0.00000001
 40
0.0
 40
0.0
 40
0.0
 40
0.0
 40
1.0
 40
1.0
 40
1.0
 40
1.0
 10
809.279170219873
 20
596.7956674196379
 30
0.0
 10
809.2581238448115
 20
596.8538866987144
 30
0.0
 10
809.2368351320429
 20
596.9128518165629
 30
0.0
 10
809.2153057423551
 20
596.9725576618038
 30
0.0
  0
SPLINE
  5
1C9
330
1F
100
AcDbEntity
  8
0
  6
SLD-Solid
 62
   142
420
    32960
370
     0
100
AcDbSpline
210
0.0
220
0.0
230
1.0
 70
     8
 71
     3
 72
     8
 73
     4
 74
     0
 42
0.00000001
 43
0.00000001
 40
0.0
 40
0.0
 40
0.0
 40
0.0
 40
1.0
 40
1.0
 40
1.0
 40
1.0
 10
809.2153057423551
 20
596.9725576618038
 30
0.0
 10
809.4199314649775
 20
597.1316382490791
 30
0.0
 10
809.6245645788516
 20
597.2906960884206
 30
0.0
 10
809.8292050954954
 20
597.4497311443797
 30
0.0
  0
SPLINE
  5
1CA
330
1F
100
AcDbEntity
  8
0
  6
SLD-Solid
 62
   142
420
    32960
370
     0
100
AcDbSpline
210
0.0
220
0.0
230
1.0
 70
     8
 71
     3
 72
     8
 73
     4
 74
     0
 42
0.00000001
 43
0.00000001
 40
0.0
 40
0.0
 40
0.0
 40
0.0
 40
1.0
 40
1.0
 40
1.0
 40
1.0
 10
809.8292050954954
 20
597.4497311443797
 30
0.0
 10
809.850772187644
 20
597.3899793706341
 30
0.0
 10
809.8720962982235
 20
597.3309754172637
 30
0.0
 10
809.8931757328505
 20
597.2727244990443
 30
0.0
  0
SPLINE
  5
1CB
330
1F
100
AcDbEntity
  8
0
  6
SLD-Solid
 62
   142
420
    32960
370
     0
100
AcDbSpline
210
0.0
220
0.0
230
1.0
 70
     8
 71
     3
 72
     8
 73
     4
 74
     0
 42
0.00000001
 43
0.00000001
 40
0.0
 40
0.0
 40
0.0
 40
0.0
 40
1.0
 40
1.0
 40
1.0
 40
1.0
 10
809.8931757328505
 20
597.2727244990443
 30
0.0
 10
810.132225994699
 20
597.4583283247262
 30
0.0
 10
810.3712835266681
 20
597.6439097752772
 30
0.0
 10
810.6103483385356
 20
597.8294688206049
 30
0.0
  0
SPLINE
  5
1CC
330
1F
100
AcDbEntity
  8
0
  6
SLD-Solid
 62
   142
420
    32960
370
     0
100
AcDbSpline
210
0.0
220
0.0
230
1.0
 70
     8
 71
     3
 72
     9
 73
     5
 74
     0
 42
0.00000001
 43
0.00000001
 40
0.0
 40
0.0
 40
0.0
 40
0.0
 40
0.5000044117887334
 40
1.0
 40
1.0
 40
1.0
 40
1.0
 10
810.6103483383034
 20
597.8294688213784
 30
0.0
 10
810.6319572978462
 20
597.7688295630294
 30
0.0
 10
810.6751748355983
 20
597.647552116432
 30
0.0
 10
810.7150656953881
 20
597.5299416372837
 30
0.0
 10
810.7350109492932
 20
597.4711369165823
 30
0.0
  0
LINE
  5
1CD
330
1F
100
AcDbEntity
  8
0
  6
SLD-Solid
 62
   142
420
    32960
370
     0
100
AcDbLine
 10
810.7350109493
 20
597.4711369166
 30
0.0
 11
810.01770687
 21
596.91455288
 31
0.0
  0
SPLINE
  5
1CE
330
1F
100
AcDbEntity
  8
0
  6
SLD-Solid
 62
   142
420
    32960
370
     0
100
AcDbSpline
210
0.0
220
0.0
230
1.0
 70
     8
 71
     3
 72
     9
 73
     5
 74
     0
 42
0.00000001
 43
0.00000001
 40
0.0
 40
0.0
 40
0.0
 40
0.0
 40
0.5000008151763723
 40
1.0
 40
1.0
 40
1.0
 40
1.0
 10
809.5382074847485
 20
596.0184646559798
 30
0.0
 10
809.5169988639104
 20
596.0869520752282
 30
0.0
 10
809.4745816913893
 20
596.2239266904085
 30
0.0
 10
809.4272374672845
 20
596.366396674757
 30
0.0
 10
809.4035653938258
 20
596.437631550793
 30
0.0
  0
LINE
  5
1CF
330
1F
100
AcDbEntity
  8
0
  6
SLD-Solid
 62
   142
420
    32960
370
     0
100
AcDbLine
 10
809.4035653938
 20
596.4376315508
 30
0.0
 11
808.2327865711
 21
595.5292067503
 31
0.0
  0
SPLINE
  5
1D0
330
1F
100
AcDbEntity
  8
0
  6
SLD-Solid
 62
   142
420
    32960
370
     0
100
AcDbSpline
210
0.0
220
0.0
230
1.0
 70
     8
 71
     3
 72
     9
 73
     5
 74
     0
 42
0.00000001
 43
0.00000001
 40
0.0
 40
0.0
 40
0.0
 40
0.0
 40
0.5019979753639254
 40
1.0
 40
1.0
 40
1.0
 40
1.0
 10
808.2327865711238
 20
595.5292067503101
 30
0.0
 10
808.4524578639221
 20
595.6097023640772
 30
0.0
 10
808.8900518455289
 20
595.7700528390143
 30
0.0
 10
809.3227319277718
 20
595.9358815981748
 30
0.0
 10
809.5382074847485
 20
596.0184646559798
 30
0.0
  0
LINE
  5
1D1
330
1F
100
AcDbEntity
  8
0
  6
SLD-Solid
 62
     7
370
    15
100
AcDbLine
 10
877.272860563
 20
466.9165746364
 30
0.0
 11
877.4518456577
 21
467.0661966085
 31
0.0
  0
LINE
  5
1D2
330
1F
100
AcDbEntity
  8
0
  6
SLD-Solid
 62
     7
370
    15
100
AcDbLine
 10
877.4518456577
 20
485.4043482318
 30
0.0
 11
877.2728437507
 21
485.5539701076
 31
0.0
  0
SPLINE
  5
1D3
330
1F
100
AcDbEntity
  8
0
  6
SLD-Solid
 62
     7
370
    15
100
AcDbSpline
210
0.0
220
0.0
230
1.0
 70
     8
 71
     3
 72
     9
 73
     5
 74
     0
 42
0.00000001
 43
0.00000001
 40
0.0
 40
0.0
 40
0.0
 40
0.0
 40
0.064806582503188
 40
1.0
 40
1.0
 40
1.0
 40
1.0
 10
876.4198737401849
 20
487.8256780191705
 30
0.0
 10
876.4587389620913
 20
487.7837599821644
 30
0.0
 10
877.0584499853398
 20
487.1369423999552
 30
0.0
 10
877.2617349225231
 20
486.2416343896353
 30
0.0
 10
877.4518456576529
 20
485.4043482317519
 30
0.0
  0
SPLINE
  5
1D4
330
1F
100
AcDbEntity
  8
0
  6
SLD-Solid
 62
     7
370
    15
100
AcDbSpline
210
0.0
220
0.0
230
1.0
 70
     8
 71
     3
 72
     9
 73
     5
 74
     0
 42
0.00000001
 43
0.00000001
 40
0.0
 40
0.0
 40
0.0
 40
0.0
 40
0.9352073061422402
 40
1.0
 40
1.0
 40
1.0
 40
1.0
 10
877.4518456576529
 20
467.0661966084698
 30
0.0
 10
877.2617366388589
 20
466.2289093747413
 30
0.0
 10
877.058456555881
 20
465.3336135101462
 30
0.0
 10
876.4587562741116
 20
464.6868043833613
 30
0.0
 10
876.4199000773485
 20
464.6448958776252
 30
0.0
  0
LINE
  5
1D5
330
1F
100
AcDbEntity
  8
0
  6
SLD-Solid
 62
     7
370
    15
100
AcDbLine
 10
824.1867315447
 20
89.697556912
 30
0.0
 11
824.1867315447
 21
34.7729879282
 31
0.0
  0
LINE
  5
1D6
330
1F
100
AcDbEntity
  8
0
  6
SLD-Solid
 62
   142
420
    32960
370
     0
100
AcDbLine
 10
822.7867315447
 20
90.2408945404
 30
0.0
 11
822.7867315447
 21
34.22925575
 31
0.0
  0
SPLINE
  5
1D7
330
1F
100
AcDbEntity
  8
0
  6
SLD-Solid
 62
     7
370
    15
100
AcDbSpline
210
0.0
220
0.0
230
1.0
 70
     8
 71
     3
 72
    19
 73
    15
 74
     0
 42
0.00000001
 43
0.00000001
 40
0.0
 40
0.0
 40
0.0
 40
0.0
 40
0.0571115640935983
 40
0.1156812592866376
 40
0.1757147833893965
 40
0.2372174247608614
 40
0.3001940990521347
 40
0.3646493820584552
 40
0.4305875391447012
 40
0.498012551648663
 40
0.6162616165384484
 40
0.7486631924159496
 40
0.8538790033185844
 40
1.0
 40
1.0
 40
1.0
 40
1.0
 10
822.7867315447414
 20
92.23527242011126
 30
0.0
 10
822.8353567408024
 20
92.20345948471592
 30
0.0
 10
822.93384859622
 20
92.13902138909475
 30
0.0
 10
823.0756300614919
 20
92.0304024327761
 30
0.0
 10
823.21427581763
 20
91.91130303506637
 30
0.0
 10
823.3482329894348
 20
91.78076951792957
 30
0.0
 10
823.4765795595729
 20
91.63896730629567
 30
0.0
 10
823.5981510655868
 20
91.48586903398426
 30
0.0
 10
823.7118079787169
 20
91.32162113111555
 30
0.0
 10
823.8417916864706
 20
91.1037790437782
 30
0.0
 10
823.9798798620081
 20
90.81427076653537
 30
0.0
 10
824.091337854981
 20
90.47391769219298
 30
0.0
 10
824.1702007044737
 20
90.09618727057814
 30
0.0
 10
824.1806541628661
 20
89.84410898541046
 30
0.0
 10
824.1867315447414
 20
89.69755691202135
 30
0.0
  0
SPLINE
  5
1D8
330
1F
100
AcDbEntity
  8
0
  6
SLD-Solid
 62
   142
420
    32960
370
     0
100
AcDbSpline
210
0.0
220
0.0
230
1.0
 70
     8
 71
     3
 72
    10
 73
     6
 74
     0
 42
0.00000001
 43
0.00000001
 40
0.0
 40
0.0
 40
0.0
 40
0.0
 40
0.5
 40
0.5
 40
1.0
 40
1.0
 40
1.0
 40
1.0
 10
822.7867315447414
 20
92.23527242011126
 30
0.0
 10
822.7861899475392
 20
92.23561389082407
 30
0.0
 10
822.7867315447414
 20
92.01267123934764
 30
0.0
 10
822.7867315447414
 20
91.28967486419032
 30
0.0
 10
822.7872733359949
 20
90.79048015277135
 30
0.0
 10
822.7867315447414
 20
90.24089454038476
 30
0.0
  0
SPLINE
  5
1D9
330
1F
100
AcDbEntity
  8
0
  6
SLD-Solid
 62
     7
370
    15
100
AcDbSpline
210
0.0
220
0.0
230
1.0
 70
     8
 71
     3
 72
    19
 73
    15
 74
     0
 42
0.00000001
 43
0.00000001
 40
0.0
 40
0.0
 40
0.0
 40
0.0
 40
0.0571143122037902
 40
0.1156859695386125
 40
0.1757206699038219
 40
0.2372237019665141
 40
0.3001999818643105
 40
0.364654086023467
 40
0.4305902805559951
 40
0.4980125476391967
 40
0.6162771910106101
 40
0.7486631870564228
 40
0.8538896613728911
 40
1.0
 40
1.0
 40
1.0
 40
1.0
 10
822.7867315447414
 20
32.23527242011126
 30
0.0
 10
822.8353590593036
 20
32.26708692733776
 30
0.0
 10
822.9338548820024
 20
32.33152772985959
 30
0.0
 10
823.0756406940493
 20
32.44015090249175
 30
0.0
 10
823.214288544239
 20
32.55925339280274
 30
0.0
 10
823.3482457682298
 20
32.68978858166932
 30
0.0
 10
823.4765906547422
 20
32.83159070064878
 30
0.0
 10
823.5981590922411
 20
32.98468680560601
 30
0.0
 10
823.7118119681064
 20
33.14893021389037
 30
0.0
 10
823.8418008941287
 20
33.36678172483881
 30
0.0
 10
823.9798857409548
 20
33.65628884603533
 30
0.0
 10
824.0913443671574
 20
33.99665265134122
 30
0.0
 10
824.1702021826763
 20
34.37436830508656
 30
0.0
 10
824.1806549866907
 20
34.62644656317559
 30
0.0
 10
824.1867315447414
 20
34.77298792820116
 30
0.0
  0
SPLINE
  5
1DA
330
1F
100
AcDbEntity
  8
0
  6
SLD-Solid
 62
   142
420
    32960
370
     0
100
AcDbSpline
210
0.0
220
0.0
230
1.0
 70
     8
 71
     3
 72
    10
 73
     6
 74
     0
 42
0.00000001
 43
0.00000001
 40
0.0
 40
0.0
 40
0.0
 40
0.0
 40
0.5
 40
0.5
 40
1.0
 40
1.0
 40
1.0
 40
1.0
 10
822.7867315447414
 20
34.22925575001823
 30
0.0
 10
822.7872734429644
 20
33.67967013814977
 30
0.0
 10
822.7867315447414
 20
33.18057394567586
 30
0.0
 10
822.7867315447414
 20
32.45777472665945
 30
0.0
 10
822.786189840608
 20
32.23493088197954
 30
0.0
 10
822.7867315447414
 20
32.23527242011126
 30
0.0
  0
LINE
  5
1DB
330
1F
100
AcDbEntity
  8
0
  6
SLD-Solid
 62
     7
370
    15
100
AcDbLine
 10
646.5861435928
 20
717.0484073243
 30
0.0
 11
450.3873194968
 21
717.0484073243
 31
0.0
  0
LINE
  5
1DC
330
1F
100
AcDbEntity
  8
0
  6
SLD-Solid
 62
   142
420
    32960
370
     0
100
AcDbLine
 10
640.0845647194
 20
725.1418398722
 30
0.0
 11
456.8888983703
 21
725.1418398722
 31
0.0
  0
LINE
  5
1DD
330
1F
100
AcDbEntity
  8
0
  6
SLD-Solid
 62
     7
370
    15
100
AcDbLine
 10
818.7770615248
 20
542.1310827314
 30
0.0
 11
780.375558219
 21
660.3187572586
 31
0.0
  0
LINE
  5
1DE
330
1F
100
AcDbEntity
  8
0
  6
SLD-Solid
 62
   142
420
    32960
370
     0
100
AcDbLine
 10
818.0162163118
 20
541.8838691359
 30
0.0
 11
818.7770615248
 21
542.1310827314
 31
0.0
  0
LINE
  5
1DF
330
1F
100
AcDbEntity
  8
0
  6
SLD-Solid
 62
     7
370
    15
100
AcDbLine
 10
818.0162163118
 20
541.8838691359
 30
0.0
 11
779.614713006
 21
660.0715436631
 31
0.0
  0
LINE
  5
1E0
330
1F
100
AcDbEntity
  8
0
  6
SLD-Solid
 62
   142
420
    32960
370
     0
100
AcDbLine
 10
779.614713006
 20
660.0715436631
 30
0.0
 11
780.375558219
 21
660.3187572586
 31
0.0
  0
ARC
  5
1E1
330
1F
100
AcDbEntity
  8
0
  6
SLD-Solid
 62
   142
420
    32960
370
     0
100
AcDbCircle
 10
816.8273956664
 20
541.497597893
 30
0.0
 40
2.050000000000068
100
AcDbArc
 50
270.0
 51
18.0
  0
LINE
  5
1E2
330
1F
100
AcDbEntity
  8
0
  6
SLD-Solid
 62
   142
420
    32960
370
     0
100
AcDbLine
 10
779.2183452184
 20
661.2914382775
 30
0.0
 11
779.614713006
 21
660.0715436631
 31
0.0
  0
LINE
  5
1E3
330
1F
100
AcDbEntity
  8
0
  6
SLD-Solid
 62
     7
370
    15
100
AcDbLine
 10
760.1867315447
 20
539.447597893
 30
0.0
 11
816.8273956664
 21
539.447597893
 31
0.0
  0
LINE
  5
1E4
330
1F
100
AcDbEntity
  8
0
  6
SLD-Solid
 62
     7
370
    15
100
AcDbLine
 10
760.1867315447
 20
540.247597893
 30
0.0
 11
816.8273956664
 21
540.247597893
 31
0.0
  0
LINE
  5
1E5
330
1F
100
AcDbEntity
  8
0
  6
SLD-Solid
 62
   142
420
    32960
370
     0
100
AcDbLine
 10
779.9791904314
 20
661.538651873
 30
0.0
 11
780.375558219
 21
660.3187572586
 31
0.0
  0
LINE
  5
1E6
330
1F
100
AcDbEntity
  8
0
  6
SLD-Solid
 62
   142
420
    32960
370
     0
100
AcDbLine
 10
816.8273956664
 20
539.447597893
 30
0.0
 11
816.8273956664
 21
540.247597893
 31
0.0
  0
LINE
  5
1E7
330
1F
100
AcDbEntity
  8
0
  6
SLD-Solid
 62
   142
420
    32960
370
     0
100
AcDbLine
 10
760.1867315447
 20
540.247597893
 30
0.0
 11
760.1867315447
 21
539.447597893
 31
0.0
  0
ARC
  5
1E8
330
1F
100
AcDbEntity
  8
0
  6
SLD-Solid
 62
   142
420
    32960
370
     0
100
AcDbCircle
 10
781.1680110768
 20
661.924923116
 30
0.0
 40
1.250000000000155
100
AcDbArc
 50
114.0
 51
198.0
  0
ARC
  5
1E9
330
1F
100
AcDbEntity
  8
0
  6
SLD-Solid
 62
   142
420
    32960
370
     0
100
AcDbCircle
 10
781.4437351666
 20
661.076331624
 30
0.0
 40
1.250000000000067
100
AcDbArc
 50
153.0
 51
198.0
  0
LINE
  5
1EA
330
1F
100
AcDbEntity
  8
0
  6
SLD-Solid
 62
   142
420
    32960
370
     0
100
AcDbLine
 10
781.3206900829
 20
663.5882036309
 30
0.0
 11
781.2886388808
 21
663.5252996049
 31
0.0
  0
LINE
  5
1EB
330
1F
100
AcDbEntity
  8
0
  6
SLD-Solid
 62
   142
420
    32960
370
     0
100
AcDbLine
 10
781.2393747132
 20
663.428613232
 30
0.0
 11
780.3299770114
 21
661.6438197487
 31
0.0
  0
LINE
  5
1EC
330
1F
100
AcDbEntity
  8
0
  6
SLD-Solid
 62
     7
370
    15
100
AcDbLine
 10
813.904421284
 20
559.7163817654
 30
0.0
 11
817.3036082221
 21
549.2547600861
 31
0.0
  0
LINE
  5
1ED
330
1F
100
AcDbEntity
  8
0
  6
SLD-Solid
 62
   142
420
    32960
370
     0
100
AcDbLine
 10
813.2863872952
 20
561.618494798
 30
0.0
 11
813.904421284
 21
559.7163817654
 31
0.0
  0
LINE
  5
1EE
330
1F
100
AcDbEntity
  8
0
  6
SLD-Solid
 62
   142
420
    32960
370
     0
100
AcDbLine
 10
817.3036082221
 20
549.2547600861
 30
0.0
 11
817.9216422108
 21
547.3526470535
 31
0.0
  0
LINE
  5
1EF
330
1F
100
AcDbEntity
  8
0
  6
SLD-Solid
 62
   142
420
    32960
370
     0
100
AcDbLine
 10
817.3036082221
 20
549.2547600861
 30
0.0
 11
816.542763009
 21
549.0075464906
 31
0.0
  0
LINE
  5
1F0
330
1F
100
AcDbEntity
  8
0
  6
SLD-Solid
 62
   142
420
    32960
370
     0
100
AcDbLine
 10
813.904421284
 20
559.7163817654
 30
0.0
 11
813.1435760709
 21
559.4691681699
 31
0.0
  0
LINE
  5
1F1
330
1F
100
AcDbEntity
  8
0
  6
SLD-Solid
 62
   142
420
    32960
370
     0
100
AcDbLine
 10
813.5954042896
 20
560.6674382817
 30
0.0
 11
812.8345590765
 21
560.4202246862
 31
0.0
  0
LINE
  5
1F2
330
1F
100
AcDbEntity
  8
0
  6
SLD-Solid
 62
   142
420
    32960
370
     0
100
AcDbLine
 10
817.9216422108
 20
547.3526470535
 30
0.0
 11
817.1607969978
 21
547.105433458
 31
0.0
  0
LINE
  5
1F3
330
1F
100
AcDbEntity
  8
0
  6
SLD-Solid
 62
   142
420
    32960
370
     0
100
AcDbLine
 10
817.9216422109
 20
547.3526470535
 30
0.0
 11
818.1627811129
 21
546.6104978244
 31
0.0
  0
LINE
  5
1F4
330
1F
100
AcDbEntity
  8
0
  6
SLD-Solid
 62
   142
420
    32960
370
     0
100
AcDbLine
 10
780.659590273
 20
663.066854938
 30
0.0
 11
781.2771229613
 21
663.341798205
 31
0.0
  0
LINE
  5
1F5
330
1F
100
AcDbEntity
  8
0
  6
SLD-Solid
 62
     7
370
    15
100
AcDbLine
 10
149.6867314739
 20
-172.7647275799
 30
0.0
 11
96.6867315447
 21
-172.7647275799
 31
0.0
  0
LINE
  5
1F6
330
1F
100
AcDbEntity
  8
0
  6
SLD-Solid
 62
     7
370
    15
100
AcDbLine
 10
151.6867315447
 20
-166.7647275799
 30
0.0
 11
94.6867315447
 21
-166.7647275799
 31
0.0
  0
LINE
  5
1F7
330
1F
100
AcDbEntity
  8
0
  6
SLD-Solid
 62
     7
370
    15
100
AcDbLine
 10
135.1036698595
 20
716.7352724201
 30
0.0
 11
696.9367315447
 21
716.7352724201
 31
0.0
  0
LINE
  5
1F8
330
1F
100
AcDbEntity
  8
0
  6
SLD-Solid
 62
   142
420
    32960
370
     0
100
AcDbLine
 10
696.9367315447
 20
716.7352724201
 30
0.0
 11
696.9367315447
 21
715.7812155857
 31
0.0
  0
LINE
  5
1F9
330
1F
100
AcDbEntity
  8
0
  6
SLD-Solid
 62
     7
370
    15
100
AcDbLine
 10
696.9367315447
 20
715.7812155857
 30
0.0
 11
135.1036698595
 21
715.7812155857
 31
0.0
  0
LINE
  5
1FA
330
1F
100
AcDbEntity
  8
0
  6
SLD-Solid
 62
   142
420
    32960
370
     0
100
AcDbLine
 10
135.1036698595
 20
715.7812155857
 30
0.0
 11
135.1036698595
 21
716.7352724201
 31
0.0
  0
LINE
  5
1FB
330
1F
100
AcDbEntity
  8
0
  6
SLD-Solid
 62
   142
420
    32960
370
     0
100
AcDbLine
 10
697.0202007021
 20
716.7352724201
 30
0.0
 11
696.9367315447
 21
716.7352724201
 31
0.0
  0
LINE
  5
1FC
330
1F
100
AcDbEntity
  8
0
  6
SLD-Solid
 62
   142
420
    32960
370
     0
100
AcDbLine
 10
135.1036698595
 20
716.7352724201
 30
0.0
 11
135.0202007021
 21
716.7352724201
 31
0.0
  0
LINE
  5
1FD
330
1F
100
AcDbEntity
  8
0
  6
SLD-Solid
 62
     7
370
    15
100
AcDbLine
 10
135.6326213468
 20
709.7352724201
 30
0.0
 11
696.4077800574
 21
709.7352724201
 31
0.0
  0
LINE
  5
1FE
330
1F
100
AcDbEntity
  8
0
  6
SLD-Solid
 62
     7
370
    15
100
AcDbLine
 10
135.6326213468
 20
709.7352724201
 30
0.0
 11
135.1036698595
 21
715.7812155857
 31
0.0
  0
LINE
  5
1FF
330
1F
100
AcDbEntity
  8
0
  6
SLD-Solid
 62
     7
370
    15
100
AcDbLine
 10
696.9367315447
 20
715.7812155857
 30
0.0
 11
696.4077800574
 21
709.7352724201
 31
0.0
  0
LINE
  5
200
330
1F
100
AcDbEntity
  8
0
  6
SLD-Solid
 62
     7
370
    15
100
AcDbLine
 10
136.7699739726
 20
696.7352724201
 30
0.0
 11
135.6326213468
 21
709.7352724201
 31
0.0
  0
LINE
  5
201
330
1F
100
AcDbEntity
  8
0
  6
SLD-Solid
 62
   142
420
    32960
370
     0
100
AcDbLine
 10
135.1036698595
 20
715.7812155857
 30
0.0
 11
135.0202007021
 21
716.7352724201
 31
0.0
  0
LINE
  5
202
330
1F
100
AcDbEntity
  8
0
  6
SLD-Solid
 62
     7
370
    15
100
AcDbLine
 10
696.4077800574
 20
709.7352724201
 30
0.0
 11
695.2704274316
 21
696.7352724201
 31
0.0
  0
LINE
  5
203
330
1F
100
AcDbEntity
  8
0
  6
SLD-Solid
 62
     7
370
    15
100
AcDbLine
 10
695.1654410354
 20
695.5352724201
 30
0.0
 11
695.1645661487
 21
695.5252724201
 31
0.0
  0
LINE
  5
204
330
1F
100
AcDbEntity
  8
0
  6
SLD-Solid
 62
   142
420
    32960
370
     0
100
AcDbLine
 10
697.0202007021
 20
716.7352724201
 30
0.0
 11
696.9367315447
 21
715.7812155857
 31
0.0
  0
LINE
  5
205
330
1F
100
AcDbEntity
  8
0
  6
SLD-Solid
 62
     7
370
    15
100
AcDbLine
 10
673.4867315447
 20
697.7352724201
 30
0.0
 11
691.9382267667
 21
697.7352724201
 31
0.0
  0
LINE
  5
206
330
1F
100
AcDbEntity
  8
0
  6
SLD-Solid
 62
   142
420
    32960
370
     0
100
AcDbLine
 10
140.0497668582
 20
696.7352724201
 30
0.0
 11
140.1021746375
 21
697.7352724201
 31
0.0
  0
LINE
  5
207
330
1F
100
AcDbEntity
  8
0
  6
SLD-Solid
 62
   142
420
    32960
370
     0
100
AcDbLine
 10
140.1021746375
 20
697.7352724201
 30
0.0
 11
158.4867315447
 21
697.7352724201
 31
0.0
  0
LINE
  5
208
330
1F
100
AcDbEntity
  8
0
  6
SLD-Solid
 62
   142
420
    32960
370
     0
100
AcDbLine
 10
691.9382267667
 20
697.7352724201
 30
0.0
 11
691.990634546
 21
696.7352724201
 31
0.0
  0
LINE
  5
209
330
1F
100
AcDbEntity
  8
0
  6
SLD-Solid
 62
   142
420
    32960
370
     0
100
AcDbLine
 10
692.0535238811
 20
695.5352724201
 30
0.0
 11
692.0540479589
 21
695.5252724201
 31
0.0
  0
LINE
  5
20A
330
1F
100
AcDbEntity
  8
0
  6
SLD-Solid
 62
   142
420
    32960
370
     0
100
AcDbLine
 10
762.1867315447
 20
661.7352724201
 30
0.0
 11
778.4258923606
 21
661.7352724201
 31
0.0
  0
LINE
  5
20B
330
1F
100
AcDbEntity
  8
0
  6
SLD-Solid
 62
   142
420
    32960
370
     0
100
AcDbLine
 10
762.1867315447
 20
660.9352724201
 30
0.0
 11
778.4258923606
 21
660.9352724201
 31
0.0
  0
LINE
  5
20C
330
1F
100
AcDbEntity
  8
0
  6
SLD-Solid
 62
   142
420
    32960
370
     0
100
AcDbLine
 10
778.4258923606
 20
660.9352724201
 30
0.0
 11
778.4258923606
 21
661.7352724201
 31
0.0
  0
LINE
  5
20D
330
1F
100
AcDbEntity
  8
0
  6
SLD-Solid
 62
   142
420
    32960
370
     0
100
AcDbLine
 10
760.1867315447
 20
661.7352724201
 30
0.0
 11
762.1867315447
 21
661.7352724201
 31
0.0
  0
LINE
  5
20E
330
1F
100
AcDbEntity
  8
0
  6
SLD-Solid
 62
   142
420
    32960
370
     0
100
AcDbLine
 10
762.1867315447
 20
660.9352724201
 30
0.0
 11
760.1867315447
 21
660.9352724201
 31
0.0
  0
LINE
  5
20F
330
1F
100
AcDbEntity
  8
0
  6
SLD-Solid
 62
   142
420
    32960
370
     0
100
AcDbLine
 10
758.8867315447
 20
70.7352724201
 30
0.0
 11
758.8867315447
 21
-1.2647275799
 31
0.0
  0
ARC
  5
210
330
1F
100
AcDbEntity
  8
0
  6
SLD-Solid
 62
   142
420
    32960
370
     0
100
AcDbCircle
 10
756.1367315447
 20
-0.0147275799
 30
0.0
 40
2.750000000000114
100
AcDbArc
 50
320.3274090797
 51
360.0
  0
LINE
  5
211
330
1F
100
AcDbEntity
  8
0
  6
SLD-Solid
 62
   142
420
    32960
370
     0
100
AcDbLine
 10
758.1367315447
 20
14.7352724201
 30
0.0
 11
758.8867315447
 21
14.7352724201
 31
0.0
  0
ARC
  5
212
330
1F
100
AcDbEntity
  8
0
  6
SLD-Solid
 62
   142
420
    32960
370
     0
100
AcDbCircle
 10
756.1367315447
 20
15.9852724201
 30
0.0
 40
2.750000000000114
100
AcDbArc
 50
332.9643082106
 51
0.0
  0
LINE
  5
213
330
1F
100
AcDbEntity
  8
0
  6
SLD-Solid
 62
     7
370
    15
100
AcDbLine
 10
4.0499298122
 20
509.5352724201
 30
0.0
 11
23.3867315447
 21
509.5352724201
 31
0.0
  0
LINE
  5
214
330
1F
100
AcDbEntity
  8
0
  6
SLD-Solid
 62
     7
370
    15
100
AcDbLine
 10
-1.6132684553
 20
509.5352724201
 30
0.0
 11
4.0499298122
 21
509.5352724201
 31
0.0
  0
LINE
  5
215
330
1F
100
AcDbEntity
  8
0
  6
SLD-Solid
 62
     7
370
    15
100
AcDbLine
 10
4.5968739508
 20
508.5352724201
 30
0.0
 11
-0.6132684553
 21
508.5352724201
 31
0.0
  0
LINE
  5
216
330
1F
100
AcDbEntity
  8
0
  6
SLD-Solid
 62
     7
370
    15
100
AcDbLine
 10
22.3867315447
 20
508.5352724201
 30
0.0
 11
4.5968739508
 21
508.5352724201
 31
0.0
  0
LINE
  5
217
330
1F
100
AcDbEntity
  8
0
  6
SLD-Solid
 62
   142
420
    32960
370
     0
100
AcDbLine
 10
10.8867315447
 20
522.5352724201
 30
0.0
 11
23.3867315447
 21
522.5352724201
 31
0.0
  0
LINE
  5
218
330
1F
100
AcDbEntity
  8
0
  6
SLD-Solid
 62
   142
420
    32960
370
     0
100
AcDbLine
 10
758.1367315447
 20
-1.5147275799
 30
0.0
 11
758.1367315447
 21
677.4852724201
 31
0.0
  0
SPLINE
  5
219
330
1F
100
AcDbEntity
  8
0
  6
SLD-Solid
 62
   142
420
    32960
370
     0
100
AcDbSpline
210
0.0
220
0.0
230
1.0
 70
     8
 71
     3
 72
    14
 73
    10
 74
     0
 42
0.00000001
 43
0.00000001
 40
0.0
 40
0.0
 40
0.0
 40
0.0
 40
0.2500000000000001
 40
0.2500000000000001
 40
0.5000000000000001
 40
0.5000000000000001
 40
0.7500000000000002
 40
0.7500000000000002
 40
1.0
 40
1.0
 40
1.0
 40
1.0
 10
759.316020866616
 20
-3.564727579888682
 30
0.0
 10
759.2177467564592
 20
-3.564727579888682
 30
0.0
 10
759.1194726463024
 20
-3.511371567058719
 30
0.0
 10
758.9229244259888
 20
-3.30598967601492
 30
0.0
 10
758.8246503158321
 20
-3.154044606804962
 30
0.0
 10
758.6281020955183
 20
-2.774548355837292
 30
0.0
 10
758.5298279853616
 20
-2.547146489649044
 30
0.0
 10
758.3332797650479
 20
-2.051310742825219
 30
0.0
 10
758.2350056548912
 20
-1.783071952382864
 30
0.0
 10
758.1367315447344
 20
-1.514727579888686
 30
0.0
  0
LINE
  5
21A
330
1F
100
AcDbEntity
  8
0
  6
SLD-Solid
 62
     7
370
    15
100
AcDbLine
 10
53.4574422229
 20
-3.5647275799
 30
0.0
 11
759.3160208666
 21
-3.5647275799
 31
0.0
  0
SPLINE
  5
21B
330
1F
100
AcDbEntity
  8
0
  6
SLD-Solid
 62
   142
420
    32960
370
     0
100
AcDbSpline
210
0.0
220
0.0
230
1.0
 70
     8
 71
     3
 72
    22
 73
    18
 74
     0
 42
0.00000001
 43
0.00000001
 40
0.0
 40
0.0
 40
0.0
 40
0.0
 40
0.1250000000000001
 40
0.1250000000000001
 40
0.2500000000000001
 40
0.2500000000000001
 40
0.3750000000000002
 40
0.3750000000000002
 40
0.5000000000000002
 40
0.5000000000000002
 40
0.6250000000000002
 40
0.6250000000000002
 40
0.7500000000000002
 40
0.7500000000000002
 40
0.8750000000000001
 40
0.8750000000000001
 40
1.0
 40
1.0
 40
1.0
 40
1.0
 10
54.6367315447352
 20
-1.514727579888964
 30
0.0
 10
54.58715774129147
 20
-1.650092338277398
 30
0.0
 10
54.53835493609554
 20
-1.783330883392831
 30
0.0
 10
54.44060602772566
 20
-2.045136392198887
 30
0.0
 10
54.39127242848024
 20
-2.174697224395505
 30
0.0
 10
54.29260215415549
 20
-2.423618346008405
 30
0.0
 10
54.24388850892053
 20
-2.541458950441389
 30
0.0
 10
54.1460471462924
 20
-2.763700455798268
 30
0.0
 10
54.09640057976301
 20
-2.869060413443203
 30
0.0
 10
53.99810475685346
 20
-3.058892283586079
 30
0.0
 10
53.94943450479578
 20
-3.143640131192449
 30
0.0
 10
53.85140600052313
 20
-3.292579699633535
 30
0.0
 10
53.80165965216294
 20
-3.357001820959882
 30
0.0
 10
53.70364058602279
 20
-3.459553133725701
 30
0.0
 10
53.65496914447371
 20
-3.498469120774006
 30
0.0
 10
53.5566580323103
 20
-3.551179458166742
 30
0.0
 10
53.5070160282563
 20
-3.564727579888904
 30
0.0
 10
53.45744222285381
 20
-3.564727579888849
 30
0.0
  0
SPLINE
  5
21C
330
1F
100
AcDbEntity
  8
0
  6
SLD-Solid
 62
   142
420
    32960
370
     0
100
AcDbSpline
210
0.0
220
0.0
230
1.0
 70
     8
 71
     3
 72
    11
 73
     7
 74
     0
 42
0.00000001
 43
0.00000001
 40
0.0
 40
0.0
 40
0.0
 40
0.0
 40
0.3237812528852849
 40
0.647562505770556
 40
0.9713437586558382
 40
1.0
 40
1.0
 40
1.0
 40
1.0
 10
758.1367315447347
 20
677.4852724201113
 30
0.0
 10
758.2350056548914
 20
677.7552471256855
 30
0.0
 10
758.4315538752049
 20
678.2951965368337
 30
0.0
 10
758.7263762056751
 20
678.9525821713112
 30
0.0
 10
758.9316221705104
 20
679.336129515474
 30
0.0
 10
759.038594025189
 20
679.3887572918175
 30
0.0
 10
759.0472917697109
 20
679.3930363889199
 30
0.0
  0
LINE
  5
21D
330
1F
100
AcDbEntity
  8
0
  6
SLD-Solid
 62
   142
420
    32960
370
     0
100
AcDbLine
 10
759.3160208666
 20
679.5352724201
 30
0.0
 11
759.2367315447
 21
679.5352724201
 31
0.0
  0
LINE
  5
21E
330
1F
100
AcDbEntity
  8
0
  6
SLD-Solid
 62
   142
420
    32960
370
     0
100
AcDbLine
 10
676.5967315447
 20
679.5352724201
 30
0.0
 11
673.4867315447
 21
679.5352724201
 31
0.0
  0
LINE
  5
21F
330
1F
100
AcDbEntity
  8
0
  6
SLD-Solid
 62
   142
420
    32960
370
     0
100
AcDbLine
 10
158.4867315447
 20
679.5352724201
 30
0.0
 11
154.7867315447
 21
679.5352724201
 31
0.0
  0
SPLINE
  5
220
330
1F
100
AcDbEntity
  8
0
  6
SLD-Solid
 62
   142
420
    32960
370
     0
100
AcDbSpline
210
0.0
220
0.0
230
1.0
 70
     8
 71
     3
 72
    22
 73
    18
 74
     0
 42
0.00000001
 43
0.00000001
 40
0.0
 40
0.0
 40
0.0
 40
0.0
 40
0.125
 40
0.125
 40
0.25
 40
0.25
 40
0.375
 40
0.375
 40
0.5
 40
0.5
 40
0.625
 40
0.625
 40
0.75
 40
0.75
 40
0.875
 40
0.875
 40
1.0
 40
1.0
 40
1.0
 40
1.0
 10
53.4574422228537
 20
679.5352724201111
 30
0.0
 10
53.50701602564961
 20
679.535272420111
 30
0.0
 10
53.55581883200517
 20
679.5219766875293
 30
0.0
 10
53.65356774613589
 20
679.4699584110169
 30
0.0
 10
53.70290135615713
 20
679.4308025825412
 30
0.0
 10
53.80157161842686
 20
679.3277069931937
 30
0.0
 10
53.8502852613672
 20
679.2646454624823
 30
0.0
 10
53.94812662626586
 20
679.1163495098137
 30
0.0
 10
53.99777319735527
 20
679.0300353910492
 30
0.0
 10
54.09606901077374
 20
678.8402873578133
 30
0.0
 10
54.14473926167213
 20
678.7370942856351
 30
0.0
 10
54.24276777056352
 20
678.514668310851
 30
0.0
 10
54.29251411811581
 20
678.3943568105167
 30
0.0
 10
54.39053317723636
 20
678.1471352460075
 30
0.0
 10
54.43920461874735
 20
678.0193950644363
 30
0.0
 10
54.53751573790183
 20
677.7561621235411
 30
0.0
 10
54.5871577399803
 20
677.6206371820803
 30
0.0
 10
54.63673154473508
 20
677.4852724201112
 30
0.0
  0
LINE
  5
221
330
1F
100
AcDbEntity
  8
0
  6
SLD-Solid
 62
     7
370
    15
100
AcDbLine
 10
52.5867315447
 20
678.664561742
 30
0.0
 11
52.5867315447
 21
-2.6940169018
 31
0.0
  0
SPLINE
  5
222
330
1F
100
AcDbEntity
  8
0
  6
SLD-Solid
 62
   142
420
    32960
370
     0
100
AcDbSpline
210
0.0
220
0.0
230
1.0
 70
     8
 71
     3
 72
    14
 73
    10
 74
     0
 42
0.00000001
 43
0.00000001
 40
0.0
 40
0.0
 40
0.0
 40
0.0
 40
0.25
 40
0.25
 40
0.5
 40
0.5
 40
0.75
 40
0.75
 40
1.0
 40
1.0
 40
1.0
 40
1.0
 10
54.6367315447352
 20
677.4852724201113
 30
0.0
 10
54.36838717224074
 20
677.5835465302681
 30
0.0
 10
54.10014838179816
 20
677.6818206404248
 30
0.0
 10
53.60431263497428
 20
677.8783688607383
 30
0.0
 10
53.37691076878587
 20
677.9766429708952
 30
0.0
 10
52.99741451781787
 20
678.1731911912087
 30
0.0
 10
52.84546944860796
 20
678.2714653013655
 30
0.0
 10
52.64008755756405
 20
678.468013521679
 30
0.0
 10
52.58673154473409
 20
678.5662876318358
 30
0.0
 10
52.5867315447342
 20
678.6645617419925
 30
0.0
  0
SPLINE
  5
223
330
1F
100
AcDbEntity
  8
0
  6
SLD-Solid
 62
   142
420
    32960
370
     0
100
AcDbSpline
210
0.0
220
0.0
230
1.0
 70
     8
 71
     3
 72
    14
 73
    10
 74
     0
 42
0.00000001
 43
0.00000001
 40
0.0
 40
0.0
 40
0.0
 40
0.0
 40
0.25
 40
0.25
 40
0.5
 40
0.5
 40
0.75
 40
0.75
 40
1.0
 40
1.0
 40
1.0
 40
1.0
 10
52.58673154473431
 20
-2.694016901770069
 30
0.0
 10
52.58673154473442
 20
-2.595742791613287
 30
0.0
 10
52.64008755756405
 20
-2.497468681456672
 30
0.0
 10
52.84546944860807
 20
-2.300920461143108
 30
0.0
 10
52.99741451781787
 20
-2.20264635098627
 30
0.0
 10
53.37691076878576
 20
-2.006098130672707
 30
0.0
 10
53.60431263497406
 20
-1.907824020515869
 30
0.0
 10
54.10014838179828
 20
-1.711275800202305
 30
0.0
 10
54.36838717224063
 20
-1.61300169004569
 30
0.0
 10
54.63673154473475
 20
-1.514727579888908
 30
0.0
  0
LINE
  5
224
330
1F
100
AcDbEntity
  8
0
  6
SLD-Solid
 62
   142
420
    32960
370
     0
100
AcDbLine
 10
759.3160208666
 20
-2.7647275799
 30
0.0
 11
759.3160208666
 21
-3.5647275799
 31
0.0
  0
LINE
  5
225
330
1F
100
AcDbEntity
  8
0
  6
SLD-Solid
 62
   142
420
    32960
370
     0
100
AcDbLine
 10
759.3160208666
 20
-2.7647275799
 30
0.0
 11
758.6379079881
 21
-2.7647275799
 31
0.0
  0
LINE
  5
226
330
1F
100
AcDbEntity
  8
0
  6
SLD-Solid
 62
   142
420
    32960
370
     0
100
AcDbLine
 10
54.1399474671
 20
-2.7647275799
 30
0.0
 11
53.4574422229
 21
-2.7647275799
 31
0.0
  0
LINE
  5
227
330
1F
100
AcDbEntity
  8
0
  6
SLD-Solid
 62
   142
420
    32960
370
     0
100
AcDbLine
 10
53.4574422229
 20
-3.5647275799
 30
0.0
 11
53.4574422229
 21
-2.7647275799
 31
0.0
  0
LINE
  5
228
330
1F
100
AcDbEntity
  8
0
  6
SLD-Solid
 62
   142
420
    32960
370
     0
100
AcDbLine
 10
53.3867315447
 20
-2.6940169018
 30
0.0
 11
53.3867315447
 21
-2.0159040232
 31
0.0
  0
LINE
  5
229
330
1F
100
AcDbEntity
  8
0
  6
SLD-Solid
 62
   142
420
    32960
370
     0
100
AcDbLine
 10
53.3867315447
 20
677.9864488634
 30
0.0
 11
53.3867315447
 21
678.664561742
 31
0.0
  0
LINE
  5
22A
330
1F
100
AcDbEntity
  8
0
  6
SLD-Solid
 62
   142
420
    32960
370
     0
100
AcDbLine
 10
53.3867315447
 20
-2.6940169018
 30
0.0
 11
52.5867315447
 21
-2.6940169018
 31
0.0
  0
LINE
  5
22B
330
1F
100
AcDbEntity
  8
0
  6
SLD-Solid
 62
   142
420
    32960
370
     0
100
AcDbLine
 10
53.3867315447
 20
678.664561742
 30
0.0
 11
52.5867315447
 21
678.664561742
 31
0.0
  0
LINE
  5
22C
330
1F
100
AcDbEntity
  8
0
  6
SLD-Solid
 62
     7
370
    15
100
AcDbLine
 10
158.1867315447
 20
-4.7647275799
 30
0.0
 11
158.1867315447
 21
-3.5647275799
 31
0.0
  0
LINE
  5
22D
330
1F
100
AcDbEntity
  8
0
  6
SLD-Solid
 62
     7
370
    15
100
AcDbLine
 10
88.1867315447
 20
-4.7647275799
 30
0.0
 11
158.1867315447
 21
-4.7647275799
 31
0.0
  0
LINE
  5
22E
330
1F
100
AcDbEntity
  8
0
  6
SLD-Solid
 62
     7
370
    15
100
AcDbLine
 10
88.1867315447
 20
-4.7647275799
 30
0.0
 11
88.1867315447
 21
-3.5647275799
 31
0.0
  0
LINE
  5
22F
330
1F
100
AcDbEntity
  8
0
  6
SLD-Solid
 62
     7
370
    15
100
AcDbLine
 10
154.1463817651
 20
-98.7647275799
 30
0.0
 11
92.2270813244
 21
-98.7647275799
 31
0.0
  0
LINE
  5
230
330
1F
100
AcDbEntity
  8
0
  6
SLD-Solid
 62
   142
420
    32960
370
     0
100
AcDbLine
 10
759.3867315447
 20
678.664561742
 30
0.0
 11
759.3867315447
 21
-2.6940169018
 31
0.0
  0
LINE
  5
231
330
1F
100
AcDbEntity
  8
0
  6
SLD-Solid
 62
   142
420
    32960
370
     0
100
AcDbLine
 10
759.3867315447
 20
-2.6940169018
 30
0.0
 11
760.1867315447
 21
-2.6940169018
 31
0.0
  0
LINE
  5
232
330
1F
100
AcDbEntity
  8
0
  6
SLD-Solid
 62
   142
420
    32960
370
     0
100
AcDbLine
 10
760.1867315447
 20
-2.6940169018
 30
0.0
 11
760.1867315447
 21
539.447597893
 31
0.0
  0
LINE
  5
233
330
1F
100
AcDbEntity
  8
0
  6
SLD-Solid
 62
   142
420
    32960
370
     0
100
AcDbLine
 10
760.1867315447
 20
540.247597893
 30
0.0
 11
760.1867315447
 21
661.7681460271
 31
0.0
  0
LINE
  5
234
330
1F
100
AcDbEntity
  8
0
  6
SLD-Solid
 62
     7
370
    15
100
AcDbLine
 10
764.1867315447
 20
534.0352724201
 30
0.0
 11
764.1867315447
 21
539.447597893
 31
0.0
  0
ARC
  5
235
330
1F
100
AcDbEntity
  8
0
  6
SLD-Solid
 62
     7
370
    15
100
AcDbCircle
 10
817.4222410737
 20
534.0352724201
 30
0.0
 40
3.500000000000019
100
AcDbArc
 50
270.0
 51
290.0
  0
LINE
  5
236
330
1F
100
AcDbEntity
  8
0
  6
SLD-Solid
 62
     7
370
    15
100
AcDbLine
 10
803.1170170945
 20
530.5352724201
 30
0.0
 11
817.4222410737
 21
530.5352724201
 31
0.0
  0
ARC
  5
237
330
1F
100
AcDbEntity
  8
0
  6
SLD-Solid
 62
     7
370
    15
100
AcDbCircle
 10
803.1170170945
 20
534.0352724201
 30
0.0
 40
3.5
100
AcDbArc
 50
206.7436839504
 51
270.0
  0
ARC
  5
238
330
1F
100
AcDbEntity
  8
0
  6
SLD-Solid
 62
     7
370
    15
100
AcDbCircle
 10
794.1867315447
 20
529.5352724201
 30
0.0
 40
6.499999999999979
100
AcDbArc
 50
26.7436839504
 51
153.2563160496
  0
ARC
  5
239
330
1F
100
AcDbEntity
  8
0
  6
SLD-Solid
 62
     7
370
    15
100
AcDbCircle
 10
785.256445995
 20
534.0352724201
 30
0.0
 40
3.500000000000059
100
AcDbArc
 50
270.0
 51
333.2563160496
  0
LINE
  5
23A
330
1F
100
AcDbEntity
  8
0
  6
SLD-Solid
 62
     7
370
    15
100
AcDbLine
 10
765.6867315447
 20
530.5352724201
 30
0.0
 11
785.256445995
 21
530.5352724201
 31
0.0
  0
LINE
  5
23B
330
1F
100
AcDbEntity
  8
0
  6
SLD-Solid
 62
     7
370
    15
100
AcDbLine
 10
817.4222410737
 20
532.5352724201
 30
0.0
 11
803.1170170945
 21
532.5352724201
 31
0.0
  0
ARC
  5
23C
330
1F
100
AcDbEntity
  8
0
  6
SLD-Solid
 62
     7
370
    15
100
AcDbCircle
 10
817.4222410737
 20
534.0352724201
 30
0.0
 40
1.5
100
AcDbArc
 50
270.0
 51
290.0
  0
LINE
  5
23D
330
1F
100
AcDbEntity
  8
0
  6
SLD-Solid
 62
     7
370
    15
100
AcDbLine
 10
819.5661167863
 20
533.2193127068
 30
0.0
 11
817.9352712887
 21
532.6257334889
 31
0.0
  0
LINE
  5
23E
330
1F
100
AcDbEntity
  8
0
  6
SLD-Solid
 62
     7
370
    15
100
AcDbLine
 10
818.6193115753
 20
530.7463482474
 30
0.0
 11
820.250157073
 21
531.3399274652
 31
0.0
  0
ARC
  5
23F
330
1F
100
AcDbEntity
  8
0
  6
SLD-Solid
 62
   142
420
    32960
370
     0
100
AcDbCircle
 10
803.1170170945
 20
534.0352724201
 30
0.0
 40
1.5
100
AcDbArc
 50
206.7436839504
 51
270.0
  0
ARC
  5
240
330
1F
100
AcDbEntity
  8
0
  6
SLD-Solid
 62
   142
420
    32960
370
     0
100
AcDbCircle
 10
794.1867315447
 20
529.5352724201
 30
0.0
 40
8.500000000000027
100
AcDbArc
 50
26.7436839504
 51
153.2563160496
  0
ARC
  5
241
330
1F
100
AcDbEntity
  8
0
  6
SLD-Solid
 62
   142
420
    32960
370
     0
100
AcDbCircle
 10
785.256445995
 20
534.0352724201
 30
0.0
 40
1.50000000000001
100
AcDbArc
 50
270.0
 51
333.2563160496
  0
LINE
  5
242
330
1F
100
AcDbEntity
  8
0
  6
SLD-Solid
 62
   142
420
    32960
370
     0
100
AcDbLine
 10
785.256445995
 20
532.5352724201
 30
0.0
 11
765.6867315447
 21
532.5352724201
 31
0.0
  0
ARC
  5
243
330
1F
100
AcDbEntity
  8
0
  6
SLD-Solid
 62
   142
420
    32960
370
     0
100
AcDbCircle
 10
765.6867315447
 20
534.0352724201
 30
0.0
 40
1.5
100
AcDbArc
 50
180.0
 51
270.0
  0
LINE
  5
244
330
1F
100
AcDbEntity
  8
0
  6
SLD-Solid
 62
   142
420
    32960
370
     0
100
AcDbLine
 10
762.1867315447
 20
539.447597893
 30
0.0
 11
762.1867315447
 21
534.0352724201
 31
0.0
  0
ARC
  5
245
330
1F
100
AcDbEntity
  8
0
  6
SLD-Solid
 62
   142
420
    32960
370
     0
100
AcDbCircle
 10
765.6867315447
 20
534.0352724201
 30
0.0
 40
3.5
100
AcDbArc
 50
180.0
 51
270.0
  0
LINE
  5
246
330
1F
100
AcDbEntity
  8
0
  6
SLD-Solid
 62
     7
370
    15
100
AcDbLine
 10
819.5661167863
 20
533.2193127068
 30
0.0
 11
824.2645798902
 21
534.9294134234
 31
0.0
  0
LINE
  5
247
330
1F
100
AcDbEntity
  8
0
  6
SLD-Solid
 62
     7
370
    15
100
AcDbLine
 10
824.2645798902
 20
534.9294134234
 30
0.0
 11
824.9486201769
 21
533.0500281818
 31
0.0
  0
LINE
  5
248
330
1F
100
AcDbEntity
  8
0
  6
SLD-Solid
 62
     7
370
    15
100
AcDbLine
 10
824.9486201769
 20
533.0500281818
 30
0.0
 11
820.250157073
 21
531.3399274652
 31
0.0
  0
LINE
  5
249
330
1F
100
AcDbEntity
  8
0
  6
SLD-Solid
 62
   142
420
    32960
370
     0
100
AcDbLine
 10
758.1367315447
 20
12.5852724201
 30
0.0
 11
759.3867315447
 21
12.5852724201
 31
0.0
  0
LINE
  5
24A
330
1F
100
AcDbEntity
  8
0
  6
SLD-Solid
 62
   142
420
    32960
370
     0
100
AcDbLine
 10
762.1867315447
 20
539.0352724201
 30
0.0
 11
760.1867315447
 21
539.0352724201
 31
0.0
  0
LINE
  5
24B
330
1F
100
AcDbEntity
  8
0
  6
SLD-Solid
 62
   142
420
    32960
370
     0
100
AcDbLine
 10
762.1867315447
 20
537.0352724201
 30
0.0
 11
760.1867315447
 21
537.0352724201
 31
0.0
  0
LINE
  5
24C
330
1F
100
AcDbEntity
  8
0
  6
SLD-Solid
 62
     7
370
    15
100
AcDbLine
 10
741.6867315447
 20
-166.7647275799
 30
0.0
 11
684.6867315447
 21
-166.7647275799
 31
0.0
  0
LINE
  5
24D
330
1F
100
AcDbEntity
  8
0
  6
SLD-Solid
 62
     7
370
    15
100
AcDbLine
 10
739.6867314739
 20
-172.7647275799
 30
0.0
 11
686.6867315447
 21
-172.7647275799
 31
0.0
  0
ARC
  5
24E
330
1F
100
AcDbEntity
  8
0
  6
SLD-Solid
 62
     7
370
    15
100
AcDbCircle
 10
132.3367315447
 20
697.9852724201
 30
0.0
 40
1.250000000000085
100
AcDbArc
 50
180.0
 51
270.0
  0
ARC
  5
24F
330
1F
100
AcDbEntity
  8
0
  6
SLD-Solid
 62
   142
420
    32960
370
     0
100
AcDbCircle
 10
129.0367315447
 20
714.6852724201
 30
0.0
 40
2.049999999999983
100
AcDbArc
 50
0.0
 51
90.0
  0
LINE
  5
250
330
1F
100
AcDbEntity
  8
0
  6
SLD-Solid
 62
     7
370
    15
100
AcDbLine
 10
54.1673105872
 20
766.6948755238
 30
0.0
 11
87.4642629084
 21
757.7729840389
 31
0.0
  0
LINE
  5
251
330
1F
100
AcDbEntity
  8
0
  6
SLD-Solid
 62
     7
370
    15
100
AcDbLine
 10
106.5867315447
 20
732.8520977206
 30
0.0
 11
106.5867315447
 21
717.9852724201
 31
0.0
  0
LINE
  5
252
330
1F
100
AcDbEntity
  8
0
  6
SLD-Solid
 62
   142
420
    32960
370
     0
100
AcDbLine
 10
105.7867315447
 20
717.9852724201
 30
0.0
 11
106.5867315447
 21
717.9852724201
 31
0.0
  0
LINE
  5
253
330
1F
100
AcDbEntity
  8
0
  6
SLD-Solid
 62
     7
370
    15
100
AcDbLine
 10
105.7867315447
 20
732.8520977206
 30
0.0
 11
105.7867315447
 21
717.9852724201
 31
0.0
  0
LINE
  5
254
330
1F
100
AcDbEntity
  8
0
  6
SLD-Solid
 62
     7
370
    15
100
AcDbLine
 10
132.3367315447
 20
696.7352724201
 30
0.0
 11
154.5367315447
 21
696.7352724201
 31
0.0
  0
LINE
  5
255
330
1F
100
AcDbEntity
  8
0
  6
SLD-Solid
 62
   142
420
    32960
370
     0
100
AcDbLine
 10
154.5367315447
 20
695.9352724201
 30
0.0
 11
154.5367315447
 21
696.7352724201
 31
0.0
  0
LINE
  5
256
330
1F
100
AcDbEntity
  8
0
  6
SLD-Solid
 62
   142
420
    32960
370
     0
100
AcDbLine
 10
132.3367315447
 20
695.9352724201
 30
0.0
 11
154.5367315447
 21
695.9352724201
 31
0.0
  0
ARC
  5
257
330
1F
100
AcDbEntity
  8
0
  6
SLD-Solid
 62
     7
370
    15
100
AcDbCircle
 10
80.7867315447
 20
732.8520977206
 30
0.0
 40
25.00000000000003
100
AcDbArc
 50
0.0
 51
75.0
  0
ARC
  5
258
330
1F
100
AcDbEntity
  8
0
  6
SLD-Solid
 62
   142
420
    32960
370
     0
100
AcDbCircle
 10
132.3367315447
 20
697.9852724201
 30
0.0
 40
2.049999999999983
100
AcDbArc
 50
180.0
 51
270.0
  0
LINE
  5
259
330
1F
100
AcDbEntity
  8
0
  6
SLD-Solid
 62
     7
370
    15
100
AcDbLine
 10
131.0867315447
 20
714.6852724201
 30
0.0
 11
131.0867315447
 21
697.9852724201
 31
0.0
  0
LINE
  5
25A
330
1F
100
AcDbEntity
  8
0
  6
SLD-Solid
 62
   142
420
    32960
370
     0
100
AcDbLine
 10
130.2867315447
 20
714.6852724201
 30
0.0
 11
130.2867315447
 21
697.9852724201
 31
0.0
  0
LINE
  5
25B
330
1F
100
AcDbEntity
  8
0
  6
SLD-Solid
 62
   142
420
    32960
370
     0
100
AcDbLine
 10
131.0867315447
 20
714.6852724201
 30
0.0
 11
130.2867315447
 21
714.6852724201
 31
0.0
  0
LINE
  5
25C
330
1F
100
AcDbEntity
  8
0
  6
SLD-Solid
 62
     7
370
    15
100
AcDbLine
 10
107.8367315447
 20
716.7352724201
 30
0.0
 11
129.0367315447
 21
716.7352724201
 31
0.0
  0
LINE
  5
25D
330
1F
100
AcDbEntity
  8
0
  6
SLD-Solid
 62
     7
370
    15
100
AcDbLine
 10
107.8367315447
 20
715.9352724201
 30
0.0
 11
129.0367315447
 21
715.9352724201
 31
0.0
  0
LINE
  5
25E
330
1F
100
AcDbEntity
  8
0
  6
SLD-Solid
 62
   142
420
    32960
370
     0
100
AcDbLine
 10
129.0367315447
 20
715.9352724201
 30
0.0
 11
129.0367315447
 21
716.7352724201
 31
0.0
  0
LINE
  5
25F
330
1F
100
AcDbEntity
  8
0
  6
SLD-Solid
 62
   142
420
    32960
370
     0
100
AcDbLine
 10
107.8367315447
 20
716.7352724201
 30
0.0
 11
107.8367315447
 21
715.9352724201
 31
0.0
  0
ARC
  5
260
330
1F
100
AcDbEntity
  8
0
  6
SLD-Solid
 62
   142
420
    32960
370
     0
100
AcDbCircle
 10
107.8367315447
 20
717.9852724201
 30
0.0
 40
2.049999999999997
100
AcDbArc
 50
180.0
 51
270.0
  0
ARC
  5
261
330
1F
100
AcDbEntity
  8
0
  6
SLD-Solid
 62
   142
420
    32960
370
     0
100
AcDbCircle
 10
53.6367315447
 20
764.7147275799
 30
0.0
 40
2.049999999999997
100
AcDbArc
 50
75.0
 51
180.0
  0
LINE
  5
262
330
1F
100
AcDbEntity
  8
0
  6
SLD-Solid
 62
   142
420
    32960
370
     0
100
AcDbLine
 10
51.5867315447
 20
715.9352724201
 30
0.0
 11
52.3867315447
 21
715.9352724201
 31
0.0
  0
ARC
  5
263
330
1F
100
AcDbEntity
  8
0
  6
SLD-Solid
 62
   142
420
    32960
370
     0
100
AcDbCircle
 10
107.8367315447
 20
717.9852724201
 30
0.0
 40
1.25
100
AcDbArc
 50
180.0
 51
270.0
  0
LINE
  5
264
330
1F
100
AcDbEntity
  8
0
  6
SLD-Solid
 62
   142
420
    32960
370
     0
100
AcDbLine
 10
52.3867315447
 20
715.9352724201
 30
0.0
 11
52.3867315447
 21
764.7147275799
 31
0.0
  0
LINE
  5
265
330
1F
100
AcDbEntity
  8
0
  6
SLD-Solid
 62
   142
420
    32960
370
     0
100
AcDbLine
 10
53.9602553511
 20
765.9221348628
 30
0.0
 11
87.2572076723
 21
757.0002433779
 31
0.0
  0
LINE
  5
266
330
1F
100
AcDbEntity
  8
0
  6
SLD-Solid
 62
   142
420
    32960
370
     0
100
AcDbLine
 10
54.1673105872
 20
766.6948755238
 30
0.0
 11
53.9602553511
 21
765.9221348628
 31
0.0
  0
LINE
  5
267
330
1F
100
AcDbEntity
  8
0
  6
SLD-Solid
 62
   142
420
    32960
370
     0
100
AcDbLine
 10
51.5867315447
 20
715.9352724201
 30
0.0
 11
51.5867315447
 21
764.7147275799
 31
0.0
  0
ARC
  5
268
330
1F
100
AcDbEntity
  8
0
  6
SLD-Solid
 62
     7
370
    15
100
AcDbCircle
 10
80.7867315447
 20
732.8520977206
 30
0.0
 40
25.80000000000005
100
AcDbArc
 50
0.0
 51
75.0
  0
LINE
  5
269
330
1F
100
AcDbEntity
  8
0
  6
SLD-Solid
 62
   142
420
    32960
370
     0
100
AcDbLine
 10
52.3867315447
 20
724.2852724201
 30
0.0
 11
51.5867315447
 21
724.2852724201
 31
0.0
  0
LINE
  5
26A
330
1F
100
AcDbEntity
  8
0
  6
SLD-Solid
 62
   142
420
    32960
370
     0
100
AcDbLine
 10
52.3867315447
 20
730.5852724201
 30
0.0
 11
51.5867315447
 21
730.5852724201
 31
0.0
  0
SPLINE
  5
26B
330
1F
100
AcDbEntity
  8
0
  6
SLD-Solid
 62
   142
420
    32960
370
     0
100
AcDbSpline
210
0.0
220
0.0
230
1.0
 70
     8
 71
     3
 72
    14
 73
    10
 74
     0
 42
0.00000001
 43
0.00000001
 40
0.0
 40
0.0
 40
0.0
 40
0.0
 40
0.25
 40
0.25
 40
0.5
 40
0.5
 40
0.75
 40
0.75
 40
1.0
 40
1.0
 40
1.0
 40
1.0
 10
777.8446583381909
 20
658.8852724201058
 30
0.0
 10
778.0923973789512
 20
658.991190683613
 30
0.0
 10
778.340036005213
 20
659.0970763204717
 30
0.0
 10
778.7966605766192
 20
659.296288576782
 30
0.0
 10
779.0054609799637
 20
659.3895549100484
 30
0.0
 10
779.3514401157332
 20
659.5528162850219
 30
0.0
 10
779.4884768406129
 20
659.6227651856811
 30
0.0
 10
779.6688633797962
 20
659.7322222644734
 30
0.0
 10
779.7121363401702
 20
659.771705471252
 30
0.0
 10
779.7046647168588
 20
659.7947007633134
 30
0.0
  0
SPLINE
  5
26C
330
1F
100
AcDbEntity
  8
0
  6
SLD-Solid
 62
   142
420
    32960
370
     0
100
AcDbSpline
210
0.0
220
0.0
230
1.0
 70
     8
 71
     3
 72
    20
 73
    16
 74
     0
 42
0.00000001
 43
0.00000001
 40
0.0
 40
0.0
 40
0.0
 40
0.0
 40
0.1249999999999984
 40
0.1249999999999984
 40
0.2499999999999968
 40
0.2499999999999968
 40
0.3749999999999952
 40
0.3749999999999952
 40
0.4999999999999936
 40
0.4999999999999936
 40
0.624999999999992
 40
0.624999999999992
 40
0.7499999999999903
 40
0.7499999999999903
 40
1.0
 40
1.0
 40
1.0
 40
1.0
 10
817.9447471876172
 20
542.1038284828405
 30
0.0
 10
817.9334490751355
 20
542.1386004976264
 30
0.0
 10
817.9096969819327
 20
542.1687114157643
 30
0.0
 10
817.8379561271232
 20
542.2212092037513
 30
0.0
 10
817.7893564143661
 20
542.243758492662
 30
0.0
 10
817.6689951884274
 20
542.2810610287002
 30
0.0
 10
817.5980058726568
 20
542.2957436425705
 30
0.0
 10
817.4345683482542
 20
542.3185759886611
 30
0.0
 10
817.3409979922105
 20
542.3267372855289
 30
0.0
 10
817.138572013532
 20
542.3370385700113
 30
0.0
 10
817.0294220374335
 20
542.3393042701844
 30
0.0
 10
816.7950281520475
 20
542.3393412712517
 30
0.0
 10
816.6694996616914
 20
542.3370586271566
 30
0.0
 10
816.2840913283187
 20
542.3256361793236
 30
0.0
 10
816.0063411170851
 20
542.3117059831235
 30
0.0
 10
815.7262901300517
 20
542.2975978929657
 30
0.0
  0
SPLINE
  5
26D
330
1F
100
AcDbEntity
  8
0
  6
SLD-Solid
 62
   142
420
    32960
370
     0
100
AcDbSpline
210
0.0
220
0.0
230
1.0
 70
     8
 71
     3
 72
    14
 73
    10
 74
     0
 42
0.00000001
 43
0.00000001
 40
0.0
 40
0.0
 40
0.0
 40
0.0
 40
0.25
 40
0.25
 40
0.5
 40
0.5
 40
0.75
 40
0.75
 40
1.0
 40
1.0
 40
1.0
 40
1.0
 10
778.1348025094478
 20
660.9352724201058
 30
0.0
 10
778.1106238285097
 20
660.9352724201058
 30
0.0
 10
778.0864451475717
 20
660.881916407276
 30
0.0
 10
778.0380877856956
 20
660.6765345162319
 30
0.0
 10
778.0139091047574
 20
660.5245894470222
 30
0.0
 10
777.9655517428813
 20
660.1450931960543
 30
0.0
 10
777.9413730619432
 20
659.9176913298661
 30
0.0
 10
777.893015700067
 20
659.4218555830422
 30
0.0
 10
777.868837019129
 20
659.1536167925999
 30
0.0
 10
777.8446583381909
 20
658.8852724201057
 30
0.0
  0
SPLINE
  5
26E
330
1F
100
AcDbEntity
  8
0
  6
SLD-Solid
 62
   142
420
    32960
370
     0
100
AcDbSpline
210
0.0
220
0.0
230
1.0
 70
     8
 71
     3
 72
    14
 73
    10
 74
     0
 42
0.00000001
 43
0.00000001
 40
0.0
 40
0.0
 40
0.0
 40
0.0
 40
0.25
 40
0.25
 40
0.5
 40
0.5
 40
0.75
 40
0.75
 40
1.0
 40
1.0
 40
1.0
 40
1.0
 10
762.2367315447358
 20
658.8852724201057
 30
0.0
 10
762.191490443168
 20
659.1536167925999
 30
0.0
 10
762.1462493416002
 20
659.4218555830421
 30
0.0
 10
762.0557671384647
 20
659.9176913298659
 30
0.0
 10
762.0105260368969
 20
660.1450931960544
 30
0.0
 10
761.9200438337614
 20
660.5245894470221
 30
0.0
 10
761.8748027321935
 20
660.6765345162321
 30
0.0
 10
761.7843205290579
 20
660.8819164072759
 30
0.0
 10
761.7390794274901
 20
660.9352724201059
 30
0.0
 10
761.6938383259225
 20
660.9352724201058
 30
0.0
  0
SPLINE
  5
26F
330
1F
100
AcDbEntity
  8
0
  6
SLD-Solid
 62
   142
420
    32960
370
     0
100
AcDbSpline
210
0.0
220
0.0
230
1.0
 70
     8
 71
     3
 72
    14
 73
    10
 74
     0
 42
0.00000001
 43
0.00000001
 40
0.0
 40
0.0
 40
0.0
 40
0.0
 40
0.25
 40
0.25
 40
0.5
 40
0.5
 40
0.75
 40
0.75
 40
1.0
 40
1.0
 40
1.0
 40
1.0
 10
761.6938383259225
 20
540.2475978929658
 30
0.0
 10
761.7390794274901
 20
540.247597892966
 30
0.0
 10
761.7843205290579
 20
540.3009539057957
 30
0.0
 10
761.8748027321935
 20
540.5063357968395
 30
0.0
 10
761.9200438337614
 20
540.6582808660495
 30
0.0
 10
762.0105260368969
 20
541.0377771170174
 30
0.0
 10
762.0557671384647
 20
541.2651789832056
 30
0.0
 10
762.1462493416002
 20
541.7610147300294
 30
0.0
 10
762.191490443168
 20
542.0292535204717
 30
0.0
 10
762.2367315447358
 20
542.2975978929659
 30
0.0
  0
SPLINE
  5
270
330
1F
100
AcDbEntity
  8
0
  6
SLD-Solid
 62
   142
420
    32960
370
     0
100
AcDbSpline
210
0.0
220
0.0
230
1.0
 70
     8
 71
     3
 72
    20
 73
    16
 74
     0
 42
0.00000001
 43
0.00000001
 40
0.0
 40
0.0
 40
0.0
 40
0.0
 40
0.1250000000000102
 40
0.1250000000000102
 40
0.2500000000000205
 40
0.2500000000000205
 40
0.3750000000000308
 40
0.3750000000000308
 40
0.500000000000041
 40
0.500000000000041
 40
0.6250000000000512
 40
0.6250000000000512
 40
0.7500000000000615
 40
0.7500000000000615
 40
1.0
 40
1.0
 40
1.0
 40
1.0
 10
815.7262901300517
 20
542.2975978929657
 30
0.0
 10
815.7628515900594
 20
542.1622459210092
 30
0.0
 10
815.7988285754179
 20
542.0290781318012
 30
0.0
 10
815.8709260821013
 20
541.767272872408
 30
0.0
 10
815.9073898674212
 20
541.6374481711093
 30
0.0
 10
815.9800603516733
 20
541.3888937666361
 30
0.0
 10
816.0159612522633
 20
541.2711334245851
 30
0.0
 10
816.0881810763541
 20
541.0487118837821
 30
0.0
 10
816.1248577611086
 20
540.943201571081
 30
0.0
 10
816.1972079323565
 20
540.7537496135577
 30
0.0
 10
816.2330919388203
 20
540.6689820736854
 30
0.0
 10
816.3055588228884
 20
540.5196847604001
 30
0.0
 10
816.3421783361455
 20
540.4554192239746
 30
0.0
 10
816.4504126674879
 20
540.301813082951
 30
0.0
 10
816.5229937990807
 20
540.2475978929656
 30
0.0
 10
816.5961167222886
 20
540.2475978929656
 30
0.0
  0
SPLINE
  5
271
330
1F
100
AcDbEntity
  8
0
  6
SLD-Solid
 62
   142
420
    32960
370
     0
100
AcDbSpline
210
0.0
220
0.0
230
1.0
 70
     8
 71
     3
 72
    14
 73
    10
 74
     0
 42
0.00000001
 43
0.00000001
 40
0.0
 40
0.0
 40
0.0
 40
0.0
 40
0.2499999999999999
 40
0.2499999999999999
 40
0.4999999999999999
 40
0.4999999999999999
 40
0.7499999999999999
 40
0.7499999999999999
 40
1.0
 40
1.0
 40
1.0
 40
1.0
 10
760.1867315447358
 20
659.4281656389193
 30
0.0
 10
760.1867315447358
 20
659.3829245373516
 30
0.0
 10
760.2400875575657
 20
659.3376834357836
 30
0.0
 10
760.4454694486096
 20
659.2472012326482
 30
0.0
 10
760.5974145178196
 20
659.2019601310806
 30
0.0
 10
760.9769107687872
 20
659.1114779279446
 30
0.0
 10
761.2043126349755
 20
659.066236826377
 30
0.0
 10
761.7001483817993
 20
658.9757546232415
 30
0.0
 10
761.9683871722417
 20
658.9305135216736
 30
0.0
 10
762.2367315447358
 20
658.8852724201057
 30
0.0
  0
LINE
  5
272
330
1F
100
AcDbEntity
  8
0
  6
SLD-Solid
 62
   142
420
    32960
370
     0
100
AcDbLine
 10
760.1867315447
 20
659.4281656389
 30
0.0
 11
760.1867315447
 21
541.7547046742
 31
0.0
  0
SPLINE
  5
273
330
1F
100
AcDbEntity
  8
0
  6
SLD-Solid
 62
   142
420
    32960
370
     0
100
AcDbSpline
210
0.0
220
0.0
230
1.0
 70
     8
 71
     3
 72
    14
 73
    10
 74
     0
 42
0.00000001
 43
0.00000001
 40
0.0
 40
0.0
 40
0.0
 40
0.0
 40
0.25
 40
0.25
 40
0.5
 40
0.5
 40
0.75
 40
0.75
 40
1.0
 40
1.0
 40
1.0
 40
1.0
 10
762.2367315447358
 20
542.2975978929659
 30
0.0
 10
761.9683871722417
 20
542.2523567913979
 30
0.0
 10
761.7001483817993
 20
542.2071156898303
 30
0.0
 10
761.2043126349755
 20
542.1166334866945
 30
0.0
 10
760.9769107687872
 20
542.071392385127
 30
0.0
 10
760.5974145178196
 20
541.9809101819912
 30
0.0
 10
760.4454694486096
 20
541.9356690804236
 30
0.0
 10
760.2400875575657
 20
541.845186877288
 30
0.0
 10
760.1867315447358
 20
541.7999457757202
 30
0.0
 10
760.1867315447358
 20
541.7547046741524
 30
0.0
  0
LINE
  5
274
330
1F
100
AcDbEntity
  8
0
  6
SLD-Solid
 62
     7
370
    15
100
AcDbLine
 10
10.8867315447
 20
521.7352724201
 30
0.0
 11
-5.6132684553
 21
521.7352724201
 31
0.0
  0
LINE
  5
275
330
1F
100
AcDbEntity
  8
0
  6
SLD-Solid
 62
   142
420
    32960
370
     0
100
AcDbLine
 10
27.3867315447
 20
521.7352724201
 30
0.0
 11
10.8867315447
 21
521.7352724201
 31
0.0
  0
LINE
  5
276
330
1F
100
AcDbEntity
  8
0
  6
SLD-Solid
 62
   142
420
    32960
370
     0
100
AcDbLine
 10
10.8867315447
 20
521.7352724201
 30
0.0
 11
10.8867315447
 21
524.7352724201
 31
0.0
  0
LINE
  5
277
330
1F
100
AcDbEntity
  8
0
  6
SLD-Solid
 62
     7
370
    15
100
AcDbLine
 10
-5.6132684553
 20
521.7352724201
 30
0.0
 11
-5.6132684553
 21
524.7352724201
 31
0.0
  0
LINE
  5
278
330
1F
100
AcDbEntity
  8
0
  6
SLD-Solid
 62
   142
420
    32960
370
     0
100
AcDbLine
 10
27.3867315447
 20
521.7352724201
 30
0.0
 11
27.3867315447
 21
524.7352724201
 31
0.0
  0
LINE
  5
279
330
1F
100
AcDbEntity
  8
0
  6
SLD-Solid
 62
     7
370
    15
100
AcDbLine
 10
678.1867315447
 20
-4.7647275799
 30
0.0
 11
748.1867315447
 21
-4.7647275799
 31
0.0
  0
LINE
  5
27A
330
1F
100
AcDbEntity
  8
0
  6
SLD-Solid
 62
     7
370
    15
100
AcDbLine
 10
748.1867315447
 20
-4.7647275799
 30
0.0
 11
748.1867315447
 21
-3.5647275799
 31
0.0
  0
LINE
  5
27B
330
1F
100
AcDbEntity
  8
0
  6
SLD-Solid
 62
     7
370
    15
100
AcDbLine
 10
678.1867315447
 20
-4.7647275799
 30
0.0
 11
678.1867315447
 21
-3.5647275799
 31
0.0
  0
LINE
  5
27C
330
1F
100
AcDbEntity
  8
0
  6
SLD-Solid
 62
     7
370
    15
100
AcDbLine
 10
744.1463817651
 20
-98.7647275799
 30
0.0
 11
682.2270813244
 21
-98.7647275799
 31
0.0
  0
LINE
  5
27D
330
1F
100
AcDbEntity
  8
0
  6
SLD-Solid
 62
   142
420
    32960
370
     0
100
AcDbLine
 10
795.9985336728
 20
640.2884435416
 30
0.0
 11
795.0286150457
 21
640.2273710941
 31
0.0
  0
LINE
  5
27E
330
1F
100
AcDbEntity
  8
0
  6
SLD-Solid
 62
   142
420
    32960
370
     0
100
AcDbLine
 10
-21.1132684553
 20
684.7352724201
 30
0.0
 11
-20.6759670271
 21
684.7352724201
 31
0.0
  0
LINE
  5
27F
330
1F
100
AcDbEntity
  8
0
  6
SLD-Solid
 62
   142
420
    32960
370
     0
100
AcDbLine
 10
45.0867315447
 20
641.1808257614
 30
0.0
 11
45.0867315447
 21
641.2352724201
 31
0.0
  0
LINE
  5
280
330
1F
100
AcDbEntity
  8
0
  6
SLD-Solid
 62
   142
420
    32960
370
     0
100
AcDbLine
 10
45.0867315447
 20
616.2352724201
 30
0.0
 11
45.0867315447
 21
641.1808257614
 31
0.0
  0
LINE
  5
281
330
1F
100
AcDbEntity
  8
0
  6
SLD-Solid
 62
     7
370
    15
100
AcDbLine
 10
807.2867315447
 20
-3.2647275799
 30
0.0
 11
815.0867315447
 21
-3.2647275799
 31
0.0
  0
LINE
  5
282
330
1F
100
AcDbEntity
  8
0
  6
SLD-Solid
 62
   142
420
    32960
370
     0
100
AcDbLine
 10
136.3865501612
 20
700.7352724201
 30
0.0
 11
136.4200193185
 21
700.7352724201
 31
0.0
  0
LINE
  5
283
330
1F
100
AcDbEntity
  8
0
  6
SLD-Solid
 62
     7
370
    15
100
AcDbLine
 10
136.2573034937
 20
702.2125685897
 30
0.0
 11
136.3865501612
 21
700.7352724201
 31
0.0
  0
LINE
  5
284
330
1F
100
AcDbEntity
  8
0
  6
SLD-Solid
 62
   142
420
    32960
370
     0
100
AcDbLine
 10
759.0867315447
 20
544.8852724201
 30
0.0
 11
759.0867315447
 21
542.0352724201
 31
0.0
  0
LINE
  5
285
330
1F
100
AcDbEntity
  8
0
  6
SLD-Solid
 62
   142
420
    32960
370
     0
100
AcDbLine
 10
759.0867315447
 20
542.0352724201
 30
0.0
 11
759.0867315447
 21
539.1852724201
 31
0.0
  0
LINE
  5
286
330
1F
100
AcDbEntity
  8
0
  6
SLD-Solid
 62
   142
420
    32960
370
     0
100
AcDbLine
 10
759.0867315447
 20
537.7852724201
 30
0.0
 11
759.0867315447
 21
539.1852724201
 31
0.0
  0
LINE
  5
287
330
1F
100
AcDbEntity
  8
0
  6
SLD-Solid
 62
   142
420
    32960
370
     0
100
AcDbLine
 10
759.0867315447
 20
537.7852724201
 30
0.0
 11
759.0867315447
 21
546.2378034316
 31
0.0
  0
LINE
  5
288
330
1F
100
AcDbEntity
  8
0
  6
SLD-Solid
 62
     7
370
    15
100
AcDbLine
 10
699.6367315447
 20
696.7352724201
 30
0.0
 11
677.8367315447
 21
696.7352724201
 31
0.0
  0
LINE
  5
289
330
1F
100
AcDbEntity
  8
0
  6
SLD-Solid
 62
   142
420
    32960
370
     0
100
AcDbLine
 10
677.8367315447
 20
696.7352724201
 30
0.0
 11
677.8367315447
 21
695.5352724201
 31
0.0
  0
LINE
  5
28A
330
1F
100
AcDbEntity
  8
0
  6
SLD-Solid
 62
   142
420
    32960
370
     0
100
AcDbLine
 10
699.6367315447
 20
695.5352724201
 30
0.0
 11
677.8367315447
 21
695.5352724201
 31
0.0
  0
LINE
  5
28B
330
1F
100
AcDbEntity
  8
0
  6
SLD-Solid
 62
   142
420
    32960
370
     0
100
AcDbLine
 10
699.6367315447
 20
695.5352724201
 30
0.0
 11
699.6367315447
 21
696.7352724201
 31
0.0
  0
LINE
  5
28C
330
1F
100
AcDbEntity
  8
0
  6
SLD-Solid
 62
   142
420
    32960
370
     0
100
AcDbLine
 10
793.5448361743
 20
639.8761453789
 30
0.0
 11
792.3939614866
 21
640.2190436536
 31
0.0
  0
LINE
  5
28D
330
1F
100
AcDbEntity
  8
0
  6
SLD-Solid
 62
   142
420
    32960
370
     0
100
AcDbLine
 10
42.0867315447
 20
673.5352724201
 30
0.0
 11
42.0867315447
 21
526.7852724201
 31
0.0
  0
LINE
  5
28E
330
1F
100
AcDbEntity
  8
0
  6
SLD-Solid
 62
   142
420
    32960
370
     0
100
AcDbLine
 10
759.3867315447
 20
13.9852724201
 30
0.0
 11
759.3867315447
 21
5.5327414087
 31
0.0
  0
LINE
  5
28F
330
1F
100
AcDbEntity
  8
0
  6
SLD-Solid
 62
     7
370
    15
100
AcDbLine
 10
699.6367315447
 20
695.5252724201
 30
0.0
 11
677.8367315447
 21
695.5252724201
 31
0.0
  0
ARC
  5
290
330
1F
100
AcDbEntity
  8
0
  6
SLD-Solid
 62
     7
370
    15
100
AcDbCircle
 10
699.6367315447
 20
697.9852724201
 30
0.0
 40
2.460000000000036
100
AcDbArc
 50
270.0
 51
0.0
  0
LINE
  5
291
330
1F
100
AcDbEntity
  8
0
  6
SLD-Solid
 62
     7
370
    15
100
AcDbLine
 10
703.3367315447
 20
714.2352724201
 30
0.0
 11
702.0967315447
 21
714.2352724201
 31
0.0
  0
ARC
  5
292
330
1F
100
AcDbEntity
  8
0
  6
SLD-Solid
 62
     7
370
    15
100
AcDbCircle
 10
794.6535400432
 20
693.4352724201
 30
0.0
 40
22.00000000000101
100
AcDbArc
 50
293.5
 51
88.6977110648
  0
LINE
  5
293
330
1F
100
AcDbEntity
  8
0
  6
SLD-Solid
 62
     7
370
    15
100
AcDbLine
 10
779.9308849726
 20
663.0439755139
 30
0.0
 11
803.4260195596
 21
673.2599507836
 31
0.0
  0
ARC
  5
294
330
1F
100
AcDbEntity
  8
0
  6
SLD-Solid
 62
     7
370
    15
100
AcDbCircle
 10
782.1535400432
 20
680.9352724201
 30
0.0
 40
2.59999999999997
100
AcDbArc
 50
279.9421486627
 51
80.0578513373
  0
ARC
  5
295
330
1F
100
AcDbEntity
  8
0
  6
SLD-Solid
 62
   142
420
    32960
370
     0
100
AcDbCircle
 10
782.1535400432
 20
680.9352724201
 30
0.0
 40
2.59999999999995
100
AcDbArc
 50
99.9421486627
 51
260.0578513373
  0
ARC
  5
296
330
1F
100
AcDbEntity
  8
0
  6
SLD-Solid
 62
   142
420
    32960
370
     0
100
AcDbCircle
 10
781.6614769054
 20
678.1280720588
 30
0.0
 40
0.2500000000000596
100
AcDbArc
 50
260.0578513374
 51
80.0578513373
  0
ARC
  5
297
330
1F
100
AcDbEntity
  8
0
  6
SLD-Solid
 62
   142
420
    32960
370
     0
100
AcDbCircle
 10
782.1535400432
 20
680.9352724201
 30
0.0
 40
3.099999999999937
100
AcDbArc
 50
99.9421486627
 51
260.0578513373
  0
ARC
  5
298
330
1F
100
AcDbEntity
  8
0
  6
SLD-Solid
 62
   142
420
    32960
370
     0
100
AcDbCircle
 10
781.6614769054
 20
683.7424727814
 30
0.0
 40
0.2500000000000596
100
AcDbArc
 50
279.9421486627
 51
99.9421486626
  0
ARC
  5
299
330
1F
100
AcDbEntity
  8
0
  6
SLD-Solid
 62
   142
420
    32960
370
     0
100
AcDbCircle
 10
782.645603181
 20
678.1280720588
 30
0.0
 40
0.25000000000004
100
AcDbArc
 50
99.9421486626
 51
279.9421486627
  0
ARC
  5
29A
330
1F
100
AcDbEntity
  8
0
  6
SLD-Solid
 62
   142
420
    32960
370
     0
100
AcDbCircle
 10
782.645603181
 20
683.7424727814
 30
0.0
 40
0.25000000000004
100
AcDbArc
 50
80.0578513373
 51
260.0578513374
  0
ARC
  5
29B
330
1F
100
AcDbEntity
  8
0
  6
SLD-Solid
 62
   142
420
    32960
370
     0
100
AcDbCircle
 10
782.1535400432
 20
680.9352724201
 30
0.0
 40
3.099999999999957
100
AcDbArc
 50
279.9421486627
 51
80.0578513373
  0
LINE
  5
29C
330
1F
100
AcDbEntity
  8
0
  6
SLD-Solid
 62
   142
420
    32960
370
     0
100
AcDbLine
 10
759.2367315447
 20
681.5852724201
 30
0.0
 11
759.2367315447
 21
681.6352724201
 31
0.0
  0
LINE
  5
29D
330
1F
100
AcDbEntity
  8
0
  6
SLD-Solid
 62
   142
420
    32960
370
     0
100
AcDbLine
 10
759.2367315447
 20
681.6352724201
 30
0.0
 11
759.2471671524
 21
681.6352724201
 31
0.0
  0
ARC
  5
29E
330
1F
100
AcDbEntity
  8
0
  6
SLD-Solid
 62
   142
420
    32960
370
     0
100
AcDbCircle
 10
759.3617315447
 20
681.5852724201
 30
0.0
 40
0.1250000000000767
100
AcDbArc
 50
23.5781784782
 51
156.4218215218
  0
LINE
  5
29F
330
1F
100
AcDbEntity
  8
0
  6
SLD-Solid
 62
   142
420
    32960
370
     0
100
AcDbLine
 10
759.4762959371
 20
681.6352724201
 30
0.0
 11
759.4867315447
 21
681.6352724201
 31
0.0
  0
LINE
  5
2A0
330
1F
100
AcDbEntity
  8
0
  6
SLD-Solid
 62
   142
420
    32960
370
     0
100
AcDbLine
 10
759.4867315447
 20
681.6352724201
 30
0.0
 11
759.4867315447
 21
664.1852724201
 31
0.0
  0
ARC
  5
2A1
330
1F
100
AcDbEntity
  8
0
  6
SLD-Solid
 62
   142
420
    32960
370
     0
100
AcDbCircle
 10
779.8058849726
 20
664.1852724201
 30
0.0
 40
0.125
100
AcDbArc
 50
0.0
 51
180.0
  0
LINE
  5
2A2
330
1F
100
AcDbEntity
  8
0
  6
SLD-Solid
 62
   142
420
    32960
370
     0
100
AcDbLine
 10
779.9308849726
 20
663.0439755139
 30
0.0
 11
779.9308849726
 21
664.1852724201
 31
0.0
  0
LINE
  5
2A3
330
1F
100
AcDbEntity
  8
0
  6
SLD-Solid
 62
   142
420
    32960
370
     0
100
AcDbLine
 10
795.1535400432
 20
715.429589868
 30
0.0
 11
795.1535400432
 21
714.2352724201
 31
0.0
  0
LINE
  5
2A4
330
1F
100
AcDbEntity
  8
0
  6
SLD-Solid
 62
   142
420
    32960
370
     0
100
AcDbLine
 10
795.1535400432
 20
714.2352724201
 30
0.0
 11
794.6535400432
 21
714.2352724201
 31
0.0
  0
LINE
  5
2A5
330
1F
100
AcDbEntity
  8
0
  6
SLD-Solid
 62
   142
420
    32960
370
     0
100
AcDbLine
 10
794.6535400432
 20
714.2352724201
 30
0.0
 11
794.6535400432
 21
714.2852724201
 31
0.0
  0
LINE
  5
2A6
330
1F
100
AcDbEntity
  8
0
  6
SLD-Solid
 62
   142
420
    32960
370
     0
100
AcDbLine
 10
703.3367315447
 20
714.2852724201
 30
0.0
 11
703.3367315447
 21
714.2352724201
 31
0.0
  0
LINE
  5
2A7
330
1F
100
AcDbEntity
  8
0
  6
SLD-Solid
 62
   142
420
    32960
370
     0
100
AcDbLine
 10
702.0967315447
 20
714.2352724201
 30
0.0
 11
702.0967315447
 21
697.9852724201
 31
0.0
  0
ARC
  5
2A8
330
1F
100
AcDbEntity
  8
0
  6
SLD-Solid
 62
   142
420
    32960
370
     0
100
AcDbCircle
 10
677.8367315447
 20
694.2852724201
 30
0.0
 40
1.240000000000009
100
AcDbArc
 50
90.0
 51
180.0
  0
LINE
  5
2A9
330
1F
100
AcDbEntity
  8
0
  6
SLD-Solid
 62
   142
420
    32960
370
     0
100
AcDbLine
 10
676.5967315447
 20
694.2852724201
 30
0.0
 11
676.5967315447
 21
681.5852724201
 31
0.0
  0
LINE
  5
2AA
330
1F
100
AcDbEntity
  8
0
  6
SLD-Solid
 62
   142
420
    32960
370
     0
100
AcDbLine
 10
759.4867315447
 20
661.7352724201
 30
0.0
 11
759.4867315447
 21
664.1852724201
 31
0.0
  0
LINE
  5
2AB
330
1F
100
AcDbEntity
  8
0
  6
SLD-Solid
 62
   142
420
    32960
370
     0
100
AcDbLine
 10
759.4867315447
 20
661.7352724201
 30
0.0
 11
760.2638430925
 21
661.7352724201
 31
0.0
  0
LINE
  5
2AC
330
1F
100
AcDbEntity
  8
0
  6
SLD-Solid
 62
   142
420
    32960
370
     0
100
AcDbLine
 10
778.4258923606
 20
661.7352724201
 30
0.0
 11
779.6808849726
 21
661.7352724201
 31
0.0
  0
LINE
  5
2AD
330
1F
100
AcDbEntity
  8
0
  6
SLD-Solid
 62
   142
420
    32960
370
     0
100
AcDbLine
 10
779.6808849726
 20
664.1852724201
 30
0.0
 11
779.6808849726
 21
661.7352724201
 31
0.0
  0
LINE
  5
2AE
330
1F
100
AcDbEntity
  8
0
  6
SLD-Solid
 62
   142
420
    32960
370
     0
100
AcDbLine
 10
676.5967315447
 20
679.405342141
 30
0.0
 11
676.5967315447
 21
681.5852724201
 31
0.0
  0
LINE
  5
2AF
330
1F
100
AcDbEntity
  8
0
  6
SLD-Solid
 62
   142
420
    32960
370
     0
100
AcDbLine
 10
759.2367315447
 20
679.1352724201
 30
0.0
 11
758.8593502663
 21
679.1352724201
 31
0.0
  0
LINE
  5
2B0
330
1F
100
AcDbEntity
  8
0
  6
SLD-Solid
 62
   142
420
    32960
370
     0
100
AcDbLine
 10
759.2367315447
 20
681.5852724201
 30
0.0
 11
759.2367315447
 21
679.1352724201
 31
0.0
  0
LINE
  5
2B1
330
1F
100
AcDbEntity
  8
0
  6
SLD-Solid
 62
     7
370
    15
100
AcDbLine
 10
703.3367315447
 20
716.7352724201
 30
0.0
 11
794.6535400432
 21
716.7352724201
 31
0.0
  0
LINE
  5
2B2
330
1F
100
AcDbEntity
  8
0
  6
SLD-Solid
 62
   142
420
    32960
370
     0
100
AcDbLine
 10
703.3367315447
 20
714.2852724201
 30
0.0
 11
703.3367315447
 21
716.7352724201
 31
0.0
  0
LINE
  5
2B3
330
1F
100
AcDbEntity
  8
0
  6
SLD-Solid
 62
   142
420
    32960
370
     0
100
AcDbLine
 10
794.6535400432
 20
716.7352724201
 30
0.0
 11
794.6535400432
 21
714.2852724201
 31
0.0
  0
LINE
  5
2B4
330
1F
100
AcDbEntity
  8
0
  6
SLD-Solid
 62
     7
370
    15
100
AcDbLine
 10
700.8867315447
 20
714.2852724201
 30
0.0
 11
700.8867315447
 21
697.9852724201
 31
0.0
  0
LINE
  5
2B5
330
1F
100
AcDbEntity
  8
0
  6
SLD-Solid
 62
   142
420
    32960
370
     0
100
AcDbLine
 10
700.8867315447
 20
697.9852724201
 30
0.0
 11
702.0867315447
 21
697.9852724201
 31
0.0
  0
LINE
  5
2B6
330
1F
100
AcDbEntity
  8
0
  6
SLD-Solid
 62
   142
420
    32960
370
     0
100
AcDbLine
 10
702.0867315447
 20
714.2852724201
 30
0.0
 11
702.0867315447
 21
697.9852724201
 31
0.0
  0
LINE
  5
2B7
330
1F
100
AcDbEntity
  8
0
  6
SLD-Solid
 62
   142
420
    32960
370
     0
100
AcDbLine
 10
702.0867315447
 20
714.2852724201
 30
0.0
 11
700.8867315447
 21
714.2852724201
 31
0.0
  0
LINE
  5
2B8
330
1F
100
AcDbEntity
  8
0
  6
SLD-Solid
 62
     7
370
    15
100
AcDbLine
 10
781.6903506706
 20
662.3914395374
 30
0.0
 11
803.9443933492
 21
672.0677726869
 31
0.0
  0
LINE
  5
2B9
330
1F
100
AcDbEntity
  8
0
  6
SLD-Solid
 62
   142
420
    32960
370
     0
100
AcDbLine
 10
781.2118517879
 20
663.4919116266
 30
0.0
 11
803.4658944665
 21
673.1682447762
 31
0.0
  0
LINE
  5
2BA
330
1F
100
AcDbEntity
  8
0
  6
SLD-Solid
 62
   142
420
    32960
370
     0
100
AcDbLine
 10
781.2118517879
 20
663.4919116266
 30
0.0
 11
781.6903506706
 21
662.3914395374
 31
0.0
  0
ARC
  5
2BB
330
1F
100
AcDbEntity
  8
0
  6
SLD-Solid
 62
     7
370
    15
100
AcDbCircle
 10
794.6535400432
 20
693.4352724201
 30
0.0
 40
23.30000000000005
100
AcDbArc
 50
293.5
 51
88.7703824493
  0
LINE
  5
2BC
330
1F
100
AcDbEntity
  8
0
  6
SLD-Solid
 62
     7
370
    15
100
AcDbLine
 10
795.1535400432
 20
715.5296155875
 30
0.0
 11
795.1535400432
 21
716.7299069955
 31
0.0
  0
ARC
  5
2BD
330
1F
100
AcDbEntity
  8
0
  6
SLD-Solid
 62
   142
420
    32960
370
     0
100
AcDbCircle
 10
794.6535400432
 20
693.4352724201
 30
0.0
 40
22.10000000000011
100
AcDbArc
 50
293.5
 51
88.703604783
  0
ARC
  5
2BE
330
1F
100
AcDbEntity
  8
0
  6
SLD-Solid
 62
   142
420
    32960
370
     0
100
AcDbCircle
 10
794.6535400432
 20
693.4352724201
 30
0.0
 40
23.30000000000007
100
AcDbArc
 50
88.7703824493
 51
90.0
  0
LINE
  5
2BF
330
1F
100
AcDbEntity
  8
0
  6
SLD-Solid
 62
   142
420
    32960
370
     0
100
AcDbLine
 10
781.6903506706
 20
662.3914395374
 30
0.0
 11
780.7732905962
 21
661.9926904685
 31
0.0
  0
ARC
  5
2C0
330
1F
100
AcDbEntity
  8
0
  6
SLD-Solid
 62
   142
420
    32960
370
     0
100
AcDbCircle
 10
703.3367315447
 20
714.2852724201
 30
0.0
 40
2.450000000000159
100
AcDbArc
 50
90.0
 51
180.0
  0
ARC
  5
2C1
330
1F
100
AcDbEntity
  8
0
  6
SLD-Solid
 62
   142
420
    32960
370
     0
100
AcDbCircle
 10
154.5367315447
 20
694.6852724201
 30
0.0
 40
1.0
100
AcDbArc
 50
0.0
 51
90.0
  0
LINE
  5
2C2
330
1F
100
AcDbEntity
  8
0
  6
SLD-Solid
 62
   142
420
    32960
370
     0
100
AcDbLine
 10
155.5367315447
 20
694.6852724201
 30
0.0
 11
155.5367315447
 21
680.5352724201
 31
0.0
  0
ARC
  5
2C3
330
1F
100
AcDbEntity
  8
0
  6
SLD-Solid
 62
   142
420
    32960
370
     0
100
AcDbCircle
 10
53.3867315447
 20
680.5352724201
 30
0.0
 40
0.7500000000000284
100
AcDbArc
 50
180.0
 51
270.0
  0
LINE
  5
2C4
330
1F
100
AcDbEntity
  8
0
  6
SLD-Solid
 62
   142
420
    32960
370
     0
100
AcDbLine
 10
52.6367315447
 20
680.5352724201
 30
0.0
 11
52.6367315447
 21
726.5352724201
 31
0.0
  0
LINE
  5
2C5
330
1F
100
AcDbEntity
  8
0
  6
SLD-Solid
 62
   142
420
    32960
370
     0
100
AcDbLine
 10
52.6367315447
 20
730.9352724201
 30
0.0
 11
52.6367315447
 21
764.7320416777
 31
0.0
  0
ARC
  5
2C6
330
1F
100
AcDbEntity
  8
0
  6
SLD-Solid
 62
   142
420
    32960
370
     0
100
AcDbCircle
 10
53.6367315447
 20
764.7320416777
 30
0.0
 40
1.00000000000002
100
AcDbArc
 50
75.0
 51
180.0
  0
ARC
  5
2C7
330
1F
100
AcDbEntity
  8
0
  6
SLD-Solid
 62
   142
420
    32960
370
     0
100
AcDbCircle
 10
107.8367315447
 20
717.9852724201
 30
0.0
 40
2.300000000000082
100
AcDbArc
 50
180.0
 51
270.0
  0
LINE
  5
2C8
330
1F
100
AcDbEntity
  8
0
  6
SLD-Solid
 62
   142
420
    32960
370
     0
100
AcDbLine
 10
107.8367315447
 20
715.6852724201
 30
0.0
 11
129.0367315447
 21
715.6852724201
 31
0.0
  0
ARC
  5
2C9
330
1F
100
AcDbEntity
  8
0
  6
SLD-Solid
 62
   142
420
    32960
370
     0
100
AcDbCircle
 10
129.0367315447
 20
714.6852724201
 30
0.0
 40
0.9999999999998863
100
AcDbArc
 50
0.0
 51
90.0
  0
LINE
  5
2CA
330
1F
100
AcDbEntity
  8
0
  6
SLD-Solid
 62
   142
420
    32960
370
     0
100
AcDbLine
 10
130.0367315447
 20
714.6852724201
 30
0.0
 11
130.0367315447
 21
697.9852724201
 31
0.0
  0
ARC
  5
2CB
330
1F
100
AcDbEntity
  8
0
  6
SLD-Solid
 62
   142
420
    32960
370
     0
100
AcDbCircle
 10
132.3367315447
 20
697.9852724201
 30
0.0
 40
2.300000000000068
100
AcDbArc
 50
180.0
 51
270.0
  0
LINE
  5
2CC
330
1F
100
AcDbEntity
  8
0
  6
SLD-Solid
 62
   142
420
    32960
370
     0
100
AcDbLine
 10
809.1153442603
 20
596.2255844576
 30
0.0
 11
808.6849307822
 21
595.8916205733
 31
0.0
  0
LINE
  5
2CD
330
1F
100
AcDbEntity
  8
0
  6
SLD-Solid
 62
   142
420
    32960
370
     0
100
AcDbLine
 10
158.4867315447
 20
679.2352724201
 30
0.0
 11
158.4867315447
 21
680.9852724201
 31
0.0
  0
LINE
  5
2CE
330
1F
100
AcDbEntity
  8
0
  6
SLD-Solid
 62
   142
420
    32960
370
     0
100
AcDbLine
 10
673.4867315447
 20
680.9852724201
 30
0.0
 11
673.4867315447
 21
679.2352724201
 31
0.0
  0
LINE
  5
2CF
330
1F
100
AcDbEntity
  8
0
  6
SLD-Solid
 62
     7
370
    15
100
AcDbLine
 10
158.4867315447
 20
699.7352724201
 30
0.0
 11
158.4867315447
 21
680.9852724201
 31
0.0
  0
ARC
  5
2D0
330
1F
100
AcDbEntity
  8
0
  6
SLD-Solid
 62
   142
420
    32960
370
     0
100
AcDbCircle
 10
163.4867315447
 20
699.7352724201
 30
0.0
 40
5.0
100
AcDbArc
 50
90.0
 51
180.0
  0
LINE
  5
2D1
330
1F
100
AcDbEntity
  8
0
  6
SLD-Solid
 62
     7
370
    15
100
AcDbLine
 10
668.4867315447
 20
704.7352724201
 30
0.0
 11
163.4867315447
 21
704.7352724201
 31
0.0
  0
ARC
  5
2D2
330
1F
100
AcDbEntity
  8
0
  6
SLD-Solid
 62
   142
420
    32960
370
     0
100
AcDbCircle
 10
668.4867315447
 20
699.7352724201
 30
0.0
 40
5.0
100
AcDbArc
 50
360.0
 51
90.0
  0
LINE
  5
2D3
330
1F
100
AcDbEntity
  8
0
  6
SLD-Solid
 62
   142
420
    32960
370
     0
100
AcDbLine
 10
673.4867315447
 20
680.9852724201
 30
0.0
 11
673.4867315447
 21
699.7352724201
 31
0.0
  0
SPLINE
  5
2D4
330
1F
100
AcDbEntity
  8
0
  6
SLD-Solid
 62
   142
420
    32960
370
     0
100
AcDbSpline
210
0.0
220
0.0
230
1.0
 70
     8
 71
     3
 72
    14
 73
    10
 74
     0
 42
0.00000001
 43
0.00000001
 40
0.0
 40
0.0
 40
0.0
 40
0.0
 40
0.25
 40
0.25
 40
0.5
 40
0.5
 40
0.75
 40
0.75
 40
1.0
 40
1.0
 40
1.0
 40
1.0
 10
40.83673154474482
 20
524.7352724201136
 30
0.0
 10
41.10507591723872
 20
524.7352724201138
 30
0.0
 10
41.37331470768119
 20
524.7886284329435
 30
0.0
 10
41.86915045450529
 20
524.9940103239869
 30
0.0
 10
42.09655232069348
 20
525.1459553931973
 30
0.0
 10
42.47604857166104
 20
525.5254516441647
 30
0.0
 10
42.62799364087094
 20
525.7528535103531
 30
0.0
 10
42.83337553191485
 20
526.248689257177
 30
0.0
 10
42.88673154474482
 20
526.5169280476194
 30
0.0
 10
42.88673154474482
 20
526.7852724201135
 30
0.0
  0
LINE
  5
2D5
330
1F
100
AcDbEntity
  8
0
  6
SLD-Solid
 62
     7
370
    15
100
AcDbLine
 10
40.8367315447
 20
524.7352724201
 30
0.0
 11
-19.8632684553
 21
524.7352724201
 31
0.0
  0
LINE
  5
2D6
330
1F
100
AcDbEntity
  8
0
  6
SLD-Solid
 62
   142
420
    32960
370
     0
100
AcDbLine
 10
40.8367315447
 20
524.7352724201
 30
0.0
 11
40.8367315447
 21
525.5352724201
 31
0.0
  0
LINE
  5
2D7
330
1F
100
AcDbEntity
  8
0
  6
SLD-Solid
 62
   142
420
    32960
370
     0
100
AcDbLine
 10
40.8367315447
 20
525.5352724201
 30
0.0
 11
-19.8632684553
 21
525.5352724201
 31
0.0
  0
LINE
  5
2D8
330
1F
100
AcDbEntity
  8
0
  6
SLD-Solid
 62
     7
370
    15
100
AcDbLine
 10
-21.9132684553
 20
514.7352724201
 30
0.0
 11
-21.1132684553
 21
514.7352724201
 31
0.0
  0
LINE
  5
2D9
330
1F
100
AcDbEntity
  8
0
  6
SLD-Solid
 62
     7
370
    15
100
AcDbLine
 10
-21.9132684553
 20
514.7352724201
 30
0.0
 11
-21.9132684553
 21
519.7352724201
 31
0.0
  0
LINE
  5
2DA
330
1F
100
AcDbEntity
  8
0
  6
SLD-Solid
 62
     7
370
    15
100
AcDbLine
 10
-21.1132684553
 20
514.7352724201
 30
0.0
 11
-21.1132684553
 21
519.7352724201
 31
0.0
  0
LINE
  5
2DB
330
1F
100
AcDbEntity
  8
0
  6
SLD-Solid
 62
     7
370
    15
100
AcDbLine
 10
-21.1132684553
 20
519.7352724201
 30
0.0
 11
-21.1132684553
 21
523.4852724201
 31
0.0
  0
LINE
  5
2DC
330
1F
100
AcDbEntity
  8
0
  6
SLD-Solid
 62
     7
370
    15
100
AcDbLine
 10
-21.9132684553
 20
519.7352724201
 30
0.0
 11
-21.9132684553
 21
523.4852724201
 31
0.0
  0
ARC
  5
2DD
330
1F
100
AcDbEntity
  8
0
  6
SLD-Solid
 62
     7
370
    15
100
AcDbCircle
 10
-19.8632684553
 20
523.4852724201
 30
0.0
 40
2.050000000000182
100
AcDbArc
 50
90.0
 51
180.0
  0
ARC
  5
2DE
330
1F
100
AcDbEntity
  8
0
  6
SLD-Solid
 62
     7
370
    15
100
AcDbCircle
 10
-19.8632684553
 20
523.4852724201
 30
0.0
 40
1.25
100
AcDbArc
 50
90.0
 51
180.0
  0
LWPOLYLINE
  5
2DF
330
1F
100
AcDbEntity
  8
0
  6
SLD-Solid
 62
   142
420
    32960
370
     0
100
AcDbPolyline
 90
        3
 70
   128
 43
0.0
 10
-10.7132684553
 20
524.2852724201
 10
-10.7372868548
 20
524.5291353226
 10
-10.7970780763
 20
524.7352724201
  0
LINE
  5
2E0
330
1F
100
AcDbEntity
  8
0
  6
SLD-Solid
 62
   142
420
    32960
370
     0
100
AcDbLine
 10
-10.7132684553
 20
519.5352724201
 30
0.0
 11
-10.7132684553
 21
524.2852724201
 31
0.0
  0
LINE
  5
2E1
330
1F
100
AcDbEntity
  8
0
  6
SLD-Solid
 62
   142
420
    32960
370
     0
100
AcDbLine
 10
-9.9132684553
 20
519.5352724201
 30
0.0
 11
-10.7132684553
 21
519.5352724201
 31
0.0
  0
LINE
  5
2E2
330
1F
100
AcDbEntity
  8
0
  6
SLD-Solid
 62
     7
370
    15
100
AcDbLine
 10
818.3026689316
 20
0.2352724201
 30
0.0
 11
819.6867315447
 21
0.2352724201
 31
0.0
  0
LINE
  5
2E3
330
1F
100
AcDbEntity
  8
0
  6
SLD-Solid
 62
     7
370
    15
100
AcDbLine
 10
802.6867315447
 20
0.2352724201
 30
0.0
 11
818.3026689316
 21
0.2352724201
 31
0.0
  0
LINE
  5
2E4
330
1F
100
AcDbEntity
  8
0
  6
SLD-Solid
 62
   142
420
    32960
370
     0
100
AcDbLine
 10
817.2951322153
 20
-0.2647275799
 30
0.0
 11
819.1867315447
 21
-0.2647275799
 31
0.0
  0
LINE
  5
2E5
330
1F
100
AcDbEntity
  8
0
  6
SLD-Solid
 62
   142
420
    32960
370
     0
100
AcDbLine
 10
818.3026689316
 20
1.7352724201
 30
0.0
 11
819.6867315447
 21
1.7352724201
 31
0.0
  0
LINE
  5
2E6
330
1F
100
AcDbEntity
  8
0
  6
SLD-Solid
 62
   142
420
    32960
370
     0
100
AcDbLine
 10
802.6867315447
 20
1.7352724201
 30
0.0
 11
818.3026689316
 21
1.7352724201
 31
0.0
  0
LINE
  5
2E7
330
1F
100
AcDbEntity
  8
0
  6
SLD-Solid
 62
   142
420
    32960
370
     0
100
AcDbLine
 10
52.3867315447
 20
680.5352724201
 30
0.0
 11
52.3867315447
 21
715.9352724201
 31
0.0
  0
LINE
  5
2E8
330
1F
100
AcDbEntity
  8
0
  6
SLD-Solid
 62
   142
420
    32960
370
     0
100
AcDbLine
 10
52.3867315447
 20
764.7147275799
 30
0.0
 11
52.3867315447
 21
764.7320416777
 31
0.0
  0
LINE
  5
2E9
330
1F
100
AcDbEntity
  8
0
  6
SLD-Solid
 62
   142
420
    32960
370
     0
100
AcDbLine
 10
52.3867315447
 20
680.5352724201
 30
0.0
 11
52.8867315447
 21
680.5352724201
 31
0.0
  0
LINE
  5
2EA
330
1F
100
AcDbEntity
  8
0
  6
SLD-Solid
 62
     7
370
    15
100
AcDbLine
 10
40.8367315447
 20
526.2423792013
 30
0.0
 11
-21.1132684553
 21
526.2423792013
 31
0.0
  0
LINE
  5
2EB
330
1F
100
AcDbEntity
  8
0
  6
SLD-Solid
 62
   142
420
    32960
370
     0
100
AcDbLine
 10
-19.8561973874
 20
682.6852724201
 30
0.0
 11
-19.8703395231
 21
682.6852724201
 31
0.0
  0
LINE
  5
2EC
330
1F
100
AcDbEntity
  8
0
  6
SLD-Solid
 62
   142
420
    32960
370
     0
100
AcDbLine
 10
-21.1132684553
 20
526.3352724201
 30
0.0
 11
-21.1132684553
 21
526.2423792013
 31
0.0
  0
LINE
  5
2ED
330
1F
100
AcDbEntity
  8
0
  6
SLD-Solid
 62
   142
420
    32960
370
     0
100
AcDbLine
 10
40.8367315447
 20
673.5352724201
 30
0.0
 11
40.8367315447
 21
526.2423792013
 31
0.0
  0
LINE
  5
2EE
330
1F
100
AcDbEntity
  8
0
  6
SLD-Solid
 62
   142
420
    32960
370
     0
100
AcDbLine
 10
-9.9132684553
 20
524.2852724201
 30
0.0
 11
-9.9132684553
 21
519.5352724201
 31
0.0
  0
LWPOLYLINE
  5
2EF
330
1F
100
AcDbEntity
  8
0
  6
SLD-Solid
 62
   142
420
    32960
370
     0
100
AcDbPolyline
 90
        3
 70
   128
 43
0.0
 10
-9.9132684553
 20
524.2852724201
 10
-9.9526586304
 20
524.6852075802
 10
-9.9632684553
 20
524.7352724201
  0
ARC
  5
2F0
330
1F
100
AcDbEntity
  8
0
  6
SLD-Solid
 62
   142
420
    32960
370
     0
100
AcDbCircle
 10
-11.9632684553
 20
524.2852724201
 30
0.0
 40
2.049999999999991
100
AcDbArc
 50
37.5718693198
 51
72.6856392415
  0
LINE
  5
2F1
330
1F
100
AcDbEntity
  8
0
  6
SLD-Solid
 62
   142
420
    32960
370
     0
100
AcDbLine
 10
-11.9632684553
 20
525.5352724201
 30
0.0
 11
-11.9632684553
 21
526.2423792013
 31
0.0
  0
LINE
  5
2F2
330
1F
100
AcDbEntity
  8
0
  6
SLD-Solid
 62
   142
420
    32960
370
     0
100
AcDbLine
 10
809.1867315447
 20
527.2352724201
 30
0.0
 11
809.1867315447
 21
526.2352724201
 31
0.0
  0
ENDSEC
  0
SECTION
  2
OBJECTS
  0
DICTIONARY
  5
C
330
0
100
AcDbDictionary
281
     1
  3
ACAD_GROUP
350
D
  3
ACAD_LAYOUT
350
1A
  3
ACAD_MATERIAL
350
3B
  3
ACAD_MLEADERSTYLE
350
2F4
  3
ACAD_MLINESTYLE
350
17
  3
ACAD_PLOTSETTINGS
350
19
  3
ACAD_PLOTSTYLENAME
350
E
  3
ACAD_TABLESTYLE
350
2F3
  3
ACAD_VISUALSTYLE
350
2A
  0
DICTIONARY
  5
D
102
{ACAD_REACTORS
330
C
102
}
330
C
100
AcDbDictionary
281
     1
  0
DICTIONARY
  5
1A
102
{ACAD_REACTORS
330
C
102
}
330
C
100
AcDbDictionary
281
     1
  3
Layout1
350
1E
  3
Layout2
350
26
  3
Model
350
22
  0
DICTIONARY
  5
3B
102
{ACAD_REACTORS
330
C
102
}
330
C
100
AcDbDictionary
281
     1
  3
ByBlock
350
3D
  3
ByLayer
350
3C
  3
Global
350
3E
  0
DICTIONARY
  5
2F4
102
{ACAD_REACTORS
330
C
102
}
330
C
100
AcDbDictionary
281
     1
  0
DICTIONARY
  5
17
102
{ACAD_REACTORS
330
C
102
}
330
C
100
AcDbDictionary
281
     1
  3
Standard
350
18
  0
DICTIONARY
  5
19
102
{ACAD_REACTORS
330
C
102
}
330
C
100
AcDbDictionary
281
     1
  0
ACDBDICTIONARYWDFLT
  5
E
102
{ACAD_REACTORS
330
C
102
}
330
C
100
AcDbDictionary
281
     1
  3
Normal
350
F
100
AcDbDictionaryWithDefault
340
F
  0
DICTIONARY
  5
2F3
102
{ACAD_REACTORS
330
C
102
}
330
C
100
AcDbDictionary
281
     1
  0
DICTIONARY
  5
2A
102
{ACAD_REACTORS
330
C
102
}
330
C
100
AcDbDictionary
281
     1
  3
2dWireframe
350
2F
  3
3D Hidden
350
31
  3
3dWireframe
350
30
  3
Basic
350
32
  3
Brighten
350
36
  3
ColorChange
350
3A
  3
Conceptual
350
34
  3
Dim
350
35
  3
Facepattern
350
39
  3
Flat
350
2B
  3
FlatWithEdges
350
2C
  3
Gouraud
350
2D
  3
GouraudWithEdges
350
2E
  3
Linepattern
350
38
  3
Realistic
350
33
  3
Thicken
350
37
  0
LAYOUT
  5
1E
102
{ACAD_REACTORS
330
1A
102
}
330
1A
100
AcDbPlotSettings
  1

  2
none_device
  4

  6

 40
0.0
 41
0.0
 42
0.0
 43
0.0
 44
0.0
 45
0.0
 46
0.0
 47
0.0
 48
0.0
 49
0.0
140
0.0
141
0.0
142
1.0
143
1.0
 70
   688
 72
     0
 73
     0
 74
     5
  7

 75
    16
 76
     0
 77
     2
 78
   300
147
1.0
148
0.0
149
0.0
100
AcDbLayout
  1
Layout1
 70
     1
 71
     1
 10
0.0
 20
0.0
 11
420.0
 21
297.0
 12
0.0
 22
0.0
 32
0.0
 14
1.0000000000E+20
 24
1.0000000000E+20
 34
1.0000000000E+20
 15
-1.0000000000E+20
 25
-1.0000000000E+20
 35
-1.0000000000E+20
146
0.0
 13
0.0
 23
0.0
 33
0.0
 16
1.0
 26
0.0
 36
0.0
 17
0.0
 27
1.0
 37
0.0
 76
     0
330
1B
  0
LAYOUT
  5
26
102
{ACAD_REACTORS
330
1A
102
}
330
1A
100
AcDbPlotSettings
  1

  2
none_device
  4

  6

 40
0.0
 41
0.0
 42
0.0
 43
0.0
 44
0.0
 45
0.0
 46
0.0
 47
0.0
 48
0.0
 49
0.0
140
0.0
141
0.0
142
1.0
143
1.0
 70
   688
 72
     0
 73
     0
 74
     5
  7

 75
    16
 76
     0
 77
     2
 78
   300
147
1.0
148
0.0
149
0.0
100
AcDbLayout
  1
Layout2
 70
     1
 71
     2
 10
0.0
 20
0.0
 11
0.0
 21
0.0
 12
0.0
 22
0.0
 32
0.0
 14
0.0
 24
0.0
 34
0.0
 15
0.0
 25
0.0
 35
0.0
146
0.0
 13
0.0
 23
0.0
 33
0.0
 16
1.0
 26
0.0
 36
0.0
 17
0.0
 27
1.0
 37
0.0
 76
     0
330
23
  0
LAYOUT
  5
22
102
{ACAD_REACTORS
330
1A
102
}
330
1A
100
AcDbPlotSettings
  1

  2
none_device
  4

  6

 40
0.0
 41
0.0
 42
0.0
 43
0.0
 44
0.0
 45
0.0
 46
0.0
 47
0.0
 48
0.0
 49
0.0
140
0.0
141
0.0
142
1.0
143
1.0
 70
  1712
 72
     0
 73
     0
 74
     0
  7

 75
     0
 76
     0
 77
     2
 78
   300
147
1.0
148
0.0
149
0.0
100
AcDbLayout
  1
Model
 70
     1
 71
     0
 10
0.0
 20
0.0
 11
841.0
 21
594.0
 12
0.0
 22
0.0
 32
0.0
 14
0.0
 24
0.0
 34
0.0
 15
841.0
 25
594.0
 35
0.0
146
0.0
 13
0.0
 23
0.0
 33
0.0
 16
1.0
 26
0.0
 36
0.0
 17
0.0
 27
1.0
 37
0.0
 76
     0
330
1F
331
29
  0
MATERIAL
  5
3D
102
{ACAD_REACTORS
330
3B
102
}
330
3B
100
AcDbMaterial
  1
ByBlock
 72
     1
 94
      127
  0
MATERIAL
  5
3C
102
{ACAD_REACTORS
330
3B
102
}
330
3B
100
AcDbMaterial
  1
ByLayer
 72
     1
 94
      127
  0
MATERIAL
  5
3E
102
{ACAD_REACTORS
330
3B
102
}
330
3B
100
AcDbMaterial
  1
Global
 72
     1
 94
      127
  0
MLINESTYLE
  5
18
102
{ACAD_REACTORS
330
17
102
}
330
17
100
AcDbMlineStyle
  2
Standard
 70
     0
  3

 62
   256
 51
90.0
 52
90.0
 71
     2
 49
0.5
 62
   256
  6
BYLAYER
 49
-0.5
 62
   256
  6
BYLAYER
  0
ACDBPLACEHOLDER
  5
F
102
{ACAD_REACTORS
330
E
102
}
330
E
  0
VISUALSTYLE
  5
2F
102
{ACAD_REACTORS
330
2A
102
}
330
2A
100
AcDbVisualStyle
  2
2dWireframe
 70
     4
 71
     0
 72
     2
 73
     0
 90
        0
 40
-0.6
 41
-30.0
 62
     5
 63
     7
421
 16777215
 74
     1
 91
        4
 64
     7
 65
   257
 75
     1
175
     1
 42
1.0
 92
        0
 66
   257
 43
1.0
 76
     1
 77
     6
 78
     2
 67
     7
 79
     5
170
     0
171
     0
290
     0
174
     0
 93
        1
 44
0.0
173
     0
291
     0
 45
0.0
  0
VISUALSTYLE
  5
31
102
{ACAD_REACTORS
330
2A
102
}
330
2A
100
AcDbVisualStyle
  2
3D Hidden
 70
     6
 71
     1
 72
     2
 73
     2
 90
        0
 40
-0.6
 41
-30.0
 62
     5
 63
     7
421
 16777215
 74
     2
 91
        2
 64
     7
 65
   257
 75
     2
175
     1
 42
40.0
 92
        0
 66
   257
 43
1.0
 76
     1
 77
     6
 78
     2
 67
     7
 79
     3
170
     0
171
     0
290
     0
174
     0
 93
        1
 44
0.0
173
     0
291
     0
 45
0.0
  0
VISUALSTYLE
  5
30
102
{ACAD_REACTORS
330
2A
102
}
330
2A
100
AcDbVisualStyle
  2
3dWireframe
 70
     5
 71
     0
 72
     2
 73
     0
 90
        0
 40
-0.6
 41
-30.0
 62
     5
 63
     7
421
 16777215
 74
     1
 91
        4
 64
     7
 65
   257
 75
     1
175
     1
 42
1.0
 92
        0
 66
   257
 43
1.0
 76
     1
 77
     6
 78
     2
 67
     7
 79
     5
170
     0
171
     0
290
     0
174
     0
 93
        1
 44
0.0
173
     0
291
     0
 45
0.0
  0
VISUALSTYLE
  5
32
102
{ACAD_REACTORS
330
2A
102
}
330
2A
100
AcDbVisualStyle
  2
Basic
 70
     7
 71
     1
 72
     0
 73
     1
 90
        0
 40
-0.6
 41
-30.0
 62
     5
 63
     7
421
 16777215
 74
     0
 91
        4
 64
     7
 65
   257
 75
     1
175
     1
 42
1.0
 92
        8
 66
     7
 43
1.0
 76
     1
 77
     6
 78
     2
 67
     7
 79
     5
170
     0
171
     0
290
     0
174
     0
 93
        1
 44
0.0
173
     0
291
     1
 45
0.0
  0
VISUALSTYLE
  5
36
102
{ACAD_REACTORS
330
2A
102
}
330
2A
100
AcDbVisualStyle
  2
Brighten
 70
    12
 71
     2
 72
     2
 73
     0
 90
        0
 40
-0.6
 41
-30.0
 62
     5
 63
     7
421
 16777215
 74
     1
 91
        4
 64
     7
 65
   257
 75
     1
175
     1
 42
1.0
 92
        8
 66
     7
 43
1.0
 76
     1
 77
     6
 78
     2
 67
     7
 79
     5
170
     0
171
     0
290
     0
174
     0
 93
        1
 44
50.0
173
     0
291
     1
 45
0.0
  0
VISUALSTYLE
  5
3A
102
{ACAD_REACTORS
330
2A
102
}
330
2A
100
AcDbVisualStyle
  2
ColorChange
 70
    16
 71
     2
 72
     2
 73
     3
 90
        0
 40
-0.6
 41
-30.0
 62
     5
 63
     8
421
  8421504
 74
     1
 91
        4
 64
     7
 65
   257
 75
     1
175
     1
 42
1.0
 92
        8
 66
     8
424
  8421504
 43
1.0
 76
     1
 77
     6
 78
     2
 67
     7
 79
     5
170
     0
171
     0
290
     0
174
     0
 93
        1
 44
0.0
173
     0
291
     1
 45
0.0
  0
VISUALSTYLE
  5
34
102
{ACAD_REACTORS
330
2A
102
}
330
2A
100
AcDbVisualStyle
  2
Conceptual
 70
     9
 71
     3
 72
     2
 73
     0
 90
        0
 40
-0.6
 41
-30.0
 62
     5
 63
     7
421
 16777215
 74
     2
 91
        2
 64
     7
 65
   257
 75
     1
175
     1
 42
40.0
 92
        8
 66
     7
 43
1.0
 76
     1
 77
     6
 78
     2
 67
     7
 79
     3
170
     0
171
     0
290
     0
174
     0
 93
        1
 44
0.0
173
     0
291
     0
 45
0.0
  0
VISUALSTYLE
  5
35
102
{ACAD_REACTORS
330
2A
102
}
330
2A
100
AcDbVisualStyle
  2
Dim
 70
    11
 71
     2
 72
     2
 73
     0
 90
        0
 40
-0.6
 41
-30.0
 62
     5
 63
     7
421
 16777215
 74
     1
 91
        4
 64
     7
 65
   257
 75
     1
175
     1
 42
1.0
 92
        8
 66
     7
 43
1.0
 76
     1
 77
     6
 78
     2
 67
     7
 79
     5
170
     0
171
     0
290
     0
174
     0
 93
        1
 44
-50.0
173
     0
291
     1
 45
0.0
  0
VISUALSTYLE
  5
39
102
{ACAD_REACTORS
330
2A
102
}
330
2A
100
AcDbVisualStyle
  2
Facepattern
 70
    15
 71
     2
 72
     2
 73
     0
 90
        0
 40
-0.6
 41
-30.0
 62
     5
 63
     7
421
 16777215
 74
     1
 91
        4
 64
     7
 65
   257
 75
     1
175
     1
 42
1.0
 92
        8
 66
     7
 43
1.0
 76
     1
 77
     6
 78
     2
 67
     7
 79
     5
170
     0
171
     0
290
     0
174
     0
 93
        1
 44
0.0
173
     0
291
     1
 45
0.0
  0
VISUALSTYLE
  5
2B
102
{ACAD_REACTORS
330
2A
102
}
330
2A
100
AcDbVisualStyle
  2
Flat
 70
     0
 71
     2
 72
     1
 73
     1
 90
        2
 40
-0.6
 41
30.0
 62
     5
 63
     7
421
 16777215
 74
     0
 91
        4
 64
     7
 65
   257
 75
     1
175
     1
 42
1.0
 92
        8
 66
     7
 43
1.0
 76
     1
 77
     6
 78
     2
 67
     7
 79
     5
170
     0
171
     0
290
     0
174
     0
 93
       13
 44
0.0
173
     0
291
     1
 45
0.0
  0
VISUALSTYLE
  5
2C
102
{ACAD_REACTORS
330
2A
102
}
330
2A
100
AcDbVisualStyle
  2
FlatWithEdges
 70
     1
 71
     2
 72
     1
 73
     1
 90
        2
 40
-0.6
 41
30.0
 62
     5
 63
     7
421
 16777215
 74
     1
 91
        4
 64
     7
 65
   257
 75
     1
175
     1
 42
1.0
 92
        0
 66
   257
 43
1.0
 76
     1
 77
     6
 78
     2
 67
     7
 79
     5
170
     0
171
     0
290
     0
174
     0
 93
       13
 44
0.0
173
     0
291
     1
 45
0.0
  0
VISUALSTYLE
  5
2D
102
{ACAD_REACTORS
330
2A
102
}
330
2A
100
AcDbVisualStyle
  2
Gouraud
 70
     2
 71
     2
 72
     2
 73
     1
 90
        2
 40
-0.6
 41
30.0
 62
     5
 63
     7
421
 16777215
 74
     0
 91
        4
 64
     7
 65
   257
 75
     1
175
     1
 42
1.0
 92
        0
 66
     7
 43
1.0
 76
     1
 77
     6
 78
     2
 67
     7
 79
     5
170
     0
171
     0
290
     0
174
     0
 93
       13
 44
0.0
173
     0
291
     1
 45
0.0
  0
VISUALSTYLE
  5
2E
102
{ACAD_REACTORS
330
2A
102
}
330
2A
100
AcDbVisualStyle
  2
GouraudWithEdges
 70
     3
 71
     2
 72
     2
 73
     1
 90
        2
 40
-0.6
 41
30.0
 62
     5
 63
     7
421
 16777215
 74
     1
 91
        4
 64
     7
 65
   257
 75
     1
175
     1
 42
1.0
 92
        0
 66
   257
 43
1.0
 76
     1
 77
     6
 78
     2
 67
     7
 79
     5
170
     0
171
     0
290
     0
174
     0
 93
       13
 44
0.0
173
     0
291
     1
 45
0.0
  0
VISUALSTYLE
  5
38
102
{ACAD_REACTORS
330
2A
102
}
330
2A
100
AcDbVisualStyle
  2
Linepattern
 70
    14
 71
     2
 72
     2
 73
     0
 90
        0
 40
-0.6
 41
-30.0
 62
     5
 63
     7
421
 16777215
 74
     1
 91
        4
 64
     7
 65
   257
 75
     7
175
     7
 42
1.0
 92
        8
 66
     7
 43
1.0
 76
     1
 77
     6
 78
     2
 67
     7
 79
     5
170
     0
171
     0
290
     0
174
     0
 93
        1
 44
0.0
173
     0
291
     1
 45
0.0
  0
VISUALSTYLE
  5
33
102
{ACAD_REACTORS
330
2A
102
}
330
2A
100
AcDbVisualStyle
  2
Realistic
 70
     8
 71
     2
 72
     2
 73
     0
 90
        0
 40
-0.6
 41
-30.0
 62
     5
 63
     7
421
 16777215
 74
     1
 91
        0
 64
     7
 65
   257
 75
     1
175
     1
 42
1.0
 92
        8
 66
     8
424
  7895160
 43
1.0
 76
     1
 77
     6
 78
     2
 67
     7
 79
     5
170
     0
171
     0
290
     0
174
     0
 93
       13
 44
0.0
173
     0
291
     0
 45
0.0
  0
VISUALSTYLE
  5
37
102
{ACAD_REACTORS
330
2A
102
}
330
2A
100
AcDbVisualStyle
  2
Thicken
 70
    13
 71
     2
 72
     2
 73
     0
 90
        0
 40
-0.6
 41
-30.0
 62
     5
 63
     7
421
 16777215
 74
     1
 91
        4
 64
     7
 65
   257
 75
     1
175
     1
 42
1.0
 92
       12
 66
     7
 43
1.0
 76
     1
 77
     6
 78
     2
 67
     7
 79
     5
170
     0
171
     0
290
     0
174
     0
 93
        1
 44
0.0
173
     0
291
     1
 45
0.0
  0
ENDSEC
  0
EOF
