  0
SECTION
  2
HEADER
  9
$ACADVER
  1
AC1021
  9
$ACADMAINTVER
 70
    25
  9
$DWGCODEPAGE
  3
ANSI_1252
  9
$INSBASE
 10
0.0
 20
0.0
 30
0.0
  9
$EXTMIN
 10
0.0
 20
0.0
 30
0.0
  9
$EXTMAX
 10
841.0
 20
594.0
 30
0.0
  9
$LIMMIN
 10
0.0
 20
0.0
  9
$LIMMAX
 10
841.0
 20
594.0
  9
$ORTHOMODE
 70
     0
  9
$REGENMODE
 70
     1
  9
$FILLMODE
 70
     1
  9
$QTEXTMODE
 70
     0
  9
$MIRRTEXT
 70
     1
  9
$LTSCALE
 40
1.0
  9
$ATTMODE
 70
     1
  9
$TEXTSIZE
 40
3.5
  9
$TRACEWID
 40
1.0
  9
$TEXTSTYLE
  7
STANDARD
  9
$CLAYER
  8
0
  9
$CELTYPE
  6
ByLayer
  9
$CECOLOR
 62
   256
  9
$CELTSCALE
 40
1.0
  9
$DISPSILH
 70
     0
  9
$DIMSCALE
 40
1.0
  9
$DIMASZ
 40
3.302
  9
$DIMEXO
 40
1.0
  9
$DIMDLI
 40
3.75
  9
$DIMRND
 40
0.0
  9
$DIMDLE
 40
0.0
  9
$DIMEXE
 40
1.0
  9
$DIMTP
 40
0.0
  9
$DIMTM
 40
0.0
  9
$DIMTXT
 40
3.5
  9
$DIMCEN
 40
2.5
  9
$DIMTSZ
 40
0.0
  9
$DIMTOL
 70
     0
  9
$DIMLIM
 70
     0
  9
$DIMTIH
 70
     1
  9
$DIMTOH
 70
     1
  9
$DIMSE1
 70
     0
  9
$DIMSE2
 70
     0
  9
$DIMTAD
 70
     1
  9
$DIMZIN
 70
     0
  9
$DIMBLK
  1

  9
$DIMASO
 70
     1
  9
$DIMSHO
 70
     1
  9
$DIMPOST
  1

  9
$DIMAPOST
  1

  9
$DIMALT
 70
     0
  9
$DIMALTD
 70
     3
  9
$DIMALTF
 40
0.0393700787
  9
$DIMLFAC
 40
1.0
  9
$DIMTOFL
 70
     1
  9
$DIMTVP
 40
0.0
  9
$DIMTIX
 70
     0
  9
$DIMSOXD
 70
     0
  9
$DIMSAH
 70
     0
  9
$DIMBLK1
  1

  9
$DIMBLK2
  1

  9
$DIMSTYLE
  2
ISO-25
  9
$DIMCLRD
 70
     0
  9
$DIMCLRE
 70
     0
  9
$DIMCLRT
 70
     0
  9
$DIMTFAC
 40
1.0
  9
$DIMGAP
 40
1.524
  9
$DIMJUST
 70
     0
  9
$DIMSD1
 70
     0
  9
$DIMSD2
 70
     0
  9
$DIMTOLJ
 70
     0
  9
$DIMTZIN
 70
     0
  9
$DIMALTZ
 70
     0
  9
$DIMALTTZ
 70
     0
  9
$DIMUPT
 70
     0
  9
$DIMDEC
 70
     1
  9
$DIMTDEC
 70
     1
  9
$DIMALTU
 70
     2
  9
$DIMALTTD
 70
     3
  9
$DIMTXSTY
  7
STANDARD
  9
$DIMAUNIT
 70
     0
  9
$DIMADEC
 70
     1
  9
$DIMALTRND
 40
0.0
  9
$DIMAZIN
 70
     0
  9
$DIMDSEP
 70
    44
  9
$DIMATFIT
 70
     3
  9
$DIMFRAC
 70
     0
  9
$DIMLDRBLK
  1

  9
$DIMLUNIT
 70
     2
  9
$DIMLWD
 70
    -2
  9
$DIMLWE
 70
    -2
  9
$DIMTMOVE
 70
     0
  9
$DIMFXL
 40
1.0
  9
$DIMFXLON
 70
     0
  9
$DIMJOGANG
 40
0.7853981634
  9
$DIMTFILL
 70
     0
  9
$DIMTFILLCLR
 70
     0
  9
$DIMARCSYM
 70
     0
  9
$DIMLTYPE
  6

  9
$DIMLTEX1
  6

  9
$DIMLTEX2
  6

  9
$LUNITS
 70
     2
  9
$LUPREC
 70
     1
  9
$SKETCHINC
 40
1.0
  9
$FILLETRAD
 40
10.0
  9
$AUNITS
 70
     0
  9
$AUPREC
 70
     1
  9
$MENU
  1
.
  9
$ELEVATION
 40
0.0
  9
$PELEVATION
 40
0.0
  9
$THICKNESS
 40
0.0
  9
$LIMCHECK
 70
     0
  9
$CHAMFERA
 40
10.0
  9
$CHAMFERB
 40
10.0
  9
$CHAMFERC
 40
20.0
  9
$CHAMFERD
 40
0.0
  9
$SKPOLY
 70
     0
  9
$TDCREATE
 40
2455701.340237083
  9
$TDUCREATE
 40
2455701.298570417
  9
$TDUPDATE
 40
2455701.340237095
  9
$TDUUPDATE
 40
2455701.298570428
  9
$TDINDWG
 40
0.0000000116
  9
$TDUSRTIMER
 40
0.0000000116
  9
$USRTIMER
 70
     1
  9
$ANGBASE
 50
0.0
  9
$ANGDIR
 70
     0
  9
$PDMODE
 70
     0
  9
$PDSIZE
 40
-1.0
  9
$PLINEWID
 40
0.0
  9
$SPLFRAME
 70
     0
  9
$SPLINETYPE
 70
     6
  9
$SPLINESEGS
 70
     8
  9
$HANDSEED
  5
280
  9
$SURFTAB1
 70
     6
  9
$SURFTAB2
 70
     6
  9
$SURFTYPE
 70
     6
  9
$SURFU
 70
     6
  9
$SURFV
 70
     6
  9
$UCSBASE
  2

  9
$UCSNAME
  2

  9
$UCSORG
 10
0.0
 20
0.0
 30
0.0
  9
$UCSXDIR
 10
1.0
 20
0.0
 30
0.0
  9
$UCSYDIR
 10
0.0
 20
1.0
 30
0.0
  9
$UCSORTHOREF
  2

  9
$UCSORTHOVIEW
 70
     0
  9
$UCSORGTOP
 10
0.0
 20
0.0
 30
0.0
  9
$UCSORGBOTTOM
 10
0.0
 20
0.0
 30
0.0
  9
$UCSORGLEFT
 10
0.0
 20
0.0
 30
0.0
  9
$UCSORGRIGHT
 10
0.0
 20
0.0
 30
0.0
  9
$UCSORGFRONT
 10
0.0
 20
0.0
 30
0.0
  9
$UCSORGBACK
 10
0.0
 20
0.0
 30
0.0
  9
$PUCSBASE
  2

  9
$PUCSNAME
  2

  9
$PUCSORG
 10
0.0
 20
0.0
 30
0.0
  9
$PUCSXDIR
 10
1.0
 20
0.0
 30
0.0
  9
$PUCSYDIR
 10
0.0
 20
1.0
 30
0.0
  9
$PUCSORTHOREF
  2

  9
$PUCSORTHOVIEW
 70
     0
  9
$PUCSORGTOP
 10
0.0
 20
0.0
 30
0.0
  9
$PUCSORGBOTTOM
 10
0.0
 20
0.0
 30
0.0
  9
$PUCSORGLEFT
 10
0.0
 20
0.0
 30
0.0
  9
$PUCSORGRIGHT
 10
0.0
 20
0.0
 30
0.0
  9
$PUCSORGFRONT
 10
0.0
 20
0.0
 30
0.0
  9
$PUCSORGBACK
 10
0.0
 20
0.0
 30
0.0
  9
$USERI1
 70
     0
  9
$USERI2
 70
     0
  9
$USERI3
 70
     0
  9
$USERI4
 70
     0
  9
$USERI5
 70
     0
  9
$USERR1
 40
0.0
  9
$USERR2
 40
0.0
  9
$USERR3
 40
0.0
  9
$USERR4
 40
0.0
  9
$USERR5
 40
0.0
  9
$WORLDVIEW
 70
     1
  9
$SHADEDGE
 70
     3
  9
$SHADEDIF
 70
    70
  9
$TILEMODE
 70
     1
  9
$MAXACTVP
 70
    64
  9
$PINSBASE
 10
0.0
 20
0.0
 30
0.0
  9
$PLIMCHECK
 70
     0
  9
$PEXTMIN
 10
1.0000000000E+20
 20
1.0000000000E+20
 30
1.0000000000E+20
  9
$PEXTMAX
 10
-1.0000000000E+20
 20
-1.0000000000E+20
 30
-1.0000000000E+20
  9
$PLIMMIN
 10
0.0
 20
0.0
  9
$PLIMMAX
 10
420.0
 20
297.0
  9
$UNITMODE
 70
     0
  9
$VISRETAIN
 70
     1
  9
$PLINEGEN
 70
     0
  9
$PSLTSCALE
 70
     1
  9
$TREEDEPTH
 70
  3020
  9
$CMLSTYLE
  2
Standard
  9
$CMLJUST
 70
     0
  9
$CMLSCALE
 40
20.0
  9
$PROXYGRAPHICS
 70
     1
  9
$MEASUREMENT
 70
     1
  9
$CELWEIGHT
370
    -1
  9
$ENDCAPS
280
     0
  9
$JOINSTYLE
280
     0
  9
$LWDISPLAY
290
     1
  9
$INSUNITS
 70
     4
  9
$HYPERLINKBASE
  1

  9
$STYLESHEET
  1

  9
$XEDIT
290
     1
  9
$CEPSNTYPE
380
     0
  9
$PSTYLEMODE
290
     1
  9
$FINGERPRINTGUID
  2
{77F37A41-27E0-4D7D-A336-3AD06CD7950F}
  9
$VERSIONGUID
  2
{FAEB1C32-E019-11D5-929B-00C0DF256EC4}
  9
$EXTNAMES
290
     1
  9
$PSVPSCALE
 40
0.0
  9
$OLESTARTUP
290
     0
  9
$SORTENTS
280
   127
  9
$INDEXCTL
280
     0
  9
$HIDETEXT
280
     1
  9
$XCLIPFRAME
290
     0
  9
$HALOGAP
280
     0
  9
$OBSCOLOR
 70
   257
  9
$OBSLTYPE
280
     0
  9
$INTERSECTIONDISPLAY
280
     0
  9
$INTERSECTIONCOLOR
 70
   257
  9
$DIMASSOC
280
     2
  9
$PROJECTNAME
  1

  9
$CAMERADISPLAY
290
     0
  9
$LENSLENGTH
 40
50.0
  9
$CAMERAHEIGHT
 40
0.0
  9
$STEPSPERSEC
 40
2.0
  9
$STEPSIZE
 40
6.0
  9
$3DDWFPREC
 40
2.0
  9
$PSOLWIDTH
 40
5.0
  9
$PSOLHEIGHT
 40
80.0
  9
$LOFTANG1
 40
1.5707963268
  9
$LOFTANG2
 40
1.5707963268
  9
$LOFTMAG1
 40
0.0
  9
$LOFTMAG2
 40
0.0
  9
$LOFTPARAM
 70
     7
  9
$LOFTNORMALS
280
     1
  9
$LATITUDE
 40
37.795
  9
$LONGITUDE
 40
-122.394
  9
$NORTHDIRECTION
 40
0.0
  9
$TIMEZONE
 70
 -8000
  9
$LIGHTGLYPHDISPLAY
280
     1
  9
$TILEMODELIGHTSYNCH
280
     1
  9
$SOLIDHIST
280
     1
  9
$SHOWHIST
280
     1
  9
$DWFFRAME
280
     2
  9
$DGNFRAME
280
     2
  9
$REALWORLDSCALE
290
     1
  9
$INTERFERECOLOR
 62
   256
  9
$CSHADOW
280
     0
  9
$SHADOWPLANELOCATION
 40
0.0
  0
ENDSEC
  0
SECTION
  2
CLASSES
  0
CLASS
  1
ACDBDICTIONARYWDFLT
  2
AcDbDictionaryWithDefault
  3
ObjectDBX Classes
 90
        0
 91
        4
280
     0
281
     0
  0
CLASS
  1
VISUALSTYLE
  2
AcDbVisualStyle
  3
ObjectDBX Classes
 90
     4095
 91
        4
280
     0
281
     0
  0
CLASS
  1
MATERIAL
  2
AcDbMaterial
  3
ObjectDBX Classes
 90
     1153
 91
        4
280
     0
281
     0
  0
ENDSEC
  0
SECTION
  2
TABLES
  0
TABLE
  2
VPORT
  5
8
330
0
100
AcDbSymbolTable
 70
     1
  0
VPORT
  5
29
330
8
100
AcDbSymbolTableRecord
100
AcDbViewportTableRecord
  2
*Active
 70
     0
 10
0.0
 20
0.0
 11
1.0
 21
1.0
 12
420.5
 22
297.0
 13
0.0
 23
0.0
 14
10.0
 24
10.0
 15
10.0
 25
10.0
 16
0.0
 26
0.0
 36
1.0
 17
0.0
 27
0.0
 37
0.0
 40
594.0
 41
1.4158249158
 42
50.0
 43
0.0
 44
0.0
 50
0.0
 51
0.0
 71
     0
 72
  2000
 73
     1
 74
     3
 75
     0
 76
     0
 77
     0
 78
     0
281
     0
 65
     1
110
0.0
120
0.0
130
0.0
111
1.0
121
0.0
131
0.0
112
0.0
122
1.0
132
0.0
 79
     0
146
0.0
 60
     3
 61
     5
292
     1
282
     1
141
0.0
142
0.0
 63
   250
  0
ENDTAB
  0
TABLE
  2
LTYPE
  5
5
330
0
100
AcDbSymbolTable
 70
     8
  0
LTYPE
  5
14
330
5
100
AcDbSymbolTableRecord
100
AcDbLinetypeTableRecord
  2
ByBlock
 70
     0
  3

 72
    65
 73
     0
 40
0.0
  0
LTYPE
  5
15
330
5
100
AcDbSymbolTableRecord
100
AcDbLinetypeTableRecord
  2
ByLayer
 70
     0
  3

 72
    65
 73
     0
 40
0.0
  0
LTYPE
  5
16
330
5
100
AcDbSymbolTableRecord
100
AcDbLinetypeTableRecord
  2
Continuous
 70
     0
  3
Solid line
 72
    65
 73
     0
 40
0.0
  0
LTYPE
  5
3F
330
5
100
AcDbSymbolTableRecord
100
AcDbLinetypeTableRecord
  2
SLD-Solid
 70
     0
  3
SolidWorks Line Style
 72
    65
 73
     0
 40
0.0
  0
LTYPE
  5
40
330
5
100
AcDbSymbolTableRecord
100
AcDbLinetypeTableRecord
  2
SLD-Dashed
 70
     0
  3
SolidWorks Line Style
 72
    65
 73
     2
 40
1.905
 49
1.27
 74
     0
 49
-0.635
 74
     0
  0
LTYPE
  5
41
330
5
100
AcDbSymbolTableRecord
100
AcDbLinetypeTableRecord
  2
SLD-Phantom
 70
     0
  3
SolidWorks Line Style
 72
    65
 73
     6
 40
12.7
 49
6.35
 74
     0
 49
-1.27
 74
     0
 49
1.27
 74
     0
 49
-1.27
 74
     0
 49
1.27
 74
     0
 49
-1.27
 74
     0
  0
LTYPE
  5
42
330
5
100
AcDbSymbolTableRecord
100
AcDbLinetypeTableRecord
  2
SLD-Chain
 70
     0
  3
SolidWorks Line Style
 72
    65
 73
     4
 40
10.16
 49
6.35
 74
     0
 49
-1.27
 74
     0
 49
1.27
 74
     0
 49
-1.27
 74
     0
  0
LTYPE
  5
43
330
5
100
AcDbSymbolTableRecord
100
AcDbLinetypeTableRecord
  2
SLD-Center
 70
     0
  3
SolidWorks Line Style
 72
    65
 73
     4
 40
19.05
 49
15.24
 74
     0
 49
-1.27
 74
     0
 49
1.27
 74
     0
 49
-1.27
 74
     0
  0
LTYPE
  5
44
330
5
100
AcDbSymbolTableRecord
100
AcDbLinetypeTableRecord
  2
SLD-Stitch
 70
     0
  3
SolidWorks Line Style
 72
    65
 73
     2
 40
0.635
 49
0.0
 74
     0
 49
-0.635
 74
     0
  0
LTYPE
  5
45
330
5
100
AcDbSymbolTableRecord
100
AcDbLinetypeTableRecord
  2
SLD-Thin-Thick-Chain
 70
     0
  3
SolidWorks Line Style
 72
    65
 73
     4
 40
10.16
 49
6.35
 74
     0
 49
-1.27
 74
     0
 49
1.27
 74
     0
 49
-1.27
 74
     0
  0
ENDTAB
  0
TABLE
  2
LAYER
  5
2
330
0
100
AcDbSymbolTable
 70
     1
  0
LAYER
  5
10
330
2
100
AcDbSymbolTableRecord
100
AcDbLayerTableRecord
  2
0
 70
     0
 62
     7
  6
Continuous
370
    -3
390
F
347
3E
  0
ENDTAB
  0
TABLE
  2
STYLE
  5
3
330
0
100
AcDbSymbolTable
 70
     1
  0
STYLE
  5
11
330
3
100
AcDbSymbolTableRecord
100
AcDbTextStyleTableRecord
  2
STANDARD
 70
     0
 40
0.0
 41
1.0
 50
0.0
 71
     0
 42
2.5
  3
GOTHIC.TTF
  4

1001
ACAD
1000
CENTURY GOTHIC
1071
       34
  0
ENDTAB
  0
TABLE
  2
VIEW
  5
6
330
0
100
AcDbSymbolTable
 70
     0
  0
ENDTAB
  0
TABLE
  2
UCS
  5
7
330
0
100
AcDbSymbolTable
 70
     0
  0
ENDTAB
  0
TABLE
  2
APPID
  5
9
330
0
100
AcDbSymbolTable
 70
     1
  0
APPID
  5
12
330
9
100
AcDbSymbolTableRecord
100
AcDbRegAppTableRecord
  2
ACAD
 70
     0
  0
ENDTAB
  0
TABLE
  2
DIMSTYLE
  5
A
330
0
100
AcDbSymbolTable
 70
     1
100
AcDbDimStyleTable
  0
DIMSTYLE
105
27
330
A
100
AcDbSymbolTableRecord
100
AcDbDimStyleTableRecord
  2
ISO-25
 70
     0
 41
2.5
 42
0.625
 43
3.75
 44
1.25
 73
     0
 74
     0
 77
     1
 78
     8
140
2.5
141
2.5
143
0.0393700787
147
0.625
171
     3
172
     1
271
     2
272
     2
274
     3
278
    44
283
     0
284
     8
340
11
  0
ENDTAB
  0
TABLE
  2
BLOCK_RECORD
  5
1
330
0
100
AcDbSymbolTable
 70
     1
  0
BLOCK_RECORD
  5
1F
330
1
100
AcDbSymbolTableRecord
100
AcDbBlockTableRecord
  2
*Model_Space
340
22
 70
     0
280
     1
281
     0
  0
BLOCK_RECORD
  5
1B
330
1
100
AcDbSymbolTableRecord
100
AcDbBlockTableRecord
  2
*Paper_Space
340
1E
 70
     0
280
     1
281
     0
  0
BLOCK_RECORD
  5
23
330
1
100
AcDbSymbolTableRecord
100
AcDbBlockTableRecord
  2
*Paper_Space0
340
26
 70
     0
280
     1
281
     0
  0
ENDTAB
  0
ENDSEC
  0
SECTION
  2
BLOCKS
  0
BLOCK
  5
20
330
1F
100
AcDbEntity
  8
0
100
AcDbBlockBegin
  2
*Model_Space
 70
     0
 10
0.0
 20
0.0
 30
0.0
  3
*Model_Space
  1

  0
ENDBLK
  5
21
330
1F
100
AcDbEntity
  8
0
100
AcDbBlockEnd
  0
BLOCK
  5
1C
330
1B
100
AcDbEntity
 67
     1
  8
0
100
AcDbBlockBegin
  2
*Paper_Space
 70
     0
 10
0.0
 20
0.0
 30
0.0
  3
*Paper_Space
  1

  0
ENDBLK
  5
1D
330
1B
100
AcDbEntity
 67
     1
  8
0
100
AcDbBlockEnd
  0
BLOCK
  5
24
330
23
100
AcDbEntity
  8
0
100
AcDbBlockBegin
  2
*Paper_Space0
 70
     0
 10
0.0
 20
0.0
 30
0.0
  3
*Paper_Space0
  1

  0
ENDBLK
  5
25
330
23
100
AcDbEntity
  8
0
100
AcDbBlockEnd
  0
ENDSEC
  0
SECTION
  2
ENTITIES
  0
LINE
  5
46
330
1F
100
AcDbEntity
  8
0
  6
SLD-Solid
 62
     7
370
    15
100
AcDbLine
 10
103.8239792
 20
-104.4712498837
 30
0.0
 11
703.8239792
 21
-104.4712498837
 31
0.0
  0
LINE
  5
47
330
1F
100
AcDbEntity
  8
0
  6
SLD-Solid
 62
     7
370
    15
100
AcDbLine
 10
489.0294511128
 20
-85.8129351468
 30
0.0
 11
489.0132204963
 21
-86.6972621566
 31
0.0
  0
ARC
  5
48
330
1F
100
AcDbEntity
  8
0
  6
SLD-Solid
 62
     7
370
    15
100
AcDbCircle
 10
489.9087824604
 20
-85.9240127298
 30
0.0
 40
1.000000000000005
100
AcDbArc
 50
320.2453421196
 51
352.9728344126
  0
SPLINE
  5
49
330
1F
100
AcDbEntity
  8
0
  6
SLD-Solid
 62
     7
370
    15
100
AcDbSpline
210
0.0
220
0.0
230
1.0
 70
     8
 71
     3
 72
    11
 73
     7
 74
     0
 42
0.00000001
 43
0.00000001
 40
0.0
 40
0.0
 40
0.0
 40
0.0
 40
0.2706728893345775
 40
0.5972761992793671
 40
0.9114942371263255
 40
1.0
 40
1.0
 40
1.0
 40
1.0
 10
488.9694322290783
 20
-90.46864491266732
 30
0.0
 10
488.9987687159697
 20
-90.12669598258893
 30
0.0
 10
489.0635036269311
 20
-89.37213959607033
 30
0.0
 10
489.5426618120938
 20
-88.1909444302883
 30
0.0
 10
490.1442543571512
 20
-87.22204588643434
 30
0.0
 10
490.5814833993093
 20
-86.68216313088323
 30
0.0
 10
490.6775723065393
 20
-86.56351423291176
 30
0.0
  0
SPLINE
  5
4A
330
1F
100
AcDbEntity
  8
0
  6
SLD-Solid
 62
     7
370
    15
100
AcDbSpline
210
0.0
220
0.0
230
1.0
 70
     8
 71
     3
 72
    12
 73
     8
 74
     0
 42
0.00000001
 43
0.00000001
 40
0.0
 40
0.0
 40
0.0
 40
0.0
 40
0.1457385529867522
 40
0.4224065763362418
 40
0.7025645190516827
 40
0.9915723830907888
 40
1.0
 40
1.0
 40
1.0
 40
1.0
 10
467.87038609346
 20
-86.5635142329117
 30
0.0
 10
468.0393346539047
 20
-86.77682388720831
 30
0.0
 10
468.5290127900729
 20
-87.39507759512783
 30
0.0
 10
469.1164904083396
 20
-88.40977105970899
 30
0.0
 10
469.5053147296778
 20
-89.6023602776409
 30
0.0
 10
469.6616280665326
 20
-90.39574694745839
 30
0.0
 10
469.6046330027433
 20
-90.80784795181506
 30
0.0
 10
469.6030180892777
 20
-90.81952453250258
 30
0.0
  0
SPLINE
  5
4B
330
1F
100
AcDbEntity
  8
0
  6
SLD-Solid
 62
     7
370
    15
100
AcDbSpline
210
0.0
220
0.0
230
1.0
 70
     8
 71
     3
 72
    11
 73
     7
 74
     0
 42
0.00000001
 43
0.00000001
 40
0.0
 40
0.0
 40
0.0
 40
0.0
 40
0.0925535171470872
 40
0.4249799083406468
 40
0.757903242792857
 40
1.0
 40
1.0
 40
1.0
 40
1.0
 10
483.2672980847886
 20
-97.42053306359865
 30
0.0
 10
483.4944911830589
 20
-97.40855571317609
 30
0.0
 10
484.5376984544271
 20
-97.35355906430037
 30
0.0
 10
486.3280175581409
 20
-97.15687149066177
 30
0.0
 10
488.39367314307
 20
-96.86686824972534
 30
0.0
 10
489.6052349235222
 20
-96.62544153185598
 30
0.0
 10
490.1153304531534
 20
-96.52379530010319
 30
0.0
  0
SPLINE
  5
4C
330
1F
100
AcDbEntity
  8
0
  6
SLD-Solid
 62
     7
370
    15
100
AcDbSpline
210
0.0
220
0.0
230
1.0
 70
     8
 71
     3
 72
    10
 73
     6
 74
     0
 42
0.00000001
 43
0.00000001
 40
0.0
 40
0.0
 40
0.0
 40
0.0
 40
0.250235500643623
 40
0.7279697107284451
 40
1.0
 40
1.0
 40
1.0
 40
1.0
 10
468.4326279468459
 20
-96.52379530010319
 30
0.0
 10
468.7999104108749
 20
-96.59758465401968
 30
0.0
 10
469.8683859405547
 20
-96.81224809900368
 30
0.0
 10
471.4272113048285
 20
-97.06275753703892
 30
0.0
 10
472.6692238142528
 20
-97.18858191139506
 30
0.0
 10
473.1198520081825
 20
-97.23423363401318
 30
0.0
  0
LINE
  5
4D
330
1F
100
AcDbEntity
  8
0
  6
SLD-Solid
 62
     7
370
    15
100
AcDbLine
 10
467.5317317384
 20
-95.1548365432
 30
0.0
 11
467.6211126357
 21
-95.6954934847
 31
0.0
  0
SPLINE
  5
4E
330
1F
100
AcDbEntity
  8
0
  6
SLD-Solid
 62
     7
370
    15
100
AcDbSpline
210
0.0
220
0.0
230
1.0
 70
     8
 71
     3
 72
     9
 73
     5
 74
     0
 42
0.00000001
 43
0.00000001
 40
0.0
 40
0.0
 40
0.0
 40
0.0
 40
0.6708544758619026
 40
1.0
 40
1.0
 40
1.0
 40
1.0
 10
465.7541619639712
 20
-85.63041044321379
 30
0.0
 10
466.1999831915193
 20
-87.78053789142947
 30
0.0
 10
466.8645404741927
 20
-90.98559580723642
 30
0.0
 10
467.3665105384722
 20
-94.12237854490263
 30
0.0
 10
467.5317317383812
 20
-95.15483654319911
 30
0.0
  0
SPLINE
  5
4F
330
1F
100
AcDbEntity
  8
0
  6
SLD-Solid
 62
     7
370
    15
100
AcDbSpline
210
0.0
220
0.0
230
1.0
 70
     8
 71
     3
 72
    12
 73
     8
 74
     0
 42
0.00000001
 43
0.00000001
 40
0.0
 40
0.0
 40
0.0
 40
0.0
 40
0.1457385529867571
 40
0.4224065763361758
 40
0.7025645190515988
 40
0.9915723830907446
 40
1.0
 40
1.0
 40
1.0
 40
1.0
 10
211.22038609346
 20
-86.56356343819466
 30
0.0
 10
211.3893346539047
 20
-86.77687309249127
 30
0.0
 10
211.8790127900728
 20
-87.39512680041067
 30
0.0
 10
212.4664904083395
 20
-88.40982026499161
 30
0.0
 10
212.8553147296775
 20
-89.60240948292353
 30
0.0
 10
213.0116280665328
 20
-90.39579615274084
 30
0.0
 10
212.9546330027432
 20
-90.80789715709786
 30
0.0
 10
212.9530180892776
 20
-90.81957373778538
 30
0.0
  0
SPLINE
  5
50
330
1F
100
AcDbEntity
  8
0
  6
SLD-Solid
 62
     7
370
    15
100
AcDbSpline
210
0.0
220
0.0
230
1.0
 70
     8
 71
     3
 72
    11
 73
     7
 74
     0
 42
0.00000001
 43
0.00000001
 40
0.0
 40
0.0
 40
0.0
 40
0.0
 40
0.2706728893346213
 40
0.5972761992794298
 40
0.9114942371263675
 40
0.9999999999999999
 40
0.9999999999999999
 40
0.9999999999999999
 40
0.9999999999999999
 10
232.3194322290783
 20
-90.46869411795033
 30
0.0
 10
232.3487687159698
 20
-90.12674518787189
 30
0.0
 10
232.4135036269311
 20
-89.37218880135312
 30
0.0
 10
232.8926618120938
 20
-88.19099363557109
 30
0.0
 10
233.4942543571514
 20
-87.2220950917172
 30
0.0
 10
233.9314833993094
 20
-86.68221233616607
 30
0.0
 10
234.0275723065392
 20
-86.56356343819466
 30
0.0
  0
SPLINE
  5
51
330
1F
100
AcDbEntity
  8
0
  6
SLD-Solid
 62
     7
370
    15
100
AcDbSpline
210
0.0
220
0.0
230
1.0
 70
     8
 71
     3
 72
    11
 73
     7
 74
     0
 42
0.00000001
 43
0.00000001
 40
0.0
 40
0.0
 40
0.0
 40
0.0
 40
0.0925535171471538
 40
0.4249799083406907
 40
0.7579032427929954
 40
1.0
 40
1.0
 40
1.0
 40
1.0
 10
226.6172980847885
 20
-97.42058226888156
 30
0.0
 10
226.844491183059
 20
-97.40860491845899
 30
0.0
 10
227.8876984544274
 20
-97.35360826958322
 30
0.0
 10
229.6780175581414
 20
-97.15692069594462
 30
0.0
 10
231.7436731430704
 20
-96.86691745500819
 30
0.0
 10
232.9552349235224
 20
-96.62549073713889
 30
0.0
 10
233.4653304531533
 20
-96.5238445053861
 30
0.0
  0
SPLINE
  5
52
330
1F
100
AcDbEntity
  8
0
  6
SLD-Solid
 62
     7
370
    15
100
AcDbSpline
210
0.0
220
0.0
230
1.0
 70
     8
 71
     3
 72
    12
 73
     8
 74
     0
 42
0.00000001
 43
0.00000001
 40
0.0
 40
0.0
 40
0.0
 40
0.0
 40
0.1036834819917303
 40
0.3447565350564644
 40
0.5855730551620253
 40
0.8263052096576804
 40
1.0
 40
1.0
 40
1.0
 40
1.0
 10
216.4698520081825
 20
-97.23428283929609
 30
0.0
 10
216.8046145764238
 20
-97.27244298338722
 30
0.0
 10
217.9177290366683
 20
-97.39932875922524
 30
0.0
 10
219.9058906086406
 20
-97.51456171164824
 30
0.0
 10
222.3789117717395
 20
-97.57565053987128
 30
0.0
 10
224.6377892022303
 20
-97.54742489233948
 30
0.0
 10
226.0326735763417
 20
-97.45804373573452
 30
0.0
 10
226.6172980847885
 20
-97.42058226888156
 30
0.0
  0
SPLINE
  5
53
330
1F
100
AcDbEntity
  8
0
  6
SLD-Solid
 62
     7
370
    15
100
AcDbSpline
210
0.0
220
0.0
230
1.0
 70
     8
 71
     3
 72
    10
 73
     6
 74
     0
 42
0.00000001
 43
0.00000001
 40
0.0
 40
0.0
 40
0.0
 40
0.0
 40
0.2502355006436244
 40
0.7279697107284465
 40
1.0
 40
1.0
 40
1.0
 40
1.0
 10
211.7826279468458
 20
-96.5238445053861
 30
0.0
 10
212.149910410875
 20
-96.59763385930265
 30
0.0
 10
213.2183859405547
 20
-96.81229730428664
 30
0.0
 10
214.7772113048283
 20
-97.06280674232187
 30
0.0
 10
216.0192238142528
 20
-97.18863111667797
 30
0.0
 10
216.4698520081825
 20
-97.23428283929609
 30
0.0
  0
SPLINE
  5
54
330
1F
100
AcDbEntity
  8
0
  6
SLD-Solid
 62
     7
370
    15
100
AcDbSpline
210
0.0
220
0.0
230
1.0
 70
     8
 71
     3
 72
     9
 73
     5
 74
     0
 42
0.00000001
 43
0.00000001
 40
0.0
 40
0.0
 40
0.0
 40
0.0
 40
0.675197237788694
 40
0.9999999999999999
 40
0.9999999999999999
 40
0.9999999999999999
 40
0.9999999999999999
 10
234.2464435226064
 20
-95.70861634369498
 30
0.0
 10
234.6281736225239
 20
-93.45765344602074
 30
0.0
 10
235.1935344956927
 20
-90.12386774356995
 30
0.0
 10
235.9164635978493
 20
-86.73207431701047
 30
0.0
 10
236.1512729671127
 20
-85.63041044321379
 30
0.0
  0
LINE
  5
55
330
1F
100
AcDbEntity
  8
0
  6
SLD-Solid
 62
     7
370
    15
100
AcDbLine
 10
210.8817317384
 20
-95.1548857485
 30
0.0
 11
210.9711126357
 21
-95.69554269
 31
0.0
  0
SPLINE
  5
56
330
1F
100
AcDbEntity
  8
0
  6
SLD-Solid
 62
     7
370
    15
100
AcDbSpline
210
0.0
220
0.0
230
1.0
 70
     8
 71
     3
 72
     9
 73
     5
 74
     0
 42
0.00000001
 43
0.00000001
 40
0.0
 40
0.0
 40
0.0
 40
0.0
 40
0.6708561683058777
 40
1.0
 40
1.0
 40
1.0
 40
1.0
 10
209.1041522734439
 20
-85.63041044321379
 30
0.0
 10
209.5499769796501
 20
-87.78055439753807
 30
0.0
 10
210.2145377711713
 20
-90.98562883212819
 30
0.0
 10
210.7165105082823
 20
-94.12242773750967
 30
0.0
 10
210.881731738381
 20
-95.15488574848091
 30
0.0
  0
LINE
  5
57
330
1F
100
AcDbEntity
  8
0
  6
SLD-Solid
 62
     7
370
    15
100
AcDbLine
 10
328.4789203199
 20
-125.8950871048
 30
0.0
 11
333.1497098045
 21
-104.4712498837
 31
0.0
  0
ARC
  5
58
330
1F
100
AcDbEntity
  8
0
  6
SLD-Solid
 62
     7
370
    15
100
AcDbCircle
 10
48.2416638974
 20
2055.4178406644
 30
0.0
 40
2203.900000016601
100
AcDbArc
 50
272.6943964884
 51
277.1488297193
  0
LINE
  5
59
330
1F
100
AcDbEntity
  8
0
  6
SLD-Solid
 62
     7
370
    15
100
AcDbLine
 10
136.93234649
 20
-104.4712498837
 30
0.0
 11
144.6711151726
 21
-140.5225869173
 31
0.0
  0
ARC
  5
5A
330
1F
100
AcDbEntity
  8
0
  6
SLD-Solid
 62
     7
370
    15
100
AcDbCircle
 10
151.5152072654
 20
-139.0534362587
 30
0.0
 40
7.000000016603469
100
AcDbArc
 50
192.1152418025
 51
270.0
  0
ARC
  5
5B
330
1F
100
AcDbEntity
  8
0
  6
SLD-Solid
 62
     7
370
    15
100
AcDbCircle
 10
151.5152072654
 20
-139.0534362587
 30
0.0
 40
7.000000016603428
100
AcDbArc
 50
270.0
 51
272.6943964884
  0
ARC
  5
5C
330
1F
100
AcDbEntity
  8
0
  6
SLD-Solid
 62
     7
370
    15
100
AcDbCircle
 10
321.6395772004
 20
-124.4039848529
 30
0.0
 40
7.000000016602916
100
AcDbArc
 50
277.1488297193
 51
347.7009253301
  0
LINE
  5
5D
330
1F
100
AcDbEntity
  8
0
  6
SLD-Solid
 62
     7
370
    15
100
AcDbLine
 10
162.2563733282
 20
-117.7155000273
 30
0.0
 11
159.4133667529
 21
-104.4712498837
 31
0.0
  0
LINE
  5
5E
330
1F
100
AcDbEntity
  8
0
  6
SLD-Solid
 62
     7
370
    15
100
AcDbLine
 10
310.6360053918
 20
-104.4712498837
 30
0.0
 11
310.3151555973
 21
-105.9429141051
 31
0.0
  0
SPLINE
  5
5F
330
1F
100
AcDbEntity
  8
0
  6
SLD-Solid
 62
     7
370
    15
100
AcDbSpline
210
0.0
220
0.0
230
1.0
 70
     8
 71
     3
 72
    12
 73
     8
 74
     0
 42
0.00000001
 43
0.00000001
 40
0.0
 40
0.0
 40
0.0
 40
0.0
 40
0.145738552986748
 40
0.4224065763362295
 40
0.7025645190516479
 40
0.9915723830907671
 40
1.0
 40
1.0
 40
1.0
 40
1.0
 10
573.67038609346
 20
-86.5635142329117
 30
0.0
 10
573.8393346539048
 20
-86.77682388720831
 30
0.0
 10
574.329012790073
 20
-87.39507759512783
 30
0.0
 10
574.9164904083397
 20
-88.40977105970899
 30
0.0
 10
575.3053147296777
 20
-89.6023602776409
 30
0.0
 10
575.461628066533
 20
-90.39574694745845
 30
0.0
 10
575.4046330027433
 20
-90.80784795181518
 30
0.0
 10
575.4030180892777
 20
-90.81952453250275
 30
0.0
  0
SPLINE
  5
60
330
1F
100
AcDbEntity
  8
0
  6
SLD-Solid
 62
     7
370
    15
100
AcDbSpline
210
0.0
220
0.0
230
1.0
 70
     8
 71
     3
 72
    11
 73
     7
 74
     0
 42
0.00000001
 43
0.00000001
 40
0.0
 40
0.0
 40
0.0
 40
0.0
 40
0.2706728893345731
 40
0.5972761992794369
 40
0.9114942371264119
 40
1.0
 40
1.0
 40
1.0
 40
1.0
 10
594.7694322290785
 20
-90.46864491266687
 30
0.0
 10
594.7987687159698
 20
-90.12669598258854
 30
0.0
 10
594.8635036269312
 20
-89.37213959606987
 30
0.0
 10
595.3426618120941
 20
-88.19094443028791
 30
0.0
 10
595.9442543571514
 20
-87.22204588643412
 30
0.0
 10
596.3814833993094
 20
-86.68216313088311
 30
0.0
 10
596.4775723065392
 20
-86.56351423291176
 30
0.0
  0
SPLINE
  5
61
330
1F
100
AcDbEntity
  8
0
  6
SLD-Solid
 62
     7
370
    15
100
AcDbSpline
210
0.0
220
0.0
230
1.0
 70
     8
 71
     3
 72
    11
 73
     7
 74
     0
 42
0.00000001
 43
0.00000001
 40
0.0
 40
0.0
 40
0.0
 40
0.0
 40
0.0925535171471043
 40
0.4249799083405574
 40
0.7579032427928922
 40
0.9999999999999999
 40
0.9999999999999999
 40
0.9999999999999999
 40
0.9999999999999999
 10
589.0672980847883
 20
-97.42053306359865
 30
0.0
 10
589.2944911830587
 20
-97.40855571317609
 30
0.0
 10
590.3376984544267
 20
-97.35355906430043
 30
0.0
 10
592.1280175581406
 20
-97.15687149066177
 30
0.0
 10
594.1936731430698
 20
-96.86686824972534
 30
0.0
 10
595.4052349235221
 20
-96.62544153185604
 30
0.0
 10
595.9153304531533
 20
-96.52379530010319
 30
0.0
  0
SPLINE
  5
62
330
1F
100
AcDbEntity
  8
0
  6
SLD-Solid
 62
     7
370
    15
100
AcDbSpline
210
0.0
220
0.0
230
1.0
 70
     8
 71
     3
 72
    12
 73
     8
 74
     0
 42
0.00000001
 43
0.00000001
 40
0.0
 40
0.0
 40
0.0
 40
0.0
 40
0.1036834819916631
 40
0.3447565350565049
 40
0.5855730551620093
 40
0.8263052096576126
 40
1.0
 40
1.0
 40
1.0
 40
1.0
 10
578.9198520081826
 20
-97.23423363401318
 30
0.0
 10
579.2546145764238
 20
-97.27239377810426
 30
0.0
 10
580.3677290366684
 20
-97.39927955394234
 30
0.0
 10
582.3558906086407
 20
-97.51451250636528
 30
0.0
 10
584.8289117717393
 20
-97.57560133458831
 30
0.0
 10
587.0877892022299
 20
-97.54737568705657
 30
0.0
 10
588.4826735763412
 20
-97.45799453045167
 30
0.0
 10
589.0672980847883
 20
-97.42053306359865
 30
0.0
  0
SPLINE
  5
63
330
1F
100
AcDbEntity
  8
0
  6
SLD-Solid
 62
     7
370
    15
100
AcDbSpline
210
0.0
220
0.0
230
1.0
 70
     8
 71
     3
 72
    10
 73
     6
 74
     0
 42
0.00000001
 43
0.00000001
 40
0.0
 40
0.0
 40
0.0
 40
0.0
 40
0.2502355006436183
 40
0.727969710728463
 40
1.0
 40
1.0
 40
1.0
 40
1.0
 10
574.2326279468459
 20
-96.52379530010319
 30
0.0
 10
574.5999104108749
 20
-96.59758465401968
 30
0.0
 10
575.6683859405548
 20
-96.81224809900368
 30
0.0
 10
577.2272113048286
 20
-97.06275753703892
 30
0.0
 10
578.4692238142529
 20
-97.18858191139506
 30
0.0
 10
578.9198520081826
 20
-97.23423363401318
 30
0.0
  0
SPLINE
  5
64
330
1F
100
AcDbEntity
  8
0
  6
SLD-Solid
 62
     7
370
    15
100
AcDbSpline
210
0.0
220
0.0
230
1.0
 70
     8
 71
     3
 72
     9
 73
     5
 74
     0
 42
0.00000001
 43
0.00000001
 40
0.0
 40
0.0
 40
0.0
 40
0.0
 40
0.675200508925803
 40
1.0
 40
1.0
 40
1.0
 40
1.0
 10
596.6964435226065
 20
-95.70856713841214
 30
0.0
 10
597.078173506519
 20
-93.45760428344435
 30
0.0
 10
597.6435314688814
 20
-90.12383479540165
 30
0.0
 10
598.3664568968622
 20
-86.73205786427945
 30
0.0
 10
598.6012627079551
 20
-85.63041044321379
 30
0.0
  0
LINE
  5
65
330
1F
100
AcDbEntity
  8
0
  6
SLD-Solid
 62
     7
370
    15
100
AcDbLine
 10
573.3317317384
 20
-95.1548365432
 30
0.0
 11
573.4211126357
 21
-95.6954934847
 31
0.0
  0
SPLINE
  5
66
330
1F
100
AcDbEntity
  8
0
  6
SLD-Solid
 62
     7
370
    15
100
AcDbSpline
210
0.0
220
0.0
230
1.0
 70
     8
 71
     3
 72
     9
 73
     5
 74
     0
 42
0.00000001
 43
0.00000001
 40
0.0
 40
0.0
 40
0.0
 40
0.0
 40
0.6708544758613547
 40
1.0
 40
1.0
 40
1.0
 40
1.0
 10
571.5541619639713
 20
-85.63041044321379
 30
0.0
 10
571.9999831915189
 20
-87.78053789142743
 30
0.0
 10
572.6645404741922
 20
-90.98559580723398
 30
0.0
 10
573.1665105384718
 20
-94.1223785448998
 30
0.0
 10
573.3317317383809
 20
-95.1548365431979
 30
0.0
  0
LINE
  5
67
330
1F
100
AcDbEntity
  8
0
  6
SLD-Solid
 62
     7
370
    15
100
AcDbLine
 10
657.3239791997
 20
684.9856999706
 30
0.0
 11
657.3239791997
 21
680.7363980553
 31
0.0
  0
LINE
  5
68
330
1F
100
AcDbEntity
  8
0
  6
SLD-Solid
 62
     7
370
    15
100
AcDbLine
 10
682.3239791997
 20
680.7363980553
 30
0.0
 11
682.3239791997
 21
684.9856999706
 31
0.0
  0
LINE
  5
69
330
1F
100
AcDbEntity
  8
0
  6
SLD-Solid
 62
     7
370
    15
100
AcDbLine
 10
105.0239791997
 20
-85.6304104432
 30
0.0
 11
702.6239791997
 21
-85.6304104432
 31
0.0
  0
LINE
  5
6A
330
1F
100
AcDbEntity
  8
0
  6
SLD-Solid
 62
     7
370
    15
100
AcDbLine
 10
702.6239791997
 20
-84.3304104432
 30
0.0
 11
703.8239791997
 21
-84.3304104432
 31
0.0
  0
LINE
  5
6B
330
1F
100
AcDbEntity
  8
0
  6
SLD-Solid
 62
     7
370
    15
100
AcDbLine
 10
103.8239791997
 20
-84.3304104432
 30
0.0
 11
105.0239791997
 21
-84.3304104432
 31
0.0
  0
LINE
  5
6C
330
1F
100
AcDbEntity
  8
0
  6
SLD-Solid
 62
     7
370
    15
100
AcDbLine
 10
318.6847379038
 20
-86.6972868928
 30
0.0
 11
318.6685072872
 21
-85.8129598829
 31
0.0
  0
ARC
  5
6D
330
1F
100
AcDbEntity
  8
0
  6
SLD-Solid
 62
     7
370
    15
100
AcDbCircle
 10
317.7891759396
 20
-85.9240374659
 30
0.0
 40
1.000000000000044
100
AcDbArc
 50
187.0271655874
 51
219.7546578804
  0
SPLINE
  5
6E
330
1F
100
AcDbEntity
  8
0
  6
SLD-Solid
 62
     7
370
    15
100
AcDbSpline
210
0.0
220
0.0
230
1.0
 70
     8
 71
     3
 72
    12
 73
     8
 74
     0
 42
0.00000001
 43
0.00000001
 40
0.0
 40
0.0
 40
0.0
 40
0.0
 40
0.1457385529867522
 40
0.4224065763362418
 40
0.7025645190516827
 40
0.9915723830907888
 40
1.0
 40
1.0
 40
1.0
 40
1.0
 10
317.0203860934887
 20
-86.56353896902135
 30
0.0
 10
317.1893346539335
 20
-86.77684862331792
 30
0.0
 10
317.6790127901018
 20
-87.39510233123748
 30
0.0
 10
318.2664904083683
 20
-88.4097957958187
 30
0.0
 10
318.6553147297068
 20
-89.60238501375039
 30
0.0
 10
318.811628066561
 20
-90.39577168356827
 30
0.0
 10
318.7546330027721
 20
-90.80787268792473
 30
0.0
 10
318.7530180893065
 20
-90.81954926861225
 30
0.0
  0
SPLINE
  5
6F
330
1F
100
AcDbEntity
  8
0
  6
SLD-Solid
 62
     7
370
    15
100
AcDbSpline
210
0.0
220
0.0
230
1.0
 70
     8
 71
     3
 72
    11
 73
     7
 74
     0
 42
0.00000001
 43
0.00000001
 40
0.0
 40
0.0
 40
0.0
 40
0.0
 40
0.2706728893345775
 40
0.5972761992793671
 40
0.9114942371263255
 40
1.0
 40
1.0
 40
1.0
 40
1.0
 10
338.1194322291071
 20
-90.46866964877698
 30
0.0
 10
338.1487687159985
 20
-90.12672071869859
 30
0.0
 10
338.2135036269598
 20
-89.37216433217998
 30
0.0
 10
338.6926618121225
 20
-88.1909691663979
 30
0.0
 10
339.2942543571801
 20
-87.22207062254405
 30
0.0
 10
339.7314833993381
 20
-86.68218786699289
 30
0.0
 10
339.827572306568
 20
-86.56353896902135
 30
0.0
  0
SPLINE
  5
70
330
1F
100
AcDbEntity
  8
0
  6
SLD-Solid
 62
     7
370
    15
100
AcDbSpline
210
0.0
220
0.0
230
1.0
 70
     8
 71
     3
 72
    11
 73
     7
 74
     0
 42
0.00000001
 43
0.00000001
 40
0.0
 40
0.0
 40
0.0
 40
0.0
 40
0.0925535171470373
 40
0.424979908340531
 40
0.7579032427927878
 40
1.0
 40
1.0
 40
1.0
 40
1.0
 10
332.4172980848174
 20
-97.42055779970826
 30
0.0
 10
332.6444911830877
 20
-97.4085804492857
 30
0.0
 10
333.6876984544556
 20
-97.35358380041004
 30
0.0
 10
335.4780175581692
 20
-97.15689622677148
 30
0.0
 10
337.5436731430984
 20
-96.86689298583501
 30
0.0
 10
338.7552349235507
 20
-96.62546626796565
 30
0.0
 10
339.2653304531821
 20
-96.52382003621285
 30
0.0
  0
SPLINE
  5
71
330
1F
100
AcDbEntity
  8
0
  6
SLD-Solid
 62
     7
370
    15
100
AcDbSpline
210
0.0
220
0.0
230
1.0
 70
     8
 71
     3
 72
    10
 73
     6
 74
     0
 42
0.00000001
 43
0.00000001
 40
0.0
 40
0.0
 40
0.0
 40
0.0
 40
0.2502355006436226
 40
0.7279697107284981
 40
1.0
 40
1.0
 40
1.0
 40
1.0
 10
317.5826279468747
 20
-96.52382003621285
 30
0.0
 10
317.9499104109038
 20
-96.59760939012935
 30
0.0
 10
319.0183859405836
 20
-96.81227283511335
 30
0.0
 10
320.5772113048574
 20
-97.06278227314857
 30
0.0
 10
321.8192238142817
 20
-97.18860664750473
 30
0.0
 10
322.2698520082113
 20
-97.23425837012279
 30
0.0
  0
SPLINE
  5
72
330
1F
100
AcDbEntity
  8
0
  6
SLD-Solid
 62
     7
370
    15
100
AcDbSpline
210
0.0
220
0.0
230
1.0
 70
     8
 71
     3
 72
     9
 73
     5
 74
     0
 42
0.00000001
 43
0.00000001
 40
0.0
 40
0.0
 40
0.0
 40
0.0
 40
0.6751988644797746
 40
0.9999999999999999
 40
0.9999999999999999
 40
0.9999999999999999
 40
0.9999999999999999
 10
340.0464435226353
 20
-95.70859187452163
 30
0.0
 10
340.4281735648647
 20
-93.45762899808696
 30
0.0
 10
340.9935329905257
 20
-90.12385135885908
 30
0.0
 10
341.7164602655606
 20
-86.73206613527474
 30
0.0
 10
341.9512678653904
 20
-85.63041044321379
 30
0.0
  0
CIRCLE
  5
73
330
1F
100
AcDbEntity
  8
0
  6
SLD-Solid
 62
     7
370
    15
100
AcDbCircle
 10
281.3739791997
 20
448.8363980552
 30
0.0
 40
91.49999999999996
  0
CIRCLE
  5
74
330
1F
100
AcDbEntity
  8
0
  6
SLD-Solid
 62
     7
370
    15
100
AcDbCircle
 10
281.3739791997
 20
448.8363980552
 30
0.0
 40
27.50000000000003
  0
CIRCLE
  5
75
330
1F
100
AcDbEntity
  8
0
  6
SLD-Solid
 62
     7
370
    15
100
AcDbCircle
 10
281.3739791997
 20
448.8363980552
 30
0.0
 40
93.5
  0
CIRCLE
  5
76
330
1F
100
AcDbEntity
  8
0
  6
SLD-Solid
 62
     7
370
    15
100
AcDbCircle
 10
281.3776939276
 20
448.8390182401
 30
0.0
 40
14.00000000000002
  0
LINE
  5
77
330
1F
100
AcDbEntity
  8
0
  6
SLD-Solid
 62
   142
420
    32960
370
     0
100
AcDbLine
 10
104.6239791997
 20
577.7863980553
 30
0.0
 11
104.6239791997
 21
577.5863980553
 31
0.0
  0
LINE
  5
78
330
1F
100
AcDbEntity
  8
0
  6
SLD-Solid
 62
   142
420
    32960
370
     0
100
AcDbLine
 10
637.5739792044
 20
-90.1473382045
 30
0.0
 11
635.5739792044
 21
-90.1473382045
 31
0.0
  0
ARC
  5
79
330
1F
100
AcDbEntity
  8
0
  6
SLD-Solid
 62
   142
420
    32960
370
     0
100
AcDbCircle
 10
637.6317025979
 20
-88.2049496522
 30
0.0
 40
1.943246067351591
100
AcDbArc
 50
268.2978000298
 51
358.190090174
  0
ARC
  5
7A
330
1F
100
AcDbEntity
  8
0
  6
SLD-Solid
 62
   142
420
    32960
370
     0
100
AcDbCircle
 10
635.5162558108
 20
-88.2049496522
 30
0.0
 40
1.94324606735098
100
AcDbArc
 50
181.809909826
 51
271.7021999702
  0
SPLINE
  5
7B
330
1F
100
AcDbEntity
  8
0
  6
SLD-Solid
 62
   142
420
    32960
370
     0
100
AcDbSpline
210
0.0
220
0.0
230
1.0
 70
    24
 71
     3
 72
     8
 73
     4
 74
     0
 42
0.00000001
 43
0.00000001
 40
0.0
 40
0.0
 40
0.0
 40
0.0
 40
1.0
 40
1.0
 40
1.0
 40
1.0
 10
284.873979199703
 20
690.0364075321183
 30
0.0
 10
284.873979199703
 20
689.9949811818158
 30
0.0
 10
284.873979199703
 20
689.9535882992716
 30
0.0
 10
284.873979199703
 20
689.9123049612614
 30
0.0
  0
SPLINE
  5
7C
330
1F
100
AcDbEntity
  8
0
  6
SLD-Solid
 62
   142
420
    32960
370
     0
100
AcDbSpline
210
0.0
220
0.0
230
1.0
 70
    24
 71
     3
 72
     8
 73
     4
 74
     0
 42
0.00000001
 43
0.00000001
 40
0.0
 40
0.0
 40
0.0
 40
0.0
 40
1.0
 40
1.0
 40
1.0
 40
1.0
 10
689.7739791997029
 20
689.9123049612614
 30
0.0
 10
689.7739791997029
 20
689.9535882992723
 30
0.0
 10
689.7739791997029
 20
689.9949811818171
 30
0.0
 10
689.7739791997029
 20
690.0364075321204
 30
0.0
  0
LINE
  5
7D
330
1F
100
AcDbEntity
  8
0
  6
SLD-Solid
 62
     7
370
    15
100
AcDbLine
 10
691.8239791997
 20
690.0363980553
 30
0.0
 11
691.8239791997
 21
752.9793269874
 31
0.0
  0
LINE
  5
7E
330
1F
100
AcDbEntity
  8
0
  6
SLD-Solid
 62
   142
420
    32960
370
     0
100
AcDbLine
 10
691.8239791997
 20
690.0363980553
 30
0.0
 11
689.7739791997
 21
690.0363980553
 31
0.0
  0
SPLINE
  5
7F
330
1F
100
AcDbEntity
  8
0
  6
SLD-Solid
 62
   142
420
    32960
370
     0
100
AcDbSpline
210
0.0
220
0.0
230
1.0
 70
     8
 71
     3
 72
    14
 73
    10
 74
     0
 42
0.00000001
 43
0.00000001
 40
0.0
 40
0.0
 40
0.0
 40
0.0
 40
0.25
 40
0.25
 40
0.5
 40
0.5
 40
0.75
 40
0.75
 40
1.0
 40
1.0
 40
1.0
 40
1.0
 10
689.7739791997029
 20
752.9863980552585
 30
0.0
 10
690.0423235721971
 20
752.9858087996073
 30
0.0
 10
690.3105623626395
 20
752.9852195439565
 30
0.0
 10
690.8063981094632
 20
752.9840410326544
 30
0.0
 10
691.0337999756515
 20
752.9834517770036
 30
0.0
 10
691.4132962266193
 20
752.9822732657015
 30
0.0
 10
691.5652412958292
 20
752.9816840100505
 30
0.0
 10
691.770623186873
 20
752.9805054987486
 30
0.0
 10
691.823979199703
 20
752.9799162430975
 30
0.0
 10
691.823979199703
 20
752.9793269874465
 30
0.0
  0
LINE
  5
80
330
1F
100
AcDbEntity
  8
0
  6
SLD-Solid
 62
     7
370
    15
100
AcDbLine
 10
282.8239791997
 20
752.9793269874
 30
0.0
 11
282.8239791997
 21
690.0363980553
 31
0.0
  0
SPLINE
  5
81
330
1F
100
AcDbEntity
  8
0
  6
SLD-Solid
 62
   142
420
    32960
370
     0
100
AcDbSpline
210
0.0
220
0.0
230
1.0
 70
     8
 71
     3
 72
    14
 73
    10
 74
     0
 42
0.00000001
 43
0.00000001
 40
0.0
 40
0.0
 40
0.0
 40
0.0
 40
0.25
 40
0.25
 40
0.5
 40
0.5
 40
0.75
 40
0.75
 40
1.0
 40
1.0
 40
1.0
 40
1.0
 10
282.8239791997028
 20
752.9793269874465
 30
0.0
 10
282.8239791997029
 20
752.9799162430977
 30
0.0
 10
282.8773352125328
 20
752.9805054987488
 30
0.0
 10
283.0827171035766
 20
752.9816840100502
 30
0.0
 10
283.2346621727866
 20
752.9822732657015
 30
0.0
 10
283.6141584237543
 20
752.9834517770033
 30
0.0
 10
283.8415602899425
 20
752.9840410326544
 30
0.0
 10
284.3373960367664
 20
752.9852195439565
 30
0.0
 10
284.6056348272087
 20
752.9858087996075
 30
0.0
 10
284.8739791997029
 20
752.9863980552585
 30
0.0
  0
LINE
  5
82
330
1F
100
AcDbEntity
  8
0
  6
SLD-Solid
 62
   142
420
    32960
370
     0
100
AcDbLine
 10
284.8739791997
 20
690.0363980553
 30
0.0
 11
282.8239791997
 21
690.0363980553
 31
0.0
  0
ARC
  5
83
330
1F
100
AcDbEntity
  8
0
  6
SLD-Solid
 62
     7
370
    15
100
AcDbCircle
 10
679.8239791997
 20
725.0863980553
 30
0.0
 40
3.200000000000045
100
AcDbArc
 50
0.0
 51
180.0
  0
ARC
  5
84
330
1F
100
AcDbEntity
  8
0
  6
SLD-Solid
 62
     7
370
    15
100
AcDbCircle
 10
679.8239791997
 20
718.7863980553
 30
0.0
 40
3.200000000000045
100
AcDbArc
 50
180.0
 51
0.0
  0
LINE
  5
85
330
1F
100
AcDbEntity
  8
0
  6
SLD-Solid
 62
   142
420
    32960
370
     0
100
AcDbLine
 10
676.6239791997
 20
718.7863980553
 30
0.0
 11
676.6239791997
 21
725.0863980553
 31
0.0
  0
LINE
  5
86
330
1F
100
AcDbEntity
  8
0
  6
SLD-Solid
 62
   142
420
    32960
370
     0
100
AcDbLine
 10
683.0239791997
 20
725.0863980553
 30
0.0
 11
683.0239791997
 21
718.7863980553
 31
0.0
  0
ARC
  5
87
330
1F
100
AcDbEntity
  8
0
  6
SLD-Solid
 62
   142
420
    32960
370
     0
100
AcDbCircle
 10
294.8239791997
 20
718.7863980553
 30
0.0
 40
3.199999999999989
100
AcDbArc
 50
180.0
 51
0.0
  0
LINE
  5
88
330
1F
100
AcDbEntity
  8
0
  6
SLD-Solid
 62
   142
420
    32960
370
     0
100
AcDbLine
 10
291.6239791997
 20
718.7863980553
 30
0.0
 11
291.6239791997
 21
725.0863980553
 31
0.0
  0
ARC
  5
89
330
1F
100
AcDbEntity
  8
0
  6
SLD-Solid
 62
   142
420
    32960
370
     0
100
AcDbCircle
 10
294.8239791997
 20
725.0863980553
 30
0.0
 40
3.199999999999989
100
AcDbArc
 50
0.0
 51
180.0
  0
LINE
  5
8A
330
1F
100
AcDbEntity
  8
0
  6
SLD-Solid
 62
   142
420
    32960
370
     0
100
AcDbLine
 10
298.0239791997
 20
725.0863980553
 30
0.0
 11
298.0239791997
 21
718.7863980553
 31
0.0
  0
LINE
  5
8B
330
1F
100
AcDbEntity
  8
0
  6
SLD-Solid
 62
   142
420
    32960
370
     0
100
AcDbLine
 10
689.7739791997
 20
689.9123049613
 30
0.0
 11
689.7739791997
 21
684.9856999706
 31
0.0
  0
LINE
  5
8C
330
1F
100
AcDbEntity
  8
0
  6
SLD-Solid
 62
   142
420
    32960
370
     0
100
AcDbLine
 10
284.8739791997
 20
684.9856999706
 30
0.0
 11
284.8739791997
 21
689.9123049613
 31
0.0
  0
LINE
  5
8D
330
1F
100
AcDbEntity
  8
0
  6
SLD-Solid
 62
   142
420
    32960
370
     0
100
AcDbLine
 10
689.7739791997
 20
684.9856999706
 30
0.0
 11
284.8739791997
 21
684.9856999706
 31
0.0
  0
LINE
  5
8E
330
1F
100
AcDbEntity
  8
0
  6
SLD-Solid
 62
     7
370
    15
100
AcDbLine
 10
284.8739791997
 20
755.0363980553
 30
0.0
 11
689.7739791997
 21
755.0363980553
 31
0.0
  0
LINE
  5
8F
330
1F
100
AcDbEntity
  8
0
  6
SLD-Solid
 62
     7
370
    15
100
AcDbLine
 10
691.0239791997
 20
755.0363980553
 30
0.0
 11
691.0239791997
 21
752.9863980553
 31
0.0
  0
LINE
  5
90
330
1F
100
AcDbEntity
  8
0
  6
SLD-Solid
 62
   142
420
    32960
370
     0
100
AcDbLine
 10
283.6239791997
 20
755.0363980553
 30
0.0
 11
284.8739791997
 21
755.0363980553
 31
0.0
  0
LINE
  5
91
330
1F
100
AcDbEntity
  8
0
  6
SLD-Solid
 62
   142
420
    32960
370
     0
100
AcDbLine
 10
283.6239791997
 20
752.9863980553
 30
0.0
 11
283.6239791997
 21
755.0363980553
 31
0.0
  0
LINE
  5
92
330
1F
100
AcDbEntity
  8
0
  6
SLD-Solid
 62
   142
420
    32960
370
     0
100
AcDbLine
 10
283.6239791997
 20
752.9863980553
 30
0.0
 11
284.8739791997
 21
752.9863980553
 31
0.0
  0
LINE
  5
93
330
1F
100
AcDbEntity
  8
0
  6
SLD-Solid
 62
   142
420
    32960
370
     0
100
AcDbLine
 10
691.0239791997
 20
752.9863980553
 30
0.0
 11
689.7739791997
 21
752.9863980553
 31
0.0
  0
LINE
  5
94
330
1F
100
AcDbEntity
  8
0
  6
SLD-Solid
 62
   142
420
    32960
370
     0
100
AcDbLine
 10
691.0239791997
 20
755.0363980553
 30
0.0
 11
689.7739791997
 21
755.0363980553
 31
0.0
  0
SPLINE
  5
95
330
1F
100
AcDbEntity
  8
0
  6
SLD-Solid
 62
   142
420
    32960
370
     0
100
AcDbSpline
210
0.0
220
0.0
230
1.0
 70
     8
 71
     3
 72
    10
 73
     6
 74
     0
 42
0.00000001
 43
0.00000001
 40
0.0
 40
0.0
 40
0.0
 40
0.0
 40
0.1304623764024684
 40
0.5652311882012452
 40
1.0
 40
1.0
 40
1.0
 40
1.0
 10
283.6239791997029
 20
754.5693146334212
 30
0.0
 10
283.5555584132812
 20
754.5273025113048
 30
0.0
 10
283.2591238129523
 20
754.3452840446978
 30
0.0
 10
282.9237493306071
 20
753.7804580674849
 30
0.0
 10
282.8572359100043
 20
753.2510847260005
 30
0.0
 10
282.8239791997029
 20
752.9863980552585
 30
0.0
  0
SPLINE
  5
96
330
1F
100
AcDbEntity
  8
0
  6
SLD-Solid
 62
     7
370
    15
100
AcDbSpline
210
0.0
220
0.0
230
1.0
 70
     8
 71
     3
 72
    10
 73
     6
 74
     0
 42
0.00000001
 43
0.00000001
 40
0.0
 40
0.0
 40
0.0
 40
0.0
 40
0.4347688117987741
 40
0.8695376235975657
 40
0.9999999999999999
 40
0.9999999999999999
 40
0.9999999999999999
 40
0.9999999999999999
 10
691.823979199703
 20
752.9863980552585
 30
0.0
 10
691.7907224894016
 20
753.2510847260007
 30
0.0
 10
691.7242090687988
 20
753.7804580674851
 30
0.0
 10
691.3888345864534
 20
754.3452840446971
 30
0.0
 10
691.0923999861247
 20
754.5273025113046
 30
0.0
 10
691.0239791997029
 20
754.569314633421
 30
0.0
  0
LINE
  5
97
330
1F
100
AcDbEntity
  8
0
  6
SLD-Solid
 62
   142
420
    32960
370
     0
100
AcDbLine
 10
691.8239791997
 20
752.9863980553
 30
0.0
 11
691.0239791997
 21
752.9863980553
 31
0.0
  0
LINE
  5
98
330
1F
100
AcDbEntity
  8
0
  6
SLD-Solid
 62
   142
420
    32960
370
     0
100
AcDbLine
 10
282.8239791997
 20
752.9863980553
 30
0.0
 11
282.8239791997
 21
752.9793269874
 31
0.0
  0
LINE
  5
99
330
1F
100
AcDbEntity
  8
0
  6
SLD-Solid
 62
   142
420
    32960
370
     0
100
AcDbLine
 10
691.8239791997
 20
752.9793269874
 30
0.0
 11
691.8239791997
 21
752.9863980553
 31
0.0
  0
CIRCLE
  5
9A
330
1F
100
AcDbEntity
  8
0
  6
SLD-Solid
 62
   142
420
    32960
370
     0
100
AcDbCircle
 10
281.3739791997
 20
448.8363980552
 30
0.0
 40
98.09941204801846
  0
LINE
  5
9B
330
1F
100
AcDbEntity
  8
0
  6
SLD-Solid
 62
   142
420
    32960
370
     0
100
AcDbLine
 10
103.8239791997
 20
577.0363980553
 30
0.0
 11
103.8239791997
 21
577.7863980553
 31
0.0
  0
ARC
  5
9C
330
1F
100
AcDbEntity
  8
0
  6
SLD-Solid
 62
   142
420
    32960
370
     0
100
AcDbCircle
 10
104.3239791997
 20
577.0363980553
 30
0.0
 40
0.5
100
AcDbArc
 50
180.0
 51
270.0
  0
LINE
  5
9D
330
1F
100
AcDbEntity
  8
0
  6
SLD-Solid
 62
   142
420
    32960
370
     0
100
AcDbLine
 10
104.3239791997
 20
576.5363980553
 30
0.0
 11
104.3239791997
 21
577.5363980553
 31
0.0
  0
LINE
  5
9E
330
1F
100
AcDbEntity
  8
0
  6
SLD-Solid
 62
   142
420
    32960
370
     0
100
AcDbLine
 10
105.8239791997
 20
577.5363980553
 30
0.0
 11
104.3239791997
 21
577.5363980553
 31
0.0
  0
LINE
  5
9F
330
1F
100
AcDbEntity
  8
0
  6
SLD-Solid
 62
   142
420
    32960
370
     0
100
AcDbLine
 10
114.6239791997
 20
585.5363980553
 30
0.0
 11
114.6239791997
 21
587.7681875053
 31
0.0
  0
LINE
  5
A0
330
1F
100
AcDbEntity
  8
0
  6
SLD-Solid
 62
   142
420
    32960
370
     0
100
AcDbLine
 10
114.6239791997
 20
585.5363980553
 30
0.0
 11
113.8155214098
 21
584.7279402653
 31
0.0
  0
LINE
  5
A1
330
1F
100
AcDbEntity
  8
0
  6
SLD-Solid
 62
     7
370
    15
100
AcDbLine
 10
650.9239791997
 20
35.3863980553
 30
0.0
 11
689.8739791997
 21
35.3863980553
 31
0.0
  0
LINE
  5
A2
330
1F
100
AcDbEntity
  8
0
  6
SLD-Solid
 62
     7
370
    15
100
AcDbLine
 10
650.9239791997
 20
35.3863980553
 30
0.0
 11
650.9239791997
 21
597.3863980553
 31
0.0
  0
LINE
  5
A3
330
1F
100
AcDbEntity
  8
0
  6
SLD-Solid
 62
     7
370
    15
100
AcDbLine
 10
689.8739791997
 20
597.3863980553
 30
0.0
 11
650.9239791997
 21
597.3863980553
 31
0.0
  0
LINE
  5
A4
330
1F
100
AcDbEntity
  8
0
  6
SLD-Solid
 62
   142
420
    32960
370
     0
100
AcDbLine
 10
689.8739791997
 20
597.3863980553
 30
0.0
 11
689.8739791997
 21
597.3029288979
 31
0.0
  0
LINE
  5
A5
330
1F
100
AcDbEntity
  8
0
  6
SLD-Solid
 62
   142
420
    32960
370
     0
100
AcDbLine
 10
701.8239791997
 20
597.3029288979
 30
0.0
 11
689.8739791997
 21
597.3029288979
 31
0.0
  0
LINE
  5
A6
330
1F
100
AcDbEntity
  8
0
  6
SLD-Solid
 62
     7
370
    15
100
AcDbLine
 10
701.8239791997
 20
35.4698672126
 30
0.0
 11
701.8239791997
 21
597.3029288979
 31
0.0
  0
LINE
  5
A7
330
1F
100
AcDbEntity
  8
0
  6
SLD-Solid
 62
   142
420
    32960
370
     0
100
AcDbLine
 10
701.8239791997
 20
35.4698672126
 30
0.0
 11
689.8739791997
 21
35.4698672126
 31
0.0
  0
LINE
  5
A8
330
1F
100
AcDbEntity
  8
0
  6
SLD-Solid
 62
   142
420
    32960
370
     0
100
AcDbLine
 10
689.8739791997
 20
35.4698672126
 30
0.0
 11
689.8739791997
 21
35.3863980553
 31
0.0
  0
CIRCLE
  5
A9
330
1F
100
AcDbEntity
  8
0
  6
SLD-Solid
 62
     7
370
    15
100
AcDbCircle
 10
689.8739791997
 20
47.3863980553
 30
0.0
 40
7.500000000000114
  0
CIRCLE
  5
AA
330
1F
100
AcDbEntity
  8
0
  6
SLD-Solid
 62
     7
370
    15
100
AcDbCircle
 10
689.8739791997
 20
585.3863980553
 30
0.0
 40
7.5
  0
CIRCLE
  5
AB
330
1F
100
AcDbEntity
  8
0
  6
SLD-Solid
 62
     7
370
    15
100
AcDbCircle
 10
689.8739791997
 20
585.3863980553
 30
0.0
 40
4.0
  0
CIRCLE
  5
AC
330
1F
100
AcDbEntity
  8
0
  6
SLD-Solid
 62
     7
370
    15
100
AcDbCircle
 10
689.8739791997
 20
47.3863980553
 30
0.0
 40
4.0
  0
LINE
  5
AD
330
1F
100
AcDbEntity
  8
0
  6
SLD-Solid
 62
   142
420
    32960
370
     0
100
AcDbLine
 10
650.9239791997
 20
570.8363980553
 30
0.0
 11
646.2239791997
 21
570.8363980553
 31
0.0
  0
LINE
  5
AE
330
1F
100
AcDbEntity
  8
0
  6
SLD-Solid
 62
   142
420
    32960
370
     0
100
AcDbLine
 10
646.2239791997
 20
61.8363980553
 30
0.0
 11
650.9239791997
 21
61.8363980553
 31
0.0
  0
LINE
  5
AF
330
1F
100
AcDbEntity
  8
0
  6
SLD-Solid
 62
     7
370
    15
100
AcDbLine
 10
525.270103022
 20
-86.7377301205
 30
0.0
 11
525.269417974
 21
-85.6304104432
 31
0.0
  0
LINE
  5
B0
330
1F
100
AcDbEntity
  8
0
  6
SLD-Solid
 62
     7
370
    15
100
AcDbLine
 10
703.8239792
 20
-97.3408156956
 30
0.0
 11
703.8239791999
 21
-84.3304104432
 31
0.0
  0
LINE
  5
B1
330
1F
100
AcDbEntity
  8
0
  6
SLD-Solid
 62
     7
370
    15
100
AcDbLine
 10
103.8239792
 20
-97.3408156956
 30
0.0
 11
103.8239792
 21
-84.3304104432
 31
0.0
  0
ARC
  5
B2
330
1F
100
AcDbEntity
  8
0
  6
SLD-Solid
 62
   142
420
    32960
370
     0
100
AcDbCircle
 10
426.1706620909
 20
-85.7602117752
 30
0.0
 40
7.246824341456182
100
AcDbArc
 50
268.049267015
 51
1.0263069544
  0
ARC
  5
B3
330
1F
100
AcDbEntity
  8
0
  6
SLD-Solid
 62
   142
420
    32960
370
     0
100
AcDbCircle
 10
425.6772963172
 20
-85.7602117752
 30
0.0
 40
7.246824341456187
100
AcDbArc
 50
178.9736930456
 51
271.950732985
  0
LINE
  5
B4
330
1F
100
AcDbEntity
  8
0
  6
SLD-Solid
 62
   142
420
    32960
370
     0
100
AcDbLine
 10
279.1239792044
 20
-91.1218225572
 30
0.0
 11
279.1239792044
 21
-85.6304104432
 31
0.0
  0
ARC
  5
B5
330
1F
100
AcDbEntity
  8
0
  6
SLD-Solid
 62
   142
420
    32960
370
     0
100
AcDbCircle
 10
277.1817025979
 20
-91.0604477878
 30
0.0
 40
1.943246067350771
100
AcDbArc
 50
268.2978000298
 51
358.190090174
  0
LINE
  5
B6
330
1F
100
AcDbEntity
  8
0
  6
SLD-Solid
 62
   142
420
    32960
370
     0
100
AcDbLine
 10
277.1239792044
 20
-93.0028363401
 30
0.0
 11
263.1239792044
 21
-93.0028363401
 31
0.0
  0
ARC
  5
B7
330
1F
100
AcDbEntity
  8
0
  6
SLD-Solid
 62
   142
420
    32960
370
     0
100
AcDbCircle
 10
263.0662558108
 20
-91.0604477878
 30
0.0
 40
1.943246067351006
100
AcDbArc
 50
181.809909826
 51
271.7021999702
  0
LINE
  5
B8
330
1F
100
AcDbEntity
  8
0
  6
SLD-Solid
 62
   142
420
    32960
370
     0
100
AcDbLine
 10
261.1239792044
 20
-85.6304104432
 30
0.0
 11
261.1239792044
 21
-91.1218225572
 31
0.0
  0
LINE
  5
B9
330
1F
100
AcDbEntity
  8
0
  6
SLD-Solid
 62
   142
420
    32960
370
     0
100
AcDbLine
 10
384.9239792044
 20
-91.1218225572
 30
0.0
 11
384.9239792044
 21
-85.6304104432
 31
0.0
  0
ARC
  5
BA
330
1F
100
AcDbEntity
  8
0
  6
SLD-Solid
 62
   142
420
    32960
370
     0
100
AcDbCircle
 10
382.9817025979
 20
-91.0604477878
 30
0.0
 40
1.943246067351012
100
AcDbArc
 50
268.2978000298
 51
358.190090174
  0
LINE
  5
BB
330
1F
100
AcDbEntity
  8
0
  6
SLD-Solid
 62
   142
420
    32960
370
     0
100
AcDbLine
 10
382.9239792044
 20
-93.0028363401
 30
0.0
 11
368.9239792044
 21
-93.0028363401
 31
0.0
  0
ARC
  5
BC
330
1F
100
AcDbEntity
  8
0
  6
SLD-Solid
 62
   142
420
    32960
370
     0
100
AcDbCircle
 10
368.8662558108
 20
-91.0604477878
 30
0.0
 40
1.943246067350947
100
AcDbArc
 50
181.809909826
 51
271.7021999702
  0
LINE
  5
BD
330
1F
100
AcDbEntity
  8
0
  6
SLD-Solid
 62
   142
420
    32960
370
     0
100
AcDbLine
 10
366.9239792044
 20
-85.6304104432
 30
0.0
 11
366.9239792044
 21
-91.1218225572
 31
0.0
  0
LINE
  5
BE
330
1F
100
AcDbEntity
  8
0
  6
SLD-Solid
 62
   142
420
    32960
370
     0
100
AcDbLine
 10
625.5739792044
 20
-93.0028363401
 30
0.0
 11
639.5739792044
 21
-93.0028363401
 31
0.0
  0
ARC
  5
BF
330
1F
100
AcDbEntity
  8
0
  6
SLD-Solid
 62
   142
420
    32960
370
     0
100
AcDbCircle
 10
625.5162558108
 20
-91.0604477878
 30
0.0
 40
1.943246067350902
100
AcDbArc
 50
181.809909826
 51
271.7021999702
  0
LINE
  5
C0
330
1F
100
AcDbEntity
  8
0
  6
SLD-Solid
 62
   142
420
    32960
370
     0
100
AcDbLine
 10
623.5739792044
 20
-85.6304104432
 30
0.0
 11
623.5739792044
 21
-91.1218225572
 31
0.0
  0
LINE
  5
C1
330
1F
100
AcDbEntity
  8
0
  6
SLD-Solid
 62
   142
420
    32960
370
     0
100
AcDbLine
 10
641.5739792044
 20
-91.1218225572
 30
0.0
 11
641.5739792044
 21
-85.6304104432
 31
0.0
  0
ARC
  5
C2
330
1F
100
AcDbEntity
  8
0
  6
SLD-Solid
 62
   142
420
    32960
370
     0
100
AcDbCircle
 10
639.6317025979
 20
-91.0604477878
 30
0.0
 40
1.943246067350905
100
AcDbArc
 50
268.2978000298
 51
358.190090174
  0
LINE
  5
C3
330
1F
100
AcDbEntity
  8
0
  6
SLD-Solid
 62
   142
420
    32960
370
     0
100
AcDbLine
 10
528.2701025142
 20
-86.736088423
 30
0.0
 11
528.2694184818
 21
-85.6304104432
 31
0.0
  0
LWPOLYLINE
  5
C4
330
1F
100
AcDbEntity
  8
0
  6
SLD-Solid
 62
   142
420
    32960
370
     0
100
AcDbPolyline
 90
       17
 70
   128
 43
0.0
 10
528.2701025142
 20
-86.736088423
 10
529.232585516
 20
-87.3701091122
 10
529.9177048299
 20
-88.2680009946
 10
530.2482337974
 20
-89.3285536851
 10
530.1869151887
 20
-90.4322216698
 10
529.7406608383
 20
-91.4545994785
 10
528.9597725427
 20
-92.2804446704
 10
527.9322720412
 20
-92.8166679644
 10
526.7739792044
 20
-93.0028262633
 10
525.6154568166
 20
-92.8179358013
 10
524.5872935374
 20
-92.2828374336
 10
523.8053839456
 20
-91.4578474556
 10
523.357864901
 20
-90.4359587489
 10
523.2951807565
 20
-89.3323586225
 10
523.6243972697
 20
-88.2714448978
 10
524.3084051508
 20
-87.3728037843
 10
525.270103022
 20
-86.7377301205
  0
LINE
  5
C5
330
1F
100
AcDbEntity
  8
0
  6
SLD-Solid
 62
     7
370
    15
100
AcDbLine
 10
525.270103022
 20
-86.7037526593
 30
0.0
 11
525.2694389943
 21
-85.6304104432
 31
0.0
  0
ARC
  5
C6
330
1F
100
AcDbEntity
  8
0
  6
SLD-Solid
 62
   142
420
    32960
370
     0
100
AcDbCircle
 10
526.7719427346
 20
-89.5284395083
 30
0.0
 40
3.50387002841762
100
AcDbArc
 50
182.7093242191
 51
357.2906757848
  0
LINE
  5
C7
330
1F
100
AcDbEntity
  8
0
  6
SLD-Solid
 62
   142
420
    32960
370
     0
100
AcDbLine
 10
527.2705174188
 20
-87.3730400294
 30
0.0
 11
527.2694393341
 21
-85.6304104432
 31
0.0
  0
ARC
  5
C8
330
1F
100
AcDbEntity
  8
0
  6
SLD-Solid
 62
   142
420
    32960
370
     0
100
AcDbCircle
 10
526.8902821256
 20
-89.72428025
 30
0.0
 40
2.381787029396982
100
AcDbArc
 50
0.7268994779
 51
80.8138328482
  0
ARC
  5
C9
330
1F
100
AcDbEntity
  8
0
  6
SLD-Solid
 62
   142
420
    32960
370
     0
100
AcDbCircle
 10
526.6533287753
 20
-89.7241293705
 30
0.0
 40
2.381510573328651
100
AcDbArc
 50
99.2500260255
 51
179.2766466355
  0
ARC
  5
CA
330
1F
100
AcDbEntity
  8
0
  6
SLD-Solid
 62
   142
420
    32960
370
     0
100
AcDbCircle
 10
263.0662558108
 20
-91.0264703266
 30
0.0
 40
1.943246067350831
100
AcDbArc
 50
181.809909826
 51
271.7021999702
  0
LINE
  5
CB
330
1F
100
AcDbEntity
  8
0
  6
SLD-Solid
 62
   142
420
    32960
370
     0
100
AcDbLine
 10
277.1239792044
 20
-92.9688588789
 30
0.0
 11
263.1239792044
 21
-92.9688588789
 31
0.0
  0
ARC
  5
CC
330
1F
100
AcDbEntity
  8
0
  6
SLD-Solid
 62
   142
420
    32960
370
     0
100
AcDbCircle
 10
277.1817025979
 20
-91.0264703266
 30
0.0
 40
1.943246067350771
100
AcDbArc
 50
268.2978000298
 51
358.190090174
  0
LINE
  5
CD
330
1F
100
AcDbEntity
  8
0
  6
SLD-Solid
 62
   142
420
    32960
370
     0
100
AcDbLine
 10
525.270103022
 20
-86.7037526593
 30
0.0
 11
525.270103022
 21
-86.7377301205
 31
0.0
  0
LINE
  5
CE
330
1F
100
AcDbEntity
  8
0
  6
SLD-Solid
 62
     7
370
    15
100
AcDbLine
 10
703.8239792
 20
-104.4712498837
 30
0.0
 11
703.8239792
 21
-97.3408156956
 31
0.0
  0
LINE
  5
CF
330
1F
100
AcDbEntity
  8
0
  6
SLD-Solid
 62
     7
370
    15
100
AcDbLine
 10
103.8239792
 20
-104.4712498837
 30
0.0
 11
103.8239792
 21
-97.3408156956
 31
0.0
  0
LINE
  5
D0
330
1F
100
AcDbEntity
  8
0
  6
SLD-Solid
 62
     7
370
    15
100
AcDbLine
 10
703.8239791997
 20
568.8363980553
 30
0.0
 11
703.8239791997
 21
63.8363980553
 31
0.0
  0
LINE
  5
D1
330
1F
100
AcDbEntity
  8
0
  6
SLD-Solid
 62
   142
420
    32960
370
     0
100
AcDbLine
 10
703.8239791997
 20
573.8363980553
 30
0.0
 11
703.8239791997
 21
568.8363980553
 31
0.0
  0
LINE
  5
D2
330
1F
100
AcDbEntity
  8
0
  6
SLD-Solid
 62
   142
420
    32960
370
     0
100
AcDbLine
 10
703.8239791997
 20
63.8363980553
 30
0.0
 11
703.8239791997
 21
58.8363980553
 31
0.0
  0
LINE
  5
D3
330
1F
100
AcDbEntity
  8
0
  6
SLD-Solid
 62
   142
420
    32960
370
     0
100
AcDbLine
 10
703.0239791997
 20
568.8363980553
 30
0.0
 11
703.0239791997
 21
63.8363980553
 31
0.0
  0
LINE
  5
D4
330
1F
100
AcDbEntity
  8
0
  6
SLD-Solid
 62
   142
420
    32960
370
     0
100
AcDbLine
 10
703.8239791997
 20
63.8363980553
 30
0.0
 11
703.0239791997
 21
63.8363980553
 31
0.0
  0
LINE
  5
D5
330
1F
100
AcDbEntity
  8
0
  6
SLD-Solid
 62
   142
420
    32960
370
     0
100
AcDbLine
 10
703.8239791997
 20
568.8363980553
 30
0.0
 11
703.0239791997
 21
568.8363980553
 31
0.0
  0
LINE
  5
D6
330
1F
100
AcDbEntity
  8
0
  6
SLD-Solid
 62
   142
420
    32960
370
     0
100
AcDbLine
 10
703.8239791997
 20
573.8363980553
 30
0.0
 11
703.0239791997
 21
573.8363980553
 31
0.0
  0
LINE
  5
D7
330
1F
100
AcDbEntity
  8
0
  6
SLD-Solid
 62
   142
420
    32960
370
     0
100
AcDbLine
 10
703.0239791997
 20
573.8363980553
 30
0.0
 11
702.8416870249
 21
573.8363980553
 31
0.0
  0
LINE
  5
D8
330
1F
100
AcDbEntity
  8
0
  6
SLD-Solid
 62
   142
420
    32960
370
     0
100
AcDbLine
 10
702.8416870249
 20
58.8363980553
 30
0.0
 11
703.8239791997
 21
58.8363980553
 31
0.0
  0
LINE
  5
D9
330
1F
100
AcDbEntity
  8
0
  6
SLD-Solid
 62
   142
420
    32960
370
     0
100
AcDbLine
 10
637.5739792044
 20
-89.2408087743
 30
0.0
 11
635.5739792044
 21
-89.2408087743
 31
0.0
  0
ARC
  5
DA
330
1F
100
AcDbEntity
  8
0
  6
SLD-Solid
 62
   142
420
    32960
370
     0
100
AcDbCircle
 10
637.6028409011
 20
-88.2696144981
 30
0.0
 40
0.9716230336753241
100
AcDbArc
 50
268.2978000298
 51
358.190090174
  0
LINE
  5
DB
330
1F
100
AcDbEntity
  8
0
  6
SLD-Solid
 62
   142
420
    32960
370
     0
100
AcDbLine
 10
638.5739792044
 20
-88.3003018828
 30
0.0
 11
638.5739792044
 21
-85.6304104432
 31
0.0
  0
LINE
  5
DC
330
1F
100
AcDbEntity
  8
0
  6
SLD-Solid
 62
   142
420
    32960
370
     0
100
AcDbLine
 10
634.5739792044
 20
-88.3003018828
 30
0.0
 11
634.5739792044
 21
-85.6304104432
 31
0.0
  0
ARC
  5
DD
330
1F
100
AcDbEntity
  8
0
  6
SLD-Solid
 62
   142
420
    32960
370
     0
100
AcDbCircle
 10
635.5451175076
 20
-88.2696144981
 30
0.0
 40
0.9716230336755612
100
AcDbArc
 50
181.809909826
 51
271.7021999702
  0
LINE
  5
DE
330
1F
100
AcDbEntity
  8
0
  6
SLD-Solid
 62
     7
370
    15
100
AcDbLine
 10
161.4239791997
 20
35.3863980553
 30
0.0
 11
401.3239791997
 21
35.3863980553
 31
0.0
  0
LINE
  5
DF
330
1F
100
AcDbEntity
  8
0
  6
SLD-Solid
 62
     7
370
    15
100
AcDbLine
 10
161.4239791997
 20
597.2863980553
 30
0.0
 11
161.4239791997
 21
35.3863980553
 31
0.0
  0
LINE
  5
E0
330
1F
100
AcDbEntity
  8
0
  6
SLD-Solid
 62
     7
370
    15
100
AcDbLine
 10
401.3239791997
 20
35.3863980553
 30
0.0
 11
401.3239791997
 21
597.2863980553
 31
0.0
  0
LINE
  5
E1
330
1F
100
AcDbEntity
  8
0
  6
SLD-Solid
 62
     7
370
    15
100
AcDbLine
 10
401.3239791997
 20
597.2863980553
 30
0.0
 11
161.4239791997
 21
597.2863980553
 31
0.0
  0
ARC
  5
E2
330
1F
100
AcDbEntity
  8
0
  6
SLD-Solid
 62
   142
420
    32960
370
     0
100
AcDbCircle
 10
481.4270231759
 20
-129.0220092279
 30
0.0
 40
43.87264639414221
100
AcDbArc
 50
78.1674828003
 51
81.5075623264
  0
LINE
  5
E3
330
1F
100
AcDbEntity
  8
0
  6
SLD-Solid
 62
     7
370
    15
100
AcDbLine
 10
480.7739792
 20
-96.9390312004
 30
0.0
 11
480.7739792
 21
-85.8781854392
 31
0.0
  0
SPLINE
  5
E4
330
1F
100
AcDbEntity
  8
0
  6
SLD-Solid
 62
   142
420
    32960
370
     0
100
AcDbSpline
210
0.0
220
0.0
230
1.0
 70
    24
 71
     3
 72
     9
 73
     5
 74
     0
 42
0.00000001
 43
0.00000001
 40
0.0
 40
0.0
 40
0.0
 40
0.0
 40
0.7304934763941869
 40
1.0
 40
1.0
 40
1.0
 40
1.0
 10
480.7739791999996
 20
-85.87818543917768
 30
0.0
 10
480.7739791999996
 20
-85.83693177060597
 30
0.0
 10
480.7739791999996
 20
-85.78045807179157
 30
0.0
 10
480.7739791999996
 20
-85.66226440694014
 30
0.0
 10
480.7739791999996
 20
-85.63041044321379
 30
0.0
  0
LINE
  5
E5
330
1F
100
AcDbEntity
  8
0
  6
SLD-Solid
 62
     7
370
    15
100
AcDbLine
 10
477.7739792
 20
-85.8781854392
 30
0.0
 11
477.7739792
 21
-96.9390312004
 31
0.0
  0
SPLINE
  5
E6
330
1F
100
AcDbEntity
  8
0
  6
SLD-Solid
 62
     7
370
    15
100
AcDbSpline
210
0.0
220
0.0
230
1.0
 70
    24
 71
     3
 72
    10
 73
     6
 74
     0
 42
0.00000001
 43
0.00000001
 40
0.0
 40
0.0
 40
0.0
 40
0.0
 40
0.004001755169198
 40
0.7120962762919141
 40
0.9999999999999999
 40
0.9999999999999999
 40
0.9999999999999999
 40
0.9999999999999999
 10
477.7739791999996
 20
-85.63041044321379
 30
0.0
 10
477.7739791999996
 20
-85.63092845478798
 30
0.0
 10
477.7739791999995
 20
-85.7231065360211
 30
0.0
 10
477.7739791999996
 20
-85.80548700771423
 30
0.0
 10
477.7739791999996
 20
-85.86188345535112
 30
0.0
 10
477.7739791999996
 20
-85.87818543917768
 30
0.0
  0
ARC
  5
E7
330
1F
100
AcDbEntity
  8
0
  6
SLD-Solid
 62
   142
420
    32960
370
     0
100
AcDbCircle
 10
469.2699333305
 20
-85.9026844681
 30
0.0
 40
1.15904574651589
100
AcDbArc
 50
188.8801973981
 51
237.0297119489
  0
ARC
  5
E8
330
1F
100
AcDbEntity
  8
0
  6
SLD-Solid
 62
   142
420
    32960
370
     0
100
AcDbCircle
 10
479.8207737591
 20
-136.9639266082
 30
0.0
 40
51.09463329350548
100
AcDbArc
 50
78.6128353668
 51
88.9310459101
  0
LWPOLYLINE
  5
E9
330
1F
100
AcDbEntity
  8
0
  6
SLD-Solid
 62
   142
420
    32960
370
     0
100
AcDbPolyline
 90
        9
 70
   128
 43
0.0
 10
477.7739792
 20
-96.9390312004
 10
477.8881599012
 20
-97.1164147265
 10
478.2133190282
 20
-97.2667932187
 10
478.6999540515
 20
-97.3672729148
 10
479.2739792
 20
-97.4025566919
 10
479.8480043485
 20
-97.3672729148
 10
480.3346393718
 20
-97.2667932187
 10
480.6597984988
 20
-97.1164147265
 10
480.7739792
 20
-96.9390312004
  0
LINE
  5
EA
330
1F
100
AcDbEntity
  8
0
  6
SLD-Solid
 62
     7
370
    15
100
AcDbLine
 10
490.9325959324
 20
-85.6304104432
 30
0.0
 11
490.8771497528
 21
-86.0175308653
 31
0.0
  0
LWPOLYLINE
  5
EB
330
1F
100
AcDbEntity
  8
0
  6
SLD-Solid
 62
     7
370
    15
100
AcDbPolyline
 90
        3
 70
   128
 43
0.0
 10
490.8771497528
 20
-86.0175308653
 10
490.8992395214
 20
-86.0373384906
 10
490.9012707187
 20
-86.0463526543
  0
LINE
  5
EC
330
1F
100
AcDbEntity
  8
0
  6
SLD-Solid
 62
     7
370
    15
100
AcDbLine
 10
467.6708086472
 20
-86.0175308653
 30
0.0
 11
467.6153624675
 21
-85.6304104432
 31
0.0
  0
LWPOLYLINE
  5
ED
330
1F
100
AcDbEntity
  8
0
  6
SLD-Solid
 62
   142
420
    32960
370
     0
100
AcDbPolyline
 90
        9
 70
   128
 43
0.0
 10
468.1247807433
 20
-86.0816051057
 10
467.9992002396
 20
-86.0868059075
 10
467.8891460596
 20
-86.0880572163
 10
467.7972882061
 20
-86.0853286743
 10
467.7258552242
 20
-86.0786864781
 10
467.6765801354
 20
-86.0682917727
 10
467.6506583928
 20
-86.054396742
 10
467.6487188786
 20
-86.0373384906
 10
467.6708086472
 20
-86.0175308653
  0
LINE
  5
EE
330
1F
100
AcDbEntity
  8
0
  6
SLD-Solid
 62
   142
420
    32960
370
     0
100
AcDbLine
 10
480.7739792
 20
-85.673241416
 30
0.0
 11
480.7729646029
 21
-85.6304104432
 31
0.0
  0
LINE
  5
EF
330
1F
100
AcDbEntity
  8
0
  6
SLD-Solid
 62
     7
370
    15
100
AcDbLine
 10
488.9481432362
 20
-90.4382483699
 30
0.0
 11
488.9407937118
 21
-90.6434438366
 31
0.0
  0
LINE
  5
F0
330
1F
100
AcDbEntity
  8
0
  6
SLD-Solid
 62
   142
420
    32960
370
     0
100
AcDbLine
 10
490.8771497528
 20
-95.4850371438
 30
0.0
 11
492.7416477372
 21
-85.6304104432
 31
0.0
  0
ARC
  5
F1
330
1F
100
AcDbEntity
  8
0
  6
SLD-Solid
 62
   142
420
    32960
370
     0
100
AcDbCircle
 10
489.2780250695
 20
-85.9026844681
 30
0.0
 40
1.15904574651609
100
AcDbArc
 50
302.9702880511
 51
351.1198026019
  0
ARC
  5
F2
330
1F
100
AcDbEntity
  8
0
  6
SLD-Solid
 62
   142
420
    32960
370
     0
100
AcDbCircle
 10
489.8219230423
 20
-95.4439679453
 30
0.0
 40
1.056025610321996
100
AcDbArc
 50
274.7179789945
 51
357.771185392
  0
ARC
  5
F3
330
1F
100
AcDbEntity
  8
0
  6
SLD-Solid
 62
   142
420
    32960
370
     0
100
AcDbCircle
 10
468.5466340544
 20
-86.0040886702
 30
0.0
 40
0.8758830766597772
100
AcDbArc
 50
184.1247462876
 51
276.064935391
  0
ARC
  5
F4
330
1F
100
AcDbEntity
  8
0
  6
SLD-Solid
 62
   142
420
    32960
370
     0
100
AcDbCircle
 10
468.7260353577
 20
-95.4439679453
 30
0.0
 40
1.056025610322091
100
AcDbArc
 50
182.228814608
 51
265.2820210055
  0
ARC
  5
F5
330
1F
100
AcDbEntity
  8
0
  6
SLD-Solid
 62
   142
420
    32960
370
     0
100
AcDbCircle
 10
490.0485897128
 20
-96.1993047725
 30
0.0
 40
0.3283607172979665
100
AcDbArc
 50
244.8003743496
 51
329.0454126959
  0
ARC
  5
F6
330
1F
100
AcDbEntity
  8
0
  6
SLD-Solid
 62
   142
420
    32960
370
     0
100
AcDbCircle
 10
468.4993686872
 20
-96.1993047737
 30
0.0
 40
0.3283607161910328
100
AcDbArc
 50
210.9545884065
 51
295.1996257397
  0
ARC
  5
F7
330
1F
100
AcDbEntity
  8
0
  6
SLD-Solid
 62
   142
420
    32960
370
     0
100
AcDbCircle
 10
468.1366557568
 20
-95.6299370953
 30
0.0
 40
0.4878621992344507
100
AcDbArc
 50
162.7218950582
 51
232.1753260126
  0
LWPOLYLINE
  5
F8
330
1F
100
AcDbEntity
  8
0
  6
SLD-Solid
 62
   142
420
    32960
370
     0
100
AcDbPolyline
 90
        9
 70
   128
 43
0.0
 10
480.7739792
 20
-96.4635029422
 10
480.6597984988
 20
-96.6408864683
 10
480.3346393718
 20
-96.7912649606
 10
479.8480043485
 20
-96.8917446567
 10
479.2739792
 20
-96.9270284338
 10
478.6999540515
 20
-96.8917446567
 10
478.2133190282
 20
-96.7912649606
 10
477.8881599012
 20
-96.6408864683
 10
477.7739792
 20
-96.4635029422
  0
LINE
  5
F9
330
1F
100
AcDbEntity
  8
0
  6
SLD-Solid
 62
     7
370
    15
100
AcDbLine
 10
221.1239792
 20
-85.8782346445
 30
0.0
 11
221.1239792
 21
-96.9390804057
 31
0.0
  0
SPLINE
  5
FA
330
1F
100
AcDbEntity
  8
0
  6
SLD-Solid
 62
     7
370
    15
100
AcDbSpline
210
0.0
220
0.0
230
1.0
 70
    24
 71
     3
 72
    10
 73
     6
 74
     0
 42
0.00000001
 43
0.00000001
 40
0.0
 40
0.0
 40
0.0
 40
0.0
 40
0.0041280253887103
 40
0.7121327760212859
 40
1.0
 40
1.0
 40
1.0
 40
1.0
 10
221.1239791999996
 20
-85.63041044321379
 30
0.0
 10
221.1239791999996
 20
-85.63094487917938
 30
0.0
 10
221.1239791999989
 20
-85.72314134890635
 30
0.0
 10
221.1239791999997
 20
-85.8055368389638
 30
0.0
 10
221.1239791999996
 20
-85.86193280100152
 30
0.0
 10
221.1239791999996
 20
-85.87823464446065
 30
0.0
  0
SPLINE
  5
FB
330
1F
100
AcDbEntity
  8
0
  6
SLD-Solid
 62
     7
370
    15
100
AcDbSpline
210
0.0
220
0.0
230
1.0
 70
    24
 71
     3
 72
     9
 73
     5
 74
     0
 42
0.00000001
 43
0.00000001
 40
0.0
 40
0.0
 40
0.0
 40
0.0
 40
0.7303871316154312
 40
1.0
 40
1.0
 40
1.0
 40
1.0
 10
224.1239791999996
 20
-85.87823464446065
 30
0.0
 10
224.1239791999996
 20
-85.83697937766749
 30
0.0
 10
224.1239791999996
 20
-85.78049526806674
 30
0.0
 10
224.1239791999996
 20
-85.66228220596706
 30
0.0
 10
224.1239791999996
 20
-85.63041044321379
 30
0.0
  0
LINE
  5
FC
330
1F
100
AcDbEntity
  8
0
  6
SLD-Solid
 62
     7
370
    15
100
AcDbLine
 10
224.1239792
 20
-96.9390804057
 30
0.0
 11
224.1239792
 21
-85.8782346445
 31
0.0
  0
ARC
  5
FD
330
1F
100
AcDbEntity
  8
0
  6
SLD-Solid
 62
   142
420
    32960
370
     0
100
AcDbCircle
 10
232.6280250695
 20
-85.9027336734
 30
0.0
 40
1.159045746515596
100
AcDbArc
 50
302.9702880511
 51
351.1198026019
  0
ARC
  5
FE
330
1F
100
AcDbEntity
  8
0
  6
SLD-Solid
 62
   142
420
    32960
370
     0
100
AcDbCircle
 10
212.6199333305
 20
-85.9027336734
 30
0.0
 40
1.159045746515561
100
AcDbArc
 50
188.8801973981
 51
237.0297119489
  0
LWPOLYLINE
  5
FF
330
1F
100
AcDbEntity
  8
0
  6
SLD-Solid
 62
     7
370
    15
100
AcDbPolyline
 90
        9
 70
   128
 43
0.0
 10
221.1239792
 20
-96.9390804057
 10
221.2381599012
 20
-97.1164639318
 10
221.5633190282
 20
-97.266842424
 10
222.0499540515
 20
-97.3673221201
 10
222.6239792
 20
-97.4026058972
 10
223.1980043485
 20
-97.3673221201
 10
223.6846393718
 20
-97.266842424
 10
224.0097984988
 20
-97.1164639318
 10
224.1239792
 20
-96.9390804057
  0
LINE
  5
100
330
1F
100
AcDbEntity
  8
0
  6
SLD-Solid
 62
     7
370
    15
100
AcDbLine
 10
211.0208086472
 20
-86.0175800706
 30
0.0
 11
210.96535542
 21
-85.6304104432
 31
0.0
  0
LWPOLYLINE
  5
101
330
1F
100
AcDbEntity
  8
0
  6
SLD-Solid
 62
   142
420
    32960
370
     0
100
AcDbPolyline
 90
        9
 70
   128
 43
0.0
 10
211.4747807433
 20
-86.081654311
 10
211.3492002396
 20
-86.0868551128
 10
211.2391460596
 20
-86.0881064216
 10
211.1472882061
 20
-86.0853778796
 10
211.0758552242
 20
-86.0787356834
 10
211.0265801354
 20
-86.068340978
 10
211.0006583928
 20
-86.0544459473
 10
210.9987188786
 20
-86.0373876959
 10
211.0208086472
 20
-86.0175800706
  0
LINE
  5
102
330
1F
100
AcDbEntity
  8
0
  6
SLD-Solid
 62
     7
370
    15
100
AcDbLine
 10
234.28260298
 20
-85.6304104432
 30
0.0
 11
234.2271497528
 21
-86.0175800706
 31
0.0
  0
LWPOLYLINE
  5
103
330
1F
100
AcDbEntity
  8
0
  6
SLD-Solid
 62
   142
420
    32960
370
     0
100
AcDbPolyline
 90
        9
 70
   128
 43
0.0
 10
234.2271497528
 20
-86.0175800706
 10
234.2492395214
 20
-86.0373876959
 10
234.2473000072
 20
-86.0544459473
 10
234.2213782646
 20
-86.068340978
 10
234.1721031758
 20
-86.0787356834
 10
234.1006701939
 20
-86.0853778796
 10
234.0088123404
 20
-86.0881064216
 10
233.8987581604
 20
-86.0868551128
 10
233.7731776567
 20
-86.081654311
  0
LINE
  5
104
330
1F
100
AcDbEntity
  8
0
  6
SLD-Solid
 62
   142
420
    32960
370
     0
100
AcDbLine
 10
221.1249961308
 20
-85.6304104432
 30
0.0
 11
221.1239792
 21
-85.6732906213
 31
0.0
  0
ARC
  5
105
330
1F
100
AcDbEntity
  8
0
  6
SLD-Solid
 62
   142
420
    32960
370
     0
100
AcDbCircle
 10
222.1001063243
 20
-96.4886535745
 30
0.0
 40
0.9764498166443628
100
AcDbArc
 50
88.5990561917
 51
178.5269450074
  0
LINE
  5
106
330
1F
100
AcDbEntity
  8
0
  6
SLD-Solid
 62
   142
420
    32960
370
     0
100
AcDbLine
 10
224.1239792
 20
-85.6732906213
 30
0.0
 11
224.1229622692
 21
-85.6304104432
 31
0.0
  0
ARC
  5
107
330
1F
100
AcDbEntity
  8
0
  6
SLD-Solid
 62
   142
420
    32960
370
     0
100
AcDbCircle
 10
223.1478520757
 20
-96.4886535745
 30
0.0
 40
0.976449816644431
100
AcDbArc
 50
1.4730549926
 51
91.4009438083
  0
LWPOLYLINE
  5
108
330
1F
100
AcDbEntity
  8
0
  6
SLD-Solid
 62
   142
420
    32960
370
     0
100
AcDbPolyline
 90
        9
 70
   128
 43
0.0
 10
222.1239792
 20
-95.5124956312
 10
222.1620394337
 20
-95.5716234733
 10
222.2704258094
 20
-95.6217496373
 10
222.4326374838
 20
-95.6552428694
 10
222.6239792
 20
-95.6670041284
 10
222.8153209162
 20
-95.6552428694
 10
222.9775325906
 20
-95.6217496373
 10
223.0859189663
 20
-95.5716234733
 10
223.1239792
 20
-95.5124956312
  0
LINE
  5
109
330
1F
100
AcDbEntity
  8
0
  6
SLD-Solid
 62
     7
370
    15
100
AcDbLine
 10
232.2981432362
 20
-90.4382975751
 30
0.0
 11
232.2907937118
 21
-90.6434930419
 31
0.0
  0
ARC
  5
10A
330
1F
100
AcDbEntity
  8
0
  6
SLD-Solid
 62
   142
420
    32960
370
     0
100
AcDbCircle
 10
211.8966340544
 20
-86.0041378755
 30
0.0
 40
0.8758830766611687
100
AcDbArc
 50
184.1247462535
 51
276.0649353909
  0
ARC
  5
10B
330
1F
100
AcDbEntity
  8
0
  6
SLD-Solid
 62
   142
420
    32960
370
     0
100
AcDbCircle
 10
212.0760353577
 20
-95.4440171506
 30
0.0
 40
1.056025610322049
100
AcDbArc
 50
182.228814608
 51
265.2820210055
  0
ARC
  5
10C
330
1F
100
AcDbEntity
  8
0
  6
SLD-Solid
 62
   142
420
    32960
370
     0
100
AcDbCircle
 10
233.3513243457
 20
-86.0041378756
 30
0.0
 40
0.8758830766213729
100
AcDbArc
 50
263.935064606
 51
355.8752528975
  0
ARC
  5
10D
330
1F
100
AcDbEntity
  8
0
  6
SLD-Solid
 62
   142
420
    32960
370
     0
100
AcDbCircle
 10
233.1719230423
 20
-95.4440171506
 30
0.0
 40
1.05602561032199
100
AcDbArc
 50
274.7179789945
 51
357.771185392
  0
ARC
  5
10E
330
1F
100
AcDbEntity
  8
0
  6
SLD-Solid
 62
   142
420
    32960
370
     0
100
AcDbCircle
 10
233.3985897131
 20
-96.1993539264
 30
0.0
 40
0.3283607639107327
100
AcDbArc
 50
244.800378112
 51
329.0454591137
  0
ARC
  5
10F
330
1F
100
AcDbEntity
  8
0
  6
SLD-Solid
 62
   142
420
    32960
370
     0
100
AcDbCircle
 10
211.8493686875
 20
-96.1993540167
 30
0.0
 40
0.3283606820276453
100
AcDbArc
 50
210.954622427
 51
295.1996284973
  0
ARC
  5
110
330
1F
100
AcDbEntity
  8
0
  6
SLD-Solid
 62
   142
420
    32960
370
     0
100
AcDbCircle
 10
233.7613026361
 20
-95.6299863
 30
0.0
 40
0.4878622058965641
100
AcDbArc
 50
307.8246688658
 51
17.2781046347
  0
ARC
  5
111
330
1F
100
AcDbEntity
  8
0
  6
SLD-Solid
 62
   142
420
    32960
370
     0
100
AcDbCircle
 10
211.4866557624
 20
-95.6299863001
 30
0.0
 40
0.4878622044603852
100
AcDbArc
 50
162.7218952991
 51
232.17533003
  0
LWPOLYLINE
  5
112
330
1F
100
AcDbEntity
  8
0
  6
SLD-Solid
 62
   142
420
    32960
370
     0
100
AcDbPolyline
 90
        9
 70
   128
 43
0.0
 10
224.1239792
 20
-96.4635521475
 10
224.0097984988
 20
-96.6409356736
 10
223.6846393718
 20
-96.7913141659
 10
223.1980043485
 20
-96.891793862
 10
222.6239792
 20
-96.9270776391
 10
222.0499540515
 20
-96.891793862
 10
221.5633190282
 20
-96.7913141659
 10
221.2381599012
 20
-96.6409356736
 10
221.1239792
 20
-96.4635521475
  0
CIRCLE
  5
113
330
1F
100
AcDbEntity
  8
0
  6
SLD-Solid
 62
     7
370
    15
100
AcDbCircle
 10
281.3739791997
 20
183.8363980552
 30
0.0
 40
91.49999999999991
  0
CIRCLE
  5
114
330
1F
100
AcDbEntity
  8
0
  6
SLD-Solid
 62
     7
370
    15
100
AcDbCircle
 10
281.3739791997
 20
183.8363980552
 30
0.0
 40
93.50000000000004
  0
CIRCLE
  5
115
330
1F
100
AcDbEntity
  8
0
  6
SLD-Solid
 62
     7
370
    15
100
AcDbCircle
 10
281.3739791997
 20
183.8363980552
 30
0.0
 40
27.50000000000002
  0
CIRCLE
  5
116
330
1F
100
AcDbEntity
  8
0
  6
SLD-Solid
 62
     7
370
    15
100
AcDbCircle
 10
281.3765655918
 20
183.8326597201
 30
0.0
 40
13.99999999999999
  0
LINE
  5
117
330
1F
100
AcDbEntity
  8
0
  6
SLD-Solid
 62
   142
420
    32960
370
     0
100
AcDbLine
 10
653.3239791997
 20
645.0659219277
 30
0.0
 11
653.3239791997
 21
673.3261898813
 31
0.0
  0
SPLINE
  5
118
330
1F
100
AcDbEntity
  8
0
  6
SLD-Solid
 62
   142
420
    32960
370
     0
100
AcDbSpline
210
0.0
220
0.0
230
1.0
 70
     8
 71
     3
 72
    10
 73
     6
 74
     0
 42
0.00000001
 43
0.00000001
 40
0.0
 40
0.0
 40
0.0
 40
0.0
 40
0.5
 40
0.5
 40
1.0
 40
1.0
 40
1.0
 40
1.0
 10
169.5461441875174
 20
-123.8936023344886
 30
0.0
 10
192.0706839798101
 20
-122.5789571486855
 30
0.0
 10
214.5759922879496
 20
-120.9342382101889
 30
0.0
 10
259.5192241929525
 20
-116.9872865403739
 30
0.0
 10
281.9594980511025
 20
-114.6849819091585
 30
0.0
 10
304.3684069500362
 20
-112.0536089735725
 30
0.0
  0
SPLINE
  5
119
330
1F
100
AcDbEntity
  8
0
  6
SLD-Solid
 62
   142
420
    32960
370
     0
100
AcDbSpline
210
0.0
220
0.0
230
1.0
 70
     8
 71
     3
 72
    26
 73
    22
 74
     0
 42
0.00000001
 43
0.00000001
 40
0.0
 40
0.0
 40
0.0
 40
0.0
 40
0.125
 40
0.125
 40
0.1874999999999994
 40
0.1874999999999994
 40
0.2499999999999988
 40
0.2499999999999988
 40
0.3749999999999976
 40
0.3749999999999976
 40
0.4999999999999963
 40
0.4999999999999963
 40
0.6249999999999951
 40
0.6249999999999951
 40
0.7499999999999939
 40
0.7499999999999939
 40
0.8124999999999969
 40
0.8124999999999969
 40
0.8749999999999999
 40
0.8749999999999999
 40
1.0
 40
1.0
 40
1.0
 40
1.0
 10
161.6128253486075
 20
-117.8536438344322
 30
0.0
 10
161.7086817734233
 20
-118.3001438618521
 30
0.0
 10
161.8451994064512
 20
-118.7284522225727
 30
0.0
 10
162.1071554827736
 20
-119.3452163766128
 30
0.0
 10
162.2040761048861
 20
-119.5464868573152
 30
0.0
 10
162.4172866254101
 20
-119.9402702254053
 30
0.0
 10
162.5345111852816
 20
-120.1330948263934
 30
0.0
 10
162.907994390335
 20
-120.6965723009105
 30
0.0
 10
163.185240692334
 20
-121.0495353985325
 30
0.0
 10
163.7975171649564
 20
-121.7071853249146
 30
0.0
 10
164.1351353953961
 20
-122.0139733026526
 30
0.0
 10
164.8581492483332
 20
-122.5651921800043
 30
0.0
 10
165.2450673836582
 20
-122.8106095501764
 30
0.0
 10
166.0452166738347
 20
-123.2284834808843
 30
0.0
 10
166.4580702087634
 20
-123.4014531961219
 30
0.0
 10
167.0936911696716
 20
-123.6106250537534
 30
0.0
 10
167.3084033075461
 20
-123.6718924005988
 30
0.0
 10
167.7477213534386
 20
-123.7735994648099
 30
0.0
 10
167.9709205916824
 20
-123.8141418752247
 30
0.0
 10
168.6406754183686
 20
-123.9031193081264
 30
0.0
 10
169.0913042732633
 20
-123.9201838391143
 30
0.0
 10
169.5461441875174
 20
-123.8936023344886
 30
0.0
  0
SPLINE
  5
11A
330
1F
100
AcDbEntity
  8
0
  6
SLD-Solid
 62
   142
420
    32960
370
     0
100
AcDbSpline
210
0.0
220
0.0
230
1.0
 70
     8
 71
     3
 72
    26
 73
    22
 74
     0
 42
0.00000001
 43
0.00000001
 40
0.0
 40
0.0
 40
0.0
 40
0.0
 40
0.124999999999995
 40
0.124999999999995
 40
0.1874999999999939
 40
0.1874999999999939
 40
0.249999999999993
 40
0.249999999999993
 40
0.3749999999999948
 40
0.3749999999999948
 40
0.4999999999999967
 40
0.4999999999999967
 40
0.6249999999999986
 40
0.6249999999999986
 40
0.7500000000000003
 40
0.7500000000000003
 40
0.8125000000000002
 40
0.8125000000000002
 40
0.875
 40
0.875
 40
1.0
 40
1.0
 40
1.0
 40
1.0
 10
304.3684069500362
 20
-112.0536089735726
 30
0.0
 10
304.7654485853465
 20
-112.0069839386779
 30
0.0
 10
305.151577582898
 20
-111.927949223786
 30
0.0
 10
305.71532168429
 20
-111.763694828075
 30
0.0
 10
305.9006451320971
 20
-111.7012812920688
 30
0.0
 10
306.2660809162464
 20
-111.5611187493787
 30
0.0
 10
306.4458940496637
 20
-111.483037219852
 30
0.0
 10
306.9799555978781
 20
-111.2282626911664
 30
0.0
 10
307.3246015080616
 20
-111.0325654403422
 30
0.0
 10
307.9772019949085
 20
-110.5961401273737
 30
0.0
 10
308.2872696019426
 20
-110.3545127108904
 30
0.0
 10
308.8737009819871
 20
-109.8228949579305
 30
0.0
 10
309.148919848571
 20
-109.5331099386346
 30
0.0
 10
309.6468073157747
 20
-108.9253138722797
 30
0.0
 10
309.8720636446052
 20
-108.6049197242122
 30
0.0
 10
310.1754598747073
 20
-108.1010176975045
 30
0.0
 10
310.2711050978467
 20
-107.9295019067851
 30
0.0
 10
310.4486107801361
 20
-107.5757080851611
 30
0.0
 10
310.5295889996197
 20
-107.3958480389447
 30
0.0
 10
310.7495705732427
 20
-106.8475463328048
 30
0.0
 10
310.8657868715107
 20
-106.470449499542
 30
0.0
 10
310.9505955342693
 20
-106.0814516669761
 30
0.0
  0
LINE
  5
11B
330
1F
100
AcDbEntity
  8
0
  6
SLD-Solid
 62
   142
420
    32960
370
     0
100
AcDbLine
 10
162.2563733282
 20
-117.7155000273
 30
0.0
 11
161.6128253486
 21
-117.8536438344
 31
0.0
  0
LINE
  5
11C
330
1F
100
AcDbEntity
  8
0
  6
SLD-Solid
 62
   142
420
    32960
370
     0
100
AcDbLine
 10
310.3151555973
 20
-105.9429141051
 30
0.0
 11
310.9505955343
 21
-106.081451667
 31
0.0
  0
CIRCLE
  5
11D
330
1F
100
AcDbEntity
  8
0
  6
SLD-Solid
 62
     7
370
    15
100
AcDbCircle
 10
281.3739791997
 20
183.8363980552
 30
0.0
 40
98.09941204801848
  0
LINE
  5
11E
330
1F
100
AcDbEntity
  8
0
  6
SLD-Solid
 62
   142
420
    32960
370
     0
100
AcDbLine
 10
654.5739791997
 20
673.3261898813
 30
0.0
 11
654.5739791997
 21
645.0659219277
 31
0.0
  0
LINE
  5
11F
330
1F
100
AcDbEntity
  8
0
  6
SLD-Solid
 62
     7
370
    15
100
AcDbLine
 10
156.7239791994
 20
597.3029288979
 30
0.0
 11
117.7739791994
 21
597.3029288979
 31
0.0
  0
LINE
  5
120
330
1F
100
AcDbEntity
  8
0
  6
SLD-Solid
 62
     7
370
    15
100
AcDbLine
 10
156.7239791994
 20
597.3029288979
 30
0.0
 11
156.7239791994
 21
35.3029288979
 31
0.0
  0
LINE
  5
121
330
1F
100
AcDbEntity
  8
0
  6
SLD-Solid
 62
     7
370
    15
100
AcDbLine
 10
117.7739791994
 20
35.3029288979
 30
0.0
 11
156.7239791994
 21
35.3029288979
 31
0.0
  0
LINE
  5
122
330
1F
100
AcDbEntity
  8
0
  6
SLD-Solid
 62
   142
420
    32960
370
     0
100
AcDbLine
 10
117.7739791994
 20
35.3029288979
 30
0.0
 11
117.7739791994
 21
35.3863980553
 31
0.0
  0
LINE
  5
123
330
1F
100
AcDbEntity
  8
0
  6
SLD-Solid
 62
   142
420
    32960
370
     0
100
AcDbLine
 10
105.8239791994
 20
35.3863980553
 30
0.0
 11
117.7739791994
 21
35.3863980553
 31
0.0
  0
LINE
  5
124
330
1F
100
AcDbEntity
  8
0
  6
SLD-Solid
 62
     7
370
    15
100
AcDbLine
 10
105.8239791994
 20
597.2194597405
 30
0.0
 11
105.8239791994
 21
35.3863980553
 31
0.0
  0
LINE
  5
125
330
1F
100
AcDbEntity
  8
0
  6
SLD-Solid
 62
   142
420
    32960
370
     0
100
AcDbLine
 10
105.8239791994
 20
597.2194597405
 30
0.0
 11
117.7739791994
 21
597.2194597405
 31
0.0
  0
LINE
  5
126
330
1F
100
AcDbEntity
  8
0
  6
SLD-Solid
 62
   142
420
    32960
370
     0
100
AcDbLine
 10
117.7739791994
 20
597.2194597405
 30
0.0
 11
117.7739791994
 21
597.3029288979
 31
0.0
  0
CIRCLE
  5
127
330
1F
100
AcDbEntity
  8
0
  6
SLD-Solid
 62
     7
370
    15
100
AcDbCircle
 10
117.7739791994
 20
585.3029288979
 30
0.0
 40
7.500000000000014
  0
CIRCLE
  5
128
330
1F
100
AcDbEntity
  8
0
  6
SLD-Solid
 62
     7
370
    15
100
AcDbCircle
 10
117.7739791994
 20
47.3029288979
 30
0.0
 40
7.500000000000014
  0
CIRCLE
  5
129
330
1F
100
AcDbEntity
  8
0
  6
SLD-Solid
 62
     7
370
    15
100
AcDbCircle
 10
117.7739791994
 20
47.3029288979
 30
0.0
 40
4.0
  0
CIRCLE
  5
12A
330
1F
100
AcDbEntity
  8
0
  6
SLD-Solid
 62
     7
370
    15
100
AcDbCircle
 10
117.7739791994
 20
585.3029288979
 30
0.0
 40
4.0
  0
LINE
  5
12B
330
1F
100
AcDbEntity
  8
0
  6
SLD-Solid
 62
     7
370
    15
100
AcDbLine
 10
691.3239791997
 20
51.1143331405
 30
0.0
 11
691.3239791997
 21
43.65846297
 31
0.0
  0
LINE
  5
12C
330
1F
100
AcDbEntity
  8
0
  6
SLD-Solid
 62
     7
370
    15
100
AcDbLine
 10
691.3239791997
 20
32.6863980553
 30
0.0
 11
691.3239791997
 21
31.4363980553
 31
0.0
  0
LINE
  5
12D
330
1F
100
AcDbEntity
  8
0
  6
SLD-Solid
 62
     7
370
    15
100
AcDbLine
 10
116.3239791997
 20
31.4363980553
 30
0.0
 11
116.3239791997
 21
32.6863980553
 31
0.0
  0
LINE
  5
12E
330
1F
100
AcDbEntity
  8
0
  6
SLD-Solid
 62
     7
370
    15
100
AcDbLine
 10
116.3239791997
 20
43.5749938125
 30
0.0
 11
116.3239791997
 21
51.0308639833
 31
0.0
  0
ARC
  5
12F
330
1F
100
AcDbEntity
  8
0
  6
SLD-Solid
 62
   142
420
    32960
370
     0
100
AcDbCircle
 10
625.5162558108
 20
-91.0264703266
 30
0.0
 40
1.943246067350959
100
AcDbArc
 50
181.809909826
 51
271.7021999702
  0
ARC
  5
130
330
1F
100
AcDbEntity
  8
0
  6
SLD-Solid
 62
   142
420
    32960
370
     0
100
AcDbCircle
 10
639.6317025979
 20
-91.0264703266
 30
0.0
 40
1.943246067351005
100
AcDbArc
 50
268.2978000298
 51
358.190090174
  0
LINE
  5
131
330
1F
100
AcDbEntity
  8
0
  6
SLD-Solid
 62
   142
420
    32960
370
     0
100
AcDbLine
 10
625.5739792044
 20
-92.9688588789
 30
0.0
 11
639.5739792044
 21
-92.9688588789
 31
0.0
  0
LINE
  5
132
330
1F
100
AcDbEntity
  8
0
  6
SLD-Solid
 62
   142
420
    32960
370
     0
100
AcDbLine
 10
105.8739791997
 20
28.9863980553
 30
0.0
 11
105.8739791997
 21
32.6863980553
 31
0.0
  0
LINE
  5
133
330
1F
100
AcDbEntity
  8
0
  6
SLD-Solid
 62
     7
370
    15
100
AcDbLine
 10
103.8239791997
 20
55.7263980553
 30
0.0
 11
103.8239791997
 21
58.8363980553
 31
0.0
  0
LINE
  5
134
330
1F
100
AcDbEntity
  8
0
  6
SLD-Solid
 62
     7
370
    15
100
AcDbLine
 10
103.8239791997
 20
573.8363980553
 30
0.0
 11
103.8239791997
 21
577.0363980553
 31
0.0
  0
ARC
  5
135
330
1F
100
AcDbEntity
  8
0
  6
SLD-Solid
 62
   142
420
    32960
370
     0
100
AcDbCircle
 10
426.9208028649
 20
-88.167798533
 30
0.0
 40
1.498704915935721
100
AcDbArc
 50
182.8711035151
 51
298.8471995542
  0
LINE
  5
136
330
1F
100
AcDbEntity
  8
0
  6
SLD-Solid
 62
   142
420
    32960
370
     0
100
AcDbLine
 10
432.3120436846
 20
-87.0786739511
 30
0.0
 11
427.6438911204
 21
-89.4805284366
 31
0.0
  0
ARC
  5
137
330
1F
100
AcDbEntity
  8
0
  6
SLD-Solid
 62
   142
420
    32960
370
     0
100
AcDbCircle
 10
425.9490154905
 20
-85.5896784414
 30
0.0
 40
6.534924286313512
100
AcDbArc
 50
183.1522913548
 51
346.8293576115
  0
LINE
  5
138
330
1F
100
AcDbEntity
  8
0
  6
SLD-Solid
 62
   142
420
    32960
370
     0
100
AcDbLine
 10
419.4239792039
 20
-85.9490346541
 30
0.0
 11
420.0432450405
 21
-85.6304104432
 31
0.0
  0
LINE
  5
139
330
1F
100
AcDbEntity
  8
0
  6
SLD-Solid
 62
   142
420
    32960
370
     0
100
AcDbLine
 10
425.423979204
 20
-88.2428675244
 30
0.0
 11
425.423979204
 21
-85.6304104432
 31
0.0
  0
LINE
  5
13A
330
1F
100
AcDbEntity
  8
0
  6
SLD-Solid
 62
     7
370
    15
100
AcDbLine
 10
703.8239791997
 20
576.7863980553
 30
0.0
 11
703.8239791997
 21
573.8363980553
 31
0.0
  0
LINE
  5
13B
330
1F
100
AcDbEntity
  8
0
  6
SLD-Solid
 62
     7
370
    15
100
AcDbLine
 10
703.8239791997
 20
58.8363980553
 30
0.0
 11
703.8239791997
 21
55.7263980553
 31
0.0
  0
LINE
  5
13C
330
1F
100
AcDbEntity
  8
0
  6
SLD-Solid
 62
   142
420
    32960
370
     0
100
AcDbLine
 10
701.7739791997
 20
32.6863980553
 30
0.0
 11
701.7739791997
 21
28.9863980553
 31
0.0
  0
ARC
  5
13D
330
1F
100
AcDbEntity
  8
0
  6
SLD-Solid
 62
   142
420
    32960
370
     0
100
AcDbCircle
 10
426.9229204243
 20
-88.2178445273
 30
0.0
 40
0.4995683053117445
100
AcDbArc
 50
182.8711035151
 51
298.8471995542
  0
LINE
  5
13E
330
1F
100
AcDbEntity
  8
0
  6
SLD-Solid
 62
   142
420
    32960
370
     0
100
AcDbLine
 10
426.423979204
 20
-88.2428675244
 30
0.0
 11
426.423979204
 21
-85.6304104432
 31
0.0
  0
LINE
  5
13F
330
1F
100
AcDbEntity
  8
0
  6
SLD-Solid
 62
   142
420
    32960
370
     0
100
AcDbLine
 10
432.4239792041
 20
-85.9490346541
 30
0.0
 11
432.4151446331
 21
-85.6304104432
 31
0.0
  0
LINE
  5
140
330
1F
100
AcDbEntity
  8
0
  6
SLD-Solid
 62
   142
420
    32960
370
     0
100
AcDbLine
 10
432.4239792041
 20
-85.9490346541
 30
0.0
 11
427.1639498428
 21
-88.6554211618
 31
0.0
  0
LINE
  5
141
330
1F
100
AcDbEntity
  8
0
  6
SLD-Solid
 62
     7
370
    15
100
AcDbLine
 10
703.8239791997
 20
680.7363980553
 30
0.0
 11
103.8239791997
 21
680.7363980553
 31
0.0
  0
LINE
  5
142
330
1F
100
AcDbEntity
  8
0
  6
SLD-Solid
 62
   142
420
    32960
370
     0
100
AcDbLine
 10
103.8239791997
 20
680.7363980553
 30
0.0
 11
103.8239791997
 21
678.1558190128
 31
0.0
  0
LINE
  5
143
330
1F
100
AcDbEntity
  8
0
  6
SLD-Solid
 62
   142
420
    32960
370
     0
100
AcDbLine
 10
703.8239791997
 20
680.7363980553
 30
0.0
 11
703.8239791997
 21
678.1558190128
 31
0.0
  0
LINE
  5
144
330
1F
100
AcDbEntity
  8
0
  6
SLD-Solid
 62
     7
370
    15
100
AcDbLine
 10
192.7140300225
 20
647.4719937853
 30
0.0
 11
202.6292842598
 21
666.3075473979
 31
0.0
  0
LINE
  5
145
330
1F
100
AcDbEntity
  8
0
  6
SLD-Solid
 62
     7
370
    15
100
AcDbLine
 10
198.1723586087
 20
673.3261898813
 30
0.0
 11
128.8239791997
 21
673.3261898813
 31
0.0
  0
ARC
  5
146
330
1F
100
AcDbEntity
  8
0
  6
SLD-Solid
 62
     7
370
    15
100
AcDbCircle
 10
128.7402450771
 20
668.4098728073
 30
0.0
 40
4.917030097156935
100
AcDbArc
 50
89.0242395005
 51
178.9898148908
  0
LINE
  5
147
330
1F
100
AcDbEntity
  8
0
  6
SLD-Solid
 62
     7
370
    15
100
AcDbLine
 10
123.8239791997
 20
668.4965607499
 30
0.0
 11
123.8239791997
 21
649.6610071373
 31
0.0
  0
ARC
  5
148
330
1F
100
AcDbEntity
  8
0
  6
SLD-Solid
 62
     7
370
    15
100
AcDbCircle
 10
128.7186386006
 20
649.7354008387
 30
0.0
 40
4.895224721419662
100
AcDbArc
 50
180.8707688506
 51
264.9915779818
  0
LINE
  5
149
330
1F
100
AcDbEntity
  8
0
  6
SLD-Solid
 62
     7
370
    15
100
AcDbLine
 10
103.8239791997
 20
678.1558190128
 30
0.0
 11
103.8239791997
 21
644.8588666916
 31
0.0
  0
LINE
  5
14A
330
1F
100
AcDbEntity
  8
0
  6
SLD-Solid
 62
     7
370
    15
100
AcDbLine
 10
703.8239791997
 20
678.1558190128
 30
0.0
 11
703.8239791997
 21
644.8588666916
 31
0.0
  0
ARC
  5
14B
330
1F
100
AcDbEntity
  8
0
  6
SLD-Solid
 62
     7
370
    15
100
AcDbCircle
 10
678.9293197989
 20
649.7354008387
 30
0.0
 40
4.895224721419323
100
AcDbArc
 50
275.0084220182
 51
359.1292311494
  0
LINE
  5
14C
330
1F
100
AcDbEntity
  8
0
  6
SLD-Solid
 62
     7
370
    15
100
AcDbLine
 10
683.8239791997
 20
649.6610071373
 30
0.0
 11
683.8239791997
 21
668.4965607499
 31
0.0
  0
ARC
  5
14D
330
1F
100
AcDbEntity
  8
0
  6
SLD-Solid
 62
     7
370
    15
100
AcDbCircle
 10
678.9077133223
 20
668.4098728073
 30
0.0
 40
4.917030097156947
100
AcDbArc
 50
1.0101851092
 51
90.9757604995
  0
LINE
  5
14E
330
1F
100
AcDbEntity
  8
0
  6
SLD-Solid
 62
     7
370
    15
100
AcDbLine
 10
678.8239791997
 20
673.3261898813
 30
0.0
 11
619.390854028
 21
673.3261898813
 31
0.0
  0
LINE
  5
14F
330
1F
100
AcDbEntity
  8
0
  6
SLD-Solid
 62
     7
370
    15
100
AcDbLine
 10
614.9339283769
 20
670.6855741019
 30
0.0
 11
605.0186741396
 21
651.8500204892
 31
0.0
  0
LINE
  5
150
330
1F
100
AcDbEntity
  8
0
  6
SLD-Solid
 62
     7
370
    15
100
AcDbLine
 10
592.7140300225
 20
647.4719937853
 30
0.0
 11
602.6292842598
 21
666.3075473979
 31
0.0
  0
LINE
  5
151
330
1F
100
AcDbEntity
  8
0
  6
SLD-Solid
 62
     7
370
    15
100
AcDbLine
 10
598.1723586087
 20
673.3261898813
 30
0.0
 11
519.390854028
 21
673.3261898813
 31
0.0
  0
ARC
  5
152
330
1F
100
AcDbEntity
  8
0
  6
SLD-Solid
 62
     7
370
    15
100
AcDbCircle
 10
519.3549067772
 20
668.305275875
 30
0.0
 40
5.021042686941928
100
AcDbArc
 50
89.5897976815
 51
151.7015410578
  0
LINE
  5
153
330
1F
100
AcDbEntity
  8
0
  6
SLD-Solid
 62
     7
370
    15
100
AcDbLine
 10
514.9339283769
 20
670.6855741019
 30
0.0
 11
505.0186741396
 21
651.8500204892
 31
0.0
  0
LINE
  5
154
330
1F
100
AcDbEntity
  8
0
  6
SLD-Solid
 62
     7
370
    15
100
AcDbLine
 10
492.7140300225
 20
647.4719937853
 30
0.0
 11
502.6292842598
 21
666.3075473979
 31
0.0
  0
ARC
  5
155
330
1F
100
AcDbEntity
  8
0
  6
SLD-Solid
 62
     7
370
    15
100
AcDbCircle
 10
498.3062050693
 20
668.4867610828
 30
0.0
 40
4.841279373383049
100
AcDbArc
 50
333.2478610927
 51
91.5842536627
  0
LINE
  5
156
330
1F
100
AcDbEntity
  8
0
  6
SLD-Solid
 62
     7
370
    15
100
AcDbLine
 10
498.1723586087
 20
673.3261898813
 30
0.0
 11
419.390854028
 21
673.3261898813
 31
0.0
  0
ARC
  5
157
330
1F
100
AcDbEntity
  8
0
  6
SLD-Solid
 62
     7
370
    15
100
AcDbCircle
 10
388.3075468342
 20
649.8362271155
 30
0.0
 40
5.000669288030712
100
AcDbArc
 50
275.5341758579
 51
331.784876003
  0
ARC
  5
158
330
1F
100
AcDbEntity
  8
0
  6
SLD-Solid
 62
     7
370
    15
100
AcDbCircle
 10
398.3062050693
 20
668.4867610828
 30
0.0
 40
4.841279373382944
100
AcDbArc
 50
333.2478610927
 51
91.5842536627
  0
LINE
  5
159
330
1F
100
AcDbEntity
  8
0
  6
SLD-Solid
 62
     7
370
    15
100
AcDbLine
 10
398.1723586087
 20
673.3261898813
 30
0.0
 11
319.390854028
 21
673.3261898813
 31
0.0
  0
ARC
  5
15A
330
1F
100
AcDbEntity
  8
0
  6
SLD-Solid
 62
     7
370
    15
100
AcDbCircle
 10
319.3549067772
 20
668.305275875
 30
0.0
 40
5.021042686941701
100
AcDbArc
 50
89.5897976815
 51
151.7015410578
  0
LINE
  5
15B
330
1F
100
AcDbEntity
  8
0
  6
SLD-Solid
 62
     7
370
    15
100
AcDbLine
 10
314.9339283769
 20
670.6855741019
 30
0.0
 11
305.0186741396
 21
651.8500204892
 31
0.0
  0
LINE
  5
15C
330
1F
100
AcDbEntity
  8
0
  6
SLD-Solid
 62
     7
370
    15
100
AcDbLine
 10
292.7140300225
 20
647.4719937853
 30
0.0
 11
302.6292842598
 21
666.3075473979
 31
0.0
  0
ARC
  5
15D
330
1F
100
AcDbEntity
  8
0
  6
SLD-Solid
 62
     7
370
    15
100
AcDbCircle
 10
298.3062050693
 20
668.4867610828
 30
0.0
 40
4.841279373383052
100
AcDbArc
 50
333.2478610927
 51
91.5842536627
  0
LINE
  5
15E
330
1F
100
AcDbEntity
  8
0
  6
SLD-Solid
 62
     7
370
    15
100
AcDbLine
 10
298.1723586087
 20
673.3261898813
 30
0.0
 11
219.390854028
 21
673.3261898813
 31
0.0
  0
LINE
  5
15F
330
1F
100
AcDbEntity
  8
0
  6
SLD-Solid
 62
     7
370
    15
100
AcDbLine
 10
214.9339283769
 20
670.6855741019
 30
0.0
 11
205.0186741396
 21
651.8500204892
 31
0.0
  0
ARC
  5
160
330
1F
100
AcDbEntity
  8
0
  6
SLD-Solid
 62
     7
370
    15
100
AcDbCircle
 10
209.317851465
 20
649.6662680887
 30
0.0
 40
4.822001682067565
100
AcDbArc
 50
153.0718636158
 51
265.5402115369
  0
ARC
  5
161
330
1F
100
AcDbEntity
  8
0
  6
SLD-Solid
 62
   142
420
    32960
370
     0
100
AcDbCircle
 10
219.3549067772
 20
668.305275875
 30
0.0
 40
5.021042686941632
100
AcDbArc
 50
89.5897976815
 51
151.7015410578
  0
ARC
  5
162
330
1F
100
AcDbEntity
  8
0
  6
SLD-Solid
 62
   142
420
    32960
370
     0
100
AcDbCircle
 10
288.3075468342
 20
649.8362271155
 30
0.0
 40
5.000669288030164
100
AcDbArc
 50
275.5341758579
 51
331.784876003
  0
ARC
  5
163
330
1F
100
AcDbEntity
  8
0
  6
SLD-Solid
 62
   142
420
    32960
370
     0
100
AcDbCircle
 10
309.317851465
 20
649.6662680887
 30
0.0
 40
4.822001682067637
100
AcDbArc
 50
153.0718636158
 51
265.5402115369
  0
LINE
  5
164
330
1F
100
AcDbEntity
  8
0
  6
SLD-Solid
 62
   142
420
    32960
370
     0
100
AcDbLine
 10
392.7140300225
 20
647.4719937853
 30
0.0
 11
402.6292842598
 21
666.3075473979
 31
0.0
  0
ARC
  5
165
330
1F
100
AcDbEntity
  8
0
  6
SLD-Solid
 62
   142
420
    32960
370
     0
100
AcDbCircle
 10
409.317851465
 20
649.6662680887
 30
0.0
 40
4.822001682067662
100
AcDbArc
 50
153.0718636158
 51
265.5402115369
  0
LINE
  5
166
330
1F
100
AcDbEntity
  8
0
  6
SLD-Solid
 62
   142
420
    32960
370
     0
100
AcDbLine
 10
414.9339283769
 20
670.6855741019
 30
0.0
 11
405.0186741396
 21
651.8500204892
 31
0.0
  0
ARC
  5
167
330
1F
100
AcDbEntity
  8
0
  6
SLD-Solid
 62
   142
420
    32960
370
     0
100
AcDbCircle
 10
419.3549067772
 20
668.305275875
 30
0.0
 40
5.021042686941701
100
AcDbArc
 50
89.5897976815
 51
151.7015410578
  0
ARC
  5
168
330
1F
100
AcDbEntity
  8
0
  6
SLD-Solid
 62
   142
420
    32960
370
     0
100
AcDbCircle
 10
488.3075468342
 20
649.8362271155
 30
0.0
 40
5.000669288030765
100
AcDbArc
 50
275.5341758579
 51
331.784876003
  0
ARC
  5
169
330
1F
100
AcDbEntity
  8
0
  6
SLD-Solid
 62
   142
420
    32960
370
     0
100
AcDbCircle
 10
509.317851465
 20
649.6662680887
 30
0.0
 40
4.82200168206742
100
AcDbArc
 50
153.0718636158
 51
265.5402115369
  0
ARC
  5
16A
330
1F
100
AcDbEntity
  8
0
  6
SLD-Solid
 62
   142
420
    32960
370
     0
100
AcDbCircle
 10
598.3062050693
 20
668.4867610828
 30
0.0
 40
4.841279373383061
100
AcDbArc
 50
333.2478610927
 51
91.5842536627
  0
ARC
  5
16B
330
1F
100
AcDbEntity
  8
0
  6
SLD-Solid
 62
   142
420
    32960
370
     0
100
AcDbCircle
 10
588.3075468342
 20
649.8362271155
 30
0.0
 40
5.00066928803102
100
AcDbArc
 50
275.5341758579
 51
331.784876003
  0
ARC
  5
16C
330
1F
100
AcDbEntity
  8
0
  6
SLD-Solid
 62
   142
420
    32960
370
     0
100
AcDbCircle
 10
609.317851465
 20
649.6662680887
 30
0.0
 40
4.822001682067227
100
AcDbArc
 50
153.0718636158
 51
265.5402115369
  0
ARC
  5
16D
330
1F
100
AcDbEntity
  8
0
  6
SLD-Solid
 62
   142
420
    32960
370
     0
100
AcDbCircle
 10
619.3549067772
 20
668.305275875
 30
0.0
 40
5.021042686941037
100
AcDbArc
 50
89.5897976815
 51
151.7015410578
  0
ARC
  5
16E
330
1F
100
AcDbEntity
  8
0
  6
SLD-Solid
 62
   142
420
    32960
370
     0
100
AcDbCircle
 10
198.3062050693
 20
668.4867610828
 30
0.0
 40
4.841279373383061
100
AcDbArc
 50
333.2478610927
 51
91.5842536627
  0
ARC
  5
16F
330
1F
100
AcDbEntity
  8
0
  6
SLD-Solid
 62
   142
420
    32960
370
     0
100
AcDbCircle
 10
188.3075468342
 20
649.8362271155
 30
0.0
 40
5.000669288030017
100
AcDbArc
 50
275.534175858
 51
331.784876003
  0
LWPOLYLINE
  5
170
330
1F
100
AcDbEntity
  8
0
  6
SLD-Solid
 62
   142
420
    32960
370
     0
100
AcDbPolyline
 90
        3
 70
   128
 43
0.0
 10
402.6292842598
 20
666.514602634
 10
403.0569692689
 20
667.6720276895
 10
403.1712097284
 20
668.6000883681
  0
LINE
  5
171
330
1F
100
AcDbEntity
  8
0
  6
SLD-Solid
 62
   142
420
    32960
370
     0
100
AcDbLine
 10
402.6292842598
 20
666.514602634
 30
0.0
 11
402.6292842598
 21
666.3075473979
 31
0.0
  0
LWPOLYLINE
  5
172
330
1F
100
AcDbEntity
  8
0
  6
SLD-Solid
 62
   142
420
    32960
370
     0
100
AcDbPolyline
 90
        3
 70
   128
 43
0.0
 10
302.6292842598
 20
666.514602634
 10
303.0569692689
 20
667.6720276895
 10
303.1712097284
 20
668.600088369
  0
LWPOLYLINE
  5
173
330
1F
100
AcDbEntity
  8
0
  6
SLD-Solid
 62
   142
420
    32960
370
     0
100
AcDbPolyline
 90
        3
 70
   128
 43
0.0
 10
502.6292842598
 20
666.514602634
 10
503.0569692689
 20
667.6720276895
 10
503.1712097285
 20
668.6000883703
  0
LINE
  5
174
330
1F
100
AcDbEntity
  8
0
  6
SLD-Solid
 62
   142
420
    32960
370
     0
100
AcDbLine
 10
292.7140300225
 20
647.6790490214
 30
0.0
 11
302.6292842598
 21
666.514602634
 31
0.0
  0
LINE
  5
175
330
1F
100
AcDbEntity
  8
0
  6
SLD-Solid
 62
   142
420
    32960
370
     0
100
AcDbLine
 10
292.7140300225
 20
647.6790490214
 30
0.0
 11
292.7140300225
 21
647.4719937853
 31
0.0
  0
LINE
  5
176
330
1F
100
AcDbEntity
  8
0
  6
SLD-Solid
 62
   142
420
    32960
370
     0
100
AcDbLine
 10
602.6292842598
 20
666.514602634
 30
0.0
 11
602.6292842598
 21
666.3075473979
 31
0.0
  0
LINE
  5
177
330
1F
100
AcDbEntity
  8
0
  6
SLD-Solid
 62
   142
420
    32960
370
     0
100
AcDbLine
 10
592.7140300225
 20
647.6790490214
 30
0.0
 11
602.6292842598
 21
666.514602634
 31
0.0
  0
LINE
  5
178
330
1F
100
AcDbEntity
  8
0
  6
SLD-Solid
 62
   142
420
    32960
370
     0
100
AcDbLine
 10
592.7140300225
 20
647.6790490214
 30
0.0
 11
592.7140300225
 21
647.4719937853
 31
0.0
  0
LINE
  5
179
330
1F
100
AcDbEntity
  8
0
  6
SLD-Solid
 62
   142
420
    32960
370
     0
100
AcDbLine
 10
492.7140300225
 20
647.6790490214
 30
0.0
 11
502.6292842598
 21
666.514602634
 31
0.0
  0
LINE
  5
17A
330
1F
100
AcDbEntity
  8
0
  6
SLD-Solid
 62
   142
420
    32960
370
     0
100
AcDbLine
 10
492.7140300225
 20
647.6790490214
 30
0.0
 11
492.7140300225
 21
647.4719937853
 31
0.0
  0
LINE
  5
17B
330
1F
100
AcDbEntity
  8
0
  6
SLD-Solid
 62
   142
420
    32960
370
     0
100
AcDbLine
 10
202.6292842598
 20
666.514602634
 30
0.0
 11
202.6292842598
 21
666.3075473979
 31
0.0
  0
LINE
  5
17C
330
1F
100
AcDbEntity
  8
0
  6
SLD-Solid
 62
   142
420
    32960
370
     0
100
AcDbLine
 10
192.7140300225
 20
647.6790490214
 30
0.0
 11
202.6292842598
 21
666.514602634
 31
0.0
  0
LINE
  5
17D
330
1F
100
AcDbEntity
  8
0
  6
SLD-Solid
 62
   142
420
    32960
370
     0
100
AcDbLine
 10
192.7140300225
 20
647.6790490214
 30
0.0
 11
192.7140300225
 21
647.4719937853
 31
0.0
  0
SPLINE
  5
17E
330
1F
100
AcDbEntity
  8
0
  6
SLD-Solid
 62
     7
370
    15
100
AcDbSpline
210
0.0
220
0.0
230
1.0
 70
     8
 71
     3
 72
     8
 73
     4
 74
     0
 42
0.00000001
 43
0.00000001
 40
0.0
 40
0.0
 40
0.0
 40
0.0
 40
1.0
 40
1.0
 40
1.0
 40
1.0
 10
209.4755997906801
 20
644.8313820680746
 30
0.0
 10
209.2975248976948
 20
644.8313820680746
 30
0.0
 10
209.119956777497
 20
644.8405409010674
 30
0.0
 10
208.9428954291642
 20
644.858866691608
 30
0.0
  0
ARC
  5
17F
330
1F
100
AcDbEntity
  8
0
  6
SLD-Solid
 62
   142
420
    32960
370
     0
100
AcDbCircle
 10
209.4755595549
 20
650.2130476137
 30
0.0
 40
5.174614371959361
100
AcDbArc
 50
264.091624781
 51
270.0004455096
  0
ARC
  5
180
330
1F
100
AcDbEntity
  8
0
  6
SLD-Solid
 62
   142
420
    32960
370
     0
100
AcDbCircle
 10
209.3727899388
 20
649.9464446473
 30
0.0
 40
4.899419486633537
100
AcDbArc
 50
182.1278164895
 51
264.9661675251
  0
SPLINE
  5
181
330
1F
100
AcDbEntity
  8
0
  6
SLD-Solid
 62
     7
370
    15
100
AcDbSpline
210
0.0
220
0.0
230
1.0
 70
     8
 71
     3
 72
     8
 73
     4
 74
     0
 42
0.00000001
 43
0.00000001
 40
0.0
 40
0.0
 40
0.0
 40
0.0
 40
1.0
 40
1.0
 40
1.0
 40
1.0
 10
128.8239791997063
 20
644.8313820680743
 30
0.0
 10
128.6459043067192
 20
644.8313820680743
 30
0.0
 10
128.4683361865195
 20
644.8405409010671
 30
0.0
 10
128.291274838185
 20
644.8588666916082
 30
0.0
  0
ARC
  5
182
330
1F
100
AcDbEntity
  8
0
  6
SLD-Solid
 62
   142
420
    32960
370
     0
100
AcDbCircle
 10
128.8239389639
 20
650.2130476136
 30
0.0
 40
5.174614371828167
100
AcDbArc
 50
264.0916247808
 51
270.0004455097
  0
ARC
  5
183
330
1F
100
AcDbEntity
  8
0
  6
SLD-Solid
 62
   142
420
    32960
370
     0
100
AcDbCircle
 10
128.7186386006
 20
649.9424560748
 30
0.0
 40
4.895224721419286
100
AcDbArc
 50
180.8707688506
 51
264.9915779818
  0
SPLINE
  5
184
330
1F
100
AcDbEntity
  8
0
  6
SLD-Solid
 62
     7
370
    15
100
AcDbSpline
210
0.0
220
0.0
230
1.0
 70
     8
 71
     3
 72
     8
 73
     4
 74
     0
 42
0.00000001
 43
0.00000001
 40
0.0
 40
0.0
 40
0.0
 40
0.0
 40
1.0
 40
1.0
 40
1.0
 40
1.0
 10
679.3566835612286
 20
644.858866691608
 30
0.0
 10
679.1796222128936
 20
644.8405409010669
 30
0.0
 10
679.0020540926938
 20
644.831382068074
 30
0.0
 10
678.8239791997064
 20
644.831382068074
 30
0.0
  0
ARC
  5
185
330
1F
100
AcDbEntity
  8
0
  6
SLD-Solid
 62
   142
420
    32960
370
     0
100
AcDbCircle
 10
678.9293197989
 20
649.9424560748
 30
0.0
 40
4.895224721419019
100
AcDbArc
 50
275.0084220182
 51
359.1292311494
  0
ARC
  5
186
330
1F
100
AcDbEntity
  8
0
  6
SLD-Solid
 62
   142
420
    32960
370
     0
100
AcDbCircle
 10
678.8240194355
 20
650.2130476135
 30
0.0
 40
5.17461437180054
100
AcDbArc
 50
269.9995544903
 51
275.9083752192
  0
SPLINE
  5
187
330
1F
100
AcDbEntity
  8
0
  6
SLD-Solid
 62
     7
370
    15
100
AcDbSpline
210
0.0
220
0.0
230
1.0
 70
     8
 71
     3
 72
     8
 73
     4
 74
     0
 42
0.00000001
 43
0.00000001
 40
0.0
 40
0.0
 40
0.0
 40
0.0
 40
1.0
 40
1.0
 40
1.0
 40
1.0
 10
388.7898087329623
 20
644.8588666916082
 30
0.0
 10
388.612747384629
 20
644.8405409010674
 30
0.0
 10
388.4351792644305
 20
644.8313820680744
 30
0.0
 10
388.2571043714447
 20
644.8313820680744
 30
0.0
  0
LINE
  5
188
330
1F
100
AcDbEntity
  8
0
  6
SLD-Solid
 62
   142
420
    32960
370
     0
100
AcDbLine
 10
392.7140300225
 20
647.6790490214
 30
0.0
 11
392.7140300225
 21
647.4719937853
 31
0.0
  0
ARC
  5
189
330
1F
100
AcDbEntity
  8
0
  6
SLD-Solid
 62
   142
420
    32960
370
     0
100
AcDbCircle
 10
388.3075468342
 20
650.0432823516
 30
0.0
 40
5.000669288029738
100
AcDbArc
 50
275.5341758579
 51
331.784876003
  0
ARC
  5
18A
330
1F
100
AcDbEntity
  8
0
  6
SLD-Solid
 62
   142
420
    32960
370
     0
100
AcDbCircle
 10
388.2571446072
 20
650.2130476136
 30
0.0
 40
5.174614371889333
100
AcDbArc
 50
269.9995544904
 51
275.9083752191
  0
LINE
  5
18B
330
1F
100
AcDbEntity
  8
0
  6
SLD-Solid
 62
     7
370
    15
100
AcDbLine
 10
388.2571043714
 20
644.8313820681
 30
0.0
 11
309.4755997907
 21
644.8313820681
 31
0.0
  0
LINE
  5
18C
330
1F
100
AcDbEntity
  8
0
  6
SLD-Solid
 62
     7
370
    15
100
AcDbLine
 10
488.2571043714
 20
644.8313820681
 30
0.0
 11
409.4755997907
 21
644.8313820681
 31
0.0
  0
LINE
  5
18D
330
1F
100
AcDbEntity
  8
0
  6
SLD-Solid
 62
     7
370
    15
100
AcDbLine
 10
588.2571043714
 20
644.8313820681
 30
0.0
 11
509.4755997907
 21
644.8313820681
 31
0.0
  0
LINE
  5
18E
330
1F
100
AcDbEntity
  8
0
  6
SLD-Solid
 62
     7
370
    15
100
AcDbLine
 10
678.8239791997
 20
644.8313820681
 30
0.0
 11
609.4755997907
 21
644.8313820681
 31
0.0
  0
LINE
  5
18F
330
1F
100
AcDbEntity
  8
0
  6
SLD-Solid
 62
     7
370
    15
100
AcDbLine
 10
703.8239791997
 20
644.8588666916
 30
0.0
 11
703.8239791997
 21
625.7363980553
 31
0.0
  0
LINE
  5
190
330
1F
100
AcDbEntity
  8
0
  6
SLD-Solid
 62
     7
370
    15
100
AcDbLine
 10
703.8239791997
 20
625.7363980553
 30
0.0
 11
103.8239791997
 21
625.7363980553
 31
0.0
  0
LINE
  5
191
330
1F
100
AcDbEntity
  8
0
  6
SLD-Solid
 62
     7
370
    15
100
AcDbLine
 10
103.8239791997
 20
644.8588666916
 30
0.0
 11
103.8239791997
 21
625.7363980553
 31
0.0
  0
LINE
  5
192
330
1F
100
AcDbEntity
  8
0
  6
SLD-Solid
 62
     7
370
    15
100
AcDbLine
 10
188.2571043714
 20
644.8313820681
 30
0.0
 11
128.8239791997
 21
644.8313820681
 31
0.0
  0
LINE
  5
193
330
1F
100
AcDbEntity
  8
0
  6
SLD-Solid
 62
     7
370
    15
100
AcDbLine
 10
288.2571043714
 20
644.8313820681
 30
0.0
 11
209.4755997907
 21
644.8313820681
 31
0.0
  0
SPLINE
  5
194
330
1F
100
AcDbEntity
  8
0
  6
SLD-Solid
 62
   142
420
    32960
370
     0
100
AcDbSpline
210
0.0
220
0.0
230
1.0
 70
     8
 71
     3
 72
     8
 73
     4
 74
     0
 42
0.00000001
 43
0.00000001
 40
0.0
 40
0.0
 40
0.0
 40
0.0
 40
1.0
 40
1.0
 40
1.0
 40
1.0
 10
188.7898087329659
 20
644.8588666916082
 30
0.0
 10
188.6127473846313
 20
644.8405409010671
 30
0.0
 10
188.4351792644315
 20
644.8313820680743
 30
0.0
 10
188.2571043714443
 20
644.8313820680743
 30
0.0
  0
SPLINE
  5
195
330
1F
100
AcDbEntity
  8
0
  6
SLD-Solid
 62
   142
420
    32960
370
     0
100
AcDbSpline
210
0.0
220
0.0
230
1.0
 70
     8
 71
     3
 72
     8
 73
     4
 74
     0
 42
0.00000001
 43
0.00000001
 40
0.0
 40
0.0
 40
0.0
 40
0.0
 40
1.0
 40
1.0
 40
1.0
 40
1.0
 10
609.4755997906799
 20
644.831382068074
 30
0.0
 10
609.2975248976925
 20
644.831382068074
 30
0.0
 10
609.1199567774926
 20
644.8405409010669
 30
0.0
 10
608.9428954291578
 20
644.858866691608
 30
0.0
  0
SPLINE
  5
196
330
1F
100
AcDbEntity
  8
0
  6
SLD-Solid
 62
   142
420
    32960
370
     0
100
AcDbSpline
210
0.0
220
0.0
230
1.0
 70
     8
 71
     3
 72
     8
 73
     4
 74
     0
 42
0.00000001
 43
0.00000001
 40
0.0
 40
0.0
 40
0.0
 40
0.0
 40
1.0
 40
1.0
 40
1.0
 40
1.0
 10
588.7898087329623
 20
644.858866691608
 30
0.0
 10
588.612747384629
 20
644.8405409010671
 30
0.0
 10
588.4351792644303
 20
644.8313820680744
 30
0.0
 10
588.2571043714443
 20
644.8313820680744
 30
0.0
  0
SPLINE
  5
197
330
1F
100
AcDbEntity
  8
0
  6
SLD-Solid
 62
   142
420
    32960
370
     0
100
AcDbSpline
210
0.0
220
0.0
230
1.0
 70
     8
 71
     3
 72
     8
 73
     4
 74
     0
 42
0.00000001
 43
0.00000001
 40
0.0
 40
0.0
 40
0.0
 40
0.0
 40
1.0
 40
1.0
 40
1.0
 40
1.0
 10
509.4755997906801
 20
644.8313820680744
 30
0.0
 10
509.2975248976938
 20
644.8313820680744
 30
0.0
 10
509.1199567774951
 20
644.8405409010671
 30
0.0
 10
508.9428954291615
 20
644.858866691608
 30
0.0
  0
SPLINE
  5
198
330
1F
100
AcDbEntity
  8
0
  6
SLD-Solid
 62
   142
420
    32960
370
     0
100
AcDbSpline
210
0.0
220
0.0
230
1.0
 70
     8
 71
     3
 72
     8
 73
     4
 74
     0
 42
0.00000001
 43
0.00000001
 40
0.0
 40
0.0
 40
0.0
 40
0.0
 40
1.0
 40
1.0
 40
1.0
 40
1.0
 10
488.7898087329619
 20
644.858866691608
 30
0.0
 10
488.6127473846287
 20
644.8405409010671
 30
0.0
 10
488.4351792644302
 20
644.8313820680744
 30
0.0
 10
488.2571043714444
 20
644.8313820680744
 30
0.0
  0
SPLINE
  5
199
330
1F
100
AcDbEntity
  8
0
  6
SLD-Solid
 62
   142
420
    32960
370
     0
100
AcDbSpline
210
0.0
220
0.0
230
1.0
 70
     8
 71
     3
 72
     8
 73
     4
 74
     0
 42
0.00000001
 43
0.00000001
 40
0.0
 40
0.0
 40
0.0
 40
0.0
 40
1.0
 40
1.0
 40
1.0
 40
1.0
 10
409.4755997906802
 20
644.8313820680744
 30
0.0
 10
409.2975248976942
 20
644.8313820680744
 30
0.0
 10
409.1199567774956
 20
644.8405409010671
 30
0.0
 10
408.9428954291621
 20
644.858866691608
 30
0.0
  0
SPLINE
  5
19A
330
1F
100
AcDbEntity
  8
0
  6
SLD-Solid
 62
   142
420
    32960
370
     0
100
AcDbSpline
210
0.0
220
0.0
230
1.0
 70
     8
 71
     3
 72
     8
 73
     4
 74
     0
 42
0.00000001
 43
0.00000001
 40
0.0
 40
0.0
 40
0.0
 40
0.0
 40
1.0
 40
1.0
 40
1.0
 40
1.0
 10
309.4755997906805
 20
644.8313820680744
 30
0.0
 10
309.2975248976944
 20
644.8313820680744
 30
0.0
 10
309.1199567774958
 20
644.8405409010674
 30
0.0
 10
308.9428954291623
 20
644.8588666916082
 30
0.0
  0
SPLINE
  5
19B
330
1F
100
AcDbEntity
  8
0
  6
SLD-Solid
 62
   142
420
    32960
370
     0
100
AcDbSpline
210
0.0
220
0.0
230
1.0
 70
     8
 71
     3
 72
     8
 73
     4
 74
     0
 42
0.00000001
 43
0.00000001
 40
0.0
 40
0.0
 40
0.0
 40
0.0
 40
1.0
 40
1.0
 40
1.0
 40
1.0
 10
288.7898087329597
 20
644.858866691608
 30
0.0
 10
288.6127473846271
 20
644.8405409010674
 30
0.0
 10
288.4351792644294
 20
644.8313820680746
 30
0.0
 10
288.2571043714444
 20
644.8313820680746
 30
0.0
  0
LINE
  5
19C
330
1F
100
AcDbEntity
  8
0
  6
SLD-Solid
 62
   142
420
    32960
370
     0
100
AcDbLine
 10
288.2571043714
 20
645.0384332419
 30
0.0
 11
288.2571043714
 21
644.8313820681
 31
0.0
  0
LINE
  5
19D
330
1F
100
AcDbEntity
  8
0
  6
SLD-Solid
 62
   142
420
    32960
370
     0
100
AcDbLine
 10
209.4755997907
 20
645.0384332419
 30
0.0
 11
288.2571043714
 21
645.0384332419
 31
0.0
  0
LINE
  5
19E
330
1F
100
AcDbEntity
  8
0
  6
SLD-Solid
 62
   142
420
    32960
370
     0
100
AcDbLine
 10
309.4755997907
 20
645.0384332419
 30
0.0
 11
388.2571043714
 21
645.0384332419
 31
0.0
  0
LINE
  5
19F
330
1F
100
AcDbEntity
  8
0
  6
SLD-Solid
 62
   142
420
    32960
370
     0
100
AcDbLine
 10
309.4755997907
 20
645.0384332419
 30
0.0
 11
309.4755997907
 21
644.8313820681
 31
0.0
  0
LINE
  5
1A0
330
1F
100
AcDbEntity
  8
0
  6
SLD-Solid
 62
   142
420
    32960
370
     0
100
AcDbLine
 10
488.2571043714
 20
645.0384332419
 30
0.0
 11
488.2571043714
 21
644.8313820681
 31
0.0
  0
LINE
  5
1A1
330
1F
100
AcDbEntity
  8
0
  6
SLD-Solid
 62
   142
420
    32960
370
     0
100
AcDbLine
 10
409.4755997907
 20
645.0384332419
 30
0.0
 11
488.2571043714
 21
645.0384332419
 31
0.0
  0
LINE
  5
1A2
330
1F
100
AcDbEntity
  8
0
  6
SLD-Solid
 62
   142
420
    32960
370
     0
100
AcDbLine
 10
409.4755997907
 20
645.0384332419
 30
0.0
 11
409.4755997907
 21
644.8313820681
 31
0.0
  0
LINE
  5
1A3
330
1F
100
AcDbEntity
  8
0
  6
SLD-Solid
 62
   142
420
    32960
370
     0
100
AcDbLine
 10
588.2571043714
 20
645.0384332419
 30
0.0
 11
588.2571043714
 21
644.8313820681
 31
0.0
  0
LINE
  5
1A4
330
1F
100
AcDbEntity
  8
0
  6
SLD-Solid
 62
   142
420
    32960
370
     0
100
AcDbLine
 10
509.4755997907
 20
645.0384332419
 30
0.0
 11
588.2571043714
 21
645.0384332419
 31
0.0
  0
LINE
  5
1A5
330
1F
100
AcDbEntity
  8
0
  6
SLD-Solid
 62
   142
420
    32960
370
     0
100
AcDbLine
 10
509.4755997907
 20
645.0384332419
 30
0.0
 11
509.4755997907
 21
644.8313820681
 31
0.0
  0
LINE
  5
1A6
330
1F
100
AcDbEntity
  8
0
  6
SLD-Solid
 62
   142
420
    32960
370
     0
100
AcDbLine
 10
188.2571043714
 20
645.0384332419
 30
0.0
 11
188.2571043714
 21
644.8313820681
 31
0.0
  0
LINE
  5
1A7
330
1F
100
AcDbEntity
  8
0
  6
SLD-Solid
 62
   142
420
    32960
370
     0
100
AcDbLine
 10
128.8239791997
 20
645.0384332419
 30
0.0
 11
188.2571043714
 21
645.0384332419
 31
0.0
  0
LINE
  5
1A8
330
1F
100
AcDbEntity
  8
0
  6
SLD-Solid
 62
   142
420
    32960
370
     0
100
AcDbLine
 10
609.4755997907
 20
645.0384332419
 30
0.0
 11
678.8239791997
 21
645.0384332419
 31
0.0
  0
LINE
  5
1A9
330
1F
100
AcDbEntity
  8
0
  6
SLD-Solid
 62
   142
420
    32960
370
     0
100
AcDbLine
 10
609.4755997907
 20
645.0384332419
 30
0.0
 11
609.4755997907
 21
644.8313820681
 31
0.0
  0
LINE
  5
1AA
330
1F
100
AcDbEntity
  8
0
  6
SLD-Solid
 62
   142
420
    32960
370
     0
100
AcDbLine
 10
188.789808733
 20
645.0659219277
 30
0.0
 11
128.2912748382
 21
645.0659219277
 31
0.0
  0
LINE
  5
1AB
330
1F
100
AcDbEntity
  8
0
  6
SLD-Solid
 62
   142
420
    32960
370
     0
100
AcDbLine
 10
189.7963304442
 20
645.0659219277
 30
0.0
 11
188.789808733
 21
645.0659219277
 31
0.0
  0
LINE
  5
1AC
330
1F
100
AcDbEntity
  8
0
  6
SLD-Solid
 62
   142
420
    32960
370
     0
100
AcDbLine
 10
288.789808733
 20
645.0659219277
 30
0.0
 11
208.9428954292
 21
645.0659219277
 31
0.0
  0
LINE
  5
1AD
330
1F
100
AcDbEntity
  8
0
  6
SLD-Solid
 62
   142
420
    32960
370
     0
100
AcDbLine
 10
308.9428954292
 20
645.0659219277
 30
0.0
 11
307.9363737179
 21
645.0659219277
 31
0.0
  0
LINE
  5
1AE
330
1F
100
AcDbEntity
  8
0
  6
SLD-Solid
 62
   142
420
    32960
370
     0
100
AcDbLine
 10
289.7963304442
 20
645.0659219277
 30
0.0
 11
288.789808733
 21
645.0659219277
 31
0.0
  0
LINE
  5
1AF
330
1F
100
AcDbEntity
  8
0
  6
SLD-Solid
 62
   142
420
    32960
370
     0
100
AcDbLine
 10
388.789808733
 20
645.0659219277
 30
0.0
 11
308.9428954292
 21
645.0659219277
 31
0.0
  0
LINE
  5
1B0
330
1F
100
AcDbEntity
  8
0
  6
SLD-Solid
 62
   142
420
    32960
370
     0
100
AcDbLine
 10
408.9428954292
 20
645.0659219277
 30
0.0
 11
407.9363737179
 21
645.0659219277
 31
0.0
  0
LINE
  5
1B1
330
1F
100
AcDbEntity
  8
0
  6
SLD-Solid
 62
   142
420
    32960
370
     0
100
AcDbLine
 10
488.789808733
 20
645.0659219277
 30
0.0
 11
408.9428954292
 21
645.0659219277
 31
0.0
  0
LINE
  5
1B2
330
1F
100
AcDbEntity
  8
0
  6
SLD-Solid
 62
   142
420
    32960
370
     0
100
AcDbLine
 10
508.9428954292
 20
645.0659219277
 30
0.0
 11
507.9363737179
 21
645.0659219277
 31
0.0
  0
LINE
  5
1B3
330
1F
100
AcDbEntity
  8
0
  6
SLD-Solid
 62
   142
420
    32960
370
     0
100
AcDbLine
 10
489.7963304442
 20
645.0659219277
 30
0.0
 11
488.789808733
 21
645.0659219277
 31
0.0
  0
LINE
  5
1B4
330
1F
100
AcDbEntity
  8
0
  6
SLD-Solid
 62
   142
420
    32960
370
     0
100
AcDbLine
 10
588.789808733
 20
645.0659219277
 30
0.0
 11
508.9428954292
 21
645.0659219277
 31
0.0
  0
LINE
  5
1B5
330
1F
100
AcDbEntity
  8
0
  6
SLD-Solid
 62
   142
420
    32960
370
     0
100
AcDbLine
 10
608.9428954292
 20
645.0659219277
 30
0.0
 11
607.9363737179
 21
645.0659219277
 31
0.0
  0
LINE
  5
1B6
330
1F
100
AcDbEntity
  8
0
  6
SLD-Solid
 62
   142
420
    32960
370
     0
100
AcDbLine
 10
589.7963304442
 20
645.0659219277
 30
0.0
 11
588.789808733
 21
645.0659219277
 31
0.0
  0
LINE
  5
1B7
330
1F
100
AcDbEntity
  8
0
  6
SLD-Solid
 62
   142
420
    32960
370
     0
100
AcDbLine
 10
679.3566835612
 20
645.0659219277
 30
0.0
 11
608.9428954292
 21
645.0659219277
 31
0.0
  0
LINE
  5
1B8
330
1F
100
AcDbEntity
  8
0
  6
SLD-Solid
 62
   142
420
    32960
370
     0
100
AcDbLine
 10
103.8239791997
 20
625.7363980553
 30
0.0
 11
103.8239791997
 21
624.4863980553
 31
0.0
  0
LINE
  5
1B9
330
1F
100
AcDbEntity
  8
0
  6
SLD-Solid
 62
   142
420
    32960
370
     0
100
AcDbLine
 10
703.8239791997
 20
625.7363980553
 30
0.0
 11
703.8239791997
 21
624.4863980553
 31
0.0
  0
LINE
  5
1BA
330
1F
100
AcDbEntity
  8
0
  6
SLD-Solid
 62
     7
370
    15
100
AcDbLine
 10
703.8239791997
 20
624.4863980553
 30
0.0
 11
703.8239791997
 21
603.2863980553
 31
0.0
  0
LINE
  5
1BB
330
1F
100
AcDbEntity
  8
0
  6
SLD-Solid
 62
     7
370
    15
100
AcDbLine
 10
103.8239791997
 20
624.4863980553
 30
0.0
 11
103.8239791997
 21
603.2863980553
 31
0.0
  0
LINE
  5
1BC
330
1F
100
AcDbEntity
  8
0
  6
SLD-Solid
 62
     7
370
    15
100
AcDbLine
 10
703.8239791997
 20
601.2363980553
 30
0.0
 11
103.8239791997
 21
601.2363980553
 31
0.0
  0
LINE
  5
1BD
330
1F
100
AcDbEntity
  8
0
  6
SLD-Solid
 62
   142
420
    32960
370
     0
100
AcDbLine
 10
103.8239791997
 20
603.2863980553
 30
0.0
 11
103.8239791997
 21
601.2363980553
 31
0.0
  0
LINE
  5
1BE
330
1F
100
AcDbEntity
  8
0
  6
SLD-Solid
 62
   142
420
    32960
370
     0
100
AcDbLine
 10
703.8239791997
 20
603.2863980553
 30
0.0
 11
703.8239791997
 21
601.2363980553
 31
0.0
  0
LINE
  5
1BF
330
1F
100
AcDbEntity
  8
0
  6
SLD-Solid
 62
     7
370
    15
100
AcDbLine
 10
703.8239791997
 20
601.2363980553
 30
0.0
 11
703.8239791997
 21
599.9863980553
 31
0.0
  0
LINE
  5
1C0
330
1F
100
AcDbEntity
  8
0
  6
SLD-Solid
 62
     7
370
    15
100
AcDbLine
 10
103.8239791997
 20
601.2363980553
 30
0.0
 11
103.8239791997
 21
599.9863980553
 31
0.0
  0
LINE
  5
1C1
330
1F
100
AcDbEntity
  8
0
  6
SLD-Solid
 62
     7
370
    15
100
AcDbLine
 10
703.8239791997
 20
599.9863980553
 30
0.0
 11
703.8239791997
 21
577.7863980553
 31
0.0
  0
LINE
  5
1C2
330
1F
100
AcDbEntity
  8
0
  6
SLD-Solid
 62
     7
370
    15
100
AcDbLine
 10
103.8239791997
 20
599.9863980553
 30
0.0
 11
103.8239791997
 21
577.7863980553
 31
0.0
  0
ARC
  5
1C3
330
1F
100
AcDbEntity
  8
0
  6
SLD-Solid
 62
   142
420
    32960
370
     0
100
AcDbCircle
 10
691.8239791997
 20
585.2363980553
 30
0.0
 40
4.799999999999964
100
AcDbArc
 50
120.6112079025
 51
230.2431518874
  0
ARC
  5
1C4
330
1F
100
AcDbEntity
  8
0
  6
SLD-Solid
 62
   142
420
    32960
370
     0
100
AcDbCircle
 10
115.8239791997
 20
585.2363980553
 30
0.0
 40
4.800000000000004
100
AcDbArc
 50
307.3408788488
 51
56.5672827919
  0
LINE
  5
1C5
330
1F
100
AcDbEntity
  8
0
  6
SLD-Solid
 62
   142
420
    32960
370
     0
100
AcDbLine
 10
703.8239791997
 20
577.7863980553
 30
0.0
 11
701.8239791997
 21
577.7863980553
 31
0.0
  0
LINE
  5
1C6
330
1F
100
AcDbEntity
  8
0
  6
SLD-Solid
 62
   142
420
    32960
370
     0
100
AcDbLine
 10
650.9239791997
 20
577.7863980553
 30
0.0
 11
646.2239791997
 21
577.7863980553
 31
0.0
  0
LINE
  5
1C7
330
1F
100
AcDbEntity
  8
0
  6
SLD-Solid
 62
   142
420
    32960
370
     0
100
AcDbLine
 10
406.3239791997
 20
577.7863980553
 30
0.0
 11
401.3239791997
 21
577.7863980553
 31
0.0
  0
LINE
  5
1C8
330
1F
100
AcDbEntity
  8
0
  6
SLD-Solid
 62
   142
420
    32960
370
     0
100
AcDbLine
 10
161.4239791997
 20
577.7863980553
 30
0.0
 11
156.7239791994
 21
577.7863980553
 31
0.0
  0
LINE
  5
1C9
330
1F
100
AcDbEntity
  8
0
  6
SLD-Solid
 62
   142
420
    32960
370
     0
100
AcDbLine
 10
105.8239791997
 20
577.7863980553
 30
0.0
 11
103.8239791997
 21
577.7863980553
 31
0.0
  0
LINE
  5
1CA
330
1F
100
AcDbEntity
  8
0
  6
SLD-Solid
 62
     7
370
    15
100
AcDbLine
 10
583.5739792
 20
-85.8781854392
 30
0.0
 11
583.5739792
 21
-96.9390312004
 31
0.0
  0
SPLINE
  5
1CB
330
1F
100
AcDbEntity
  8
0
  6
SLD-Solid
 62
     7
370
    15
100
AcDbSpline
210
0.0
220
0.0
230
1.0
 70
    24
 71
     3
 72
    10
 73
     6
 74
     0
 42
0.00000001
 43
0.00000001
 40
0.0
 40
0.0
 40
0.0
 40
0.0
 40
0.0040017551693442
 40
0.7120962762919563
 40
0.9999999999999999
 40
0.9999999999999999
 40
0.9999999999999999
 40
0.9999999999999999
 10
583.5739791999996
 20
-85.63041044321379
 30
0.0
 10
583.5739791999996
 20
-85.63092845478798
 30
0.0
 10
583.5739791999983
 20
-85.72310653601878
 30
0.0
 10
583.5739791999998
 20
-85.80548700771462
 30
0.0
 10
583.5739791999996
 20
-85.86188345535118
 30
0.0
 10
583.5739791999996
 20
-85.87818543917768
 30
0.0
  0
SPLINE
  5
1CC
330
1F
100
AcDbEntity
  8
0
  6
SLD-Solid
 62
     7
370
    15
100
AcDbSpline
210
0.0
220
0.0
230
1.0
 70
    24
 71
     3
 72
     9
 73
     5
 74
     0
 42
0.00000001
 43
0.00000001
 40
0.0
 40
0.0
 40
0.0
 40
0.0
 40
0.7304934763942967
 40
1.0
 40
1.0
 40
1.0
 40
1.0
 10
586.5739791999996
 20
-85.87818543917768
 30
0.0
 10
586.5739791999996
 20
-85.83693177060597
 30
0.0
 10
586.5739791999996
 20
-85.78045807179163
 30
0.0
 10
586.5739791999995
 20
-85.66226440694014
 30
0.0
 10
586.5739791999995
 20
-85.63041044321379
 30
0.0
  0
LINE
  5
1CD
330
1F
100
AcDbEntity
  8
0
  6
SLD-Solid
 62
     7
370
    15
100
AcDbLine
 10
586.5739792
 20
-96.9390312004
 30
0.0
 11
586.5739792
 21
-85.8781854392
 31
0.0
  0
ARC
  5
1CE
330
1F
100
AcDbEntity
  8
0
  6
SLD-Solid
 62
   142
420
    32960
370
     0
100
AcDbCircle
 10
595.0780250695
 20
-85.9026844681
 30
0.0
 40
1.159045746515924
100
AcDbArc
 50
302.9702880511
 51
351.1198026019
  0
ARC
  5
1CF
330
1F
100
AcDbEntity
  8
0
  6
SLD-Solid
 62
   142
420
    32960
370
     0
100
AcDbCircle
 10
575.0699333305
 20
-85.9026844681
 30
0.0
 40
1.159045746515251
100
AcDbArc
 50
188.8801973981
 51
237.0297119489
  0
LWPOLYLINE
  5
1D0
330
1F
100
AcDbEntity
  8
0
  6
SLD-Solid
 62
     7
370
    15
100
AcDbPolyline
 90
        9
 70
   128
 43
0.0
 10
583.5739792
 20
-96.9390312004
 10
583.6881599012
 20
-97.1164147265
 10
584.0133190282
 20
-97.2667932187
 10
584.4999540515
 20
-97.3672729148
 10
585.0739792
 20
-97.4025566919
 10
585.6480043485
 20
-97.3672729148
 10
586.1346393718
 20
-97.2667932187
 10
586.4597984988
 20
-97.1164147265
 10
586.5739792
 20
-96.9390312004
  0
LINE
  5
1D1
330
1F
100
AcDbEntity
  8
0
  6
SLD-Solid
 62
     7
370
    15
100
AcDbLine
 10
573.4708086472
 20
-86.0175308653
 30
0.0
 11
573.4153624675
 21
-85.6304104432
 31
0.0
  0
LWPOLYLINE
  5
1D2
330
1F
100
AcDbEntity
  8
0
  6
SLD-Solid
 62
   142
420
    32960
370
     0
100
AcDbPolyline
 90
        9
 70
   128
 43
0.0
 10
573.9247807433
 20
-86.0816051057
 10
573.7992002396
 20
-86.0868059075
 10
573.6891460596
 20
-86.0880572163
 10
573.5972882061
 20
-86.0853286743
 10
573.5258552242
 20
-86.0786864781
 10
573.4765801354
 20
-86.0682917727
 10
573.4506583928
 20
-86.054396742
 10
573.4487188786
 20
-86.0373384906
 10
573.4708086472
 20
-86.0175308653
  0
LINE
  5
1D3
330
1F
100
AcDbEntity
  8
0
  6
SLD-Solid
 62
     7
370
    15
100
AcDbLine
 10
596.7325959324
 20
-85.6304104432
 30
0.0
 11
596.6771497528
 21
-86.0175308653
 31
0.0
  0
LWPOLYLINE
  5
1D4
330
1F
100
AcDbEntity
  8
0
  6
SLD-Solid
 62
   142
420
    32960
370
     0
100
AcDbPolyline
 90
        9
 70
   128
 43
0.0
 10
596.6771497528
 20
-86.0175308653
 10
596.6992395214
 20
-86.0373384906
 10
596.6973000072
 20
-86.054396742
 10
596.6713782646
 20
-86.0682917727
 10
596.6221031758
 20
-86.0786864781
 10
596.5506701939
 20
-86.0853286743
 10
596.4588123404
 20
-86.0880572163
 10
596.3487581604
 20
-86.0868059075
 10
596.2231776567
 20
-86.0816051057
  0
LINE
  5
1D5
330
1F
100
AcDbEntity
  8
0
  6
SLD-Solid
 62
   142
420
    32960
370
     0
100
AcDbLine
 10
583.5749937971
 20
-85.6304104432
 30
0.0
 11
583.5739792
 21
-85.673241416
 31
0.0
  0
ARC
  5
1D6
330
1F
100
AcDbEntity
  8
0
  6
SLD-Solid
 62
   142
420
    32960
370
     0
100
AcDbCircle
 10
584.5501063243
 20
-96.4886043692
 30
0.0
 40
0.9764498166443976
100
AcDbArc
 50
88.5990561917
 51
178.5269450074
  0
LINE
  5
1D7
330
1F
100
AcDbEntity
  8
0
  6
SLD-Solid
 62
   142
420
    32960
370
     0
100
AcDbLine
 10
586.5739792
 20
-85.673241416
 30
0.0
 11
586.5729646029
 21
-85.6304104432
 31
0.0
  0
ARC
  5
1D8
330
1F
100
AcDbEntity
  8
0
  6
SLD-Solid
 62
   142
420
    32960
370
     0
100
AcDbCircle
 10
585.5978520757
 20
-96.4886043692
 30
0.0
 40
0.9764498166441965
100
AcDbArc
 50
1.4730549925
 51
91.4009438083
  0
LWPOLYLINE
  5
1D9
330
1F
100
AcDbEntity
  8
0
  6
SLD-Solid
 62
   142
420
    32960
370
     0
100
AcDbPolyline
 90
        9
 70
   128
 43
0.0
 10
584.5739792
 20
-95.5124464259
 10
584.6120394337
 20
-95.571574268
 10
584.7204258094
 20
-95.6217004321
 10
584.8826374838
 20
-95.6551936641
 10
585.0739792
 20
-95.6669549231
 10
585.2653209162
 20
-95.6551936641
 10
585.4275325906
 20
-95.6217004321
 10
585.5359189663
 20
-95.571574268
 10
585.5739792
 20
-95.5124464259
  0
LINE
  5
1DA
330
1F
100
AcDbEntity
  8
0
  6
SLD-Solid
 62
     7
370
    15
100
AcDbLine
 10
594.7481432362
 20
-90.4382483699
 30
0.0
 11
594.7407937118
 21
-90.6434438366
 31
0.0
  0
ARC
  5
1DB
330
1F
100
AcDbEntity
  8
0
  6
SLD-Solid
 62
   142
420
    32960
370
     0
100
AcDbCircle
 10
574.3466340548
 20
-86.0040886699
 30
0.0
 40
0.8758830770133927
100
AcDbArc
 50
184.1247387156
 51
276.0649353632
  0
ARC
  5
1DC
330
1F
100
AcDbEntity
  8
0
  6
SLD-Solid
 62
   142
420
    32960
370
     0
100
AcDbCircle
 10
574.5260353577
 20
-95.4439679453
 30
0.0
 40
1.056025610321949
100
AcDbArc
 50
182.228814608
 51
265.2820210055
  0
ARC
  5
1DD
330
1F
100
AcDbEntity
  8
0
  6
SLD-Solid
 62
   142
420
    32960
370
     0
100
AcDbCircle
 10
595.8013243455
 20
-86.0040886701
 30
0.0
 40
0.8758830767802138
100
AcDbArc
 50
263.9350646185
 51
355.8752562982
  0
ARC
  5
1DE
330
1F
100
AcDbEntity
  8
0
  6
SLD-Solid
 62
   142
420
    32960
370
     0
100
AcDbCircle
 10
595.6219230423
 20
-95.4439679453
 30
0.0
 40
1.056025610321878
100
AcDbArc
 50
274.7179789945
 51
357.771185392
  0
ARC
  5
1DF
330
1F
100
AcDbEntity
  8
0
  6
SLD-Solid
 62
   142
420
    32960
370
     0
100
AcDbCircle
 10
595.8485897129
 20
-96.1993047504
 30
0.0
 40
0.3283607373815615
100
AcDbArc
 50
244.8003759707
 51
329.0454326952
  0
ARC
  5
1E0
330
1F
100
AcDbEntity
  8
0
  6
SLD-Solid
 62
   142
420
    32960
370
     0
100
AcDbCircle
 10
574.2993686875
 20
-96.199304812
 30
0.0
 40
0.3283606814240159
100
AcDbArc
 50
210.9546230279
 51
295.199628546
  0
ARC
  5
1E1
330
1F
100
AcDbEntity
  8
0
  6
SLD-Solid
 62
   142
420
    32960
370
     0
100
AcDbCircle
 10
596.2113026363
 20
-95.6299370948
 30
0.0
 40
0.4878622056744893
100
AcDbArc
 50
307.8246690368
 51
17.278104645
  0
ARC
  5
1E2
330
1F
100
AcDbEntity
  8
0
  6
SLD-Solid
 62
   142
420
    32960
370
     0
100
AcDbCircle
 10
573.9366557661
 20
-95.6299370946
 30
0.0
 40
0.4878622079149839
100
AcDbArc
 50
162.7218954583
 51
232.1753326859
  0
LWPOLYLINE
  5
1E3
330
1F
100
AcDbEntity
  8
0
  6
SLD-Solid
 62
   142
420
    32960
370
     0
100
AcDbPolyline
 90
        9
 70
   128
 43
0.0
 10
586.5739792
 20
-96.4635029422
 10
586.4597984988
 20
-96.6408864683
 10
586.1346393718
 20
-96.7912649606
 10
585.6480043485
 20
-96.8917446567
 10
585.0739792
 20
-96.9270284338
 10
584.4999540515
 20
-96.8917446567
 10
584.0133190282
 20
-96.7912649606
 10
583.6881599012
 20
-96.6408864683
 10
583.5739792
 20
-96.4635029422
  0
LINE
  5
1E4
330
1F
100
AcDbEntity
  8
0
  6
SLD-Solid
 62
   142
420
    32960
370
     0
100
AcDbLine
 10
432.4239792041
 20
-85.9150571929
 30
0.0
 11
432.4169293404
 21
-85.6304104432
 31
0.0
  0
LINE
  5
1E5
330
1F
100
AcDbEntity
  8
0
  6
SLD-Solid
 62
   142
420
    32960
370
     0
100
AcDbLine
 10
432.4239792041
 20
-85.9150571929
 30
0.0
 11
432.4238791119
 21
-85.9151086923
 31
0.0
  0
ARC
  5
1E6
330
1F
100
AcDbEntity
  8
0
  6
SLD-Solid
 62
   142
420
    32960
370
     0
100
AcDbCircle
 10
426.9208028649
 20
-88.1338210718
 30
0.0
 40
1.498704915935622
100
AcDbArc
 50
182.8711035151
 51
298.8471995542
  0
LINE
  5
1E7
330
1F
100
AcDbEntity
  8
0
  6
SLD-Solid
 62
   142
420
    32960
370
     0
100
AcDbLine
 10
432.3120436846
 20
-87.0446964899
 30
0.0
 11
427.6438911204
 21
-89.4465509754
 31
0.0
  0
ARC
  5
1E8
330
1F
100
AcDbEntity
  8
0
  6
SLD-Solid
 62
   142
420
    32960
370
     0
100
AcDbCircle
 10
425.9490154905
 20
-85.5557009802
 30
0.0
 40
6.53492428631351
100
AcDbArc
 50
183.1522913548
 51
346.8293576115
  0
LINE
  5
1E9
330
1F
100
AcDbEntity
  8
0
  6
SLD-Solid
 62
   142
420
    32960
370
     0
100
AcDbLine
 10
419.4239792039
 20
-85.9150571929
 30
0.0
 11
419.9772077457
 21
-85.6304104432
 31
0.0
  0
ARC
  5
1EA
330
1F
100
AcDbEntity
  8
0
  6
SLD-Solid
 62
   142
420
    32960
370
     0
100
AcDbCircle
 10
426.1699338828
 20
-85.724486123
 30
0.0
 40
7.248546773748169
100
AcDbArc
 50
268.0554901468
 51
0.7436374367
  0
ARC
  5
1EB
330
1F
100
AcDbEntity
  8
0
  6
SLD-Solid
 62
   142
420
    32960
370
     0
100
AcDbCircle
 10
425.6780245252
 20
-85.724486123
 30
0.0
 40
7.248546773748123
100
AcDbArc
 50
179.2563625633
 51
271.9445098532
  0
LWPOLYLINE
  5
1EC
330
1F
100
AcDbEntity
  8
0
  6
SLD-Solid
 62
   142
420
    32960
370
     0
100
AcDbPolyline
 90
       17
 70
   128
 43
0.0
 10
266.1239792044
 20
-90.1813156657
 10
266.6980043529
 20
-90.0739279294
 10
267.1846393761
 20
-89.7681135296
 10
267.5097985031
 20
-89.3104299366
 10
267.6239792044
 20
-88.7705553285
 10
267.5097985031
 20
-88.2306807204
 10
267.1846393761
 20
-87.7729971275
 10
266.6980043529
 20
-87.4671827277
 10
266.1239792044
 20
-87.3597949913
 10
265.5499540558
 20
-87.4671827277
 10
265.0633190326
 20
-87.7729971275
 10
264.7381599056
 20
-88.2306807204
 10
264.6239792044
 20
-88.7705553285
 10
264.7381599056
 20
-89.3104299366
 10
265.0633190326
 20
-89.7681135296
 10
265.5499540558
 20
-90.0739279294
 10
266.1239792044
 20
-90.1813156657
  0
ARC
  5
1ED
330
1F
100
AcDbEntity
  8
0
  6
SLD-Solid
 62
   142
420
    32960
370
     0
100
AcDbCircle
 10
266.1239792044
 20
-88.7896437197
 30
0.0
 40
1.500325053493641
100
AcDbArc
 50
1.3778764295
 51
178.6221236756
  0
ARC
  5
1EE
330
1F
100
AcDbEntity
  8
0
  6
SLD-Solid
 62
   142
420
    32960
370
     0
100
AcDbCircle
 10
266.1957828875
 20
-88.6589316613
 30
0.0
 40
2.429974535253718
100
AcDbArc
 50
268.3067119145
 51
357.7680564947
  0
ARC
  5
1EF
330
1F
100
AcDbEntity
  8
0
  6
SLD-Solid
 62
   142
420
    32960
370
     0
100
AcDbCircle
 10
266.0521755216
 20
-88.6589316605
 30
0.0
 40
2.429974536094671
100
AcDbArc
 50
182.2319438917
 51
271.6932880774
  0
LINE
  5
1F0
330
1F
100
AcDbEntity
  8
0
  6
SLD-Solid
 62
   142
420
    32960
370
     0
100
AcDbLine
 10
676.876538083
 20
721.4363980553
 30
0.0
 11
676.6239791997
 21
720.9989532375
 31
0.0
  0
LINE
  5
1F1
330
1F
100
AcDbEntity
  8
0
  6
SLD-Solid
 62
   142
420
    32960
370
     0
100
AcDbLine
 10
676.6239791997
 20
721.873842873
 30
0.0
 11
676.876538083
 21
721.4363980553
 31
0.0
  0
ARC
  5
1F2
330
1F
100
AcDbEntity
  8
0
  6
SLD-Solid
 62
   142
420
    32960
370
     0
100
AcDbCircle
 10
382.9817025979
 20
-91.0264703266
 30
0.0
 40
1.943246067350984
100
AcDbArc
 50
268.2978000298
 51
358.190090174
  0
LINE
  5
1F3
330
1F
100
AcDbEntity
  8
0
  6
SLD-Solid
 62
   142
420
    32960
370
     0
100
AcDbLine
 10
382.9239792044
 20
-92.9688588789
 30
0.0
 11
368.9239792044
 21
-92.9688588789
 31
0.0
  0
ARC
  5
1F4
330
1F
100
AcDbEntity
  8
0
  6
SLD-Solid
 62
   142
420
    32960
370
     0
100
AcDbCircle
 10
368.8662558108
 20
-91.0264703266
 30
0.0
 40
1.943246067350947
100
AcDbArc
 50
181.809909826
 51
271.7021999702
  0
LINE
  5
1F5
330
1F
100
AcDbEntity
  8
0
  6
SLD-Solid
 62
   142
420
    32960
370
     0
100
AcDbLine
 10
278.1239792044
 20
-91.1218225572
 30
0.0
 11
278.1239792044
 21
-85.6304104432
 31
0.0
  0
ARC
  5
1F6
330
1F
100
AcDbEntity
  8
0
  6
SLD-Solid
 62
   142
420
    32960
370
     0
100
AcDbCircle
 10
277.1528409011
 20
-91.0911351725
 30
0.0
 40
0.9716230336752697
100
AcDbArc
 50
268.2978000298
 51
358.190090174
  0
LINE
  5
1F7
330
1F
100
AcDbEntity
  8
0
  6
SLD-Solid
 62
   142
420
    32960
370
     0
100
AcDbLine
 10
277.1239792044
 20
-92.0623294487
 30
0.0
 11
263.1239792044
 21
-92.0623294487
 31
0.0
  0
ARC
  5
1F8
330
1F
100
AcDbEntity
  8
0
  6
SLD-Solid
 62
   142
420
    32960
370
     0
100
AcDbCircle
 10
263.0951175076
 20
-91.0911351725
 30
0.0
 40
0.9716230336753864
100
AcDbArc
 50
181.809909826
 51
271.7021999702
  0
LINE
  5
1F9
330
1F
100
AcDbEntity
  8
0
  6
SLD-Solid
 62
   142
420
    32960
370
     0
100
AcDbLine
 10
262.1239792044
 20
-85.6304104432
 30
0.0
 11
262.1239792044
 21
-91.1218225572
 31
0.0
  0
LWPOLYLINE
  5
1FA
330
1F
100
AcDbEntity
  8
0
  6
SLD-Solid
 62
   142
420
    32960
370
     0
100
AcDbPolyline
 90
       17
 70
   128
 43
0.0
 10
266.1239792044
 20
-91.1218225572
 10
267.0806877853
 20
-90.9428429966
 10
267.8917461573
 20
-90.4331523303
 10
268.4336780356
 20
-89.670346342
 10
268.6239792044
 20
-88.7705553285
 10
268.4336780356
 20
-87.8707643151
 10
267.8917461573
 20
-87.1079583268
 10
267.0806877853
 20
-86.5982676605
 10
266.1239792044
 20
-86.4192880999
 10
265.1672706235
 20
-86.5982676605
 10
264.3562122514
 20
-87.1079583268
 10
263.8142803731
 20
-87.8707643151
 10
263.6239792044
 20
-88.7705553285
 10
263.8142803731
 20
-89.670346342
 10
264.3562122514
 20
-90.4331523303
 10
265.1672706235
 20
-90.9428429966
 10
266.1239792044
 20
-91.1218225572
  0
ARC
  5
1FB
330
1F
100
AcDbEntity
  8
0
  6
SLD-Solid
 62
   142
420
    32960
370
     0
100
AcDbCircle
 10
679.8239791997
 20
721.4363980553
 30
0.0
 40
4.000000000000136
100
AcDbArc
 50
36.8698976459
 51
143.1301023542
  0
ARC
  5
1FC
330
1F
100
AcDbEntity
  8
0
  6
SLD-Solid
 62
   142
420
    32960
370
     0
100
AcDbCircle
 10
679.8239791997
 20
721.4363980553
 30
0.0
 40
4.0
100
AcDbArc
 50
216.8698976457
 51
323.1301023541
  0
LINE
  5
1FD
330
1F
100
AcDbEntity
  8
0
  6
SLD-Solid
 62
     7
370
    15
100
AcDbLine
 10
646.2239791997
 20
597.2863980553
 30
0.0
 11
406.3239791997
 21
597.2863980553
 31
0.0
  0
LINE
  5
1FE
330
1F
100
AcDbEntity
  8
0
  6
SLD-Solid
 62
     7
370
    15
100
AcDbLine
 10
646.2239791997
 20
35.3863980553
 30
0.0
 11
646.2239791997
 21
597.2863980553
 31
0.0
  0
LINE
  5
1FF
330
1F
100
AcDbEntity
  8
0
  6
SLD-Solid
 62
     7
370
    15
100
AcDbLine
 10
406.3239791997
 20
35.3863980553
 30
0.0
 11
646.2239791997
 21
35.3863980553
 31
0.0
  0
LINE
  5
200
330
1F
100
AcDbEntity
  8
0
  6
SLD-Solid
 62
     7
370
    15
100
AcDbLine
 10
406.3239791997
 20
597.2863980553
 30
0.0
 11
406.3239791997
 21
35.3863980553
 31
0.0
  0
LINE
  5
201
330
1F
100
AcDbEntity
  8
0
  6
SLD-Solid
 62
     7
370
    15
100
AcDbLine
 10
105.0239791997
 20
32.6863980553
 30
0.0
 11
105.0239791997
 21
54.4863980553
 31
0.0
  0
LINE
  5
202
330
1F
100
AcDbEntity
  8
0
  6
SLD-Solid
 62
   142
420
    32960
370
     0
100
AcDbLine
 10
702.6239791997
 20
54.4863980553
 30
0.0
 11
701.8239791997
 21
54.4863980553
 31
0.0
  0
LINE
  5
203
330
1F
100
AcDbEntity
  8
0
  6
SLD-Solid
 62
   142
420
    32960
370
     0
100
AcDbLine
 10
650.9239791997
 20
54.4863980553
 30
0.0
 11
646.2239791997
 21
54.4863980553
 31
0.0
  0
LINE
  5
204
330
1F
100
AcDbEntity
  8
0
  6
SLD-Solid
 62
   142
420
    32960
370
     0
100
AcDbLine
 10
406.3239791997
 20
54.4863980553
 30
0.0
 11
401.3239791997
 21
54.4863980553
 31
0.0
  0
LINE
  5
205
330
1F
100
AcDbEntity
  8
0
  6
SLD-Solid
 62
   142
420
    32960
370
     0
100
AcDbLine
 10
161.4239791997
 20
54.4863980553
 30
0.0
 11
156.7239791994
 21
54.4863980553
 31
0.0
  0
LINE
  5
206
330
1F
100
AcDbEntity
  8
0
  6
SLD-Solid
 62
   142
420
    32960
370
     0
100
AcDbLine
 10
105.8239791994
 20
54.4863980553
 30
0.0
 11
105.0239791997
 21
54.4863980553
 31
0.0
  0
LINE
  5
207
330
1F
100
AcDbEntity
  8
0
  6
SLD-Solid
 62
     7
370
    15
100
AcDbLine
 10
702.6239791997
 20
32.6863980553
 30
0.0
 11
702.6239791997
 21
54.4863980553
 31
0.0
  0
LINE
  5
208
330
1F
100
AcDbEntity
  8
0
  6
SLD-Solid
 62
   142
420
    32960
370
     0
100
AcDbLine
 10
702.6239791997
 20
32.6863980553
 30
0.0
 11
105.0239791997
 21
32.6863980553
 31
0.0
  0
ARC
  5
209
330
1F
100
AcDbEntity
  8
0
  6
SLD-Solid
 62
   142
420
    32960
370
     0
100
AcDbCircle
 10
115.8239791997
 20
47.4363980553
 30
0.0
 40
4.799999999999982
100
AcDbArc
 50
300.3875427816
 51
50.718917159
  0
ARC
  5
20A
330
1F
100
AcDbEntity
  8
0
  6
SLD-Solid
 62
   142
420
    32960
370
     0
100
AcDbCircle
 10
691.8239791997
 20
47.4363980553
 30
0.0
 40
4.800000000000079
100
AcDbArc
 50
126.8586374729
 51
236.0789639565
  0
LINE
  5
20B
330
1F
100
AcDbEntity
  8
0
  6
SLD-Solid
 62
   142
420
    32960
370
     0
100
AcDbLine
 10
161.4239791997
 20
570.8363980553
 30
0.0
 11
156.7239791994
 21
570.8363980553
 31
0.0
  0
LINE
  5
20C
330
1F
100
AcDbEntity
  8
0
  6
SLD-Solid
 62
   142
420
    32960
370
     0
100
AcDbLine
 10
156.7239791994
 20
61.8363980553
 30
0.0
 11
161.4239791997
 21
61.8363980553
 31
0.0
  0
LINE
  5
20D
330
1F
100
AcDbEntity
  8
0
  6
SLD-Solid
 62
   142
420
    32960
370
     0
100
AcDbLine
 10
367.9239792044
 20
-85.6304104432
 30
0.0
 11
367.9239792044
 21
-91.1218225572
 31
0.0
  0
ARC
  5
20E
330
1F
100
AcDbEntity
  8
0
  6
SLD-Solid
 62
   142
420
    32960
370
     0
100
AcDbCircle
 10
368.8951175076
 20
-91.0911351725
 30
0.0
 40
0.9716230336754226
100
AcDbArc
 50
181.809909826
 51
271.7021999702
  0
LINE
  5
20F
330
1F
100
AcDbEntity
  8
0
  6
SLD-Solid
 62
   142
420
    32960
370
     0
100
AcDbLine
 10
382.9239792044
 20
-92.0623294487
 30
0.0
 11
368.9239792044
 21
-92.0623294487
 31
0.0
  0
ARC
  5
210
330
1F
100
AcDbEntity
  8
0
  6
SLD-Solid
 62
   142
420
    32960
370
     0
100
AcDbCircle
 10
382.9528409012
 20
-91.0911351725
 30
0.0
 40
0.9716230336755018
100
AcDbArc
 50
268.2978000298
 51
358.190090174
  0
LINE
  5
211
330
1F
100
AcDbEntity
  8
0
  6
SLD-Solid
 62
   142
420
    32960
370
     0
100
AcDbLine
 10
383.9239792044
 20
-91.1218225572
 30
0.0
 11
383.9239792044
 21
-85.6304104432
 31
0.0
  0
LINE
  5
212
330
1F
100
AcDbEntity
  8
0
  6
SLD-Solid
 62
   142
420
    32960
370
     0
100
AcDbLine
 10
701.3739791997
 20
28.9863980553
 30
0.0
 11
703.8239791997
 21
28.9863980553
 31
0.0
  0
LINE
  5
213
330
1F
100
AcDbEntity
  8
0
  6
SLD-Solid
 62
     7
370
    15
100
AcDbLine
 10
703.8239791997
 20
-62.3304104432
 30
0.0
 11
703.8239791997
 21
28.9863980553
 31
0.0
  0
LINE
  5
214
330
1F
100
AcDbEntity
  8
0
  6
SLD-Solid
 62
   142
420
    32960
370
     0
100
AcDbLine
 10
703.8239791997
 20
-62.3304104432
 30
0.0
 11
701.3739791997
 21
-62.3304104432
 31
0.0
  0
LINE
  5
215
330
1F
100
AcDbEntity
  8
0
  6
SLD-Solid
 62
   142
420
    32960
370
     0
100
AcDbLine
 10
106.2739791997
 20
-62.3304104432
 30
0.0
 11
103.8239791997
 21
-62.3304104432
 31
0.0
  0
LINE
  5
216
330
1F
100
AcDbEntity
  8
0
  6
SLD-Solid
 62
     7
370
    15
100
AcDbLine
 10
103.8239791997
 20
28.9863980553
 30
0.0
 11
103.8239791997
 21
-62.3304104432
 31
0.0
  0
LINE
  5
217
330
1F
100
AcDbEntity
  8
0
  6
SLD-Solid
 62
   142
420
    32960
370
     0
100
AcDbLine
 10
103.8239791997
 20
28.9863980553
 30
0.0
 11
106.2739791997
 21
28.9863980553
 31
0.0
  0
LINE
  5
218
330
1F
100
AcDbEntity
  8
0
  6
SLD-Solid
 62
   142
420
    32960
370
     0
100
AcDbLine
 10
106.2739791997
 20
28.9863980553
 30
0.0
 11
106.2739791997
 21
31.4363980553
 31
0.0
  0
LINE
  5
219
330
1F
100
AcDbEntity
  8
0
  6
SLD-Solid
 62
     7
370
    15
100
AcDbLine
 10
701.3739791997
 20
31.4363980553
 30
0.0
 11
106.2739791997
 21
31.4363980553
 31
0.0
  0
LINE
  5
21A
330
1F
100
AcDbEntity
  8
0
  6
SLD-Solid
 62
   142
420
    32960
370
     0
100
AcDbLine
 10
701.3739791997
 20
31.4363980553
 30
0.0
 11
701.3739791997
 21
28.9863980553
 31
0.0
  0
LINE
  5
21B
330
1F
100
AcDbEntity
  8
0
  6
SLD-Solid
 62
     7
370
    15
100
AcDbLine
 10
702.6239791997
 20
-85.6304104432
 30
0.0
 11
702.6239791997
 21
-62.8304104432
 31
0.0
  0
LINE
  5
21C
330
1F
100
AcDbEntity
  8
0
  6
SLD-Solid
 62
     7
370
    15
100
AcDbLine
 10
105.0239791997
 20
-85.6304104432
 30
0.0
 11
105.0239791997
 21
-62.8304104432
 31
0.0
  0
LINE
  5
21D
330
1F
100
AcDbEntity
  8
0
  6
SLD-Solid
 62
     7
370
    15
100
AcDbLine
 10
105.0239791997
 20
-62.8304104432
 30
0.0
 11
106.2739791997
 21
-62.8304104432
 31
0.0
  0
LINE
  5
21E
330
1F
100
AcDbEntity
  8
0
  6
SLD-Solid
 62
     7
370
    15
100
AcDbLine
 10
701.3739791997
 20
-62.8304104432
 30
0.0
 11
702.6239791997
 21
-62.8304104432
 31
0.0
  0
LINE
  5
21F
330
1F
100
AcDbEntity
  8
0
  6
SLD-Solid
 62
   142
420
    32960
370
     0
100
AcDbLine
 10
701.3739791997
 20
-62.3304104432
 30
0.0
 11
701.3739791997
 21
-62.8304104432
 31
0.0
  0
LINE
  5
220
330
1F
100
AcDbEntity
  8
0
  6
SLD-Solid
 62
   142
420
    32960
370
     0
100
AcDbLine
 10
106.2739791997
 20
-62.8304104432
 30
0.0
 11
106.2739791997
 21
-62.3304104432
 31
0.0
  0
LINE
  5
221
330
1F
100
AcDbEntity
  8
0
  6
SLD-Solid
 62
     7
370
    15
100
AcDbLine
 10
703.8239791997
 20
-84.3304104432
 30
0.0
 11
703.8239791997
 21
-62.8304104432
 31
0.0
  0
LINE
  5
222
330
1F
100
AcDbEntity
  8
0
  6
SLD-Solid
 62
   142
420
    32960
370
     0
100
AcDbLine
 10
703.8239791997
 20
-62.8304104432
 30
0.0
 11
702.6239791997
 21
-62.8304104432
 31
0.0
  0
LINE
  5
223
330
1F
100
AcDbEntity
  8
0
  6
SLD-Solid
 62
     7
370
    15
100
AcDbLine
 10
103.8239791997
 20
-84.3304104432
 30
0.0
 11
103.8239791997
 21
-62.8304104432
 31
0.0
  0
LINE
  5
224
330
1F
100
AcDbEntity
  8
0
  6
SLD-Solid
 62
   142
420
    32960
370
     0
100
AcDbLine
 10
103.8239791997
 20
-62.8304104432
 30
0.0
 11
105.0239791997
 21
-62.8304104432
 31
0.0
  0
LINE
  5
225
330
1F
100
AcDbEntity
  8
0
  6
SLD-Solid
 62
     7
370
    15
100
AcDbLine
 10
702.6239791997
 20
30.2263980553
 30
0.0
 11
702.6239791997
 21
30.2363980553
 31
0.0
  0
LINE
  5
226
330
1F
100
AcDbEntity
  8
0
  6
SLD-Solid
 62
     7
370
    15
100
AcDbLine
 10
702.6239791997
 20
31.4363980553
 30
0.0
 11
702.6239791997
 21
32.6863980553
 31
0.0
  0
LINE
  5
227
330
1F
100
AcDbEntity
  8
0
  6
SLD-Solid
 62
     7
370
    15
100
AcDbLine
 10
702.6239791997
 20
28.9863980553
 30
0.0
 11
702.6239791997
 21
30.2263980553
 31
0.0
  0
LINE
  5
228
330
1F
100
AcDbEntity
  8
0
  6
SLD-Solid
 62
   142
420
    32960
370
     0
100
AcDbLine
 10
702.6239791997
 20
-62.8304104432
 30
0.0
 11
702.6239791997
 21
-62.3304104432
 31
0.0
  0
LINE
  5
229
330
1F
100
AcDbEntity
  8
0
  6
SLD-Solid
 62
   142
420
    32960
370
     0
100
AcDbLine
 10
702.6239791997
 20
54.4863980553
 30
0.0
 11
702.6239791997
 21
55.7263980553
 31
0.0
  0
LINE
  5
22A
330
1F
100
AcDbEntity
  8
0
  6
SLD-Solid
 62
     7
370
    15
100
AcDbLine
 10
103.8239791997
 20
32.6863980553
 30
0.0
 11
103.8239791997
 21
54.4863980553
 31
0.0
  0
LINE
  5
22B
330
1F
100
AcDbEntity
  8
0
  6
SLD-Solid
 62
     7
370
    15
100
AcDbLine
 10
103.8239791997
 20
30.2263980553
 30
0.0
 11
103.8239791997
 21
32.6863980553
 31
0.0
  0
LINE
  5
22C
330
1F
100
AcDbEntity
  8
0
  6
SLD-Solid
 62
     7
370
    15
100
AcDbLine
 10
103.8239791997
 20
28.9863980553
 30
0.0
 11
103.8239791997
 21
30.2263980553
 31
0.0
  0
LINE
  5
22D
330
1F
100
AcDbEntity
  8
0
  6
SLD-Solid
 62
   142
420
    32960
370
     0
100
AcDbLine
 10
103.8239791997
 20
-62.8304104432
 30
0.0
 11
103.8239791997
 21
-62.3304104432
 31
0.0
  0
LINE
  5
22E
330
1F
100
AcDbEntity
  8
0
  6
SLD-Solid
 62
   142
420
    32960
370
     0
100
AcDbLine
 10
103.8239791997
 20
54.4863980553
 30
0.0
 11
103.8239791997
 21
55.7263980553
 31
0.0
  0
LINE
  5
22F
330
1F
100
AcDbEntity
  8
0
  6
SLD-Solid
 62
     7
370
    15
100
AcDbLine
 10
703.8239791997
 20
28.9863980553
 30
0.0
 11
703.8239791997
 21
30.2263980553
 31
0.0
  0
LINE
  5
230
330
1F
100
AcDbEntity
  8
0
  6
SLD-Solid
 62
     7
370
    15
100
AcDbLine
 10
703.8239791997
 20
30.2263980553
 30
0.0
 11
703.8239791997
 21
32.6863980553
 31
0.0
  0
LINE
  5
231
330
1F
100
AcDbEntity
  8
0
  6
SLD-Solid
 62
     7
370
    15
100
AcDbLine
 10
703.8239791997
 20
32.6863980553
 30
0.0
 11
703.8239791997
 21
54.4863980553
 31
0.0
  0
LINE
  5
232
330
1F
100
AcDbEntity
  8
0
  6
SLD-Solid
 62
   142
420
    32960
370
     0
100
AcDbLine
 10
703.8239791997
 20
54.4863980553
 30
0.0
 11
703.8239791997
 21
55.7263980553
 31
0.0
  0
LINE
  5
233
330
1F
100
AcDbEntity
  8
0
  6
SLD-Solid
 62
   142
420
    32960
370
     0
100
AcDbLine
 10
703.8239791997
 20
-62.8304104432
 30
0.0
 11
703.8239791997
 21
-62.3304104432
 31
0.0
  0
LINE
  5
234
330
1F
100
AcDbEntity
  8
0
  6
SLD-Solid
 62
     7
370
    15
100
AcDbLine
 10
105.0239791997
 20
28.9863980553
 30
0.0
 11
105.0239791997
 21
30.2263980553
 31
0.0
  0
LINE
  5
235
330
1F
100
AcDbEntity
  8
0
  6
SLD-Solid
 62
     7
370
    15
100
AcDbLine
 10
105.0239791997
 20
30.2263980553
 30
0.0
 11
105.0239791997
 21
30.2363980553
 31
0.0
  0
LINE
  5
236
330
1F
100
AcDbEntity
  8
0
  6
SLD-Solid
 62
     7
370
    15
100
AcDbLine
 10
105.0239791997
 20
31.4363980553
 30
0.0
 11
105.0239791997
 21
32.6863980553
 31
0.0
  0
LINE
  5
237
330
1F
100
AcDbEntity
  8
0
  6
SLD-Solid
 62
   142
420
    32960
370
     0
100
AcDbLine
 10
105.0239791997
 20
54.4863980553
 30
0.0
 11
105.0239791997
 21
55.7263980553
 31
0.0
  0
LINE
  5
238
330
1F
100
AcDbEntity
  8
0
  6
SLD-Solid
 62
   142
420
    32960
370
     0
100
AcDbLine
 10
105.0239791997
 20
-62.8304104432
 30
0.0
 11
105.0239791997
 21
-62.3304104432
 31
0.0
  0
LINE
  5
239
330
1F
100
AcDbEntity
  8
0
  6
SLD-Solid
 62
   142
420
    32960
370
     0
100
AcDbLine
 10
106.2739791997
 20
31.4363980553
 30
0.0
 11
105.0239791997
 21
31.4363980553
 31
0.0
  0
LINE
  5
23A
330
1F
100
AcDbEntity
  8
0
  6
SLD-Solid
 62
   142
420
    32960
370
     0
100
AcDbLine
 10
702.6239791997
 20
31.4363980553
 30
0.0
 11
701.3739791997
 21
31.4363980553
 31
0.0
  0
LINE
  5
23B
330
1F
100
AcDbEntity
  8
0
  6
SLD-Solid
 62
   142
420
    32960
370
     0
100
AcDbLine
 10
702.6239791997
 20
31.4363980553
 30
0.0
 11
702.6239791997
 21
30.2363980553
 31
0.0
  0
LINE
  5
23C
330
1F
100
AcDbEntity
  8
0
  6
SLD-Solid
 62
   142
420
    32960
370
     0
100
AcDbLine
 10
105.0239791997
 20
30.2363980553
 30
0.0
 11
105.0239791997
 21
31.4363980553
 31
0.0
  0
LINE
  5
23D
330
1F
100
AcDbEntity
  8
0
  6
SLD-Solid
 62
   142
420
    32960
370
     0
100
AcDbLine
 10
103.8239791997
 20
30.2263980553
 30
0.0
 11
105.0239791997
 21
30.2263980553
 31
0.0
  0
LINE
  5
23E
330
1F
100
AcDbEntity
  8
0
  6
SLD-Solid
 62
   142
420
    32960
370
     0
100
AcDbLine
 10
703.8239791997
 20
30.2263980553
 30
0.0
 11
702.6239791997
 21
30.2263980553
 31
0.0
  0
LINE
  5
23F
330
1F
100
AcDbEntity
  8
0
  6
SLD-Solid
 62
   142
420
    32960
370
     0
100
AcDbLine
 10
103.8239791997
 20
54.4863980553
 30
0.0
 11
105.0239791997
 21
54.4863980553
 31
0.0
  0
LINE
  5
240
330
1F
100
AcDbEntity
  8
0
  6
SLD-Solid
 62
   142
420
    32960
370
     0
100
AcDbLine
 10
703.8239791997
 20
54.4863980553
 30
0.0
 11
702.6239791997
 21
54.4863980553
 31
0.0
  0
LINE
  5
241
330
1F
100
AcDbEntity
  8
0
  6
SLD-Solid
 62
   142
420
    32960
370
     0
100
AcDbLine
 10
105.1557645611
 20
55.7263980553
 30
0.0
 11
103.8239791997
 21
55.7263980553
 31
0.0
  0
LINE
  5
242
330
1F
100
AcDbEntity
  8
0
  6
SLD-Solid
 62
   142
420
    32960
370
     0
100
AcDbLine
 10
106.2739791997
 20
31.4363980553
 30
0.0
 11
106.2739791997
 21
32.6863980553
 31
0.0
  0
LINE
  5
243
330
1F
100
AcDbEntity
  8
0
  6
SLD-Solid
 62
   142
420
    32960
370
     0
100
AcDbLine
 10
701.3739791997
 20
32.6863980553
 30
0.0
 11
701.3739791997
 21
31.4363980553
 31
0.0
  0
LINE
  5
244
330
1F
100
AcDbEntity
  8
0
  6
SLD-Solid
 62
   142
420
    32960
370
     0
100
AcDbLine
 10
703.8239791997
 20
55.7263980553
 30
0.0
 11
702.4921938383
 21
55.7263980553
 31
0.0
  0
LINE
  5
245
330
1F
100
AcDbEntity
  8
0
  6
SLD-Solid
 62
   142
420
    32960
370
     0
100
AcDbLine
 10
703.8239791997
 20
577.7863980553
 30
0.0
 11
703.8239791997
 21
576.7863980553
 31
0.0
  0
ARC
  5
246
330
1F
100
AcDbEntity
  8
0
  6
SLD-Solid
 62
   142
420
    32960
370
     0
100
AcDbCircle
 10
703.5739791997
 20
576.7863980553
 30
0.0
 40
0.2500000000001137
100
AcDbArc
 50
270.0
 51
0.0
  0
LINE
  5
247
330
1F
100
AcDbEntity
  8
0
  6
SLD-Solid
 62
   142
420
    32960
370
     0
100
AcDbLine
 10
703.5739791997
 20
577.5363980553
 30
0.0
 11
703.5739791997
 21
576.5363980553
 31
0.0
  0
LINE
  5
248
330
1F
100
AcDbEntity
  8
0
  6
SLD-Solid
 62
   142
420
    32960
370
     0
100
AcDbLine
 10
703.5739791997
 20
577.5363980553
 30
0.0
 11
701.8239791997
 21
577.5363980553
 31
0.0
  0
LINE
  5
249
330
1F
100
AcDbEntity
  8
0
  6
SLD-Solid
 62
   142
420
    32960
370
     0
100
AcDbLine
 10
693.8212602012
 20
584.7391170537
 30
0.0
 11
693.0239791997
 21
585.5363980553
 31
0.0
  0
LINE
  5
24A
330
1F
100
AcDbEntity
  8
0
  6
SLD-Solid
 62
   142
420
    32960
370
     0
100
AcDbLine
 10
693.0239791997
 20
585.5363980553
 30
0.0
 11
693.0239791997
 21
587.8516566624
 31
0.0
  0
LINE
  5
24B
330
1F
100
AcDbEntity
  8
0
  6
SLD-Solid
 62
   142
420
    32960
370
     0
100
AcDbLine
 10
103.8239791997
 20
568.8363980553
 30
0.0
 11
103.8239791997
 21
573.8363980553
 31
0.0
  0
LINE
  5
24C
330
1F
100
AcDbEntity
  8
0
  6
SLD-Solid
 62
     7
370
    15
100
AcDbLine
 10
103.8239791997
 20
63.8363980553
 30
0.0
 11
103.8239791997
 21
568.8363980553
 31
0.0
  0
LINE
  5
24D
330
1F
100
AcDbEntity
  8
0
  6
SLD-Solid
 62
   142
420
    32960
370
     0
100
AcDbLine
 10
103.8239791997
 20
58.8363980553
 30
0.0
 11
103.8239791997
 21
63.8363980553
 31
0.0
  0
LINE
  5
24E
330
1F
100
AcDbEntity
  8
0
  6
SLD-Solid
 62
   142
420
    32960
370
     0
100
AcDbLine
 10
104.6239791997
 20
63.8363980553
 30
0.0
 11
104.6239791997
 21
568.8363980553
 31
0.0
  0
LINE
  5
24F
330
1F
100
AcDbEntity
  8
0
  6
SLD-Solid
 62
   142
420
    32960
370
     0
100
AcDbLine
 10
103.8239791997
 20
568.8363980553
 30
0.0
 11
104.6239791997
 21
568.8363980553
 31
0.0
  0
LINE
  5
250
330
1F
100
AcDbEntity
  8
0
  6
SLD-Solid
 62
   142
420
    32960
370
     0
100
AcDbLine
 10
103.8239791997
 20
63.8363980553
 30
0.0
 11
104.6239791997
 21
63.8363980553
 31
0.0
  0
LINE
  5
251
330
1F
100
AcDbEntity
  8
0
  6
SLD-Solid
 62
   142
420
    32960
370
     0
100
AcDbLine
 10
103.8239791997
 20
573.8363980553
 30
0.0
 11
104.6239791997
 21
573.8363980553
 31
0.0
  0
LINE
  5
252
330
1F
100
AcDbEntity
  8
0
  6
SLD-Solid
 62
   142
420
    32960
370
     0
100
AcDbLine
 10
103.8239791997
 20
58.8363980553
 30
0.0
 11
104.8062713745
 21
58.8363980553
 31
0.0
  0
LINE
  5
253
330
1F
100
AcDbEntity
  8
0
  6
SLD-Solid
 62
   142
420
    32960
370
     0
100
AcDbLine
 10
104.8062713745
 20
573.8363980553
 30
0.0
 11
104.6239791997
 21
573.8363980553
 31
0.0
  0
LINE
  5
254
330
1F
100
AcDbEntity
  8
0
  6
SLD-Solid
 62
   142
420
    32960
370
     0
100
AcDbLine
 10
625.5739792044
 20
-92.0623294487
 30
0.0
 11
639.5739792044
 21
-92.0623294487
 31
0.0
  0
ARC
  5
255
330
1F
100
AcDbEntity
  8
0
  6
SLD-Solid
 62
   142
420
    32960
370
     0
100
AcDbCircle
 10
639.6028409012
 20
-91.0911351725
 30
0.0
 40
0.9716230336784761
100
AcDbArc
 50
268.2978000283
 51
358.1900901743
  0
LINE
  5
256
330
1F
100
AcDbEntity
  8
0
  6
SLD-Solid
 62
   142
420
    32960
370
     0
100
AcDbLine
 10
640.5739792044
 20
-91.1218225572
 30
0.0
 11
640.5739792044
 21
-85.6304104432
 31
0.0
  0
LINE
  5
257
330
1F
100
AcDbEntity
  8
0
  6
SLD-Solid
 62
   142
420
    32960
370
     0
100
AcDbLine
 10
624.5739792044
 20
-85.6304104432
 30
0.0
 11
624.5739792044
 21
-91.1218225572
 31
0.0
  0
ARC
  5
258
330
1F
100
AcDbEntity
  8
0
  6
SLD-Solid
 62
   142
420
    32960
370
     0
100
AcDbCircle
 10
625.5451175076
 20
-91.0911351725
 30
0.0
 40
0.9716230336782385
100
AcDbArc
 50
181.8099098267
 51
271.702199971
  0
ARC
  5
259
330
1F
100
AcDbEntity
  8
0
  6
SLD-Solid
 62
   142
420
    32960
370
     0
100
AcDbCircle
 10
637.6317025979
 20
-88.2389271134
 30
0.0
 40
1.943246067351271
100
AcDbArc
 50
268.2978000298
 51
358.190090174
  0
LINE
  5
25A
330
1F
100
AcDbEntity
  8
0
  6
SLD-Solid
 62
   142
420
    32960
370
     0
100
AcDbLine
 10
637.5739792044
 20
-90.1813156657
 30
0.0
 11
635.5739792044
 21
-90.1813156657
 31
0.0
  0
ARC
  5
25B
330
1F
100
AcDbEntity
  8
0
  6
SLD-Solid
 62
   142
420
    32960
370
     0
100
AcDbCircle
 10
635.5162558108
 20
-88.2389271134
 30
0.0
 40
1.943246067350654
100
AcDbArc
 50
181.809909826
 51
271.7021999702
  0
LINE
  5
25C
330
1F
100
AcDbEntity
  8
0
  6
SLD-Solid
 62
   142
420
    32960
370
     0
100
AcDbLine
 10
633.5739792044
 20
-88.3003018828
 30
0.0
 11
633.5739792044
 21
-85.6304104432
 31
0.0
  0
LINE
  5
25D
330
1F
100
AcDbEntity
  8
0
  6
SLD-Solid
 62
   142
420
    32960
370
     0
100
AcDbLine
 10
639.5739792044
 20
-88.3003018828
 30
0.0
 11
639.5739792044
 21
-85.6304104432
 31
0.0
  0
LINE
  5
25E
330
1F
100
AcDbEntity
  8
0
  6
SLD-Solid
 62
   142
420
    32960
370
     0
100
AcDbLine
 10
130.8239791997
 20
32.6863980553
 30
0.0
 11
130.8239791997
 21
31.4363980553
 31
0.0
  0
LINE
  5
25F
330
1F
100
AcDbEntity
  8
0
  6
SLD-Solid
 62
   142
420
    32960
370
     0
100
AcDbLine
 10
676.8239791997
 20
31.4363980553
 30
0.0
 11
676.8239791997
 21
32.6863980553
 31
0.0
  0
LINE
  5
260
330
1F
100
AcDbEntity
  8
0
  6
SLD-Solid
 62
   142
420
    32960
370
     0
100
AcDbLine
 10
463.8239791997
 20
645.0659219277
 30
0.0
 11
463.8239791997
 21
672.7363980553
 31
0.0
  0
LINE
  5
261
330
1F
100
AcDbEntity
  8
0
  6
SLD-Solid
 62
   142
420
    32960
370
     0
100
AcDbLine
 10
463.8239791997
 20
672.7363980553
 30
0.0
 11
416.9964553416
 21
672.7363980553
 31
0.0
  0
LINE
  5
262
330
1F
100
AcDbEntity
  8
0
  6
SLD-Solid
 62
   142
420
    32960
370
     0
100
AcDbLine
 10
400.5667572951
 20
672.7363980553
 30
0.0
 11
343.8239791997
 21
672.7363980553
 31
0.0
  0
LINE
  5
263
330
1F
100
AcDbEntity
  8
0
  6
SLD-Solid
 62
   142
420
    32960
370
     0
100
AcDbLine
 10
343.8239791997
 20
672.7363980553
 30
0.0
 11
343.8239791997
 21
645.0659219277
 31
0.0
  0
ARC
  5
264
330
1F
100
AcDbEntity
  8
0
  6
SLD-Solid
 62
   142
420
    32960
370
     0
100
AcDbCircle
 10
326.2709717501
 20
-129.0222265711
 30
0.0
 40
43.87284239823187
100
AcDbArc
 50
98.4922299608
 51
101.8325123095
  0
LINE
  5
265
330
1F
100
AcDbEntity
  8
0
  6
SLD-Solid
 62
     7
370
    15
100
AcDbLine
 10
326.9239792
 20
-85.8782101753
 30
0.0
 11
326.9239792
 21
-96.9390559365
 31
0.0
  0
SPLINE
  5
266
330
1F
100
AcDbEntity
  8
0
  6
SLD-Solid
 62
   142
420
    32960
370
     0
100
AcDbSpline
210
0.0
220
0.0
230
1.0
 70
    24
 71
     3
 72
    10
 73
     6
 74
     0
 42
0.00000001
 43
0.00000001
 40
0.0
 40
0.0
 40
0.0
 40
0.0
 40
0.0040652367862277
 40
0.7121146263181564
 40
1.0
 40
1.0
 40
1.0
 40
1.0
 10
326.9239792000284
 20
-85.63041044321379
 30
0.0
 10
326.9239792000284
 20
-85.63093671144716
 30
0.0
 10
326.9239792000287
 20
-85.72312403682348
 30
0.0
 10
326.9239792000283
 20
-85.80551205853915
 30
0.0
 10
326.9239792000284
 20
-85.86190826203288
 30
0.0
 10
326.9239792000284
 20
-85.87821017528735
 30
0.0
  0
SPLINE
  5
267
330
1F
100
AcDbEntity
  8
0
  6
SLD-Solid
 62
     7
370
    15
100
AcDbSpline
210
0.0
220
0.0
230
1.0
 70
    24
 71
     3
 72
     9
 73
     5
 74
     0
 42
0.00000001
 43
0.00000001
 40
0.0
 40
0.0
 40
0.0
 40
0.0
 40
0.7304400116765121
 40
1.0
 40
1.0
 40
1.0
 40
1.0
 10
329.9239792000284
 20
-85.87821017528735
 30
0.0
 10
329.9239792000284
 20
-85.83695570321159
 30
0.0
 10
329.9239792000284
 20
-85.780476770765
 30
0.0
 10
329.9239792000284
 20
-85.66227335467485
 30
0.0
 10
329.9239792000284
 20
-85.63041044321379
 30
0.0
  0
LINE
  5
268
330
1F
100
AcDbEntity
  8
0
  6
SLD-Solid
 62
     7
370
    15
100
AcDbLine
 10
329.9239792
 20
-96.9390559365
 30
0.0
 11
329.9239792
 21
-85.8782101753
 31
0.0
  0
ARC
  5
269
330
1F
100
AcDbEntity
  8
0
  6
SLD-Solid
 62
   142
420
    32960
370
     0
100
AcDbCircle
 10
338.4280250696
 20
-85.9027092042
 30
0.0
 40
1.159045746515764
100
AcDbArc
 50
302.9702880511
 51
351.1198026019
  0
ARC
  5
26A
330
1F
100
AcDbEntity
  8
0
  6
SLD-Solid
 62
   142
420
    32960
370
     0
100
AcDbCircle
 10
327.8771846409
 20
-136.9639513443
 30
0.0
 40
51.09463329350131
100
AcDbArc
 50
91.0689540899
 51
101.3871646332
  0
LWPOLYLINE
  5
26B
330
1F
100
AcDbEntity
  8
0
  6
SLD-Solid
 62
   142
420
    32960
370
     0
100
AcDbPolyline
 90
        9
 70
   128
 43
0.0
 10
326.9239792
 20
-96.9390559365
 10
327.0381599013
 20
-97.1164394626
 10
327.3633190282
 20
-97.2668179548
 10
327.8499540515
 20
-97.3672976509
 10
328.4239792
 20
-97.4025814281
 10
328.9980043486
 20
-97.3672976509
 10
329.4846393718
 20
-97.2668179548
 10
329.8097984988
 20
-97.1164394626
 10
329.9239792
 20
-96.9390559365
  0
LINE
  5
26C
330
1F
100
AcDbEntity
  8
0
  6
SLD-Solid
 62
     7
370
    15
100
AcDbLine
 10
340.0825994754
 20
-85.6304104432
 30
0.0
 11
340.0271497529
 21
-86.0175556015
 31
0.0
  0
LWPOLYLINE
  5
26D
330
1F
100
AcDbEntity
  8
0
  6
SLD-Solid
 62
   142
420
    32960
370
     0
100
AcDbPolyline
 90
        9
 70
   128
 43
0.0
 10
340.0271497529
 20
-86.0175556015
 10
340.0492395214
 20
-86.0373632267
 10
340.0473000073
 20
-86.0544214781
 10
340.0213782646
 20
-86.0683165088
 10
339.9721031758
 20
-86.0787112142
 10
339.9006701939
 20
-86.0853534104
 10
339.8088123404
 20
-86.0880819524
 10
339.6987581605
 20
-86.0868306436
 10
339.5731776568
 20
-86.0816298418
  0
LINE
  5
26E
330
1F
100
AcDbEntity
  8
0
  6
SLD-Solid
 62
     7
370
    15
100
AcDbLine
 10
316.8208086472
 20
-86.0175556015
 30
0.0
 11
316.7653589247
 21
-85.6304104432
 31
0.0
  0
LWPOLYLINE
  5
26F
330
1F
100
AcDbEntity
  8
0
  6
SLD-Solid
 62
     7
370
    15
100
AcDbPolyline
 90
        3
 70
   128
 43
0.0
 10
316.7966876813
 20
-86.0463773904
 10
316.7987188787
 20
-86.0373632267
 10
316.8208086472
 20
-86.0175556015
  0
LINE
  5
270
330
1F
100
AcDbEntity
  8
0
  6
SLD-Solid
 62
   142
420
    32960
370
     0
100
AcDbLine
 10
326.9249949699
 20
-85.6304104432
 30
0.0
 11
326.9239792
 21
-85.6732661521
 31
0.0
  0
LINE
  5
271
330
1F
100
AcDbEntity
  8
0
  6
SLD-Solid
 62
     7
370
    15
100
AcDbLine
 10
338.0981432362
 20
-90.438273106
 30
0.0
 11
338.0907937119
 21
-90.6434685727
 31
0.0
  0
LINE
  5
272
330
1F
100
AcDbEntity
  8
0
  6
SLD-Solid
 62
   142
420
    32960
370
     0
100
AcDbLine
 10
314.9563059827
 20
-85.6304104432
 30
0.0
 11
316.8208086472
 21
-95.4850618799
 31
0.0
  0
ARC
  5
273
330
1F
100
AcDbEntity
  8
0
  6
SLD-Solid
 62
   142
420
    32960
370
     0
100
AcDbCircle
 10
318.4199333305
 20
-85.9027092042
 30
0.0
 40
1.159045746515259
100
AcDbArc
 50
188.8801973981
 51
237.0297119489
  0
ARC
  5
274
330
1F
100
AcDbEntity
  8
0
  6
SLD-Solid
 62
   142
420
    32960
370
     0
100
AcDbCircle
 10
317.8760353577
 20
-95.4439926814
 30
0.0
 40
1.05602561032228
100
AcDbArc
 50
182.228814608
 51
265.2820210055
  0
ARC
  5
275
330
1F
100
AcDbEntity
  8
0
  6
SLD-Solid
 62
   142
420
    32960
370
     0
100
AcDbCircle
 10
339.1513243456
 20
-86.0041134063
 30
0.0
 40
0.8758830767315992
100
AcDbArc
 50
263.9350646147
 51
355.8752552549
  0
ARC
  5
276
330
1F
100
AcDbEntity
  8
0
  6
SLD-Solid
 62
   142
420
    32960
370
     0
100
AcDbCircle
 10
338.9719230423
 20
-95.4439926814
 30
0.0
 40
1.056025610322105
100
AcDbArc
 50
274.7179789945
 51
357.771185392
  0
ARC
  5
277
330
1F
100
AcDbEntity
  8
0
  6
SLD-Solid
 62
   142
420
    32960
370
     0
100
AcDbCircle
 10
339.1985897128
 20
-96.1993295061
 30
0.0
 40
0.3283607196315728
100
AcDbArc
 50
244.800374538
 51
329.0454150196
  0
ARC
  5
278
330
1F
100
AcDbEntity
  8
0
  6
SLD-Solid
 62
   142
420
    32960
370
     0
100
AcDbCircle
 10
317.6493686872
 20
-96.1993295052
 30
0.0
 40
0.3283607204447954
100
AcDbArc
 50
210.9545841705
 51
295.1996253964
  0
ARC
  5
279
330
1F
100
AcDbEntity
  8
0
  6
SLD-Solid
 62
   142
420
    32960
370
     0
100
AcDbCircle
 10
339.5613026389
 20
-95.6299618311
 30
0.0
 40
0.4878622032945987
100
AcDbArc
 50
307.8246708662
 51
17.2781047547
  0
LWPOLYLINE
  5
27A
330
1F
100
AcDbEntity
  8
0
  6
SLD-Solid
 62
   142
420
    32960
370
     0
100
AcDbPolyline
 90
        9
 70
   128
 43
0.0
 10
329.9239792
 20
-96.4635276783
 10
329.8097984988
 20
-96.6409112044
 10
329.4846393718
 20
-96.7912896967
 10
328.9980043486
 20
-96.8917693928
 10
328.4239792
 20
-96.9270531699
 10
327.8499540515
 20
-96.8917693928
 10
327.3633190282
 20
-96.7912896967
 10
327.0381599013
 20
-96.6409112044
 10
326.9239792
 20
-96.4635276783
  0
LINE
  5
27B
330
1F
100
AcDbEntity
  8
0
  6
SLD-Solid
 62
   142
420
    32960
370
     0
100
AcDbLine
 10
526.270517588
 20
-87.4075647228
 30
0.0
 11
526.2694181445
 21
-85.6304104432
 31
0.0
  0
LWPOLYLINE
  5
27C
330
1F
100
AcDbEntity
  8
0
  6
SLD-Solid
 62
   142
420
    32960
370
     0
100
AcDbPolyline
 90
       16
 70
   128
 43
0.0
 10
527.2705174188
 20
-87.4070174906
 10
528.1686716985
 20
-87.760969278
 10
528.8548999472
 20
-88.4108077054
 10
529.225080583
 20
-89.2579326273
 10
529.2230460065
 20
-90.1738095699
 10
528.8491049245
 20
-91.0194722984
 10
528.1599955098
 20
-91.6666081977
 10
527.2602765042
 20
-92.0170271778
 10
526.2864624951
 20
-92.0175600803
 10
525.3863105228
 20
-91.6681260478
 10
524.6964008686
 20
-91.0217447923
 10
524.3214136949
 20
-90.1764919017
 10
524.3182458983
 20
-89.2606178059
 10
524.6873781295
 20
-88.4130883081
 10
525.3728018636
 20
-87.7624992684
 10
526.270517588
 20
-87.4075647228
  0
LINE
  5
27D
330
1F
100
AcDbEntity
  8
0
  6
SLD-Solid
 62
   142
420
    32960
370
     0
100
AcDbLine
 10
527.2705174188
 20
-87.4070174906
 30
0.0
 11
527.2694183138
 21
-85.6304104432
 31
0.0
  0
ENDSEC
  0
SECTION
  2
OBJECTS
  0
DICTIONARY
  5
C
330
0
100
AcDbDictionary
281
     1
  3
ACAD_GROUP
350
D
  3
ACAD_LAYOUT
350
1A
  3
ACAD_MATERIAL
350
3B
  3
ACAD_MLEADERSTYLE
350
27F
  3
ACAD_MLINESTYLE
350
17
  3
ACAD_PLOTSETTINGS
350
19
  3
ACAD_PLOTSTYLENAME
350
E
  3
ACAD_TABLESTYLE
350
27E
  3
ACAD_VISUALSTYLE
350
2A
  0
DICTIONARY
  5
D
102
{ACAD_REACTORS
330
C
102
}
330
C
100
AcDbDictionary
281
     1
  0
DICTIONARY
  5
1A
102
{ACAD_REACTORS
330
C
102
}
330
C
100
AcDbDictionary
281
     1
  3
Layout1
350
1E
  3
Layout2
350
26
  3
Model
350
22
  0
DICTIONARY
  5
3B
102
{ACAD_REACTORS
330
C
102
}
330
C
100
AcDbDictionary
281
     1
  3
ByBlock
350
3D
  3
ByLayer
350
3C
  3
Global
350
3E
  0
DICTIONARY
  5
27F
102
{ACAD_REACTORS
330
C
102
}
330
C
100
AcDbDictionary
281
     1
  0
DICTIONARY
  5
17
102
{ACAD_REACTORS
330
C
102
}
330
C
100
AcDbDictionary
281
     1
  3
Standard
350
18
  0
DICTIONARY
  5
19
102
{ACAD_REACTORS
330
C
102
}
330
C
100
AcDbDictionary
281
     1
  0
ACDBDICTIONARYWDFLT
  5
E
102
{ACAD_REACTORS
330
C
102
}
330
C
100
AcDbDictionary
281
     1
  3
Normal
350
F
100
AcDbDictionaryWithDefault
340
F
  0
DICTIONARY
  5
27E
102
{ACAD_REACTORS
330
C
102
}
330
C
100
AcDbDictionary
281
     1
  0
DICTIONARY
  5
2A
102
{ACAD_REACTORS
330
C
102
}
330
C
100
AcDbDictionary
281
     1
  3
2dWireframe
350
2F
  3
3D Hidden
350
31
  3
3dWireframe
350
30
  3
Basic
350
32
  3
Brighten
350
36
  3
ColorChange
350
3A
  3
Conceptual
350
34
  3
Dim
350
35
  3
Facepattern
350
39
  3
Flat
350
2B
  3
FlatWithEdges
350
2C
  3
Gouraud
350
2D
  3
GouraudWithEdges
350
2E
  3
Linepattern
350
38
  3
Realistic
350
33
  3
Thicken
350
37
  0
LAYOUT
  5
1E
102
{ACAD_REACTORS
330
1A
102
}
330
1A
100
AcDbPlotSettings
  1

  2
none_device
  4

  6

 40
0.0
 41
0.0
 42
0.0
 43
0.0
 44
0.0
 45
0.0
 46
0.0
 47
0.0
 48
0.0
 49
0.0
140
0.0
141
0.0
142
1.0
143
1.0
 70
   688
 72
     0
 73
     0
 74
     5
  7

 75
    16
 76
     0
 77
     2
 78
   300
147
1.0
148
0.0
149
0.0
100
AcDbLayout
  1
Layout1
 70
     1
 71
     1
 10
0.0
 20
0.0
 11
420.0
 21
297.0
 12
0.0
 22
0.0
 32
0.0
 14
1.0000000000E+20
 24
1.0000000000E+20
 34
1.0000000000E+20
 15
-1.0000000000E+20
 25
-1.0000000000E+20
 35
-1.0000000000E+20
146
0.0
 13
0.0
 23
0.0
 33
0.0
 16
1.0
 26
0.0
 36
0.0
 17
0.0
 27
1.0
 37
0.0
 76
     0
330
1B
  0
LAYOUT
  5
26
102
{ACAD_REACTORS
330
1A
102
}
330
1A
100
AcDbPlotSettings
  1

  2
none_device
  4

  6

 40
0.0
 41
0.0
 42
0.0
 43
0.0
 44
0.0
 45
0.0
 46
0.0
 47
0.0
 48
0.0
 49
0.0
140
0.0
141
0.0
142
1.0
143
1.0
 70
   688
 72
     0
 73
     0
 74
     5
  7

 75
    16
 76
     0
 77
     2
 78
   300
147
1.0
148
0.0
149
0.0
100
AcDbLayout
  1
Layout2
 70
     1
 71
     2
 10
0.0
 20
0.0
 11
0.0
 21
0.0
 12
0.0
 22
0.0
 32
0.0
 14
0.0
 24
0.0
 34
0.0
 15
0.0
 25
0.0
 35
0.0
146
0.0
 13
0.0
 23
0.0
 33
0.0
 16
1.0
 26
0.0
 36
0.0
 17
0.0
 27
1.0
 37
0.0
 76
     0
330
23
  0
LAYOUT
  5
22
102
{ACAD_REACTORS
330
1A
102
}
330
1A
100
AcDbPlotSettings
  1

  2
none_device
  4

  6

 40
0.0
 41
0.0
 42
0.0
 43
0.0
 44
0.0
 45
0.0
 46
0.0
 47
0.0
 48
0.0
 49
0.0
140
0.0
141
0.0
142
1.0
143
1.0
 70
  1712
 72
     0
 73
     0
 74
     0
  7

 75
     0
 76
     0
 77
     2
 78
   300
147
1.0
148
0.0
149
0.0
100
AcDbLayout
  1
Model
 70
     1
 71
     0
 10
0.0
 20
0.0
 11
841.0
 21
594.0
 12
0.0
 22
0.0
 32
0.0
 14
0.0
 24
0.0
 34
0.0
 15
841.0
 25
594.0
 35
0.0
146
0.0
 13
0.0
 23
0.0
 33
0.0
 16
1.0
 26
0.0
 36
0.0
 17
0.0
 27
1.0
 37
0.0
 76
     0
330
1F
331
29
  0
MATERIAL
  5
3D
102
{ACAD_REACTORS
330
3B
102
}
330
3B
100
AcDbMaterial
  1
ByBlock
 72
     1
 94
      127
  0
MATERIAL
  5
3C
102
{ACAD_REACTORS
330
3B
102
}
330
3B
100
AcDbMaterial
  1
ByLayer
 72
     1
 94
      127
  0
MATERIAL
  5
3E
102
{ACAD_REACTORS
330
3B
102
}
330
3B
100
AcDbMaterial
  1
Global
 72
     1
 94
      127
  0
MLINESTYLE
  5
18
102
{ACAD_REACTORS
330
17
102
}
330
17
100
AcDbMlineStyle
  2
Standard
 70
     0
  3

 62
   256
 51
90.0
 52
90.0
 71
     2
 49
0.5
 62
   256
  6
BYLAYER
 49
-0.5
 62
   256
  6
BYLAYER
  0
ACDBPLACEHOLDER
  5
F
102
{ACAD_REACTORS
330
E
102
}
330
E
  0
VISUALSTYLE
  5
2F
102
{ACAD_REACTORS
330
2A
102
}
330
2A
100
AcDbVisualStyle
  2
2dWireframe
 70
     4
 71
     0
 72
     2
 73
     0
 90
        0
 40
-0.6
 41
-30.0
 62
     5
 63
     7
421
 16777215
 74
     1
 91
        4
 64
     7
 65
   257
 75
     1
175
     1
 42
1.0
 92
        0
 66
   257
 43
1.0
 76
     1
 77
     6
 78
     2
 67
     7
 79
     5
170
     0
171
     0
290
     0
174
     0
 93
        1
 44
0.0
173
     0
291
     0
 45
0.0
  0
VISUALSTYLE
  5
31
102
{ACAD_REACTORS
330
2A
102
}
330
2A
100
AcDbVisualStyle
  2
3D Hidden
 70
     6
 71
     1
 72
     2
 73
     2
 90
        0
 40
-0.6
 41
-30.0
 62
     5
 63
     7
421
 16777215
 74
     2
 91
        2
 64
     7
 65
   257
 75
     2
175
     1
 42
40.0
 92
        0
 66
   257
 43
1.0
 76
     1
 77
     6
 78
     2
 67
     7
 79
     3
170
     0
171
     0
290
     0
174
     0
 93
        1
 44
0.0
173
     0
291
     0
 45
0.0
  0
VISUALSTYLE
  5
30
102
{ACAD_REACTORS
330
2A
102
}
330
2A
100
AcDbVisualStyle
  2
3dWireframe
 70
     5
 71
     0
 72
     2
 73
     0
 90
        0
 40
-0.6
 41
-30.0
 62
     5
 63
     7
421
 16777215
 74
     1
 91
        4
 64
     7
 65
   257
 75
     1
175
     1
 42
1.0
 92
        0
 66
   257
 43
1.0
 76
     1
 77
     6
 78
     2
 67
     7
 79
     5
170
     0
171
     0
290
     0
174
     0
 93
        1
 44
0.0
173
     0
291
     0
 45
0.0
  0
VISUALSTYLE
  5
32
102
{ACAD_REACTORS
330
2A
102
}
330
2A
100
AcDbVisualStyle
  2
Basic
 70
     7
 71
     1
 72
     0
 73
     1
 90
        0
 40
-0.6
 41
-30.0
 62
     5
 63
     7
421
 16777215
 74
     0
 91
        4
 64
     7
 65
   257
 75
     1
175
     1
 42
1.0
 92
        8
 66
     7
 43
1.0
 76
     1
 77
     6
 78
     2
 67
     7
 79
     5
170
     0
171
     0
290
     0
174
     0
 93
        1
 44
0.0
173
     0
291
     1
 45
0.0
  0
VISUALSTYLE
  5
36
102
{ACAD_REACTORS
330
2A
102
}
330
2A
100
AcDbVisualStyle
  2
Brighten
 70
    12
 71
     2
 72
     2
 73
     0
 90
        0
 40
-0.6
 41
-30.0
 62
     5
 63
     7
421
 16777215
 74
     1
 91
        4
 64
     7
 65
   257
 75
     1
175
     1
 42
1.0
 92
        8
 66
     7
 43
1.0
 76
     1
 77
     6
 78
     2
 67
     7
 79
     5
170
     0
171
     0
290
     0
174
     0
 93
        1
 44
50.0
173
     0
291
     1
 45
0.0
  0
VISUALSTYLE
  5
3A
102
{ACAD_REACTORS
330
2A
102
}
330
2A
100
AcDbVisualStyle
  2
ColorChange
 70
    16
 71
     2
 72
     2
 73
     3
 90
        0
 40
-0.6
 41
-30.0
 62
     5
 63
     8
421
  8421504
 74
     1
 91
        4
 64
     7
 65
   257
 75
     1
175
     1
 42
1.0
 92
        8
 66
     8
424
  8421504
 43
1.0
 76
     1
 77
     6
 78
     2
 67
     7
 79
     5
170
     0
171
     0
290
     0
174
     0
 93
        1
 44
0.0
173
     0
291
     1
 45
0.0
  0
VISUALSTYLE
  5
34
102
{ACAD_REACTORS
330
2A
102
}
330
2A
100
AcDbVisualStyle
  2
Conceptual
 70
     9
 71
     3
 72
     2
 73
     0
 90
        0
 40
-0.6
 41
-30.0
 62
     5
 63
     7
421
 16777215
 74
     2
 91
        2
 64
     7
 65
   257
 75
     1
175
     1
 42
40.0
 92
        8
 66
     7
 43
1.0
 76
     1
 77
     6
 78
     2
 67
     7
 79
     3
170
     0
171
     0
290
     0
174
     0
 93
        1
 44
0.0
173
     0
291
     0
 45
0.0
  0
VISUALSTYLE
  5
35
102
{ACAD_REACTORS
330
2A
102
}
330
2A
100
AcDbVisualStyle
  2
Dim
 70
    11
 71
     2
 72
     2
 73
     0
 90
        0
 40
-0.6
 41
-30.0
 62
     5
 63
     7
421
 16777215
 74
     1
 91
        4
 64
     7
 65
   257
 75
     1
175
     1
 42
1.0
 92
        8
 66
     7
 43
1.0
 76
     1
 77
     6
 78
     2
 67
     7
 79
     5
170
     0
171
     0
290
     0
174
     0
 93
        1
 44
-50.0
173
     0
291
     1
 45
0.0
  0
VISUALSTYLE
  5
39
102
{ACAD_REACTORS
330
2A
102
}
330
2A
100
AcDbVisualStyle
  2
Facepattern
 70
    15
 71
     2
 72
     2
 73
     0
 90
        0
 40
-0.6
 41
-30.0
 62
     5
 63
     7
421
 16777215
 74
     1
 91
        4
 64
     7
 65
   257
 75
     1
175
     1
 42
1.0
 92
        8
 66
     7
 43
1.0
 76
     1
 77
     6
 78
     2
 67
     7
 79
     5
170
     0
171
     0
290
     0
174
     0
 93
        1
 44
0.0
173
     0
291
     1
 45
0.0
  0
VISUALSTYLE
  5
2B
102
{ACAD_REACTORS
330
2A
102
}
330
2A
100
AcDbVisualStyle
  2
Flat
 70
     0
 71
     2
 72
     1
 73
     1
 90
        2
 40
-0.6
 41
30.0
 62
     5
 63
     7
421
 16777215
 74
     0
 91
        4
 64
     7
 65
   257
 75
     1
175
     1
 42
1.0
 92
        8
 66
     7
 43
1.0
 76
     1
 77
     6
 78
     2
 67
     7
 79
     5
170
     0
171
     0
290
     0
174
     0
 93
       13
 44
0.0
173
     0
291
     1
 45
0.0
  0
VISUALSTYLE
  5
2C
102
{ACAD_REACTORS
330
2A
102
}
330
2A
100
AcDbVisualStyle
  2
FlatWithEdges
 70
     1
 71
     2
 72
     1
 73
     1
 90
        2
 40
-0.6
 41
30.0
 62
     5
 63
     7
421
 16777215
 74
     1
 91
        4
 64
     7
 65
   257
 75
     1
175
     1
 42
1.0
 92
        0
 66
   257
 43
1.0
 76
     1
 77
     6
 78
     2
 67
     7
 79
     5
170
     0
171
     0
290
     0
174
     0
 93
       13
 44
0.0
173
     0
291
     1
 45
0.0
  0
VISUALSTYLE
  5
2D
102
{ACAD_REACTORS
330
2A
102
}
330
2A
100
AcDbVisualStyle
  2
Gouraud
 70
     2
 71
     2
 72
     2
 73
     1
 90
        2
 40
-0.6
 41
30.0
 62
     5
 63
     7
421
 16777215
 74
     0
 91
        4
 64
     7
 65
   257
 75
     1
175
     1
 42
1.0
 92
        0
 66
     7
 43
1.0
 76
     1
 77
     6
 78
     2
 67
     7
 79
     5
170
     0
171
     0
290
     0
174
     0
 93
       13
 44
0.0
173
     0
291
     1
 45
0.0
  0
VISUALSTYLE
  5
2E
102
{ACAD_REACTORS
330
2A
102
}
330
2A
100
AcDbVisualStyle
  2
GouraudWithEdges
 70
     3
 71
     2
 72
     2
 73
     1
 90
        2
 40
-0.6
 41
30.0
 62
     5
 63
     7
421
 16777215
 74
     1
 91
        4
 64
     7
 65
   257
 75
     1
175
     1
 42
1.0
 92
        0
 66
   257
 43
1.0
 76
     1
 77
     6
 78
     2
 67
     7
 79
     5
170
     0
171
     0
290
     0
174
     0
 93
       13
 44
0.0
173
     0
291
     1
 45
0.0
  0
VISUALSTYLE
  5
38
102
{ACAD_REACTORS
330
2A
102
}
330
2A
100
AcDbVisualStyle
  2
Linepattern
 70
    14
 71
     2
 72
     2
 73
     0
 90
        0
 40
-0.6
 41
-30.0
 62
     5
 63
     7
421
 16777215
 74
     1
 91
        4
 64
     7
 65
   257
 75
     7
175
     7
 42
1.0
 92
        8
 66
     7
 43
1.0
 76
     1
 77
     6
 78
     2
 67
     7
 79
     5
170
     0
171
     0
290
     0
174
     0
 93
        1
 44
0.0
173
     0
291
     1
 45
0.0
  0
VISUALSTYLE
  5
33
102
{ACAD_REACTORS
330
2A
102
}
330
2A
100
AcDbVisualStyle
  2
Realistic
 70
     8
 71
     2
 72
     2
 73
     0
 90
        0
 40
-0.6
 41
-30.0
 62
     5
 63
     7
421
 16777215
 74
     1
 91
        0
 64
     7
 65
   257
 75
     1
175
     1
 42
1.0
 92
        8
 66
     8
424
  7895160
 43
1.0
 76
     1
 77
     6
 78
     2
 67
     7
 79
     5
170
     0
171
     0
290
     0
174
     0
 93
       13
 44
0.0
173
     0
291
     0
 45
0.0
  0
VISUALSTYLE
  5
37
102
{ACAD_REACTORS
330
2A
102
}
330
2A
100
AcDbVisualStyle
  2
Thicken
 70
    13
 71
     2
 72
     2
 73
     0
 90
        0
 40
-0.6
 41
-30.0
 62
     5
 63
     7
421
 16777215
 74
     1
 91
        4
 64
     7
 65
   257
 75
     1
175
     1
 42
1.0
 92
       12
 66
     7
 43
1.0
 76
     1
 77
     6
 78
     2
 67
     7
 79
     5
170
     0
171
     0
290
     0
174
     0
 93
        1
 44
0.0
173
     0
291
     1
 45
0.0
  0
ENDSEC
  0
EOF
