  0
SECTION
  2
HEADER
  9
$ACADVER
  1
AC1015
  9
$ACADMAINTVER
 70
     6
  9
$DWGCODEPAGE
  3
ANSI_1252
  9
$INSBASE
 10
0.0
 20
0.0
 30
0.0
  9
$EXTMIN
 10
0.0
 20
0.0
 30
0.0
  9
$EXTMAX
 10
2159.0
 20
1397.0
 30
0.0
  9
$LIMMIN
 10
0.0
 20
0.0
  9
$LIMMAX
 10
2159.0
 20
1397.0
  9
$ORTHOMODE
 70
     0
  9
$REGENMODE
 70
     1
  9
$FILLMODE
 70
     1
  9
$QTEXTMODE
 70
     0
  9
$MIRRTEXT
 70
     1
  9
$LTSCALE
 40
5.0
  9
$ATTMODE
 70
     1
  9
$TEXTSIZE
 40
17.5
  9
$TRACEWID
 40
1.0
  9
$TEXTSTYLE
  7
Standard
  9
$CLAYER
  8
0
  9
$CELTYPE
  6
ByLayer
  9
$CECOLOR
 62
   256
  9
$CELTSCALE
 40
1.0
  9
$DISPSILH
 70
     0
  9
$DIMSCALE
 40
1.0
  9
$DIMASZ
 40
16.51
  9
$DIMEXO
 40
5.0
  9
$DIMDLI
 40
3.75
  9
$DIMRND
 40
0.0
  9
$DIMDLE
 40
0.0
  9
$DIMEXE
 40
5.0
  9
$DIMTP
 40
0.0
  9
$DIMTM
 40
0.0
  9
$DIMTXT
 40
17.5
  9
$DIMCEN
 40
2.5
  9
$DIMTSZ
 40
0.0
  9
$DIMTOL
 70
     0
  9
$DIMLIM
 70
     0
  9
$DIMTIH
 70
     1
  9
$DIMTOH
 70
     1
  9
$DIMSE1
 70
     0
  9
$DIMSE2
 70
     0
  9
$DIMTAD
 70
     1
  9
$DIMZIN
 70
     0
  9
$DIMBLK
  1

  9
$DIMASO
 70
     1
  9
$DIMSHO
 70
     1
  9
$DIMPOST
  1

  9
$DIMAPOST
  1

  9
$DIMALT
 70
     0
  9
$DIMALTD
 70
     3
  9
$DIMALTF
 40
0.0393700787
  9
$DIMLFAC
 40
1.0
  9
$DIMTOFL
 70
     1
  9
$DIMTVP
 40
0.0
  9
$DIMTIX
 70
     0
  9
$DIMSOXD
 70
     0
  9
$DIMSAH
 70
     0
  9
$DIMBLK1
  1

  9
$DIMBLK2
  1

  9
$DIMSTYLE
  2
ISO-25
  9
$DIMCLRD
 70
     0
  9
$DIMCLRE
 70
     0
  9
$DIMCLRT
 70
     0
  9
$DIMTFAC
 40
1.0
  9
$DIMGAP
 40
7.62
  9
$DIMJUST
 70
     0
  9
$DIMSD1
 70
     0
  9
$DIMSD2
 70
     0
  9
$DIMTOLJ
 70
     0
  9
$DIMTZIN
 70
     0
  9
$DIMALTZ
 70
     0
  9
$DIMALTTZ
 70
     0
  9
$DIMUPT
 70
     0
  9
$DIMDEC
 70
     3
  9
$DIMTDEC
 70
     3
  9
$DIMALTU
 70
     2
  9
$DIMALTTD
 70
     3
  9
$DIMTXSTY
  7
Standard
  9
$DIMAUNIT
 70
     0
  9
$DIMADEC
 70
     2
  9
$DIMALTRND
 40
0.0
  9
$DIMAZIN
 70
     0
  9
$DIMDSEP
 70
    44
  9
$DIMATFIT
 70
     3
  9
$DIMFRAC
 70
     0
  9
$DIMLDRBLK
  1

  9
$DIMLUNIT
 70
     2
  9
$DIMLWD
 70
    -2
  9
$DIMLWE
 70
    -2
  9
$DIMTMOVE
 70
     0
  9
$LUNITS
 70
     2
  9
$LUPREC
 70
     8
  9
$SKETCHINC
 40
1.0
  9
$FILLETRAD
 40
10.0
  9
$AUNITS
 70
     0
  9
$AUPREC
 70
     8
  9
$MENU
  1
.
  9
$ELEVATION
 40
0.0
  9
$PELEVATION
 40
0.0
  9
$THICKNESS
 40
0.0
  9
$LIMCHECK
 70
     0
  9
$CHAMFERA
 40
10.0
  9
$CHAMFERB
 40
10.0
  9
$CHAMFERC
 40
20.0
  9
$CHAMFERD
 40
0.0
  9
$SKPOLY
 70
     0
  9
$TDCREATE
 40
2456315.405664317
  9
$TDUCREATE
 40
2456315.405664317
  9
$TDUPDATE
 40
2456315.405665937
  9
$TDUUPDATE
 40
2456315.405665937
  9
$TDINDWG
 40
0.0000000116
  9
$TDUSRTIMER
 40
0.0000000116
  9
$USRTIMER
 70
     1
  9
$ANGBASE
 50
0.0
  9
$ANGDIR
 70
     0
  9
$PDMODE
 70
     0
  9
$PDSIZE
 40
-1.0
  9
$PLINEWID
 40
0.0
  9
$SPLFRAME
 70
     0
  9
$SPLINETYPE
 70
     6
  9
$SPLINESEGS
 70
     8
  9
$HANDSEED
  5
2AA
  9
$SURFTAB1
 70
     6
  9
$SURFTAB2
 70
     6
  9
$SURFTYPE
 70
     6
  9
$SURFU
 70
     6
  9
$SURFV
 70
     6
  9
$UCSBASE
  2

  9
$UCSNAME
  2

  9
$UCSORG
 10
0.0
 20
0.0
 30
0.0
  9
$UCSXDIR
 10
1.0
 20
0.0
 30
0.0
  9
$UCSYDIR
 10
0.0
 20
1.0
 30
0.0
  9
$UCSORTHOREF
  2

  9
$UCSORTHOVIEW
 70
     0
  9
$UCSORGTOP
 10
0.0
 20
0.0
 30
0.0
  9
$UCSORGBOTTOM
 10
0.0
 20
0.0
 30
0.0
  9
$UCSORGLEFT
 10
0.0
 20
0.0
 30
0.0
  9
$UCSORGRIGHT
 10
0.0
 20
0.0
 30
0.0
  9
$UCSORGFRONT
 10
0.0
 20
0.0
 30
0.0
  9
$UCSORGBACK
 10
0.0
 20
0.0
 30
0.0
  9
$PUCSBASE
  2

  9
$PUCSNAME
  2

  9
$PUCSORG
 10
0.0
 20
0.0
 30
0.0
  9
$PUCSXDIR
 10
1.0
 20
0.0
 30
0.0
  9
$PUCSYDIR
 10
0.0
 20
1.0
 30
0.0
  9
$PUCSORTHOREF
  2

  9
$PUCSORTHOVIEW
 70
     0
  9
$PUCSORGTOP
 10
0.0
 20
0.0
 30
0.0
  9
$PUCSORGBOTTOM
 10
0.0
 20
0.0
 30
0.0
  9
$PUCSORGLEFT
 10
0.0
 20
0.0
 30
0.0
  9
$PUCSORGRIGHT
 10
0.0
 20
0.0
 30
0.0
  9
$PUCSORGFRONT
 10
0.0
 20
0.0
 30
0.0
  9
$PUCSORGBACK
 10
0.0
 20
0.0
 30
0.0
  9
$USERI1
 70
     0
  9
$USERI2
 70
     0
  9
$USERI3
 70
     0
  9
$USERI4
 70
     0
  9
$USERI5
 70
     0
  9
$USERR1
 40
0.0
  9
$USERR2
 40
0.0
  9
$USERR3
 40
0.0
  9
$USERR4
 40
0.0
  9
$USERR5
 40
0.0
  9
$WORLDVIEW
 70
     1
  9
$SHADEDGE
 70
     3
  9
$SHADEDIF
 70
    70
  9
$TILEMODE
 70
     1
  9
$MAXACTVP
 70
    64
  9
$PINSBASE
 10
0.0
 20
0.0
 30
0.0
  9
$PLIMCHECK
 70
     0
  9
$PEXTMIN
 10
1.0000000000E+20
 20
1.0000000000E+20
 30
1.0000000000E+20
  9
$PEXTMAX
 10
-1.0000000000E+20
 20
-1.0000000000E+20
 30
-1.0000000000E+20
  9
$PLIMMIN
 10
0.0
 20
0.0
  9
$PLIMMAX
 10
420.0
 20
297.0
  9
$UNITMODE
 70
     0
  9
$VISRETAIN
 70
     1
  9
$PLINEGEN
 70
     0
  9
$PSLTSCALE
 70
     1
  9
$TREEDEPTH
 70
  3020
  9
$CMLSTYLE
  2
Standard
  9
$CMLJUST
 70
     0
  9
$CMLSCALE
 40
20.0
  9
$PROXYGRAPHICS
 70
     1
  9
$MEASUREMENT
 70
     1
  9
$CELWEIGHT
370
    -1
  9
$ENDCAPS
280
     0
  9
$JOINSTYLE
280
     0
  9
$LWDISPLAY
290
     1
  9
$INSUNITS
 70
     4
  9
$HYPERLINKBASE
  1

  9
$STYLESHEET
  1

  9
$XEDIT
290
     1
  9
$CEPSNTYPE
380
     0
  9
$PSTYLEMODE
290
     1
  9
$FINGERPRINTGUID
  2
{6C5914A5-3419-4878-A928-3487616AA0BF}
  9
$VERSIONGUID
  2
{FAEB1C32-E019-11D5-929B-00C0DF256EC4}
  9
$EXTNAMES
290
     1
  9
$PSVPSCALE
 40
0.0
  9
$OLESTARTUP
290
     0
  0
ENDSEC
  0
SECTION
  2
CLASSES
  0
CLASS
  1
ACDBDICTIONARYWDFLT
  2
AcDbDictionaryWithDefault
  3
ObjectDBX Classes
 90
        0
280
     0
281
     0
  0
CLASS
  1
VISUALSTYLE
  2
AcDbVisualStyle
  3
ObjectDBX Classes
 90
     4095
280
     0
281
     0
  0
CLASS
  1
MATERIAL
  2
AcDbMaterial
  3
ObjectDBX Classes
 90
     1153
280
     0
281
     0
  0
CLASS
  1
ACDBPLACEHOLDER
  2
AcDbPlaceHolder
  3
ObjectDBX Classes
 90
        0
280
     0
281
     0
  0
CLASS
  1
LAYOUT
  2
AcDbLayout
  3
ObjectDBX Classes
 90
        0
280
     0
281
     0
  0
ENDSEC
  0
SECTION
  2
TABLES
  0
TABLE
  2
VPORT
  5
8
330
0
100
AcDbSymbolTable
 70
     1
  0
VPORT
  5
29
330
8
100
AcDbSymbolTableRecord
100
AcDbViewportTableRecord
  2
*Active
 70
     0
 10
0.0
 20
0.0
 11
1.0
 21
1.0
 12
1079.5
 22
698.5
 13
0.0
 23
0.0
 14
10.0
 24
10.0
 15
10.0
 25
10.0
 16
0.0
 26
0.0
 36
1.0
 17
0.0
 27
0.0
 37
0.0
 40
1397.0
 41
1.5454545455
 42
50.0
 43
0.0
 44
0.0
 50
0.0
 51
0.0
 71
     0
 72
  2000
 73
     1
 74
     3
 75
     0
 76
     0
 77
     0
 78
     0
281
     0
 65
     1
110
0.0
120
0.0
130
0.0
111
1.0
121
0.0
131
0.0
112
0.0
122
1.0
132
0.0
 79
     0
146
0.0
  0
ENDTAB
  0
TABLE
  2
LTYPE
  5
5
330
0
100
AcDbSymbolTable
 70
     6
  0
LTYPE
  5
14
330
5
100
AcDbSymbolTableRecord
100
AcDbLinetypeTableRecord
  2
ByBlock
 70
     0
  3

 72
    65
 73
     0
 40
0.0
  0
LTYPE
  5
15
330
5
100
AcDbSymbolTableRecord
100
AcDbLinetypeTableRecord
  2
ByLayer
 70
     0
  3

 72
    65
 73
     0
 40
0.0
  0
LTYPE
  5
16
330
5
100
AcDbSymbolTableRecord
100
AcDbLinetypeTableRecord
  2
Continuous
 70
     0
  3
Solid line
 72
    65
 73
     0
 40
0.0
  0
LTYPE
  5
3F
330
5
100
AcDbSymbolTableRecord
100
AcDbLinetypeTableRecord
  2
HIDDEN
 70
     0
  3
Hidden __ __ __ __ __ __ __ __ __ __ __ __ __ __
 72
    65
 73
     2
 40
1.905
 49
1.27
 74
     0
 49
-0.635
 74
     0
  0
LTYPE
  5
40
330
5
100
AcDbSymbolTableRecord
100
AcDbLinetypeTableRecord
  2
PHANTOM
 70
     0
  3
Phantom ______  __  __  ______  __  __  ______
 72
    65
 73
     6
 40
12.7
 49
6.35
 74
     0
 49
-1.27
 74
     0
 49
1.27
 74
     0
 49
-1.27
 74
     0
 49
1.27
 74
     0
 49
-1.27
 74
     0
  0
LTYPE
  5
41
330
5
100
AcDbSymbolTableRecord
100
AcDbLinetypeTableRecord
  2
CENTER
 70
     0
  3
Center ____ _ ____ _ ____ _ ____ _ ____ _ ____
 72
    65
 73
     4
 40
10.16
 49
6.35
 74
     0
 49
-1.27
 74
     0
 49
1.27
 74
     0
 49
-1.27
 74
     0
  0
LTYPE
  5
42
330
5
100
AcDbSymbolTableRecord
100
AcDbLinetypeTableRecord
  2
CENTERX2
 70
     0
  3
Center (2x) ________  __  ________  __  _____
 72
    65
 73
     4
 40
20.32
 49
12.7
 74
     0
 49
-2.54
 74
     0
 49
2.54
 74
     0
 49
-2.54
 74
     0
  0
LTYPE
  5
43
330
5
100
AcDbSymbolTableRecord
100
AcDbLinetypeTableRecord
  2
DOT2
 70
     0
  3
Dot (.5x) ........................................
 72
    65
 73
     2
 40
0.635
 49
0.0
 74
     0
 49
-0.635
 74
     0
  0
ENDTAB
  0
TABLE
  2
LAYER
  5
2
330
0
100
AcDbSymbolTable
 70
     1
  0
LAYER
  5
10
330
2
100
AcDbSymbolTableRecord
100
AcDbLayerTableRecord
  2
0
 70
     0
 62
     7
  6
Continuous
370
    -3
390
F
  0
ENDTAB
  0
TABLE
  2
STYLE
  5
3
330
0
100
AcDbSymbolTable
 70
     1
  0
STYLE
  5
11
330
3
100
AcDbSymbolTableRecord
100
AcDbTextStyleTableRecord
  2
Standard
 70
     0
 40
0.0
 41
1.0
 50
0.0
 71
     0
 42
17.5
  3
txt
  4

  0
ENDTAB
  0
TABLE
  2
VIEW
  5
6
330
0
100
AcDbSymbolTable
 70
     0
  0
ENDTAB
  0
TABLE
  2
UCS
  5
7
330
0
100
AcDbSymbolTable
 70
     0
  0
ENDTAB
  0
TABLE
  2
APPID
  5
9
330
0
100
AcDbSymbolTable
 70
     1
  0
APPID
  5
12
330
9
100
AcDbSymbolTableRecord
100
AcDbRegAppTableRecord
  2
ACAD
 70
     0
  0
ENDTAB
  0
TABLE
  2
DIMSTYLE
  5
A
330
0
100
AcDbSymbolTable
 70
     1
100
AcDbDimStyleTable
  0
DIMSTYLE
105
27
330
A
100
AcDbSymbolTableRecord
100
AcDbDimStyleTableRecord
  2
ISO-25
 70
     0
 41
2.5
 42
0.625
 43
3.75
 44
1.25
 73
     0
 74
     0
 77
     1
 78
     8
140
2.5
141
2.5
143
0.0393700787
147
0.625
171
     3
172
     1
178
     0
271
     2
272
     2
274
     3
278
    44
283
     0
284
     8
340
11
  0
ENDTAB
  0
TABLE
  2
BLOCK_RECORD
  5
1
330
0
100
AcDbSymbolTable
 70
     1
  0
BLOCK_RECORD
  5
1F
330
1
100
AcDbSymbolTableRecord
100
AcDbBlockTableRecord
  2
*Model_Space
340
22
  0
BLOCK_RECORD
  5
1B
330
1
100
AcDbSymbolTableRecord
100
AcDbBlockTableRecord
  2
*Paper_Space
340
1E
  0
BLOCK_RECORD
  5
23
330
1
100
AcDbSymbolTableRecord
100
AcDbBlockTableRecord
  2
*Paper_Space0
340
26
  0
ENDTAB
  0
ENDSEC
  0
SECTION
  2
BLOCKS
  0
BLOCK
  5
20
330
1F
100
AcDbEntity
  8
0
100
AcDbBlockBegin
  2
*Model_Space
 70
     0
 10
0.0
 20
0.0
 30
0.0
  3
*Model_Space
  1

  0
ENDBLK
  5
21
330
1F
100
AcDbEntity
  8
0
100
AcDbBlockEnd
  0
BLOCK
  5
1C
330
1B
100
AcDbEntity
 67
     1
  8
0
100
AcDbBlockBegin
  2
*Paper_Space
 70
     0
 10
0.0
 20
0.0
 30
0.0
  3
*Paper_Space
  1

  0
ENDBLK
  5
1D
330
1B
100
AcDbEntity
 67
     1
  8
0
100
AcDbBlockEnd
  0
BLOCK
  5
24
330
23
100
AcDbEntity
  8
0
100
AcDbBlockBegin
  2
*Paper_Space0
 70
     0
 10
0.0
 20
0.0
 30
0.0
  3
*Paper_Space0
  1

  0
ENDBLK
  5
25
330
23
100
AcDbEntity
  8
0
100
AcDbBlockEnd
  0
ENDSEC
  0
SECTION
  2
ENTITIES
  0
LINE
  5
44
330
1F
100
AcDbEntity
  8
0
  6
CENTERX2
 62
     7
100
AcDbLine
 10
1185.1191793488
 20
643.7558995192
 30
0.0
 11
1185.1191793488
 21
645.7558995192
 31
0.0
  0
LINE
  5
45
330
1F
100
AcDbEntity
  8
0
  6
Continuous
 62
     7
370
    15
100
AcDbLine
 10
695.4876134545
 20
793.9058995192
 30
0.0
 11
695.1991690355
 21
793.9058995192
 31
0.0
  0
LINE
  5
46
330
1F
100
AcDbEntity
  8
0
  6
Continuous
 62
     7
370
    15
100
AcDbLine
 10
695.1991690355
 20
784.5058995192
 30
0.0
 11
695.4876134545
 21
784.5058995192
 31
0.0
  0
ARC
  5
47
330
1F
100
AcDbEntity
  8
0
  6
Continuous
 62
     7
370
    15
100
AcDbCircle
 10
691.5991690355
 20
789.2058995192
 30
0.0
 40
6.100000000000031
100
AcDbArc
 50
4.7016501967
 51
50.3980729189
  0
ARC
  5
48
330
1F
100
AcDbEntity
  8
0
  6
Continuous
 62
     7
370
    15
100
AcDbCircle
 10
691.5991690355
 20
789.2058995192
 30
0.0
 40
6.099999999999972
100
AcDbArc
 50
309.6019270811
 51
355.2983498033
  0
LINE
  5
49
330
1F
100
AcDbEntity
  8
0
  6
Continuous
 62
     7
370
    15
100
AcDbLine
 10
695.4876134543
 20
915.9058995192
 30
0.0
 11
695.1991690353
 21
915.9058995192
 31
0.0
  0
LINE
  5
4A
330
1F
100
AcDbEntity
  8
0
  6
Continuous
 62
     7
370
    15
100
AcDbLine
 10
695.1991690353
 20
906.5058995192
 30
0.0
 11
695.4876134543
 21
906.5058995192
 31
0.0
  0
ARC
  5
4B
330
1F
100
AcDbEntity
  8
0
  6
Continuous
 62
     7
370
    15
100
AcDbCircle
 10
691.5991690353
 20
911.2058995192
 30
0.0
 40
6.100000000000049
100
AcDbArc
 50
309.6019270811
 51
355.2983498033
  0
ARC
  5
4C
330
1F
100
AcDbEntity
  8
0
  6
Continuous
 62
     7
370
    15
100
AcDbCircle
 10
691.5991690353
 20
911.2058995192
 30
0.0
 40
6.100000000000257
100
AcDbArc
 50
4.7016501967
 51
50.3980729189
  0
LINE
  5
4D
330
1F
100
AcDbEntity
  8
0
  6
Continuous
 62
     7
370
    15
100
AcDbLine
 10
925.7631782944
 20
1129.8024816513
 30
0.0
 11
925.676575754
 21
1129.7524816513
 31
0.0
  0
LINE
  5
4E
330
1F
100
AcDbEntity
  8
0
  6
Continuous
 62
     7
370
    15
100
AcDbLine
 10
694.3991690353
 20
914.7058995192
 30
0.0
 11
693.8991690353
 21
914.7058995192
 31
0.0
  0
LINE
  5
4F
330
1F
100
AcDbEntity
  8
0
  6
Continuous
 62
     7
370
    15
100
AcDbLine
 10
693.8991690353
 20
907.7058995192
 30
0.0
 11
694.3991690353
 21
907.7058995192
 31
0.0
  0
LINE
  5
50
330
1F
100
AcDbEntity
  8
0
  6
Continuous
 62
     7
370
    15
100
AcDbLine
 10
694.3991690353
 20
792.7058995192
 30
0.0
 11
693.8991690353
 21
792.7058995192
 31
0.0
  0
LINE
  5
51
330
1F
100
AcDbEntity
  8
0
  6
Continuous
 62
     7
370
    15
100
AcDbLine
 10
693.8991690353
 20
785.7058995192
 30
0.0
 11
694.3991690353
 21
785.7058995192
 31
0.0
  0
LINE
  5
52
330
1F
100
AcDbEntity
  8
0
  6
Continuous
 62
     7
370
    15
100
AcDbLine
 10
1393.7991690353
 20
596.1058995192
 30
0.0
 11
1393.7991690353
 21
596.6058995192
 31
0.0
  0
LINE
  5
53
330
1F
100
AcDbEntity
  8
0
  6
Continuous
 62
     7
370
    15
100
AcDbLine
 10
1385.7991690353
 20
596.6058995192
 30
0.0
 11
1385.7991690353
 21
596.1058995192
 31
0.0
  0
LINE
  5
54
330
1F
100
AcDbEntity
  8
0
  6
Continuous
 62
     7
370
    15
100
AcDbLine
 10
1374.7991690353
 20
596.1058995192
 30
0.0
 11
1374.7991690353
 21
596.6058995192
 31
0.0
  0
LINE
  5
55
330
1F
100
AcDbEntity
  8
0
  6
Continuous
 62
     7
370
    15
100
AcDbLine
 10
1366.7991690353
 20
596.6058995192
 30
0.0
 11
1366.7991690353
 21
596.1058995192
 31
0.0
  0
LINE
  5
56
330
1F
100
AcDbEntity
  8
0
  6
Continuous
 62
     7
370
    15
100
AcDbLine
 10
1381.5978334217
 20
669.4349183401
 30
0.0
 11
1384.5711616852
 21
671.6101928142
 31
0.0
  0
LINE
  5
57
330
1F
100
AcDbEntity
  8
0
  6
Continuous
 62
     7
370
    15
100
AcDbLine
 10
1380.4612356601
 20
684.2592444809
 30
0.0
 11
1376.7771683095
 21
684.2713999943
 31
0.0
  0
ARC
  5
58
330
1F
100
AcDbEntity
  8
0
  6
Continuous
 62
     7
370
    15
100
AcDbCircle
 10
720.2991690353
 20
324.4058995192
 30
0.0
 40
2.0
100
AcDbArc
 50
270.0
 51
0.0
  0
ARC
  5
59
330
1F
100
AcDbEntity
  8
0
  6
Continuous
 62
     7
370
    15
100
AcDbCircle
 10
667.2991690353
 20
324.4058995192
 30
0.0
 40
2.0
100
AcDbArc
 50
180.0
 51
270.0
  0
LINE
  5
5A
330
1F
100
AcDbEntity
  8
0
  6
Continuous
 62
     7
370
    15
100
AcDbLine
 10
722.2991690353
 20
324.4058995192
 30
0.0
 11
722.2991690353
 21
328.4058995192
 31
0.0
  0
LINE
  5
5B
330
1F
100
AcDbEntity
  8
0
  6
Continuous
 62
     7
370
    15
100
AcDbLine
 10
665.2991690353
 20
328.4058995192
 30
0.0
 11
665.2991690353
 21
324.4058995192
 31
0.0
  0
LINE
  5
5C
330
1F
100
AcDbEntity
  8
0
  6
Continuous
 62
     7
370
    15
100
AcDbLine
 10
1315.5991690353
 20
324.4058995192
 30
0.0
 11
1315.5991690353
 21
328.4058995192
 31
0.0
  0
LINE
  5
5D
330
1F
100
AcDbEntity
  8
0
  6
Continuous
 62
     7
370
    15
100
AcDbLine
 10
1258.5991690353
 20
328.4058995192
 30
0.0
 11
1258.5991690353
 21
324.4058995192
 31
0.0
  0
ARC
  5
5E
330
1F
100
AcDbEntity
  8
0
  6
Continuous
 62
     7
370
    15
100
AcDbCircle
 10
1313.5991690353
 20
324.4058995192
 30
0.0
 40
2.0
100
AcDbArc
 50
270.0
 51
0.0
  0
ARC
  5
5F
330
1F
100
AcDbEntity
  8
0
  6
Continuous
 62
     7
370
    15
100
AcDbCircle
 10
1260.5991690353
 20
324.4058995192
 30
0.0
 40
2.0
100
AcDbArc
 50
180.0
 51
270.0
  0
LINE
  5
60
330
1F
100
AcDbEntity
  8
0
  6
Continuous
 62
     7
370
    15
100
AcDbLine
 10
1315.3991690353
 20
328.4058995192
 30
0.0
 11
1315.3991690353
 21
376.4058995192
 31
0.0
  0
LINE
  5
61
330
1F
100
AcDbEntity
  8
0
  6
Continuous
 62
     7
370
    15
100
AcDbLine
 10
1258.7991690353
 20
376.4058995192
 30
0.0
 11
1258.7991690353
 21
328.4058995192
 31
0.0
  0
LINE
  5
62
330
1F
100
AcDbEntity
  8
0
  6
Continuous
 62
     7
370
    15
100
AcDbLine
 10
722.0991690353
 20
328.4058995192
 30
0.0
 11
722.0991690353
 21
376.4058995192
 31
0.0
  0
LINE
  5
63
330
1F
100
AcDbEntity
  8
0
  6
Continuous
 62
     7
370
    15
100
AcDbLine
 10
665.4991690353
 20
376.4058995192
 30
0.0
 11
665.4991690353
 21
328.4058995192
 31
0.0
  0
ARC
  5
64
330
1F
100
AcDbEntity
  8
0
  6
Continuous
 62
     7
370
    15
100
AcDbCircle
 10
727.1991690353
 20
468.9058995192
 30
0.0
 40
1.5
100
AcDbArc
 50
90.0
 51
180.0
  0
ARC
  5
65
330
1F
100
AcDbEntity
  8
0
  6
Continuous
 62
     7
370
    15
100
AcDbCircle
 10
660.3991690353
 20
468.9058995192
 30
0.0
 40
1.500000000000114
100
AcDbArc
 50
0.0
 51
90.0
  0
LINE
  5
66
330
1F
100
AcDbEntity
  8
0
  6
Continuous
 62
     7
370
    15
100
AcDbLine
 10
725.6991690353
 20
382.4384654648
 30
0.0
 11
725.6991690353
 21
468.9058995192
 31
0.0
  0
LINE
  5
67
330
1F
100
AcDbEntity
  8
0
  6
Continuous
 62
     7
370
    15
100
AcDbLine
 10
661.8991690353
 20
468.9058995192
 30
0.0
 11
661.8991690353
 21
382.4384654648
 31
0.0
  0
ARC
  5
68
330
1F
100
AcDbEntity
  8
0
  6
Continuous
 62
     7
370
    15
100
AcDbCircle
 10
720.9991690353
 20
382.4384654648
 30
0.0
 40
4.700000000000113
100
AcDbArc
 50
350.5402980318
 51
0.0
  0
ARC
  5
69
330
1F
100
AcDbEntity
  8
0
  6
Continuous
 62
     7
370
    15
100
AcDbCircle
 10
666.5991690353
 20
382.4384654648
 30
0.0
 40
4.7
100
AcDbArc
 50
180.0
 51
189.4597019682
  0
LINE
  5
6A
330
1F
100
AcDbEntity
  8
0
  6
Continuous
 62
     7
370
    15
100
AcDbLine
 10
661.9630822623
 20
381.6660022403
 30
0.0
 11
662.839518815
 21
376.4058995192
 31
0.0
  0
LINE
  5
6B
330
1F
100
AcDbEntity
  8
0
  6
Continuous
 62
     7
370
    15
100
AcDbLine
 10
724.7588192556
 20
376.4058995192
 30
0.0
 11
725.6352558083
 21
381.6660022403
 31
0.0
  0
ARC
  5
6C
330
1F
100
AcDbEntity
  8
0
  6
Continuous
 62
     7
370
    15
100
AcDbCircle
 10
1320.4991690353
 20
468.9058995192
 30
0.0
 40
1.500000000000227
100
AcDbArc
 50
90.0
 51
180.0
  0
ARC
  5
6D
330
1F
100
AcDbEntity
  8
0
  6
Continuous
 62
     7
370
    15
100
AcDbCircle
 10
1253.6991690353
 20
468.9058995192
 30
0.0
 40
1.5
100
AcDbArc
 50
0.0
 51
90.0
  0
ARC
  5
6E
330
1F
100
AcDbEntity
  8
0
  6
Continuous
 62
     7
370
    15
100
AcDbCircle
 10
1314.2991690353
 20
382.4384654648
 30
0.0
 40
4.700000000000235
100
AcDbArc
 50
350.5402980318
 51
0.0
  0
ARC
  5
6F
330
1F
100
AcDbEntity
  8
0
  6
Continuous
 62
     7
370
    15
100
AcDbCircle
 10
1259.8991690353
 20
382.4384654648
 30
0.0
 40
4.700000000000045
100
AcDbArc
 50
180.0
 51
189.4597019682
  0
LINE
  5
70
330
1F
100
AcDbEntity
  8
0
  6
Continuous
 62
     7
370
    15
100
AcDbLine
 10
1318.9991690353
 20
382.4384654648
 30
0.0
 11
1318.9991690353
 21
468.9058995192
 31
0.0
  0
LINE
  5
71
330
1F
100
AcDbEntity
  8
0
  6
Continuous
 62
     7
370
    15
100
AcDbLine
 10
1255.1991690353
 20
468.9058995192
 30
0.0
 11
1255.1991690353
 21
382.4384654648
 31
0.0
  0
LINE
  5
72
330
1F
100
AcDbEntity
  8
0
  6
Continuous
 62
     7
370
    15
100
AcDbLine
 10
1255.2630822623
 20
381.6660022403
 30
0.0
 11
1256.139518815
 21
376.4058995192
 31
0.0
  0
LINE
  5
73
330
1F
100
AcDbEntity
  8
0
  6
Continuous
 62
     7
370
    15
100
AcDbLine
 10
1318.0588192556
 20
376.4058995192
 30
0.0
 11
1318.9352558083
 21
381.6660022403
 31
0.0
  0
SPLINE
  5
74
330
1F
100
AcDbEntity
  8
0
  6
Continuous
 62
     7
370
    15
100
AcDbSpline
210
0.0
220
0.0
230
1.0
 70
     8
 71
     3
 72
    17
 73
    13
 74
     0
 42
0.00000001
 43
0.00000001
 12
1.0
 22
0.0
 32
0.0
 13
1.0
 23
0.0
 33
0.0
 40
0.0
 40
0.0
 40
0.0
 40
0.0
 40
0.1331910277332524
 40
0.4660566378194468
 40
0.5725763175141682
 40
0.6233095036990189
 40
0.6589293873537848
 40
0.7028323211852918
 40
0.7711443435618056
 40
0.852608442060001
 40
0.9419332183601509
 40
1.0
 40
1.0
 40
1.0
 40
1.0
 10
626.7269144659093
 20
510.7545305439709
 30
0.0
 10
626.7010046899732
 20
510.7541334120716
 30
0.0
 10
626.6103422537342
 20
510.7527437842496
 30
0.0
 10
626.5682841162608
 20
510.7506502100998
 30
0.0
 10
626.5325291479135
 20
510.7480648104598
 30
0.0
 10
626.5101515269444
 20
510.7451623891994
 30
0.0
 10
626.4828490240487
 20
510.7394100436826
 30
0.0
 10
626.4409693867226
 20
510.7250640583027
 30
0.0
 10
626.3869567244536
 20
510.6925634023692
 30
0.0
 10
626.335075853762
 20
510.6342344021526
 30
0.0
 10
626.3020338866656
 20
510.5645611723227
 30
0.0
 10
626.3027629929165
 20
510.5163261555927
 30
0.0
 10
626.3030502336112
 20
510.4973233563618
 30
0.0
  0
SPLINE
  5
75
330
1F
100
AcDbEntity
  8
0
  6
Continuous
 62
     7
370
    15
100
AcDbSpline
210
0.0
220
0.0
230
1.0
 70
     8
 71
     3
 72
    13
 73
     9
 74
     0
 42
0.00000001
 43
0.00000001
 12
1.0
 22
0.0
 32
0.0
 13
1.0
 23
0.0
 33
0.0
 40
0.0
 40
0.0
 40
0.0
 40
0.0
 40
0.0511457165054013
 40
0.1730155770315
 40
0.3821192985132685
 40
0.6432436729425514
 40
0.9056866953403073
 40
1.0
 40
1.0
 40
1.0
 40
1.0
 10
627.274128232641
 20
504.2494286857731
 30
0.0
 10
627.2745884008843
 20
504.2494576130135
 30
0.0
 10
627.2761450566428
 20
504.249555467996
 30
0.0
 10
627.3025564409824
 20
504.25053755098
 30
0.0
 10
627.3716860090883
 20
504.2518165986846
 30
0.0
 10
627.504916039531
 20
504.2531031773885
 30
0.0
 10
627.6464239952824
 20
504.2537309748721
 30
0.0
 10
627.7308035076584
 20
504.2536764373847
 30
0.0
 10
627.7531103598548
 20
504.2536620196708
 30
0.0
  0
ARC
  5
76
330
1F
100
AcDbEntity
  8
0
  6
Continuous
 62
     7
370
    15
100
AcDbCircle
 10
627.2491690353
 20
498.9558995192
 30
0.0
 40
0.2500000000000909
100
AcDbArc
 50
323.1301023541
 51
0.0
  0
ARC
  5
77
330
1F
100
AcDbEntity
  8
0
  6
Continuous
 62
     7
370
    15
100
AcDbCircle
 10
626.5491690353
 20
498.9558995192
 30
0.0
 40
0.2499999999999404
100
AcDbArc
 50
180.0
 51
233.9052119491
  0
SPLINE
  5
78
330
1F
100
AcDbEntity
  8
0
  6
Continuous
 62
     7
370
    15
100
AcDbSpline
210
0.0
220
0.0
230
1.0
 70
     8
 71
     3
 72
    12
 73
     8
 74
     0
 42
0.00000001
 43
0.00000001
 12
1.0
 22
0.0
 32
0.0
 13
1.0
 23
0.0
 33
0.0
 40
0.0
 40
0.0
 40
0.0
 40
0.0
 40
0.1147935252517962
 40
0.3230833118211296
 40
0.5469227877268392
 40
0.7955435767371409
 40
1.0
 40
1.0
 40
1.0
 40
1.0
 10
627.2490385362306
 20
515.7229865800974
 30
0.0
 10
627.2650548500689
 20
515.7236521415184
 30
0.0
 10
627.3101323377297
 20
515.7255253463674
 30
0.0
 10
627.3813924717842
 20
515.6907701704633
 30
0.0
 10
627.4493036650747
 20
515.625131681992
 30
0.0
 10
627.4932840806
 20
515.538719905016
 30
0.0
 10
627.4947070313043
 20
515.4757857255496
 30
0.0
 10
627.4953491545531
 20
515.4473859365376
 30
0.0
  0
ARC
  5
79
330
1F
100
AcDbEntity
  8
0
  6
Continuous
 62
     7
370
    15
100
AcDbCircle
 10
622.1491690353
 20
515.9773020221
 30
0.0
 40
0.25
100
AcDbArc
 50
180.0
 51
270.0
  0
LINE
  5
7A
330
1F
100
AcDbEntity
  8
0
  6
Continuous
 62
     7
370
    15
100
AcDbLine
 10
622.1491690353
 20
515.7273020221
 30
0.0
 11
627.2491690353
 21
515.7273020221
 31
0.0
  0
ARC
  5
7B
330
1F
100
AcDbEntity
  8
0
  6
Continuous
 62
     7
370
    15
100
AcDbCircle
 10
627.2491690353
 20
516.1558995192
 30
0.0
 40
1.450000000000045
100
AcDbArc
 50
0.0
 51
90.0
  0
ARC
  5
7C
330
1F
100
AcDbEntity
  8
0
  6
Continuous
 62
     7
370
    15
100
AcDbCircle
 10
622.1491690353
 20
517.3558995192
 30
0.0
 40
0.25
100
AcDbArc
 50
90.0
 51
180.0
  0
LINE
  5
7D
330
1F
100
AcDbEntity
  8
0
  6
Continuous
 62
     7
370
    15
100
AcDbLine
 10
627.2491690353
 20
517.6058995192
 30
0.0
 11
622.1491690353
 21
517.6058995192
 31
0.0
  0
SPLINE
  5
7E
330
1F
100
AcDbEntity
  8
0
  6
Continuous
 62
     7
370
    15
100
AcDbSpline
210
0.0
220
0.0
230
1.0
 70
     8
 71
     3
 72
    12
 73
     8
 74
     0
 42
0.00000001
 43
0.00000001
 12
1.0
 22
0.0
 32
0.0
 13
1.0
 23
0.0
 33
0.0
 40
0.0
 40
0.0
 40
0.0
 40
0.0
 40
0.1373269082192762
 40
0.4218268394100384
 40
0.6531770695776615
 40
0.8606908098472101
 40
1.0
 40
1.0
 40
1.0
 40
1.0
 10
627.4938082575746
 20
499.0246313574763
 30
0.0
 10
627.4943220706872
 20
499.0060083917525
 30
0.0
 10
627.4959003495844
 20
498.9488042583926
 30
0.0
 10
627.4558941042737
 20
498.8651195708708
 30
0.0
 10
627.3876799767825
 20
498.7945670548044
 30
0.0
 10
627.315055152102
 20
498.7576165420343
 30
0.0
 10
627.2676762636764
 20
498.7570998574021
 30
0.0
 10
627.2486454730397
 20
498.7568923194588
 30
0.0
  0
ARC
  5
7F
330
1F
100
AcDbEntity
  8
0
  6
Continuous
 62
     7
370
    15
100
AcDbCircle
 10
622.1491690353
 20
498.5038886499
 30
0.0
 40
0.25
100
AcDbArc
 50
90.0
 51
180.0
  0
LINE
  5
80
330
1F
100
AcDbEntity
  8
0
  6
Continuous
 62
     7
370
    15
100
AcDbLine
 10
627.2491690353
 20
498.7538886499
 30
0.0
 11
622.1491690353
 21
498.7538886499
 31
0.0
  0
ARC
  5
81
330
1F
100
AcDbEntity
  8
0
  6
Continuous
 62
     7
370
    15
100
AcDbCircle
 10
627.2491690353
 20
498.6558995192
 30
0.0
 40
1.450000000000045
100
AcDbArc
 50
270.0
 51
0.0
  0
ARC
  5
82
330
1F
100
AcDbEntity
  8
0
  6
Continuous
 62
     7
370
    15
100
AcDbCircle
 10
622.1491690353
 20
497.4558995192
 30
0.0
 40
0.2500000000001137
100
AcDbArc
 50
180.0
 51
270.0
  0
LINE
  5
83
330
1F
100
AcDbEntity
  8
0
  6
Continuous
 62
     7
370
    15
100
AcDbLine
 10
622.1491690353
 20
497.2058995192
 30
0.0
 11
627.2491690353
 21
497.2058995192
 31
0.0
  0
ARC
  5
84
330
1F
100
AcDbEntity
  8
0
  6
Continuous
 62
     7
370
    15
100
AcDbCircle
 10
622.1491690353
 20
498.8344970162
 30
0.0
 40
0.25
100
AcDbArc
 50
90.0
 51
180.0
  0
LINE
  5
85
330
1F
100
AcDbEntity
  8
0
  6
Continuous
 62
     7
370
    15
100
AcDbLine
 10
626.2991690353
 20
499.0844970162
 30
0.0
 11
622.1491690353
 21
499.0844970162
 31
0.0
  0
LINE
  5
86
330
1F
100
AcDbEntity
  8
0
  6
Continuous
 62
     7
370
    15
100
AcDbLine
 10
626.2991690353
 20
512.4058995192
 30
0.0
 11
626.2585508809
 21
512.4762522262
 31
0.0
  0
LINE
  5
87
330
1F
100
AcDbEntity
  8
0
  6
Continuous
 62
     7
370
    15
100
AcDbLine
 10
626.2585508809
 20
502.3355468121
 30
0.0
 11
626.2991690353
 21
502.4058995192
 31
0.0
  0
LINE
  5
88
330
1F
100
AcDbEntity
  8
0
  6
Continuous
 62
     7
370
    15
100
AcDbLine
 10
621.0991690353
 20
502.4058995192
 30
0.0
 11
621.1397871897
 21
502.3355468121
 31
0.0
  0
LINE
  5
89
330
1F
100
AcDbEntity
  8
0
  6
Continuous
 62
     7
370
    15
100
AcDbLine
 10
633.8991690353
 20
512.4058995192
 30
0.0
 11
633.4870128166
 21
513.1197750306
 31
0.0
  0
LINE
  5
8A
330
1F
100
AcDbEntity
  8
0
  6
Continuous
 62
     7
370
    15
100
AcDbLine
 10
629.111325254
 20
513.1197750306
 30
0.0
 11
628.6991690353
 21
512.4058995192
 31
0.0
  0
LINE
  5
8B
330
1F
100
AcDbEntity
  8
0
  6
Continuous
 62
     7
370
    15
100
AcDbLine
 10
633.4870128166
 20
501.6920240077
 30
0.0
 11
633.8991690353
 21
502.4058995192
 31
0.0
  0
LINE
  5
8C
330
1F
100
AcDbEntity
  8
0
  6
Continuous
 62
     7
370
    15
100
AcDbLine
 10
628.6991690353
 20
502.4058995192
 30
0.0
 11
629.111325254
 21
501.6920240077
 31
0.0
  0
LINE
  5
8D
330
1F
100
AcDbEntity
  8
0
  6
Continuous
 62
     7
370
    15
100
AcDbLine
 10
634.1491690353
 20
510.4058995192
 30
0.0
 11
633.8991690353
 21
510.4058995192
 31
0.0
  0
LINE
  5
8E
330
1F
100
AcDbEntity
  8
0
  6
Continuous
 62
     7
370
    15
100
AcDbLine
 10
633.8991690353
 20
504.4058995192
 30
0.0
 11
634.1491690353
 21
504.4058995192
 31
0.0
  0
ARC
  5
8F
330
1F
100
AcDbEntity
  8
0
  6
Continuous
 62
     7
370
    15
100
AcDbCircle
 10
626.7905970672
 20
564.7058995192
 30
0.0
 40
1.99999999999998
100
AcDbArc
 50
198.9655749889
 51
241.4768282387
  0
LWPOLYLINE
  5
90
330
1F
100
AcDbEntity
  8
0
  6
Continuous
 62
     7
370
    15
100
AcDbPolyline
 90
        3
 70
   128
 43
0.0
 10
626.3991690353
 20
562.7445774916
 10
626.4818900735
 20
562.7298681449
 10
626.7905970672
 20
562.7058995192
  0
LWPOLYLINE
  5
91
330
1F
100
AcDbEntity
  8
0
  6
Continuous
 62
     7
370
    15
100
AcDbPolyline
 90
        3
 70
   128
 43
0.0
 10
626.7905970672
 20
584.5058995192
 10
626.4818900735
 20
584.4819308934
 10
626.3991690353
 20
584.4672215467
  0
ARC
  5
92
330
1F
100
AcDbEntity
  8
0
  6
Continuous
 62
     7
370
    15
100
AcDbCircle
 10
626.7905970672
 20
582.5058995192
 30
0.0
 40
2.00000000000005
100
AcDbArc
 50
118.5231717611
 51
161.0344250112
  0
LINE
  5
93
330
1F
100
AcDbEntity
  8
0
  6
Continuous
 62
     7
370
    15
100
AcDbLine
 10
639.0991690353
 20
584.5058995192
 30
0.0
 11
637.4991690353
 21
584.5058995192
 31
0.0
  0
LINE
  5
94
330
1F
100
AcDbEntity
  8
0
  6
Continuous
 62
     7
370
    15
100
AcDbLine
 10
637.4991690353
 20
562.7058995192
 30
0.0
 11
639.0991690353
 21
562.7058995192
 31
0.0
  0
LINE
  5
95
330
1F
100
AcDbEntity
  8
0
  6
Continuous
 62
     7
370
    15
100
AcDbLine
 10
633.5991690353
 20
584.5058995192
 30
0.0
 11
626.7905970672
 21
584.5058995192
 31
0.0
  0
LINE
  5
96
330
1F
100
AcDbEntity
  8
0
  6
Continuous
 62
     7
370
    15
100
AcDbLine
 10
626.7905970672
 20
562.7058995192
 30
0.0
 11
633.5991690353
 21
562.7058995192
 31
0.0
  0
LWPOLYLINE
  5
97
330
1F
100
AcDbEntity
  8
0
  6
Continuous
 62
     7
370
    15
100
AcDbPolyline
 90
        3
 70
   128
 43
0.0
 10
626.3991690353
 20
584.5058995192
 10
626.0883171017
 20
584.3976636109
 10
625.8355687961
 20
584.2631476523
  0
LWPOLYLINE
  5
98
330
1F
100
AcDbEntity
  8
0
  6
Continuous
 62
     7
370
    15
100
AcDbPolyline
 90
        3
 70
   128
 43
0.0
 10
625.8355687961
 20
562.948651386
 10
626.0883171017
 20
562.8141354274
 10
626.3991690353
 20
562.7058995192
  0
LWPOLYLINE
  5
99
330
1F
100
AcDbEntity
  8
0
  6
Continuous
 62
     7
370
    15
100
AcDbPolyline
 90
        3
 70
   128
 43
0.0
 10
640.5065578044
 20
473.2411909226
 10
640.6167574214
 20
473.1234879053
 10
640.6218143716
 20
473.1184456735
  0
ARC
  5
9A
330
1F
100
AcDbEntity
  8
0
  6
Continuous
 62
     7
370
    15
100
AcDbCircle
 10
1401.3491690353
 20
474.8558995192
 30
0.0
 40
2.449999999999883
100
AcDbArc
 50
299.4179660352
 51
316.0621601143
  0
LINE
  5
9B
330
1F
100
AcDbEntity
  8
0
  6
Continuous
 62
     7
370
    15
100
AcDbLine
 10
641.0991690353
 20
774.2058995192
 30
0.0
 11
641.0991690353
 21
774.2563159734
 31
0.0
  0
LINE
  5
9C
330
1F
100
AcDbEntity
  8
0
  6
Continuous
 62
     7
370
    15
100
AcDbLine
 10
695.4876134545
 20
793.9058995192
 30
0.0
 11
695.4876134545
 21
784.5058995192
 31
0.0
  0
LINE
  5
9D
330
1F
100
AcDbEntity
  8
0
  6
Continuous
 62
     7
370
    15
100
AcDbLine
 10
696.4491690355
 20
789.7058995192
 30
0.0
 11
697.6786426969
 21
789.7058995192
 31
0.0
  0
LINE
  5
9E
330
1F
100
AcDbEntity
  8
0
  6
Continuous
 62
     7
370
    15
100
AcDbLine
 10
696.4491690355
 20
788.7058995192
 30
0.0
 11
696.4491690355
 21
789.7058995192
 31
0.0
  0
LINE
  5
9F
330
1F
100
AcDbEntity
  8
0
  6
Continuous
 62
     7
370
    15
100
AcDbLine
 10
697.6786426969
 20
788.7058995192
 30
0.0
 11
696.4491690355
 21
788.7058995192
 31
0.0
  0
LINE
  5
A0
330
1F
100
AcDbEntity
  8
0
  6
Continuous
 62
     7
370
    15
100
AcDbLine
 10
695.4876134543
 20
915.9058995192
 30
0.0
 11
695.4876134543
 21
906.5058995192
 31
0.0
  0
LINE
  5
A1
330
1F
100
AcDbEntity
  8
0
  6
Continuous
 62
     7
370
    15
100
AcDbLine
 10
696.4491690353
 20
911.7058995192
 30
0.0
 11
697.6786426967
 21
911.7058995192
 31
0.0
  0
LINE
  5
A2
330
1F
100
AcDbEntity
  8
0
  6
Continuous
 62
     7
370
    15
100
AcDbLine
 10
696.4491690353
 20
910.7058995192
 30
0.0
 11
696.4491690353
 21
911.7058995192
 31
0.0
  0
LINE
  5
A3
330
1F
100
AcDbEntity
  8
0
  6
Continuous
 62
     7
370
    15
100
AcDbLine
 10
697.6786426967
 20
910.7058995192
 30
0.0
 11
696.4491690353
 21
910.7058995192
 31
0.0
  0
LINE
  5
A4
330
1F
100
AcDbEntity
  8
0
  6
Continuous
 62
     7
370
    15
100
AcDbLine
 10
917.2423221076
 20
1142.4196161346
 30
0.0
 11
917.2336618535
 21
1142.4146161346
 31
0.0
  0
LINE
  5
A5
330
1F
100
AcDbEntity
  8
0
  6
Continuous
 62
     7
370
    15
100
AcDbLine
 10
917.2336618535
 20
1142.4146161346
 30
0.0
 11
641.4182767213
 21
983.1725292819
 31
0.0
  0
SPLINE
  5
A6
330
1F
100
AcDbEntity
  8
0
  6
Continuous
 62
     7
370
    15
100
AcDbSpline
210
0.0
220
0.0
230
1.0
 70
     8
 71
     3
 72
    11
 73
     7
 74
     0
 42
0.00000001
 43
0.00000001
 12
1.0
 22
0.0
 32
0.0
 13
1.0
 23
0.0
 33
0.0
 40
0.0
 40
0.0
 40
0.0
 40
0.0
 40
0.2500000000000159
 40
0.5000000000000052
 40
0.7500000000000068
 40
1.0
 40
1.0
 40
1.0
 40
1.0
 10
641.4182767213292
 20
983.1725292819053
 30
0.0
 10
641.2615381109247
 20
983.392218720309
 30
0.0
 10
640.9480608901158
 20
983.8315975971162
 30
0.0
 10
640.5419754080824
 20
984.3795888892403
 30
0.0
 10
640.2376680431228
 20
984.7512953114937
 30
0.0
 10
640.1620020379029
 20
984.7787730802913
 30
0.0
 10
640.1241690352928
 20
984.7925119646901
 30
0.0
  0
LINE
  5
A7
330
1F
100
AcDbEntity
  8
0
  6
Continuous
 62
     7
370
    15
100
AcDbLine
 10
640.1241690353
 20
984.7925119647
 30
0.0
 11
915.1960275964
 21
1143.6053235514
 31
0.0
  0
SPLINE
  5
A8
330
1F
100
AcDbEntity
  8
0
  6
Continuous
 62
     7
370
    15
100
AcDbSpline
210
0.0
220
0.0
230
1.0
 70
     8
 71
     3
 72
    16
 73
    12
 74
     0
 42
0.00000001
 43
0.00000001
 12
1.0
 22
0.0
 32
0.0
 13
1.0
 23
0.0
 33
0.0
 40
0.0
 40
0.0
 40
0.0
 40
0.0
 40
0.116897343061383
 40
0.2364219307346123
 40
0.3679456599700218
 40
0.5044225071299333
 40
0.6184807428479734
 40
0.7370282667195094
 40
0.8351994193744348
 40
0.9365486054267518
 40
1.0
 40
1.0
 40
1.0
 40
1.0
 10
915.1960275964183
 20
1143.605323551447
 30
0.0
 10
915.2594958794703
 20
1143.635428678414
 30
0.0
 10
915.3878588826539
 20
1143.69631553911
 30
0.0
 10
915.621463261388
 20
1143.718642148045
 30
0.0
 10
915.8937050325904
 20
1143.682799357189
 30
0.0
 10
916.1738136741346
 20
1143.563174868404
 30
0.0
 10
916.4471875958025
 20
1143.372045196684
 30
0.0
 10
916.6913845815272
 20
1143.14375380158
 30
0.0
 10
916.9187248983635
 20
1142.882012617515
 30
0.0
 10
917.098607101462
 20
1142.641289692852
 30
0.0
 10
917.2023710072602
 20
1142.481238805789
 30
0.0
 10
917.2423221075796
 20
1142.419616134629
 30
0.0
  0
SPLINE
  5
A9
330
1F
100
AcDbEntity
  8
0
  6
Continuous
 62
     7
370
    15
100
AcDbSpline
210
0.0
220
0.0
230
1.0
 70
     8
 71
     3
 72
    16
 73
    12
 74
     0
 42
0.00000001
 43
0.00000001
 12
1.0
 22
0.0
 32
0.0
 13
1.0
 23
0.0
 33
0.0
 40
0.0
 40
0.0
 40
0.0
 40
0.0
 40
0.1134381984893776
 40
0.2301633076317365
 40
0.3436415010702741
 40
0.4604101906776967
 40
0.5738885692542253
 40
0.6906574617122743
 40
0.8041357620740924
 40
0.9209045764304619
 40
1.0
 40
1.0
 40
1.0
 40
1.0
 10
953.4463796741767
 20
1081.453770345373
 30
0.0
 10
953.417487892059
 20
1081.491231067604
 30
0.0
 10
953.3588671785415
 20
1081.567237949323
 30
0.0
 10
953.1990092720083
 20
1081.638974631855
 30
0.0
 10
952.9871326086283
 20
1081.682247668563
 30
0.0
 10
952.7263911441172
 20
1081.695776312257
 30
0.0
 10
952.4196543010983
 20
1081.684305741124
 30
0.0
 10
952.079729644531
 20
1081.652117879533
 30
0.0
 10
951.7093528822097
 20
1081.603896188843
 30
0.0
 10
951.36322172181
 20
1081.551746850444
 30
0.0
 10
951.1408339572844
 20
1081.516767485803
 30
0.0
 10
951.0510275964189
 20
1081.502641846065
 30
0.0
  0
LINE
  5
AA
330
1F
100
AcDbEntity
  8
0
  6
Continuous
 62
     7
370
    15
100
AcDbLine
 10
916.8410275964
 20
1140.756099973
 30
0.0
 11
951.0510275964
 21
1081.5026418461
 31
0.0
  0
SPLINE
  5
AB
330
1F
100
AcDbEntity
  8
0
  6
Continuous
 62
     7
370
    15
100
AcDbSpline
210
0.0
220
0.0
230
1.0
 70
     8
 71
     3
 72
    16
 73
    12
 74
     0
 42
0.00000001
 43
0.00000001
 12
1.0
 22
0.0
 32
0.0
 13
1.0
 23
0.0
 33
0.0
 40
0.0
 40
0.0
 40
0.0
 40
0.0
 40
0.1134381984893746
 40
0.2301633076317767
 40
0.3436415010703484
 40
0.4604101906777924
 40
0.5738885692543095
 40
0.6906574617123986
 40
0.8041357620741632
 40
0.9209045764305546
 40
1.0
 40
1.0
 40
1.0
 40
1.0
 10
916.8410275964187
 20
1140.756099972995
 30
0.0
 10
916.9230310628847
 20
1140.857586096848
 30
0.0
 10
917.0894140743433
 20
1141.063498939751
 30
0.0
 10
917.3276043914775
 20
1141.365048871367
 30
0.0
 10
917.54736482942
 20
1141.657527704716
 30
0.0
 10
917.7353530994775
 20
1141.930130581457
 30
0.0
 10
917.8863151396135
 20
1142.182912583722
 30
0.0
 10
917.9906858859581
 20
1142.407238792601
 30
0.0
 10
918.0433854391143
 20
1142.60328032654
 30
0.0
 10
918.0437552493979
 20
1142.75118341684
 30
0.0
 10
918.010007823006
 20
1142.8251156022
 30
0.0
 10
917.9963796741765
 20
1142.854971473688
 30
0.0
  0
LINE
  5
AC
330
1F
100
AcDbEntity
  8
0
  6
Continuous
 62
     7
370
    15
100
AcDbLine
 10
917.9963796742
 20
1142.8549714737
 30
0.0
 11
953.4463796742
 21
1081.4537703454
 31
0.0
  0
SPLINE
  5
AD
330
1F
100
AcDbEntity
  8
0
  6
Continuous
 62
     7
370
    15
100
AcDbSpline
210
0.0
220
0.0
230
1.0
 70
     8
 71
     3
 72
    11
 73
     7
 74
     0
 42
0.00000001
 43
0.00000001
 12
1.0
 22
0.0
 32
0.0
 13
1.0
 23
0.0
 33
0.0
 40
0.0
 40
0.0
 40
0.0
 40
0.0
 40
0.2541328096103037
 40
0.5084375729625381
 40
0.7627433314683697
 40
1.0
 40
1.0
 40
1.0
 40
1.0
 10
952.7535593511492
 20
1081.053770345373
 30
0.0
 10
952.684201959165
 20
1081.135036841842
 30
0.0
 10
952.5454402459426
 20
1081.297624822085
 30
0.0
 10
952.1292111138931
 20
1081.421388186924
 30
0.0
 10
951.614855666645
 20
1081.480540365411
 30
0.0
 10
951.2345737883062
 20
1081.495447024056
 30
0.0
 10
951.0510275964187
 20
1081.502641846065
 30
0.0
  0
SPLINE
  5
AE
330
1F
100
AcDbEntity
  8
0
  6
Continuous
 62
     7
370
    15
100
AcDbSpline
210
0.0
220
0.0
230
1.0
 70
     8
 71
     3
 72
    11
 73
     7
 74
     0
 42
0.00000001
 43
0.00000001
 12
1.0
 22
0.0
 32
0.0
 13
1.0
 23
0.0
 33
0.0
 40
0.0
 40
0.0
 40
0.0
 40
0.0
 40
0.2541328096102443
 40
0.5084375729624934
 40
0.7627433314683839
 40
1.0
 40
1.0
 40
1.0
 40
1.0
 10
916.8410275964187
 20
1140.756099972995
 30
0.0
 10
916.9327111193336
 20
1140.930343485032
 30
0.0
 10
917.1161402009348
 20
1141.278948407397
 30
0.0
 10
917.3202919756525
 20
1141.760888855758
 30
0.0
 10
917.4090000944195
 20
1142.168219946422
 30
0.0
 10
917.3378840822488
 20
1142.361623601124
 30
0.0
 10
917.303559351149
 20
1142.454971473688
 30
0.0
  0
LINE
  5
AF
330
1F
100
AcDbEntity
  8
0
  6
Continuous
 62
     7
370
    15
100
AcDbLine
 10
692.8741690353
 20
931.0123343897
 30
0.0
 11
952.6836618535
 21
1081.0134150063
 31
0.0
  0
LINE
  5
B0
330
1F
100
AcDbEntity
  8
0
  6
Continuous
 62
     7
370
    15
100
AcDbLine
 10
693.8991690353
 20
929.2369823119
 30
0.0
 11
692.8741690353
 21
931.0123343897
 31
0.0
  0
LINE
  5
B1
330
1F
100
AcDbEntity
  8
0
  6
Continuous
 62
     7
370
    15
100
AcDbLine
 10
641.6564772205
 20
982.9255226401
 30
0.0
 11
693.8991690353
 21
929.2369823119
 31
0.0
  0
LINE
  5
B2
330
1F
100
AcDbEntity
  8
0
  6
Continuous
 62
     7
370
    15
100
AcDbLine
 10
641.4182767213
 20
983.1725292819
 30
0.0
 11
641.6564772205
 21
982.9255226401
 31
0.0
  0
LINE
  5
B3
330
1F
100
AcDbEntity
  8
0
  6
Continuous
 62
     7
370
    15
100
AcDbLine
 10
917.2336618535
 20
1142.4146161346
 30
0.0
 11
912.8450172622
 21
1126.0359715433
 31
0.0
  0
LINE
  5
B4
330
1F
100
AcDbEntity
  8
0
  6
Continuous
 62
     7
370
    15
100
AcDbLine
 10
912.8450172622
 20
1126.0359715433
 30
0.0
 11
936.3050172622
 21
1085.4020595977
 31
0.0
  0
LINE
  5
B5
330
1F
100
AcDbEntity
  8
0
  6
Continuous
 62
     7
370
    15
100
AcDbLine
 10
936.3050172622
 20
1085.4020595977
 30
0.0
 11
952.6836618535
 21
1081.0134150063
 31
0.0
  0
SPLINE
  5
B6
330
1F
100
AcDbEntity
  8
0
  6
Continuous
 62
     7
370
    15
100
AcDbSpline
210
0.0
220
0.0
230
1.0
 70
     8
 71
     3
 72
    11
 73
     7
 74
     0
 42
0.00000001
 43
0.00000001
 12
1.0
 22
0.0
 32
0.0
 13
1.0
 23
0.0
 33
0.0
 40
0.0
 40
0.0
 40
0.0
 40
0.0
 40
0.2500000000000314
 40
0.5000000000000049
 40
0.7500000000000097
 40
1.0
 40
1.0
 40
1.0
 40
1.0
 10
641.418276721329
 20
983.1725292819054
 30
0.0
 10
641.3139529284472
 20
983.3014335932908
 30
0.0
 10
641.1053053426832
 20
983.5592422160611
 30
0.0
 10
640.8314378354887
 20
983.8782252580905
 30
0.0
 10
640.6196301557782
 20
984.0897175258085
 30
0.0
 10
640.5559894087878
 20
984.096366936378
 30
0.0
 10
640.5241690352929
 20
984.0996916416626
 30
0.0
  0
LINE
  5
B7
330
1F
100
AcDbEntity
  8
0
  6
Continuous
 62
     7
370
    15
100
AcDbLine
 10
640.5241690353
 20
984.0996916417
 30
0.0
 11
640.1241690353
 21
984.7925119647
 31
0.0
  0
LINE
  5
B8
330
1F
100
AcDbEntity
  8
0
  6
Continuous
 62
     7
370
    15
100
AcDbLine
 10
693.8991690353
 20
929.2369823119
 30
0.0
 11
952.9812005144
 21
1078.8180629286
 31
0.0
  0
LINE
  5
B9
330
1F
100
AcDbEntity
  8
0
  6
Continuous
 62
     7
370
    15
100
AcDbLine
 10
952.6836618535
 20
1081.0134150063
 30
0.0
 11
952.6923221076
 21
1081.0184150063
 31
0.0
  0
LINE
  5
BA
330
1F
100
AcDbEntity
  8
0
  6
Continuous
 62
     7
370
    15
100
AcDbLine
 10
952.6923221076
 20
1081.0184150063
 30
0.0
 11
953.6250600129
 21
1079.4028655642
 31
0.0
  0
ARC
  5
BB
330
1F
100
AcDbEntity
  8
0
  6
Continuous
 62
     7
370
    15
100
AcDbCircle
 10
951.9562005144
 20
1080.5934150063
 30
0.0
 40
2.050000000000578
100
AcDbArc
 50
300.0
 51
324.4962790511
  0
LINE
  5
BC
330
1F
100
AcDbEntity
  8
0
  6
Continuous
 62
     7
370
    15
100
AcDbLine
 10
641.5991690353
 20
982.8908534774
 30
0.0
 11
641.1491690353
 21
982.924287527
 31
0.0
  0
LINE
  5
BD
330
1F
100
AcDbEntity
  8
0
  6
Continuous
 62
     7
370
    15
100
AcDbLine
 10
693.8991690353
 20
929.0058995192
 30
0.0
 11
641.5991690353
 21
982.8908534774
 31
0.0
  0
LINE
  5
BE
330
1F
100
AcDbEntity
  8
0
  6
Continuous
 62
     7
370
    15
100
AcDbLine
 10
693.8991690353
 20
929.0058995192
 30
0.0
 11
691.8491690353
 21
929.0058995192
 31
0.0
  0
LINE
  5
BF
330
1F
100
AcDbEntity
  8
0
  6
Continuous
 62
     7
370
    15
100
AcDbLine
 10
691.8491690353
 20
774.2563159734
 30
0.0
 11
691.8491690353
 21
929.0058995192
 31
0.0
  0
LINE
  5
C0
330
1F
100
AcDbEntity
  8
0
  6
Continuous
 62
     7
370
    15
100
AcDbLine
 10
691.8491690353
 20
774.2563159734
 30
0.0
 11
641.1491690353
 21
774.2563159734
 31
0.0
  0
LINE
  5
C1
330
1F
100
AcDbEntity
  8
0
  6
Continuous
 62
     7
370
    15
100
AcDbLine
 10
641.1491690353
 20
774.2563159734
 30
0.0
 11
641.1491690353
 21
982.924287527
 31
0.0
  0
LINE
  5
C2
330
1F
100
AcDbEntity
  8
0
  6
Continuous
 62
     7
370
    15
100
AcDbLine
 10
693.8991690353
 20
929.0058995192
 30
0.0
 11
693.8991690353
 21
774.2563159734
 31
0.0
  0
LINE
  5
C3
330
1F
100
AcDbEntity
  8
0
  6
Continuous
 62
     7
370
    15
100
AcDbLine
 10
693.8991690353
 20
774.2563159734
 30
0.0
 11
691.8491690353
 21
774.2563159734
 31
0.0
  0
SPLINE
  5
C4
330
1F
100
AcDbEntity
  8
0
  6
Continuous
 62
     7
370
    15
100
AcDbSpline
210
0.0
220
0.0
230
1.0
 70
     8
 71
     3
 72
    11
 73
     7
 74
     0
 42
0.00000001
 43
0.00000001
 12
1.0
 22
0.0
 32
0.0
 13
1.0
 23
0.0
 33
0.0
 40
0.0
 40
0.0
 40
0.0
 40
0.0
 40
0.2500000000000098
 40
0.4999999999999983
 40
0.7499999999999869
 40
1.0
 40
1.0
 40
1.0
 40
1.0
 10
639.0991690352921
 20
983.0171598869305
 30
0.0
 10
639.129983759506
 20
983.0094205236041
 30
0.0
 10
639.1916132079341
 20
982.9939417969516
 30
0.0
 10
639.665674094835
 20
982.9707237069731
 30
0.0
 10
640.3432912158835
 20
982.9475056169942
 30
0.0
 10
640.8805430954892
 20
982.9320268903417
 30
0.0
 10
641.1491690352922
 20
982.9242875270155
 30
0.0
  0
LINE
  5
C5
330
1F
100
AcDbEntity
  8
0
  6
Continuous
 62
     7
370
    15
100
AcDbLine
 10
639.8991690353
 20
983.0171598869
 30
0.0
 11
639.0991690353
 21
983.0171598869
 31
0.0
  0
LINE
  5
C6
330
1F
100
AcDbEntity
  8
0
  6
Continuous
 62
     7
370
    15
100
AcDbLine
 10
639.0991690353
 20
774.2563159734
 30
0.0
 11
639.0991690353
 21
983.0171598869
 31
0.0
  0
LINE
  5
C7
330
1F
100
AcDbEntity
  8
0
  6
Continuous
 62
     7
370
    15
100
AcDbLine
 10
641.1491690353
 20
774.2563159734
 30
0.0
 11
639.0991690353
 21
774.2563159734
 31
0.0
  0
LINE
  5
C8
330
1F
100
AcDbEntity
  8
0
  6
Continuous
 62
     7
370
    15
100
AcDbLine
 10
912.9062545057
 20
1126.0713268823
 30
0.0
 11
936.3662545057
 21
1085.4374149367
 31
0.0
  0
LINE
  5
C9
330
1F
100
AcDbEntity
  8
0
  6
Continuous
 62
     7
370
    15
100
AcDbLine
 10
916.8410275964
 20
1140.756099973
 30
0.0
 11
912.9062545057
 21
1126.0713268823
 31
0.0
  0
LINE
  5
CA
330
1F
100
AcDbEntity
  8
0
  6
Continuous
 62
     7
370
    15
100
AcDbLine
 10
936.3662545057
 20
1085.4374149367
 30
0.0
 11
951.0510275964
 21
1081.5026418461
 31
0.0
  0
LINE
  5
CB
330
1F
100
AcDbEntity
  8
0
  6
Continuous
 62
     7
370
    15
100
AcDbLine
 10
952.7535593511
 20
1081.0537703454
 30
0.0
 11
953.4463796742
 21
1081.4537703454
 31
0.0
  0
SPLINE
  5
CC
330
1F
100
AcDbEntity
  8
0
  6
Continuous
 62
     7
370
    15
100
AcDbSpline
210
0.0
220
0.0
230
1.0
 70
     8
 71
     3
 72
     9
 73
     5
 74
     0
 42
0.00000001
 43
0.00000001
 12
1.0
 22
0.0
 32
0.0
 13
1.0
 23
0.0
 33
0.0
 40
0.0
 40
0.0
 40
0.0
 40
0.0
 40
0.1731362417755697
 40
1.0
 40
1.0
 40
1.0
 40
1.0
 10
952.8907092829128
 20
1080.674798339072
 30
0.0
 10
952.8878097008945
 20
1080.698050528789
 30
0.0
 10
952.8710623001853
 20
1080.832350485161
 30
0.0
 10
952.806742808101
 20
1080.953552659771
 30
0.0
 10
952.7535593511492
 20
1081.053770345373
 30
0.0
  0
SPLINE
  5
CD
330
1F
100
AcDbEntity
  8
0
  6
Continuous
 62
     7
370
    15
100
AcDbSpline
210
0.0
220
0.0
230
1.0
 70
     8
 71
     3
 72
    13
 73
     9
 74
     0
 42
0.00000001
 43
0.00000001
 12
1.0
 22
0.0
 32
0.0
 13
1.0
 23
0.0
 33
0.0
 40
0.0
 40
0.0
 40
0.0
 40
0.0
 40
0.1252332200642715
 40
0.3194276869990361
 40
0.5192527764800899
 40
0.7134472375836292
 40
0.9132723291729741
 40
1.0
 40
1.0
 40
1.0
 40
1.0
 10
953.5254031307485
 20
1079.575476347371
 30
0.0
 10
953.5601410448055
 20
1079.649511069669
 30
0.0
 10
953.6487457419678
 20
1079.838348664748
 30
0.0
 10
953.7154236360025
 20
1080.173646258359
 30
0.0
 10
953.7296684980516
 20
1080.558171088804
 30
0.0
 10
953.6675372229325
 20
1080.942353150779
 30
0.0
 10
953.5627191452811
 20
1081.240001800947
 30
0.0
 10
953.4734098918243
 20
1081.404103536446
 30
0.0
 10
953.4463796741768
 20
1081.453770345373
 30
0.0
  0
SPLINE
  5
CE
330
1F
100
AcDbEntity
  8
0
  6
Continuous
 62
     7
370
    15
100
AcDbSpline
210
0.0
220
0.0
230
1.0
 70
     8
 71
     3
 72
     9
 73
     5
 74
     0
 42
0.00000001
 43
0.00000001
 12
1.0
 22
0.0
 32
0.0
 13
1.0
 23
0.0
 33
0.0
 40
0.0
 40
0.0
 40
0.0
 40
0.0
 40
0.5988778742812105
 40
1.0
 40
1.0
 40
1.0
 40
1.0
 10
917.3035593511487
 20
1142.454971473689
 30
0.0
 10
917.2433957952566
 20
1142.54619061225
 30
0.0
 10
917.1429353199642
 20
1142.698507374112
 30
0.0
 10
917.0004208394797
 20
1142.80102856427
 30
0.0
 10
916.9432551281219
 20
1142.842152081998
 30
0.0
  0
LINE
  5
CF
330
1F
100
AcDbEntity
  8
0
  6
Continuous
 62
     7
370
    15
100
AcDbLine
 10
917.3035593511
 20
1142.4549714737
 30
0.0
 11
917.9963796742
 21
1142.8549714737
 31
0.0
  0
SPLINE
  5
D0
330
1F
100
AcDbEntity
  8
0
  6
Continuous
 62
     7
370
    15
100
AcDbSpline
210
0.0
220
0.0
230
1.0
 70
     8
 71
     3
 72
    13
 73
     9
 74
     0
 42
0.00000001
 43
0.00000001
 12
1.0
 22
0.0
 32
0.0
 13
1.0
 23
0.0
 33
0.0
 40
0.0
 40
0.0
 40
0.0
 40
0.0
 40
0.1538408554290704
 40
0.2928955392719114
 40
0.417704950667218
 40
0.5290313271451175
 40
0.7483423516466245
 40
0.9999999999999999
 40
0.9999999999999999
 40
0.9999999999999999
 40
0.9999999999999999
 10
917.9963796741761
 20
1142.854971473689
 30
0.0
 10
917.8964964754852
 20
1143.001491261911
 30
0.0
 10
917.7063301944726
 20
1143.280448319614
 30
0.0
 10
917.3261022262357
 20
1143.574625749143
 30
0.0
 10
916.9471330083551
 20
1143.760901383707
 30
0.0
 10
916.4664778552911
 20
1143.888177913224
 30
0.0
 10
915.8524120009827
 20
1143.898860286378
 30
0.0
 10
915.4246162193631
 20
1143.707548951006
 30
0.0
 10
915.1960275964187
 20
1143.605323551446
 30
0.0
  0
ARC
  5
D1
330
1F
100
AcDbEntity
  8
0
  6
Continuous
 62
     7
370
    15
100
AcDbCircle
 10
641.1491690353
 20
983.0171598869
 30
0.0
 40
2.050000000000179
100
AcDbArc
 50
120.0
 51
180.0
  0
ARC
  5
D2
330
1F
100
AcDbEntity
  8
0
  6
Continuous
 62
     7
370
    15
100
AcDbCircle
 10
641.1491690353
 20
983.0171598869
 30
0.0
 40
1.250000000001568
100
AcDbArc
 50
120.0
 51
180.0
  0
LINE
  5
D3
330
1F
100
AcDbEntity
  8
0
  6
Continuous
 62
     7
370
    15
100
AcDbLine
 10
936.8514274237
 20
1085.2556494362
 30
0.0
 11
936.8160720846
 21
1085.3168866797
 31
0.0
  0
LINE
  5
D4
330
1F
100
AcDbEntity
  8
0
  6
Continuous
 62
     7
370
    15
100
AcDbLine
 10
936.0382831905
 20
1086.0054779181
 30
0.0
 11
935.977045947
 21
1085.9701225791
 31
0.0
  0
LINE
  5
D5
330
1F
100
AcDbEntity
  8
0
  6
Continuous
 62
     7
370
    15
100
AcDbLine
 10
639.8991690353
 20
773.2563159734
 30
0.0
 11
639.0991690353
 21
773.2563159734
 31
0.0
  0
LINE
  5
D6
330
1F
100
AcDbEntity
  8
0
  6
Continuous
 62
     7
370
    15
100
AcDbLine
 10
639.0991690353
 20
773.2563159734
 30
0.0
 11
639.0991690353
 21
774.2563159734
 31
0.0
  0
LINE
  5
D7
330
1F
100
AcDbEntity
  8
0
  6
Continuous
 62
     7
370
    15
100
AcDbLine
 10
639.0991690353
 20
773.2563159734
 30
0.0
 11
639.0991690353
 21
772.935188841
 31
0.0
  0
LINE
  5
D8
330
1F
100
AcDbEntity
  8
0
  6
Continuous
 62
     7
370
    15
100
AcDbLine
 10
641.1491690353
 20
774.2528988899
 30
0.0
 11
691.8491690353
 21
774.2528988899
 31
0.0
  0
ELLIPSE
  5
D9
330
1F
100
AcDbEntity
  8
0
  6
Continuous
 62
     7
370
    15
100
AcDbEllipse
 10
691.8491690353
 20
774.2530001068
 30
0.0
 11
1.250000000000114
 21
0.0
 31
0.0
210
0.0
220
0.0
230
1.0
 40
0.0000809735
 41
4.71238898038469
 42
5.259239931140907
  0
LINE
  5
DA
330
1F
100
AcDbEntity
  8
0
  6
Continuous
 62
     7
370
    15
100
AcDbLine
 10
693.8991690353
 20
774.2537896054
 30
0.0
 11
693.8991690353
 21
774.2530001068
 31
0.0
  0
ELLIPSE
  5
DB
330
1F
100
AcDbEntity
  8
0
  6
Continuous
 62
     7
370
    15
100
AcDbEllipse
 10
691.8491690353
 20
774.2530001068
 30
0.0
 11
2.050000000000068
 21
0.0
 31
0.0
210
0.0
220
0.0
230
1.0
 40
0.0000809735
 41
4.71238898038469
 42
5.03503080211209
  0
ELLIPSE
  5
DC
330
1F
100
AcDbEntity
  8
0
  6
Continuous
 62
     7
370
    15
100
AcDbEllipse
 10
691.8491690353
 20
774.2530001068
 30
0.0
 11
2.050000000000068
 21
0.0
 31
0.0
210
0.0
220
0.0
230
1.0
 40
0.0000809735
 41
5.837786733538552
 42
6.283185307179586
  0
LINE
  5
DD
330
1F
100
AcDbEntity
  8
0
  6
Continuous
 62
     7
370
    15
100
AcDbLine
 10
691.8491690353
 20
774.2528341111
 30
0.0
 11
641.1491690353
 21
774.2528341111
 31
0.0
  0
LINE
  5
DE
330
1F
100
AcDbEntity
  8
0
  6
Continuous
 62
     7
370
    15
100
AcDbLine
 10
693.8991690353
 20
774.2563159734
 30
0.0
 11
693.8991690353
 21
774.2537896054
 31
0.0
  0
LINE
  5
DF
330
1F
100
AcDbEntity
  8
0
  6
Continuous
 62
     7
370
    15
100
AcDbLine
 10
694.3991690353
 20
777.2058995192
 30
0.0
 11
695.1991690353
 21
777.2058995192
 31
0.0
  0
LINE
  5
E0
330
1F
100
AcDbEntity
  8
0
  6
Continuous
 62
     7
370
    15
100
AcDbLine
 10
695.1991690353
 20
775.2058995192
 30
0.0
 11
694.3991690353
 21
775.2058995192
 31
0.0
  0
LINE
  5
E1
330
1F
100
AcDbEntity
  8
0
  6
Continuous
 62
     7
370
    15
100
AcDbLine
 10
694.3991690353
 20
775.2058995192
 30
0.0
 11
694.3991690353
 21
777.2058995192
 31
0.0
  0
LINE
  5
E2
330
1F
100
AcDbEntity
  8
0
  6
Continuous
 62
     7
370
    15
100
AcDbLine
 10
695.1991690353
 20
777.2058995192
 30
0.0
 11
695.1991690353
 21
775.2058995192
 31
0.0
  0
LINE
  5
E3
330
1F
100
AcDbEntity
  8
0
  6
Continuous
 62
     7
370
    15
100
AcDbLine
 10
695.1991690353
 20
926.1058995192
 30
0.0
 11
694.3991690353
 21
926.1058995192
 31
0.0
  0
LINE
  5
E4
330
1F
100
AcDbEntity
  8
0
  6
Continuous
 62
     7
370
    15
100
AcDbLine
 10
694.3991690353
 20
926.1058995192
 30
0.0
 11
694.3991690353
 21
777.2058995192
 31
0.0
  0
LINE
  5
E5
330
1F
100
AcDbEntity
  8
0
  6
Continuous
 62
     7
370
    15
100
AcDbLine
 10
695.1991690353
 20
926.1058995192
 30
0.0
 11
695.1991690353
 21
777.2058995192
 31
0.0
  0
LINE
  5
E6
330
1F
100
AcDbEntity
  8
0
  6
Continuous
 62
     7
370
    15
100
AcDbLine
 10
694.3991690353
 20
928.1058995192
 30
0.0
 11
695.1991690353
 21
928.1058995192
 31
0.0
  0
LINE
  5
E7
330
1F
100
AcDbEntity
  8
0
  6
Continuous
 62
     7
370
    15
100
AcDbLine
 10
694.3991690353
 20
926.1058995192
 30
0.0
 11
694.3991690353
 21
928.1058995192
 31
0.0
  0
LINE
  5
E8
330
1F
100
AcDbEntity
  8
0
  6
Continuous
 62
     7
370
    15
100
AcDbLine
 10
695.1991690353
 20
928.1058995192
 30
0.0
 11
695.1991690353
 21
926.1058995192
 31
0.0
  0
SPLINE
  5
E9
330
1F
100
AcDbEntity
  8
0
  6
Continuous
 62
     7
370
    15
100
AcDbSpline
210
0.0
220
0.0
230
1.0
 70
     8
 71
     3
 72
     9
 73
     5
 74
     0
 42
0.00000001
 43
0.00000001
 12
1.0
 22
0.0
 32
0.0
 13
1.0
 23
0.0
 33
0.0
 40
0.0
 40
0.0
 40
0.0
 40
0.0
 40
0.9388260031387238
 40
1.0
 40
1.0
 40
1.0
 40
1.0
 10
695.1991690352974
 20
929.6058995191584
 30
0.0
 10
695.1986902986118
 20
929.7209121176348
 30
0.0
 10
695.1981803673954
 20
929.8434189486047
 30
0.0
 10
695.1670062923354
 20
929.960693319884
 30
0.0
 10
695.1650992495656
 20
929.9678674619045
 30
0.0
  0
LINE
  5
EA
330
1F
100
AcDbEntity
  8
0
  6
Continuous
 62
     7
370
    15
100
AcDbLine
 10
694.538152382
 20
929.6058995192
 30
0.0
 11
695.1991690353
 21
929.6058995192
 31
0.0
  0
LINE
  5
EB
330
1F
100
AcDbEntity
  8
0
  6
Continuous
 62
     7
370
    15
100
AcDbLine
 10
694.3991690353
 20
928.1058995192
 30
0.0
 11
694.3991690353
 21
929.5256574465
 31
0.0
  0
LINE
  5
EC
330
1F
100
AcDbEntity
  8
0
  6
Continuous
 62
     7
370
    15
100
AcDbLine
 10
695.1991690353
 20
928.1058995192
 30
0.0
 11
695.1991690353
 21
929.6058995192
 31
0.0
  0
LINE
  5
ED
330
1F
100
AcDbEntity
  8
0
  6
Continuous
 62
     7
370
    15
100
AcDbLine
 10
694.3991690353
 20
774.2058995192
 30
0.0
 11
694.3991690353
 21
775.2058995192
 31
0.0
  0
LINE
  5
EE
330
1F
100
AcDbEntity
  8
0
  6
Continuous
 62
     7
370
    15
100
AcDbLine
 10
695.1991690353
 20
775.2058995192
 30
0.0
 11
695.1991690353
 21
774.2058995192
 31
0.0
  0
LINE
  5
EF
330
1F
100
AcDbEntity
  8
0
  6
Continuous
 62
     7
370
    15
100
AcDbLine
 10
923.5329822146
 20
1133.4652945724
 30
0.0
 11
923.4463796742
 21
1133.4152945724
 31
0.0
  0
LINE
  5
F0
330
1F
100
AcDbEntity
  8
0
  6
Continuous
 62
     7
370
    15
100
AcDbLine
 10
923.5329822146
 20
1133.4652945724
 30
0.0
 11
941.0329822146
 21
1103.15440544
 31
0.0
  0
LINE
  5
F1
330
1F
100
AcDbEntity
  8
0
  6
Continuous
 62
     7
370
    15
100
AcDbLine
 10
941.0329822146
 20
1103.15440544
 30
0.0
 11
940.9463796742
 21
1103.10440544
 31
0.0
  0
LINE
  5
F2
330
1F
100
AcDbEntity
  8
0
  6
Continuous
 62
     7
370
    15
100
AcDbLine
 10
938.3695847549
 20
1107.9675451608
 30
0.0
 11
938.2829822146
 21
1107.9175451608
 31
0.0
  0
LINE
  5
F3
330
1F
100
AcDbEntity
  8
0
  6
Continuous
 62
     7
370
    15
100
AcDbLine
 10
938.3695847549
 20
1107.9675451608
 30
0.0
 11
939.1195847549
 21
1106.6685070551
 31
0.0
  0
LINE
  5
F4
330
1F
100
AcDbEntity
  8
0
  6
Continuous
 62
     7
370
    15
100
AcDbLine
 10
939.1195847549
 20
1106.6685070551
 30
0.0
 11
939.0329822146
 21
1106.6185070551
 31
0.0
  0
LINE
  5
F5
330
1F
100
AcDbEntity
  8
0
  6
Continuous
 62
     7
370
    15
100
AcDbLine
 10
926.0131782944
 20
1129.3694689494
 30
0.0
 11
925.926575754
 21
1129.3194689494
 31
0.0
  0
LINE
  5
F6
330
1F
100
AcDbEntity
  8
0
  6
Continuous
 62
     7
370
    15
100
AcDbLine
 10
926.0131782944
 20
1129.3694689494
 30
0.0
 11
938.3695847549
 21
1107.9675451608
 31
0.0
  0
LINE
  5
F7
330
1F
100
AcDbEntity
  8
0
  6
Continuous
 62
     7
370
    15
100
AcDbLine
 10
925.7631782944
 20
1129.8024816513
 30
0.0
 11
926.0131782944
 21
1129.3694689494
 31
0.0
  0
SPLINE
  5
F8
330
1F
100
AcDbEntity
  8
0
  6
Continuous
 62
     7
370
    15
100
AcDbSpline
210
0.0
220
0.0
230
1.0
 70
     8
 71
     3
 72
    11
 73
     7
 74
     0
 42
0.00000001
 43
0.00000001
 12
1.0
 22
0.0
 32
0.0
 13
1.0
 23
0.0
 33
0.0
 40
0.0
 40
0.0
 40
0.0
 40
0.0
 40
0.2499999999999969
 40
0.5000000000000135
 40
0.7500000000000204
 40
1.0
 40
1.0
 40
1.0
 40
1.0
 10
641.399169035296
 20
771.5058995191597
 30
0.0
 10
641.280061591806
 20
771.702455084869
 30
0.0
 10
641.0418467048256
 20
772.0955662162877
 30
0.0
 10
640.6845243743553
 20
772.5913836219331
 30
0.0
 10
640.3272020438849
 20
772.9382574416165
 30
0.0
 10
640.0889871569049
 20
772.9833521599787
 30
0.0
 10
639.9698797134146
 20
773.0058995191597
 30
0.0
  0
LINE
  5
F9
330
1F
100
AcDbEntity
  8
0
  6
Continuous
 62
     7
370
    15
100
AcDbLine
 10
639.9698797134
 20
773.0058995192
 30
0.0
 11
639.9698797134
 21
774.2058995192
 31
0.0
  0
SPLINE
  5
FA
330
1F
100
AcDbEntity
  8
0
  6
Continuous
 62
     7
370
    15
100
AcDbSpline
210
0.0
220
0.0
230
1.0
 70
     8
 71
     3
 72
    11
 73
     7
 74
     0
 42
0.00000001
 43
0.00000001
 12
1.0
 22
0.0
 32
0.0
 13
1.0
 23
0.0
 33
0.0
 40
0.0
 40
0.0
 40
0.0
 40
0.0
 40
0.2500000000000004
 40
0.5000000000000014
 40
0.7500000000000024
 40
1.0
 40
1.0
 40
1.0
 40
1.0
 10
641.399169035296
 20
771.5058995191597
 30
0.0
 10
641.280061591806
 20
771.8596995374364
 30
0.0
 10
641.0418467048256
 20
772.5672995739902
 30
0.0
 10
640.6845243743553
 20
773.4597709041517
 30
0.0
 10
640.3272020438849
 20
774.0841437795823
 30
0.0
 10
640.0889871569048
 20
774.1653142726339
 30
0.0
 10
639.9698797134146
 20
774.2058995191596
 30
0.0
  0
LINE
  5
FB
330
1F
100
AcDbEntity
  8
0
  6
Continuous
 62
     7
370
    15
100
AcDbLine
 10
641.3991690353
 20
771.5058995192
 30
0.0
 11
1353.6991690353
 21
771.5058995192
 31
0.0
  0
LINE
  5
FC
330
1F
100
AcDbEntity
  8
0
  6
Continuous
 62
     7
370
    15
100
AcDbLine
 10
1353.6991690353
 20
771.5058995192
 30
0.0
 11
1353.6991690353
 21
736.6058995192
 31
0.0
  0
LINE
  5
FD
330
1F
100
AcDbEntity
  8
0
  6
Continuous
 62
     7
370
    15
100
AcDbLine
 10
1353.6991690353
 20
736.6058995192
 30
0.0
 11
641.3991690353
 21
736.6058995192
 31
0.0
  0
LINE
  5
FE
330
1F
100
AcDbEntity
  8
0
  6
Continuous
 62
     7
370
    15
100
AcDbLine
 10
641.3991690353
 20
771.5058995192
 30
0.0
 11
641.3991690353
 21
736.6058995192
 31
0.0
  0
LINE
  5
FF
330
1F
100
AcDbEntity
  8
0
  6
Continuous
 62
     7
370
    15
100
AcDbLine
 10
641.3991690353
 20
736.6058995192
 30
0.0
 11
638.6991690353
 21
736.6058995192
 31
0.0
  0
LINE
  5
100
330
1F
100
AcDbEntity
  8
0
  6
Continuous
 62
     7
370
    15
100
AcDbLine
 10
638.6991690353
 20
772.935188841
 30
0.0
 11
638.6991690353
 21
736.6058995192
 31
0.0
  0
SPLINE
  5
101
330
1F
100
AcDbEntity
  8
0
  6
Continuous
 62
     7
370
    15
100
AcDbSpline
210
0.0
220
0.0
230
1.0
 70
     8
 71
     3
 72
    17
 73
    13
 74
     0
 42
0.00000001
 43
0.00000001
 12
1.0
 22
0.0
 32
0.0
 13
1.0
 23
0.0
 33
0.0
 40
0.0
 40
0.0
 40
0.0
 40
0.0
 40
0.0949808435413832
 40
0.1927151402488088
 40
0.2877331567759365
 40
0.3854559099421923
 40
0.481514690057365
 40
0.5801456340979292
 40
0.6810142760928259
 40
0.7839704280736277
 40
0.8908967291630268
 40
1.0
 40
1.0
 40
1.0
 40
1.0
 10
638.6991690352955
 20
772.935188841041
 30
0.0
 10
638.7057809353568
 20
772.9271028002066
 30
0.0
 10
638.7191964115735
 20
772.9106963077462
 30
0.0
 10
638.8264344768955
 20
772.8576673423008
 30
0.0
 10
638.9943834995898
 20
772.78058241213
 30
0.0
 10
639.2201234591638
 20
772.6764003485654
 30
0.0
 10
639.4970945553341
 20
772.5423363469039
 30
0.0
 10
639.8140322745644
 20
772.3741180253302
 30
0.0
 10
640.1670604576883
 20
772.1785996390166
 30
0.0
 10
640.5544065993275
 20
771.9670869305914
 30
0.0
 10
640.9692947244824
 20
771.7423706715937
 30
0.0
 10
641.2549181716801
 20
771.5852510112139
 30
0.0
 10
641.399169035296
 20
771.5058995191597
 30
0.0
  0
LINE
  5
102
330
1F
100
AcDbEntity
  8
0
  6
Continuous
 62
     7
370
    15
100
AcDbLine
 10
1353.6991690353
 20
774.2058995192
 30
0.0
 11
1353.6991690353
 21
771.5058995192
 31
0.0
  0
LINE
  5
103
330
1F
100
AcDbEntity
  8
0
  6
Continuous
 62
     7
370
    15
100
AcDbLine
 10
639.9698797134
 20
774.2058995192
 30
0.0
 11
1353.6991690353
 21
774.2058995192
 31
0.0
  0
SPLINE
  5
104
330
1F
100
AcDbEntity
  8
0
  6
Continuous
 62
     7
370
    15
100
AcDbSpline
210
0.0
220
0.0
230
1.0
 70
     8
 71
     3
 72
    13
 73
     9
 74
     0
 42
0.00000001
 43
0.00000001
 12
1.0
 22
0.0
 32
0.0
 13
1.0
 23
0.0
 33
0.0
 40
0.0
 40
0.0
 40
0.0
 40
0.0
 40
0.1596903751320071
 40
0.3192128564230196
 40
0.4849315689440398
 40
0.6142341509704434
 40
0.7470632942041315
 40
0.9999999999999999
 40
0.9999999999999999
 40
0.9999999999999999
 40
0.9999999999999999
 10
639.8991690352957
 20
772.9351888410408
 30
0.0
 10
639.9124573699885
 20
772.9165604159613
 30
0.0
 10
639.9390200684034
 20
772.8793231511894
 30
0.0
 10
640.1366297275663
 20
772.722210718073
 30
0.0
 10
640.3851632727366
 20
772.5060219930245
 30
0.0
 10
640.6413070022335
 20
772.2513489593088
 30
0.0
 10
640.9695467631141
 20
771.9279677713889
 30
0.0
 10
641.2290315566821
 20
771.6730454817572
 30
0.0
 10
641.399169035296
 20
771.5058995191597
 30
0.0
  0
LINE
  5
105
330
1F
100
AcDbEntity
  8
0
  6
Continuous
 62
     7
370
    15
100
AcDbLine
 10
638.6991690353
 20
772.935188841
 30
0.0
 11
639.8991690353
 21
772.935188841
 31
0.0
  0
LINE
  5
106
330
1F
100
AcDbEntity
  8
0
  6
Continuous
 62
     7
370
    15
100
AcDbLine
 10
1382.2275246853
 20
772.905881162
 30
0.0
 11
1382.2275246853
 21
771.5058995192
 31
0.0
  0
LINE
  5
107
330
1F
100
AcDbEntity
  8
0
  6
Continuous
 62
     7
370
    15
100
AcDbLine
 10
1346.9142900153
 20
719.2058995192
 30
0.0
 11
1363.9859343686
 21
719.2058995192
 31
0.0
  0
LINE
  5
108
330
1F
100
AcDbEntity
  8
0
  6
Continuous
 62
     7
370
    15
100
AcDbLine
 10
1353.8991690353
 20
771.5058995192
 30
0.0
 11
1353.8991690353
 21
736.5058995192
 31
0.0
  0
LINE
  5
109
330
1F
100
AcDbEntity
  8
0
  6
Continuous
 62
     7
370
    15
100
AcDbLine
 10
1382.2275246853
 20
771.5058995192
 30
0.0
 11
1353.8991690353
 21
771.5058995192
 31
0.0
  0
ARC
  5
10A
330
1F
100
AcDbEntity
  8
0
  6
Continuous
 62
     7
370
    15
100
AcDbCircle
 10
1369.7991690353
 20
738.4058995192
 30
0.0
 40
2.60000000000009
100
AcDbArc
 50
278.1931111105
 51
81.8068888895
  0
ARC
  5
10B
330
1F
100
AcDbEntity
  8
0
  6
Continuous
 62
     7
370
    15
100
AcDbCircle
 10
1369.7991690353
 20
738.4058995192
 30
0.0
 40
3.100000000000078
100
AcDbArc
 50
276.9168084494
 51
83.0831915506
  0
ARC
  5
10C
330
1F
100
AcDbEntity
  8
0
  6
Continuous
 62
     7
370
    15
100
AcDbCircle
 10
1370.171095453
 20
741.2313500896
 30
0.0
 40
0.2519916941389007
100
AcDbArc
 50
89.6815405099
 51
269.6815405099
  0
ARC
  5
10D
330
1F
100
AcDbEntity
  8
0
  6
Continuous
 62
     7
370
    15
100
AcDbCircle
 10
1369.7991690353
 20
738.4058995192
 30
0.0
 40
2.60000000000009
100
AcDbArc
 50
98.1931111105
 51
261.8068888895
  0
ARC
  5
10E
330
1F
100
AcDbEntity
  8
0
  6
Continuous
 62
     7
370
    15
100
AcDbCircle
 10
1369.4272426176
 20
741.2313500896
 30
0.0
 40
0.2519916941389007
100
AcDbArc
 50
270.3184594901
 51
90.3184594901
  0
ARC
  5
10F
330
1F
100
AcDbEntity
  8
0
  6
Continuous
 62
     7
370
    15
100
AcDbCircle
 10
1369.7991690353
 20
738.4058995192
 30
0.0
 40
3.100000000000078
100
AcDbArc
 50
96.9168084494
 51
263.0831915506
  0
ARC
  5
110
330
1F
100
AcDbEntity
  8
0
  6
Continuous
 62
     7
370
    15
100
AcDbCircle
 10
1369.4272426176
 20
735.5804489487
 30
0.0
 40
0.2519916941389007
100
AcDbArc
 50
269.6815405099
 51
89.6815405099
  0
LINE
  5
111
330
1F
100
AcDbEntity
  8
0
  6
Continuous
 62
     7
370
    15
100
AcDbLine
 10
1353.8991690353
 20
736.5058995192
 30
0.0
 11
1346.9142900153
 21
736.5058995192
 31
0.0
  0
ARC
  5
112
330
1F
100
AcDbEntity
  8
0
  6
Continuous
 62
     7
370
    15
100
AcDbCircle
 10
1382.1991690353
 20
751.0058995192
 30
0.0
 40
21.90000000000004
100
AcDbArc
 50
293.5
 51
89.9258146336
  0
LINE
  5
113
330
1F
100
AcDbEntity
  8
0
  6
Continuous
 62
     7
370
    15
100
AcDbLine
 10
1346.9142900153
 20
736.5058995192
 30
0.0
 11
1346.9142900153
 21
719.2058995192
 31
0.0
  0
ARC
  5
114
330
1F
100
AcDbEntity
  8
0
  6
Continuous
 62
     7
370
    15
100
AcDbCircle
 10
1370.171095453
 20
735.5804489487
 30
0.0
 40
0.2519916941389007
100
AcDbArc
 50
90.3184594901
 51
270.3184594901
  0
LINE
  5
115
330
1F
100
AcDbEntity
  8
0
  6
Continuous
 62
     7
370
    15
100
AcDbLine
 10
1363.9859343686
 20
719.2058995192
 30
0.0
 11
1390.9317736448
 21
730.9222838901
 31
0.0
  0
SPLINE
  5
116
330
1F
100
AcDbEntity
  8
0
  6
Continuous
 62
     7
370
    15
100
AcDbSpline
210
0.0
220
0.0
230
1.0
 70
     8
 71
     3
 72
    11
 73
     7
 74
     0
 42
0.00000001
 43
0.00000001
 12
1.0
 22
0.0
 32
0.0
 13
1.0
 23
0.0
 33
0.0
 40
0.0
 40
0.0
 40
0.0
 40
0.0
 40
0.0988499283348867
 40
0.3992332855565879
 40
0.6996166427782998
 40
0.9999999999999999
 40
0.9999999999999999
 40
0.9999999999999999
 40
0.9999999999999999
 10
1382.144297704177
 20
774.0680083550104
 30
0.0
 10
1382.147040031217
 20
774.050184216908
 30
0.0
 10
1382.15811569159
 20
773.9781964134096
 30
0.0
 10
1382.177524685296
 20
773.4472369790394
 30
0.0
 10
1382.202524685297
 20
772.5704330552666
 30
0.0
 10
1382.219191351963
 20
771.8607440311944
 30
0.0
 10
1382.227524685296
 20
771.5058995191583
 30
0.0
  0
LINE
  5
117
330
1F
100
AcDbEntity
  8
0
  6
Continuous
 62
     7
370
    15
100
AcDbLine
 10
1353.8991690353
 20
774.2058995192
 30
0.0
 11
1382.1275246853
 21
774.2058995192
 31
0.0
  0
LINE
  5
118
330
1F
100
AcDbEntity
  8
0
  6
Continuous
 62
     7
370
    15
100
AcDbLine
 10
1353.8991690353
 20
771.5058995192
 30
0.0
 11
1353.8991690353
 21
774.2058995192
 31
0.0
  0
LINE
  5
119
330
1F
100
AcDbEntity
  8
0
  6
Continuous
 62
     7
370
    15
100
AcDbLine
 10
1382.1275246853
 20
774.2058995192
 30
0.0
 11
1382.1991690353
 21
774.2058995192
 31
0.0
  0
LINE
  5
11A
330
1F
100
AcDbEntity
  8
0
  6
Continuous
 62
     7
370
    15
100
AcDbLine
 10
1382.1991690353
 20
774.2058995192
 30
0.0
 11
1382.1991690353
 21
773.0058995192
 31
0.0
  0
ARC
  5
11B
330
1F
100
AcDbEntity
  8
0
  6
Continuous
 62
     7
370
    15
100
AcDbCircle
 10
1382.1991690353
 20
751.0058995192
 30
0.0
 40
23.20000000000005
100
AcDbArc
 50
293.5
 51
90.0
  0
LINE
  5
11C
330
1F
100
AcDbEntity
  8
0
  6
Continuous
 62
     7
370
    15
100
AcDbLine
 10
1390.9716485517
 20
730.8305778827
 30
0.0
 11
1391.4501474344
 21
729.7301057934
 31
0.0
  0
ARC
  5
11D
330
1F
100
AcDbEntity
  8
0
  6
Continuous
 62
     7
370
    15
100
AcDbCircle
 10
1382.1991690353
 20
751.0058995192
 30
0.0
 40
22.00000000000006
100
AcDbArc
 50
293.5
 51
90.0
  0
LINE
  5
11E
330
1F
100
AcDbEntity
  8
0
  6
Continuous
 62
     7
370
    15
100
AcDbLine
 10
1390.9716485517
 20
730.8305778827
 30
0.0
 11
1367.8760861439
 21
720.7883415411
 31
0.0
  0
LINE
  5
11F
330
1F
100
AcDbEntity
  8
0
  6
Continuous
 62
     7
370
    15
100
AcDbLine
 10
1391.4501474344
 20
729.7301057934
 30
0.0
 11
1368.3545850266
 21
719.6878694519
 31
0.0
  0
LINE
  5
120
330
1F
100
AcDbEntity
  8
0
  6
Continuous
 62
     7
370
    15
100
AcDbLine
 10
1368.3545850266
 20
719.6878694519
 30
0.0
 11
1367.8760861439
 21
720.7883415411
 31
0.0
  0
LINE
  5
121
330
1F
100
AcDbEntity
  8
0
  6
Continuous
 62
     7
370
    15
100
AcDbLine
 10
692.4991690353
 20
774.2058995192
 30
0.0
 11
692.4991690353
 21
774.2563159734
 31
0.0
  0
LINE
  5
122
330
1F
100
AcDbEntity
  8
0
  6
Continuous
 62
     7
370
    15
100
AcDbLine
 10
693.6991690353
 20
774.2058995192
 30
0.0
 11
693.6991690353
 21
774.2563159734
 31
0.0
  0
LINE
  5
123
330
1F
100
AcDbEntity
  8
0
  6
Continuous
 62
     7
370
    15
100
AcDbLine
 10
1353.8991690353
 20
771.5058995192
 30
0.0
 11
1353.6991690353
 21
771.5058995192
 31
0.0
  0
LINE
  5
124
330
1F
100
AcDbEntity
  8
0
  6
Continuous
 62
     7
370
    15
100
AcDbLine
 10
1353.8991690353
 20
772.5113674176
 30
0.0
 11
1353.6991690353
 21
771.5058995192
 31
0.0
  0
LINE
  5
125
330
1F
100
AcDbEntity
  8
0
  6
Continuous
 62
     7
370
    15
100
AcDbLine
 10
1353.8991690353
 20
750.7058995192
 30
0.0
 11
1353.6991690353
 21
750.7058995192
 31
0.0
  0
SPLINE
  5
126
330
1F
100
AcDbEntity
  8
0
  6
Continuous
 62
     7
370
    15
100
AcDbSpline
210
0.0
220
0.0
230
1.0
 70
     8
 71
     3
 72
     9
 73
     5
 74
     0
 42
0.00000001
 43
0.00000001
 12
1.0
 22
0.0
 32
0.0
 13
1.0
 23
0.0
 33
0.0
 40
0.0
 40
0.0
 40
0.0
 40
0.0
 40
0.9030675127265779
 40
1.0
 40
1.0
 40
1.0
 40
1.0
 10
1353.899169035297
 20
748.6187477761961
 30
0.0
 10
1353.841813083404
 20
748.5660896620902
 30
0.0
 10
1353.77830072017
 20
748.5077793880922
 30
0.0
 10
1353.706161654374
 20
748.4669245820915
 30
0.0
 10
1353.699169035297
 20
748.4629644241288
 30
0.0
  0
SPLINE
  5
127
330
1F
100
AcDbEntity
  8
0
  6
Continuous
 62
     7
370
    15
100
AcDbSpline
210
0.0
220
0.0
230
1.0
 70
     8
 71
     3
 72
    16
 73
    12
 74
     0
 42
0.00000001
 43
0.00000001
 12
1.0
 22
0.0
 32
0.0
 13
1.0
 23
0.0
 33
0.0
 40
0.0
 40
0.0
 40
0.0
 40
0.0
 40
0.1134728652176216
 40
0.2302336312468745
 40
0.3437467097330996
 40
0.4605512941173138
 40
0.574064559254196
 40
0.690869348106727
 40
0.8043825358865572
 40
0.9211872475723393
 40
1.0
 40
1.0
 40
1.0
 40
1.0
 10
1346.606240103114
 20
596.1058995191588
 30
0.0
 10
1346.653253050674
 20
596.0996050055496
 30
0.0
 10
1346.748641156117
 20
596.0868335934381
 30
0.0
 10
1346.891075070487
 20
595.9841986169362
 30
0.0
 10
1347.034871798367
 20
595.822248360948
 30
0.0
 10
1347.177338132765
 20
595.6030780142054
 30
0.0
 10
1347.321155735901
 20
595.3315526396991
 30
0.0
 10
1347.463622023664
 20
595.0209172656319
 30
0.0
 10
1347.607432109878
 20
594.67589197874
 30
0.0
 10
1347.735549630459
 20
594.350250767985
 30
0.0
 10
1347.816539035086
 20
594.1404333303145
 30
0.0
 10
1347.849169035301
 20
594.0558995191589
 30
0.0
  0
LINE
  5
128
330
1F
100
AcDbEntity
  8
0
  6
Continuous
 62
     7
370
    15
100
AcDbLine
 10
1346.6062401031
 20
596.1058995192
 30
0.0
 11
1402.4784583571
 21
596.1058995192
 31
0.0
  0
SPLINE
  5
129
330
1F
100
AcDbEntity
  8
0
  6
Continuous
 62
     7
370
    15
100
AcDbSpline
210
0.0
220
0.0
230
1.0
 70
     8
 71
     3
 72
    11
 73
     7
 74
     0
 42
0.00000001
 43
0.00000001
 12
1.0
 22
0.0
 32
0.0
 13
1.0
 23
0.0
 33
0.0
 40
0.0
 40
0.0
 40
0.0
 40
0.0
 40
0.2499999999999974
 40
0.4999999999999982
 40
0.7499999999999976
 40
1.0
 40
1.0
 40
1.0
 40
1.0
 10
1402.549169035299
 20
594.0558995191585
 30
0.0
 10
1402.543276478784
 20
594.3245254589613
 30
0.0
 10
1402.531491365755
 20
594.8617773385669
 30
0.0
 10
1402.513813696211
 20
595.5393944596156
 30
0.0
 10
1402.496136026666
 20
596.0134553465165
 30
0.0
 10
1402.484350913637
 20
596.0750847949446
 30
0.0
 10
1402.478458357122
 20
596.1058995191586
 30
0.0
  0
LINE
  5
12A
330
1F
100
AcDbEntity
  8
0
  6
Continuous
 62
     7
370
    15
100
AcDbLine
 10
1347.8491690353
 20
594.0558995192
 30
0.0
 11
1402.5491690353
 21
594.0558995192
 31
0.0
  0
SPLINE
  5
12B
330
1F
100
AcDbEntity
  8
0
  6
Continuous
 62
     7
370
    15
100
AcDbSpline
210
0.0
220
0.0
230
1.0
 70
     8
 71
     3
 72
    11
 73
     7
 74
     0
 42
0.00000001
 43
0.00000001
 12
1.0
 22
0.0
 32
0.0
 13
1.0
 23
0.0
 33
0.0
 40
0.0
 40
0.0
 40
0.0
 40
0.0
 40
0.2543030279683717
 40
0.5087793961831976
 40
0.7632567853902636
 40
1.0
 40
1.0
 40
1.0
 40
1.0
 10
1346.606240103114
 20
595.3058995191587
 30
0.0
 10
1346.711616931655
 20
595.2864408475685
 30
0.0
 10
1346.922442416608
 20
595.2475102407991
 30
0.0
 10
1347.2386976523
 20
594.9485389077719
 30
0.0
 10
1347.547764891705
 20
594.5325676191277
 30
0.0
 10
1347.751148523779
 20
594.2109181278205
 30
0.0
 10
1347.849169035301
 20
594.0558995191587
 30
0.0
  0
LINE
  5
12C
330
1F
100
AcDbEntity
  8
0
  6
Continuous
 62
     7
370
    15
100
AcDbLine
 10
1346.6062401031
 20
595.3058995192
 30
0.0
 11
1346.6062401031
 21
596.1058995192
 31
0.0
  0
SPLINE
  5
12D
330
1F
100
AcDbEntity
  8
0
  6
Continuous
 62
     7
370
    15
100
AcDbSpline
210
0.0
220
0.0
230
1.0
 70
     8
 71
     3
 72
    14
 73
    10
 74
     0
 42
0.00000001
 43
0.00000001
 12
1.0
 22
0.0
 32
0.0
 13
1.0
 23
0.0
 33
0.0
 40
0.0
 40
0.0
 40
0.0
 40
0.0
 40
0.1886170346825775
 40
0.3774057024553461
 40
0.4723501518142999
 40
0.5697528105398683
 40
0.7752762740692567
 40
0.8864905960433871
 40
1.0
 40
1.0
 40
1.0
 40
1.0
 10
1345.799169035296
 20
471.9129705869707
 30
0.0
 10
1345.819711078258
 20
471.9344635934274
 30
0.0
 10
1345.860813856523
 20
471.977469164018
 30
0.0
 10
1346.123395195411
 20
472.1155689889506
 30
0.0
 10
1346.393721831321
 20
472.2693192365244
 30
0.0
 10
1346.712595955438
 20
472.4657418578512
 30
0.0
 10
1347.092652825489
 20
472.7003681049075
 30
0.0
 10
1347.512959227129
 20
472.951818249011
 30
0.0
 10
1347.736338648332
 20
473.0874108310737
 30
0.0
 10
1347.849169035296
 20
473.1558995191601
 30
0.0
  0
LINE
  5
12E
330
1F
100
AcDbEntity
  8
0
  6
Continuous
 62
     7
370
    15
100
AcDbLine
 10
1345.7991690353
 20
472.4766101973
 30
0.0
 11
1345.7991690353
 21
471.912970587
 31
0.0
  0
SPLINE
  5
12F
330
1F
100
AcDbEntity
  8
0
  6
Continuous
 62
     7
370
    15
100
AcDbSpline
210
0.0
220
0.0
230
1.0
 70
     8
 71
     3
 72
    10
 73
     6
 74
     0
 42
0.00000001
 43
0.00000001
 12
1.0
 22
0.0
 32
0.0
 13
1.0
 23
0.0
 33
0.0
 40
0.0
 40
0.0
 40
0.0
 40
0.0
 40
0.4647065516812495
 40
0.8032993714724048
 40
1.0
 40
1.0
 40
1.0
 40
1.0
 10
1347.849169035294
 20
594.055899519159
 30
0.0
 10
1347.562484542094
 20
594.2303373177133
 30
0.0
 10
1347.066917022409
 20
594.5318733589695
 30
0.0
 10
1346.497081062964
 20
594.8863184975814
 30
0.0
 10
1346.287504690392
 20
594.9940634316976
 30
0.0
 10
1346.210493091728
 20
595.0336557269665
 30
0.0
  0
LINE
  5
130
330
1F
100
AcDbEntity
  8
0
  6
Continuous
 62
     7
370
    15
100
AcDbLine
 10
1347.8491690353
 20
594.0558995192
 30
0.0
 11
1347.8491690353
 21
473.1558995192
 31
0.0
  0
LINE
  5
131
330
1F
100
AcDbEntity
  8
0
  6
Continuous
 62
     7
370
    15
100
AcDbLine
 10
1402.5491690353
 20
594.0558995192
 30
0.0
 11
1402.5491690353
 21
473.1558995192
 31
0.0
  0
LINE
  5
132
330
1F
100
AcDbEntity
  8
0
  6
Continuous
 62
     7
370
    15
100
AcDbLine
 10
1347.8491690353
 20
473.1558995192
 30
0.0
 11
1402.5491690353
 21
473.1558995192
 31
0.0
  0
SPLINE
  5
133
330
1F
100
AcDbEntity
  8
0
  6
Continuous
 62
     7
370
    15
100
AcDbSpline
210
0.0
220
0.0
230
1.0
 70
     8
 71
     3
 72
    13
 73
     9
 74
     0
 42
0.00000001
 43
0.00000001
 12
1.0
 22
0.0
 32
0.0
 13
1.0
 23
0.0
 33
0.0
 40
0.0
 40
0.0
 40
0.0
 40
0.0
 40
0.3126722597400486
 40
0.532156619753493
 40
0.635485926332521
 40
0.7470179128252388
 40
0.8681586160258696
 40
1.0
 40
1.0
 40
1.0
 40
1.0
 10
1347.849169035296
 20
594.055899519159
 30
0.0
 10
1347.673940993715
 20
594.230797210683
 30
0.0
 10
1347.375709348953
 20
594.5284666118685
 30
0.0
 10
1347.050627814791
 20
594.859701943114
 30
0.0
 10
1346.850272772475
 20
595.0382540178598
 30
0.0
 10
1346.72049847884
 20
595.1450844265312
 30
0.0
 10
1346.620426688174
 20
595.2351378566175
 30
0.0
 10
1346.606451954834
 20
595.277007910801
 30
0.0
 10
1346.5991690353
 20
595.298828451347
 30
0.0
  0
SPLINE
  5
134
330
1F
100
AcDbEntity
  8
0
  6
Continuous
 62
     7
370
    15
100
AcDbSpline
210
0.0
220
0.0
230
1.0
 70
     8
 71
     3
 72
    11
 73
     7
 74
     0
 42
0.00000001
 43
0.00000001
 12
1.0
 22
0.0
 32
0.0
 13
1.0
 23
0.0
 33
0.0
 40
0.0
 40
0.0
 40
0.0
 40
0.0
 40
0.2499999999999931
 40
0.4999999999999962
 40
0.7499999999999926
 40
1.0
 40
1.0
 40
1.0
 40
1.0
 10
1347.8491690353
 20
473.1558995191606
 30
0.0
 10
1347.745591624284
 20
472.8872735793577
 30
0.0
 10
1347.538436802253
 20
472.3500216997517
 30
0.0
 10
1347.227704569205
 20
471.6724045787024
 30
0.0
 10
1346.916972336157
 20
471.198343691801
 30
0.0
 10
1346.709817514126
 20
471.1367142433728
 30
0.0
 10
1346.606240103109
 20
471.1058995191588
 30
0.0
  0
LINE
  5
135
330
1F
100
AcDbEntity
  8
0
  6
Continuous
 62
     7
370
    15
100
AcDbLine
 10
1346.6062401031
 20
471.9058995192
 30
0.0
 11
1346.6062401031
 21
471.1058995192
 31
0.0
  0
SPLINE
  5
136
330
1F
100
AcDbEntity
  8
0
  6
Continuous
 62
     7
370
    15
100
AcDbSpline
210
0.0
220
0.0
230
1.0
 70
     8
 71
     3
 72
    11
 73
     7
 74
     0
 42
0.00000001
 43
0.00000001
 12
1.0
 22
0.0
 32
0.0
 13
1.0
 23
0.0
 33
0.0
 40
0.0
 40
0.0
 40
0.0
 40
0.0
 40
0.2499999999999916
 40
0.5000000000000017
 40
0.7500000000000004
 40
0.9999999999999999
 40
0.9999999999999999
 40
0.9999999999999999
 40
0.9999999999999999
 10
1347.8491690353
 20
473.1558995191598
 30
0.0
 10
1347.745591624284
 20
472.992103214402
 30
0.0
 10
1347.538436802253
 20
472.6645106048862
 30
0.0
 10
1347.227704569205
 20
472.2513294335146
 30
0.0
 10
1346.916972336157
 20
471.9622679171114
 30
0.0
 10
1346.709817514125
 20
471.9246889851429
 30
0.0
 10
1346.606240103109
 20
471.9058995191588
 30
0.0
  0
LWPOLYLINE
  5
137
330
1F
100
AcDbEntity
  8
0
  6
Continuous
 62
     7
370
    15
100
AcDbPolyline
 90
        2
 70
   128
 43
0.0
 10
1347.8491690353
 20
473.1558995192
 10
1347.8491690353
 20
473.1558995192
  0
SPLINE
  5
138
330
1F
100
AcDbEntity
  8
0
  6
Continuous
 62
     7
370
    15
100
AcDbSpline
210
0.0
220
0.0
230
1.0
 70
     8
 71
     3
 72
    13
 73
     9
 74
     0
 42
0.00000001
 43
0.00000001
 12
1.0
 22
0.0
 32
0.0
 13
1.0
 23
0.0
 33
0.0
 40
0.0
 40
0.0
 40
0.0
 40
0.0
 40
0.1757814729340199
 40
0.3352996325714049
 40
0.5046801154525689
 40
0.6461838375973513
 40
0.791603498855803
 40
1.0
 40
1.0
 40
1.0
 40
1.0
 10
1346.599169035296
 20
471.9129705869706
 30
0.0
 10
1346.612738912861
 20
471.9356100111783
 30
0.0
 10
1346.638623182037
 20
471.9787942585947
 30
0.0
 10
1346.819443138024
 20
472.1346436193602
 30
0.0
 10
1347.03471813371
 20
472.3404965194661
 30
0.0
 10
1347.264228632807
 20
472.5771085605745
 30
0.0
 10
1347.532892718964
 20
472.8423887679162
 30
0.0
 10
1347.731934255662
 20
473.0396898571114
 30
0.0
 10
1347.849169035296
 20
473.1558995191601
 30
0.0
  0
LINE
  5
139
330
1F
100
AcDbEntity
  8
0
  6
Continuous
 62
     7
370
    15
100
AcDbLine
 10
1345.7991690353
 20
471.912970587
 30
0.0
 11
1346.5991690353
 21
471.912970587
 31
0.0
  0
LINE
  5
13A
330
1F
100
AcDbEntity
  8
0
  6
Continuous
 62
     7
370
    15
100
AcDbLine
 10
1402.4077476791
 20
471.1058995192
 30
0.0
 11
1346.6062401031
 21
471.1058995192
 31
0.0
  0
SPLINE
  5
13B
330
1F
100
AcDbEntity
  8
0
  6
Continuous
 62
     7
370
    15
100
AcDbSpline
210
0.0
220
0.0
230
1.0
 70
     8
 71
     3
 72
    11
 73
     7
 74
     0
 42
0.00000001
 43
0.00000001
 12
1.0
 22
0.0
 32
0.0
 13
1.0
 23
0.0
 33
0.0
 40
0.0
 40
0.0
 40
0.0
 40
0.0
 40
0.2499999999999996
 40
0.4999999999999979
 40
0.7499999999999997
 40
1.0
 40
1.0
 40
1.0
 40
1.0
 10
1402.407747679062
 20
471.1058995191585
 30
0.0
 10
1402.419532792081
 20
471.1367142433724
 30
0.0
 10
1402.443103018121
 20
471.1983436918001
 30
0.0
 10
1402.47845835718
 20
471.6724045787009
 30
0.0
 10
1402.51381369624
 20
472.3500216997498
 30
0.0
 10
1402.537383922279
 20
472.8872735793556
 30
0.0
 10
1402.549169035299
 20
473.1558995191586
 30
0.0
  0
LINE
  5
13C
330
1F
100
AcDbEntity
  8
0
  6
Continuous
 62
     7
370
    15
100
AcDbLine
 10
1402.5491690353
 20
594.0558995192
 30
0.0
 11
1404.5991690353
 21
594.0558995192
 31
0.0
  0
LINE
  5
13D
330
1F
100
AcDbEntity
  8
0
  6
Continuous
 62
     7
370
    15
100
AcDbLine
 10
1404.5991690353
 20
594.0558995192
 30
0.0
 11
1404.5991690353
 21
473.1558995192
 31
0.0
  0
LINE
  5
13E
330
1F
100
AcDbEntity
  8
0
  6
Continuous
 62
     7
370
    15
100
AcDbLine
 10
1404.5991690353
 20
473.1558995192
 30
0.0
 11
1402.5491690353
 21
473.1558995192
 31
0.0
  0
ARC
  5
13F
330
1F
100
AcDbEntity
  8
0
  6
Continuous
 62
     7
370
    15
100
AcDbCircle
 10
1402.5491690353
 20
594.0558995192
 30
0.0
 40
1.250000000000227
100
AcDbArc
 50
360.0
 51
90.0
  0
LINE
  5
140
330
1F
100
AcDbEntity
  8
0
  6
Continuous
 62
     7
370
    15
100
AcDbLine
 10
1402.5491690353
 20
595.3058995192
 30
0.0
 11
1402.5491690353
 21
596.1058995192
 31
0.0
  0
ARC
  5
141
330
1F
100
AcDbEntity
  8
0
  6
Continuous
 62
     7
370
    15
100
AcDbCircle
 10
1402.5491690353
 20
594.0558995192
 30
0.0
 40
2.050000000000182
100
AcDbArc
 50
0.0
 51
90.0
  0
LINE
  5
142
330
1F
100
AcDbEntity
  8
0
  6
Continuous
 62
     7
370
    15
100
AcDbLine
 10
1402.5491690353
 20
471.1058995192
 30
0.0
 11
1402.4077476791
 21
471.1058995192
 31
0.0
  0
LINE
  5
143
330
1F
100
AcDbEntity
  8
0
  6
Continuous
 62
     7
370
    15
100
AcDbLine
 10
1402.5491690353
 20
471.9058995192
 30
0.0
 11
1402.5491690353
 21
471.1058995192
 31
0.0
  0
ARC
  5
144
330
1F
100
AcDbEntity
  8
0
  6
Continuous
 62
     7
370
    15
100
AcDbCircle
 10
1402.5491690353
 20
473.1558995192
 30
0.0
 40
2.050000000000125
100
AcDbArc
 50
270.0
 51
0.0
  0
ARC
  5
145
330
1F
100
AcDbEntity
  8
0
  6
Continuous
 62
     7
370
    15
100
AcDbCircle
 10
1402.5491690353
 20
473.1558995192
 30
0.0
 40
1.250000000000114
100
AcDbArc
 50
270.0
 51
0.0
  0
LINE
  5
146
330
1F
100
AcDbEntity
  8
0
  6
Continuous
 62
     7
370
    15
100
AcDbLine
 10
1402.4784583573
 20
596.1058995192
 30
0.0
 11
1402.5491690353
 21
596.1058995192
 31
0.0
  0
LINE
  5
147
330
1F
100
AcDbEntity
  8
0
  6
Continuous
 62
     7
370
    15
100
AcDbLine
 10
1385.0081283435
 20
664.6022287632
 30
0.0
 11
1384.5326000853
 21
664.447720266
 31
0.0
  0
ARC
  5
148
330
1F
100
AcDbEntity
  8
0
  6
Continuous
 62
     7
370
    15
100
AcDbCircle
 10
1384.5326000853
 20
664.447720266
 30
0.0
 40
0.499999999999912
100
AcDbArc
 50
288.0
 51
18.0
  0
LINE
  5
149
330
1F
100
AcDbEntity
  8
0
  6
Continuous
 62
     7
370
    15
100
AcDbLine
 10
1384.6871085825
 20
663.9721920079
 30
0.0
 11
1384.5326000853
 21
664.447720266
 31
0.0
  0
ARC
  5
14A
330
1F
100
AcDbEntity
  8
0
  6
Continuous
 62
     7
370
    15
100
AcDbCircle
 10
1375.7565174451
 20
691.4577253288
 30
0.0
 40
0.499999999999912
100
AcDbArc
 50
18.0
 51
108.0
  0
LINE
  5
14B
330
1F
100
AcDbEntity
  8
0
  6
Continuous
 62
     7
370
    15
100
AcDbLine
 10
1375.7565174451
 20
691.4577253288
 30
0.0
 11
1376.2320457032
 21
691.612233826
 31
0.0
  0
LINE
  5
14C
330
1F
100
AcDbEntity
  8
0
  6
Continuous
 62
     7
370
    15
100
AcDbLine
 10
1375.7565174451
 20
691.4577253288
 30
0.0
 11
1375.6020089479
 21
691.9332535869
 31
0.0
  0
LINE
  5
14D
330
1F
100
AcDbEntity
  8
0
  6
Continuous
 62
     7
370
    15
100
AcDbLine
 10
1375.6020089479
 20
691.9332535869
 30
0.0
 11
1374.4131883025
 21
691.546982344
 31
0.0
  0
LINE
  5
14E
330
1F
100
AcDbEntity
  8
0
  6
Continuous
 62
     7
370
    15
100
AcDbLine
 10
1374.5676967997
 20
691.0714540858
 30
0.0
 11
1375.7565174451
 21
691.4577253288
 31
0.0
  0
LINE
  5
14F
330
1F
100
AcDbEntity
  8
0
  6
Continuous
 62
     7
370
    15
100
AcDbLine
 10
1385.0081283435
 20
664.6022287632
 30
0.0
 11
1383.0844975535
 21
670.5225555771
 31
0.0
  0
LINE
  5
150
330
1F
100
AcDbEntity
  8
0
  6
Continuous
 62
     7
370
    15
100
AcDbLine
 10
1378.6192019848
 20
684.2653222376
 30
0.0
 11
1376.2320457032
 21
691.612233826
 31
0.0
  0
LINE
  5
151
330
1F
100
AcDbEntity
  8
0
  6
Continuous
 62
     7
370
    15
100
AcDbLine
 10
1384.5326000853
 20
664.447720266
 30
0.0
 11
1383.34377944
 21
664.061449023
 31
0.0
  0
LINE
  5
152
330
1F
100
AcDbEntity
  8
0
  6
Continuous
 62
     7
370
    15
100
AcDbLine
 10
1384.6871085825
 20
663.9721920079
 30
0.0
 11
1383.4982879371
 21
663.5859207649
 31
0.0
  0
LINE
  5
153
330
1F
100
AcDbEntity
  8
0
  6
Continuous
 62
     7
370
    15
100
AcDbLine
 10
1386.8291369828
 20
673.920256524
 30
0.0
 11
1387.2040388175
 21
674.2510867136
 31
0.0
  0
ARC
  5
154
330
1F
100
AcDbEntity
  8
0
  6
Continuous
 62
     7
370
    15
100
AcDbCircle
 10
1386.8291369828
 20
673.920256524
 30
0.0
 40
0.5000000000001428
100
AcDbArc
 50
348.1428188871
 51
41.4266260125
  0
LINE
  5
155
330
1F
100
AcDbEntity
  8
0
  6
Continuous
 62
     7
370
    15
100
AcDbLine
 10
1386.8291369828
 20
673.920256524
 30
0.0
 11
1387.3184683901
 21
673.8175200949
 31
0.0
  0
SPLINE
  5
156
330
1F
100
AcDbEntity
  8
0
  6
Continuous
 62
     7
370
    15
100
AcDbSpline
210
0.0
220
0.0
230
1.0
 70
     8
 71
     3
 72
     9
 73
     5
 74
     0
 42
0.00000001
 43
0.00000001
 12
1.0
 22
0.0
 32
0.0
 13
1.0
 23
0.0
 33
0.0
 40
0.0
 40
0.0
 40
0.0
 40
0.0
 40
0.4999999999999979
 40
1.0
 40
1.0
 40
1.0
 40
1.0
 10
1383.957204982183
 20
667.8366382910727
 30
0.0
 10
1384.614709944093
 20
668.7661439919285
 30
0.0
 10
1385.929719867911
 20
670.6251553936398
 30
0.0
 10
1386.529331277839
 20
672.821889480533
 30
0.0
 10
1386.829136982802
 20
673.9202565239797
 30
0.0
  0
ARC
  5
157
330
1F
100
AcDbEntity
  8
0
  6
Continuous
 62
     7
370
    15
100
AcDbCircle
 10
1372.6385261722
 20
676.899612968
 30
0.0
 40
14.99999999999988
100
AcDbArc
 50
320.0689439848
 51
348.1428188871
  0
ARC
  5
158
330
1F
100
AcDbEntity
  8
0
  6
Continuous
 62
     7
370
    15
100
AcDbCircle
 10
1443.4393140195
 20
723.8756151542
 30
0.0
 40
75.00000000000017
100
AcDbArc
 50
207.8793430575
 51
211.8830524435
  0
ARC
  5
159
330
1F
100
AcDbEntity
  8
0
  6
Continuous
 62
     7
370
    15
100
AcDbCircle
 10
1443.4393140195
 20
723.8756151542
 30
0.0
 40
75.00000000000004
100
AcDbArc
 50
213.8797834998
 51
221.4266260125
  0
ARC
  5
15A
330
1F
100
AcDbEntity
  8
0
  6
Continuous
 62
     7
370
    15
100
AcDbCircle
 10
1364.2199654832
 20
717.0935740464
 30
0.0
 40
0.5
100
AcDbArc
 50
18.0
 51
90.0
  0
ARC
  5
15B
330
1F
100
AcDbEntity
  8
0
  6
Continuous
 62
     7
370
    15
100
AcDbCircle
 10
1346.7991690353
 20
717.0935740464
 30
0.0
 40
1.0
100
AcDbArc
 50
90.0
 51
180.0
  0
LINE
  5
15C
330
1F
100
AcDbEntity
  8
0
  6
Continuous
 62
     7
370
    15
100
AcDbLine
 10
1346.7991690353
 20
718.0935740464
 30
0.0
 11
1346.7991690353
 21
717.5935740464
 31
0.0
  0
ARC
  5
15D
330
1F
100
AcDbEntity
  8
0
  6
Continuous
 62
     7
370
    15
100
AcDbCircle
 10
1346.7991690353
 20
717.0935740464
 30
0.0
 40
0.5
100
AcDbArc
 50
90.0
 51
180.0
  0
LINE
  5
15E
330
1F
100
AcDbEntity
  8
0
  6
Continuous
 62
     7
370
    15
100
AcDbLine
 10
1345.7991690353
 20
717.0935740464
 30
0.0
 11
1346.2991690353
 21
717.0935740464
 31
0.0
  0
LINE
  5
15F
330
1F
100
AcDbEntity
  8
0
  6
Continuous
 62
     7
370
    15
100
AcDbLine
 10
1415.4082429669
 20
628.0074038999
 30
0.0
 11
1415.5792530385
 21
628.4772502103
 31
0.0
  0
LINE
  5
160
330
1F
100
AcDbEntity
  8
0
  6
Continuous
 62
     7
370
    15
100
AcDbLine
 10
1415.4082429669
 20
628.0074038999
 30
0.0
 11
1395.9578502065
 21
635.0867679095
 31
0.0
  0
LINE
  5
161
330
1F
100
AcDbEntity
  8
0
  6
Continuous
 62
     7
370
    15
100
AcDbLine
 10
1396.1288602781
 20
635.5566142198
 30
0.0
 11
1395.9578502065
 21
635.0867679095
 31
0.0
  0
ARC
  5
162
330
1F
100
AcDbEntity
  8
0
  6
Continuous
 62
     7
370
    15
100
AcDbCircle
 10
1412.1590516053
 20
619.0803240024
 30
0.0
 40
9.50000000000009
100
AcDbArc
 50
320.0
 51
70.0
  0
LINE
  5
163
330
1F
100
AcDbEntity
  8
0
  6
Continuous
 62
     7
370
    15
100
AcDbLine
 10
1419.4364738149
 20
612.9738417104
 30
0.0
 11
1419.8194960365
 21
612.6524479056
 31
0.0
  0
ARC
  5
164
330
1F
100
AcDbEntity
  8
0
  6
Continuous
 62
     7
370
    15
100
AcDbCircle
 10
1406.4432383361
 20
598.6558995192
 30
0.0
 40
0.7500000000000727
100
AcDbArc
 50
270.0
 51
320.0
  0
LINE
  5
165
330
1F
100
AcDbEntity
  8
0
  6
Continuous
 62
     7
370
    15
100
AcDbLine
 10
1407.0177716684
 20
598.173808812
 30
0.0
 11
1407.40079389
 21
597.8524150071
 31
0.0
  0
LINE
  5
166
330
1F
100
AcDbEntity
  8
0
  6
Continuous
 62
     7
370
    15
100
AcDbLine
 10
1406.4432383361
 20
597.9058995192
 30
0.0
 11
1406.4432383361
 21
597.4058995192
 31
0.0
  0
LINE
  5
167
330
1F
100
AcDbEntity
  8
0
  6
Continuous
 62
     7
370
    15
100
AcDbLine
 10
1346.7991690353
 20
597.9058995192
 30
0.0
 11
1406.4432383361
 21
597.9058995192
 31
0.0
  0
LINE
  5
168
330
1F
100
AcDbEntity
  8
0
  6
Continuous
 62
     7
370
    15
100
AcDbLine
 10
1346.7991690353
 20
597.9058995192
 30
0.0
 11
1346.7991690353
 21
597.4058995192
 31
0.0
  0
ARC
  5
169
330
1F
100
AcDbEntity
  8
0
  6
Continuous
 62
     7
370
    15
100
AcDbCircle
 10
1399.8226778261
 20
645.7052945243
 30
0.0
 40
11.30000000000022
100
AcDbArc
 50
198.0
 51
250.0
  0
LINE
  5
16A
330
1F
100
AcDbEntity
  8
0
  6
Continuous
 62
     7
370
    15
100
AcDbLine
 10
1389.5512674501
 20
642.3679109851
 30
0.0
 11
1389.0757391919
 21
642.2134024879
 31
0.0
  0
LINE
  5
16B
330
1F
100
AcDbEntity
  8
0
  6
Continuous
 62
     7
370
    15
100
AcDbLine
 10
1407.0177716684
 20
598.173808812
 30
0.0
 11
1419.4364738149
 21
612.9738417104
 31
0.0
  0
LINE
  5
16C
330
1F
100
AcDbEntity
  8
0
  6
Continuous
 62
     7
370
    15
100
AcDbLine
 10
1389.0757391919
 20
642.2134024879
 30
0.0
 11
1364.6954937413
 21
717.2480825436
 31
0.0
  0
LINE
  5
16D
330
1F
100
AcDbEntity
  8
0
  6
Continuous
 62
     7
370
    15
100
AcDbLine
 10
1364.2199654832
 20
717.5935740464
 30
0.0
 11
1346.7991690353
 21
717.5935740464
 31
0.0
  0
LINE
  5
16E
330
1F
100
AcDbEntity
  8
0
  6
Continuous
 62
     7
370
    15
100
AcDbLine
 10
1345.7991690353
 20
598.4058995192
 30
0.0
 11
1345.7991690353
 21
717.0935740464
 31
0.0
  0
LINE
  5
16F
330
1F
100
AcDbEntity
  8
0
  6
Continuous
 62
     7
370
    15
100
AcDbLine
 10
1346.2991690353
 20
717.0935740464
 30
0.0
 11
1346.2991690353
 21
598.4058995192
 31
0.0
  0
LINE
  5
170
330
1F
100
AcDbEntity
  8
0
  6
Continuous
 62
     7
370
    15
100
AcDbLine
 10
1346.2991690353
 20
598.4058995192
 30
0.0
 11
1345.7991690353
 21
598.4058995192
 31
0.0
  0
ARC
  5
171
330
1F
100
AcDbEntity
  8
0
  6
Continuous
 62
     7
370
    15
100
AcDbCircle
 10
1346.7991690353
 20
598.4058995192
 30
0.0
 40
0.5
100
AcDbArc
 50
180.0
 51
270.0
  0
ARC
  5
172
330
1F
100
AcDbEntity
  8
0
  6
Continuous
 62
     7
370
    15
100
AcDbCircle
 10
1346.7991690353
 20
598.4058995192
 30
0.0
 40
1.0
100
AcDbArc
 50
180.0
 51
270.0
  0
LINE
  5
173
330
1F
100
AcDbEntity
  8
0
  6
Continuous
 62
     7
370
    15
100
AcDbLine
 10
1380.4612356601
 20
684.2592444809
 30
0.0
 11
1384.5711616852
 21
671.6101928142
 31
0.0
  0
LINE
  5
174
330
1F
100
AcDbEntity
  8
0
  6
Continuous
 62
     7
370
    15
100
AcDbLine
 10
1407.40079389
 20
597.8524150071
 30
0.0
 11
1408.0136294445
 21
597.3381849194
 31
0.0
  0
LINE
  5
175
330
1F
100
AcDbEntity
  8
0
  6
Continuous
 62
     7
370
    15
100
AcDbLine
 10
1407.40079389
 20
597.8524150071
 30
0.0
 11
1419.8194960365
 21
612.6524479056
 31
0.0
  0
LINE
  5
176
330
1F
100
AcDbEntity
  8
0
  6
Continuous
 62
     7
370
    15
100
AcDbLine
 10
1420.432331591
 20
612.1382178178
 30
0.0
 11
1419.8194960365
 21
612.6524479056
 31
0.0
  0
LINE
  5
177
330
1F
100
AcDbEntity
  8
0
  6
Continuous
 62
     7
370
    15
100
AcDbLine
 10
1408.0136294445
 20
597.3381849194
 30
0.0
 11
1420.432331591
 21
612.1382178178
 31
0.0
  0
ARC
  5
178
330
1F
100
AcDbEntity
  8
0
  6
Continuous
 62
     7
370
    15
100
AcDbCircle
 10
1412.1590516053
 20
619.0803240024
 30
0.0
 40
10.0000000000001
100
AcDbArc
 50
320.0
 51
70.0
  0
LINE
  5
179
330
1F
100
AcDbEntity
  8
0
  6
Continuous
 62
     7
370
    15
100
AcDbLine
 10
1415.5792530385
 20
628.4772502103
 30
0.0
 11
1415.8528691532
 21
629.2290043069
 31
0.0
  0
ARC
  5
17A
330
1F
100
AcDbEntity
  8
0
  6
Continuous
 62
     7
370
    15
100
AcDbCircle
 10
1412.1590516053
 20
619.0803240024
 30
0.0
 40
10.80000000000007
100
AcDbArc
 50
320.0
 51
70.0
  0
ARC
  5
17B
330
1F
100
AcDbEntity
  8
0
  6
Continuous
 62
     7
370
    15
100
AcDbCircle
 10
1406.4432383361
 20
598.6558995192
 30
0.0
 40
1.250000000000087
100
AcDbArc
 50
270.0
 51
320.0
  0
ARC
  5
17C
330
1F
100
AcDbEntity
  8
0
  6
Continuous
 62
     7
370
    15
100
AcDbCircle
 10
1406.4432383361
 20
598.6558995192
 30
0.0
 40
2.050000000000068
100
AcDbArc
 50
270.0
 51
320.0
  0
LINE
  5
17D
330
1F
100
AcDbEntity
  8
0
  6
Continuous
 62
     7
370
    15
100
AcDbLine
 10
1406.4432383361
 20
596.6058995192
 30
0.0
 11
1406.4432383361
 21
597.4058995192
 31
0.0
  0
LINE
  5
17E
330
1F
100
AcDbEntity
  8
0
  6
Continuous
 62
     7
370
    15
100
AcDbLine
 10
1345.7991690353
 20
597.4058995192
 30
0.0
 11
1345.7991690353
 21
596.6058995192
 31
0.0
  0
LINE
  5
17F
330
1F
100
AcDbEntity
  8
0
  6
Continuous
 62
     7
370
    15
100
AcDbLine
 10
1345.7991690353
 20
596.6058995192
 30
0.0
 11
1406.4432383361
 21
596.6058995192
 31
0.0
  0
LINE
  5
180
330
1F
100
AcDbEntity
  8
0
  6
Continuous
 62
     7
370
    15
100
AcDbLine
 10
1345.7991690353
 20
597.4058995192
 30
0.0
 11
1406.4432383361
 21
597.4058995192
 31
0.0
  0
LINE
  5
181
330
1F
100
AcDbEntity
  8
0
  6
Continuous
 62
     7
370
    15
100
AcDbLine
 10
1415.5792530385
 20
628.4772502103
 30
0.0
 11
1396.1288602781
 21
635.5566142198
 31
0.0
  0
LINE
  5
182
330
1F
100
AcDbEntity
  8
0
  6
Continuous
 62
     7
370
    15
100
AcDbLine
 10
1396.4024763928
 20
636.3083683165
 30
0.0
 11
1396.1288602781
 21
635.5566142198
 31
0.0
  0
LINE
  5
183
330
1F
100
AcDbEntity
  8
0
  6
Continuous
 62
     7
370
    15
100
AcDbLine
 10
1415.8528691532
 20
629.2290043069
 30
0.0
 11
1396.4024763928
 21
636.3083683165
 31
0.0
  0
LINE
  5
184
330
1F
100
AcDbEntity
  8
0
  6
Continuous
 62
     7
370
    15
100
AcDbLine
 10
1345.7991690353
 20
718.0935740464
 30
0.0
 11
1364.0383298512
 21
718.0935740464
 31
0.0
  0
LINE
  5
185
330
1F
100
AcDbEntity
  8
0
  6
Continuous
 62
     7
370
    15
100
AcDbLine
 10
1345.7991690353
 20
718.8935740464
 30
0.0
 11
1345.7991690353
 21
718.0935740464
 31
0.0
  0
LINE
  5
186
330
1F
100
AcDbEntity
  8
0
  6
Continuous
 62
     7
370
    15
100
AcDbLine
 10
1345.7991690353
 20
718.8935740464
 30
0.0
 11
1364.0383298512
 21
718.8935740464
 31
0.0
  0
LINE
  5
187
330
1F
100
AcDbEntity
  8
0
  6
Continuous
 62
     7
370
    15
100
AcDbLine
 10
1364.0383298512
 20
718.0935740464
 30
0.0
 11
1364.0383298512
 21
718.8935740464
 31
0.0
  0
LINE
  5
188
330
1F
100
AcDbEntity
  8
0
  6
Continuous
 62
     7
370
    15
100
AcDbLine
 10
1365.2271504965
 20
717.2298452893
 30
0.0
 11
1365.9879957096
 21
717.4770588848
 31
0.0
  0
ARC
  5
189
330
1F
100
AcDbEntity
  8
0
  6
Continuous
 62
     7
370
    15
100
AcDbCircle
 10
1364.0383298512
 20
716.8435740464
 30
0.0
 40
1.249999999999773
100
AcDbArc
 50
18.0
 51
90.0
  0
ARC
  5
18A
330
1F
100
AcDbEntity
  8
0
  6
Continuous
 62
     7
370
    15
100
AcDbCircle
 10
1364.0383298512
 20
716.8435740464
 30
0.0
 40
2.050000000000019
100
AcDbArc
 50
18.0
 51
90.0
  0
LINE
  5
18B
330
1F
100
AcDbEntity
  8
0
  6
Continuous
 62
     7
370
    15
100
AcDbLine
 10
1389.5512674501
 20
642.3679109851
 30
0.0
 11
1390.3121126631
 21
642.6151245806
 31
0.0
  0
LINE
  5
18C
330
1F
100
AcDbEntity
  8
0
  6
Continuous
 62
     7
370
    15
100
AcDbLine
 10
1389.5512674501
 20
642.3679109851
 30
0.0
 11
1365.2271504965
 21
717.2298452893
 31
0.0
  0
LINE
  5
18D
330
1F
100
AcDbEntity
  8
0
  6
Continuous
 62
     7
370
    15
100
AcDbLine
 10
1390.3121126631
 20
642.6151245806
 30
0.0
 11
1365.9879957096
 21
717.4770588848
 31
0.0
  0
ARC
  5
18E
330
1F
100
AcDbEntity
  8
0
  6
Continuous
 62
     7
370
    15
100
AcDbCircle
 10
1399.8226778261
 20
645.7052945243
 30
0.0
 40
10.80000000000002
100
AcDbArc
 50
198.0
 51
250.0
  0
ARC
  5
18F
330
1F
100
AcDbEntity
  8
0
  6
Continuous
 62
     7
370
    15
100
AcDbCircle
 10
1399.8226778261
 20
645.7052945243
 30
0.0
 40
9.999999999999988
100
AcDbArc
 50
198.0
 51
250.0
  0
LINE
  5
190
330
1F
100
AcDbEntity
  8
0
  6
Continuous
 62
     7
370
    15
100
AcDbLine
 10
1366.9542878986
 20
718.1253757785
 30
0.0
 11
1366.6288985841
 21
718.8562121446
 31
0.0
  0
ARC
  5
191
330
1F
100
AcDbEntity
  8
0
  6
Continuous
 62
     7
370
    15
100
AcDbCircle
 10
1367.4627087024
 20
716.9834439565
 30
0.0
 40
1.250000000000139
100
AcDbArc
 50
114.0
 51
198.0
  0
ARC
  5
192
330
1F
100
AcDbEntity
  8
0
  6
Continuous
 62
     7
370
    15
100
AcDbCircle
 10
1367.4627087024
 20
716.9834439565
 30
0.0
 40
2.050000000000069
100
AcDbArc
 50
114.0
 51
149.0497586922
  0
LINE
  5
193
330
1F
100
AcDbEntity
  8
0
  6
Continuous
 62
     7
370
    15
100
AcDbLine
 10
1366.6288985841
 20
718.8562121446
 30
0.0
 11
1374.4346843194
 21
722.3315718653
 31
0.0
  0
LINE
  5
194
330
1F
100
AcDbEntity
  8
0
  6
Continuous
 62
     7
370
    15
100
AcDbLine
 10
1366.9542878986
 20
718.1253757785
 30
0.0
 11
1375.2442515357
 21
721.8163053899
 31
0.0
  0
LINE
  5
195
330
1F
100
AcDbEntity
  8
0
  6
Continuous
 62
     7
370
    15
100
AcDbLine
 10
1379.5062184439
 20
724.5367376627
 30
0.0
 11
1379.8119788239
 21
723.8499886053
 31
0.0
  0
LINE
  5
196
330
1F
100
AcDbEntity
  8
0
  6
Continuous
 62
     7
370
    15
100
AcDbLine
 10
1375.2442515357
 20
721.8163053899
 30
0.0
 11
1379.8119788239
 21
723.8499886053
 31
0.0
  0
LINE
  5
197
330
1F
100
AcDbEntity
  8
0
  6
Continuous
 62
     7
370
    15
100
AcDbLine
 10
1365.7073532242
 20
718.3407876419
 30
0.0
 11
1365.5055917092
 21
718.2752313517
 31
0.0
  0
LINE
  5
198
330
1F
100
AcDbEntity
  8
0
  6
Continuous
 62
     7
370
    15
100
AcDbLine
 10
1365.7717948711
 20
718.1424566462
 30
0.0
 11
1365.7073532242
 21
718.3407876419
 31
0.0
  0
SPLINE
  5
199
330
1F
100
AcDbEntity
  8
0
  6
Continuous
 62
     7
370
    15
100
AcDbSpline
210
0.0
220
0.0
230
1.0
 70
     8
 71
     3
 72
    11
 73
     7
 74
     0
 42
0.00000001
 43
0.00000001
 12
1.0
 22
0.0
 32
0.0
 13
1.0
 23
0.0
 33
0.0
 40
0.0
 40
0.0
 40
0.0
 40
0.0
 40
0.2500000000000038
 40
0.4999999999999926
 40
0.7500000000000075
 40
1.0
 40
1.0
 40
1.0
 40
1.0
 10
1345.728458357176
 20
471.605899519159
 30
0.0
 10
1345.63018424702
 20
471.636714243373
 30
0.0
 10
1345.433636026706
 20
471.698343691801
 30
0.0
 10
1345.138813696236
 20
472.172404578702
 30
0.0
 10
1344.843991365765
 20
472.8500216997505
 30
0.0
 10
1344.647443145452
 20
473.3872735793561
 30
0.0
 10
1344.549169035295
 20
473.6558995191589
 30
0.0
  0
LINE
  5
19A
330
1F
100
AcDbEntity
  8
0
  6
Continuous
 62
     7
370
    15
100
AcDbLine
 10
639.9698797134
 20
471.6058995192
 30
0.0
 11
1345.7284583572
 21
471.6058995192
 31
0.0
  0
SPLINE
  5
19B
330
1F
100
AcDbEntity
  8
0
  6
Continuous
 62
     7
370
    15
100
AcDbSpline
210
0.0
220
0.0
230
1.0
 70
     8
 71
     3
 72
    16
 73
    12
 74
     0
 42
0.00000001
 43
0.00000001
 12
1.0
 22
0.0
 32
0.0
 13
1.0
 23
0.0
 33
0.0
 40
0.0
 40
0.0
 40
0.0
 40
0.0
 40
0.1181912912968176
 40
0.2391334813662135
 40
0.3698289674928056
 40
0.5050762383184865
 40
0.6003014511906778
 40
0.6982427049907386
 40
0.7934947262751618
 40
0.8916505371435752
 40
1.0
 40
1.0
 40
1.0
 40
1.0
 10
641.1491690352947
 20
473.6558995191589
 30
0.0
 10
641.0785008711762
 20
473.5385920261078
 30
0.0
 10
640.9355197435314
 20
473.3012467116107
 30
0.0
 10
640.7223433590126
 20
472.9404671583286
 30
0.0
 10
640.5089875760519
 20
472.5830243591008
 30
0.0
 10
640.3254963001043
 20
472.2800309345689
 30
0.0
 10
640.1936600991326
 20
472.0372109478699
 30
0.0
 10
640.1032793677824
 20
471.8576026461715
 30
0.0
 10
640.0366942363509
 20
471.7203923902275
 30
0.0
 10
639.9895493703459
 20
471.6252002063571
 30
0.0
 10
639.9766485388925
 20
471.6125413728385
 30
0.0
 10
639.9698797134133
 20
471.605899519159
 30
0.0
  0
LINE
  5
19C
330
1F
100
AcDbEntity
  8
0
  6
Continuous
 62
     7
370
    15
100
AcDbLine
 10
641.1491690353
 20
473.6558995192
 30
0.0
 11
1344.5491690353
 21
473.6558995192
 31
0.0
  0
SPLINE
  5
19D
330
1F
100
AcDbEntity
  8
0
  6
Continuous
 62
     7
370
    15
100
AcDbSpline
210
0.0
220
0.0
230
1.0
 70
     8
 71
     3
 72
    12
 73
     8
 74
     0
 42
0.00000001
 43
0.00000001
 12
1.0
 22
0.0
 32
0.0
 13
1.0
 23
0.0
 33
0.0
 40
0.0
 40
0.0
 40
0.0
 40
0.0
 40
0.2286702771455459
 40
0.4574139526360146
 40
0.6861579520287432
 40
0.9149017666625974
 40
1.0
 40
1.0
 40
1.0
 40
1.0
 10
1344.549169035295
 20
734.5558995191591
 30
0.0
 10
1344.639086736622
 20
734.8013719387296
 30
0.0
 10
1344.818951000967
 20
735.2923955693497
 30
0.0
 10
1345.088810169364
 20
735.9355612706886
 30
0.0
 10
1345.358508264906
 20
736.3997289347654
 30
0.0
 10
1345.572316368039
 20
736.5885088086725
 30
0.0
 10
1345.695151599128
 20
736.6021898944151
 30
0.0
 10
1345.728458357177
 20
736.605899519159
 30
0.0
  0
LINE
  5
19E
330
1F
100
AcDbEntity
  8
0
  6
Continuous
 62
     7
370
    15
100
AcDbLine
 10
1344.5491690353
 20
734.5558995192
 30
0.0
 11
641.1491690353
 21
734.5558995192
 31
0.0
  0
SPLINE
  5
19F
330
1F
100
AcDbEntity
  8
0
  6
Continuous
 62
     7
370
    15
100
AcDbSpline
210
0.0
220
0.0
230
1.0
 70
     8
 71
     3
 72
    12
 73
     8
 74
     0
 42
0.00000001
 43
0.00000001
 12
1.0
 22
0.0
 32
0.0
 13
1.0
 23
0.0
 33
0.0
 40
0.0
 40
0.0
 40
0.0
 40
0.0
 40
0.1883674158592295
 40
0.3766352028814675
 40
0.5661514649945631
 40
0.8121475923771677
 40
1.0
 40
1.0
 40
1.0
 40
1.0
 10
639.9698797134134
 20
736.605899519159
 30
0.0
 10
639.9846217514269
 20
736.5855535047793
 30
0.0
 10
640.014098030287
 20
736.544872237169
 30
0.0
 10
640.1585026479333
 20
736.2323019755422
 30
0.0
 10
640.4292874952847
 20
735.7543437147702
 30
0.0
 10
640.7806852978662
 20
735.1728003688395
 30
0.0
 10
641.0378284332471
 20
734.7423015364812
 30
0.0
 10
641.1491690352949
 20
734.555899519159
 30
0.0
  0
LINE
  5
1A0
330
1F
100
AcDbEntity
  8
0
  6
Continuous
 62
     7
370
    15
100
AcDbLine
 10
641.1491690353
 20
734.5558995192
 30
0.0
 11
641.1491690353
 21
473.6558995192
 31
0.0
  0
LINE
  5
1A1
330
1F
100
AcDbEntity
  8
0
  6
Continuous
 62
     7
370
    15
100
AcDbLine
 10
1344.5491690353
 20
473.6558995192
 30
0.0
 11
1344.5491690353
 21
734.5558995192
 31
0.0
  0
SPLINE
  5
1A2
330
1F
100
AcDbEntity
  8
0
  6
Continuous
 62
     7
370
    15
100
AcDbSpline
210
0.0
220
0.0
230
1.0
 70
     8
 71
     3
 72
    12
 73
     8
 74
     0
 42
0.00000001
 43
0.00000001
 12
1.0
 22
0.0
 32
0.0
 13
1.0
 23
0.0
 33
0.0
 40
0.0
 40
0.0
 40
0.0
 40
0.0
 40
0.1454404972564572
 40
0.2766796333592756
 40
0.4978135062082659
 40
0.7087259377059295
 40
1.0
 40
1.0
 40
1.0
 40
1.0
 10
1346.599169035295
 20
735.7351888410402
 30
0.0
 10
1346.587244841382
 20
735.7183018551427
 30
0.0
 10
1346.564560777024
 20
735.6861767926273
 30
0.0
 10
1346.359983553296
 20
735.5902103370561
 30
0.0
 10
1345.971622848998
 20
735.4143662898166
 30
0.0
 10
1345.33714258637
 20
735.0305932038764
 30
0.0
 10
1344.838428854755
 20
734.730156395361
 30
0.0
 10
1344.549169035295
 20
734.555899519159
 30
0.0
  0
LINE
  5
1A3
330
1F
100
AcDbEntity
  8
0
  6
Continuous
 62
     7
370
    15
100
AcDbLine
 10
1346.5991690353
 20
735.735188841
 30
0.0
 11
1346.5991690353
 21
718.8935740464
 31
0.0
  0
LINE
  5
1A4
330
1F
100
AcDbEntity
  8
0
  6
Continuous
 62
     7
370
    15
100
AcDbLine
 10
1346.5991690353
 20
718.0935740464
 30
0.0
 11
1346.5991690353
 21
718.0733699435
 31
0.0
  0
LINE
  5
1A5
330
1F
100
AcDbEntity
  8
0
  6
Continuous
 62
     7
370
    15
100
AcDbLine
 10
1346.5991690353
 20
597.4261036221
 30
0.0
 11
1346.5991690353
 21
597.4058995192
 31
0.0
  0
LINE
  5
1A6
330
1F
100
AcDbEntity
  8
0
  6
Continuous
 62
     7
370
    15
100
AcDbLine
 10
1346.5991690353
 20
596.6058995192
 30
0.0
 11
1346.5991690353
 21
595.1310324265
 31
0.0
  0
SPLINE
  5
1A7
330
1F
100
AcDbEntity
  8
0
  6
Continuous
 62
     7
370
    15
100
AcDbSpline
210
0.0
220
0.0
230
1.0
 70
     8
 71
     3
 72
    13
 73
     9
 74
     0
 42
0.00000001
 43
0.00000001
 12
1.0
 22
0.0
 32
0.0
 13
1.0
 23
0.0
 33
0.0
 40
0.0
 40
0.0
 40
0.0
 40
0.0
 40
0.190757628749887
 40
0.3859551002325671
 40
0.5968948139969322
 40
0.8151811272820307
 40
0.9688723815131243
 40
1.0
 40
1.0
 40
1.0
 40
1.0
 10
1344.549169035295
 20
473.655899519159
 30
0.0
 10
1344.666492441501
 20
473.5852197225876
 30
0.0
 10
1344.903869930929
 20
473.4422150723992
 30
0.0
 10
1345.264387050634
 20
473.2292129086721
 30
0.0
 10
1345.62292230616
 20
473.0151296271822
 30
0.0
 10
1345.922063393092
 20
472.8342117920849
 30
0.0
 10
1346.114766952737
 20
472.7285859526762
 30
0.0
 10
1346.184343316465
 20
472.6933812612102
 30
0.0
 10
1346.196061527241
 20
472.6874520063199
 30
0.0
  0
SPLINE
  5
1A8
330
1F
100
AcDbEntity
  8
0
  6
Continuous
 62
     7
370
    15
100
AcDbSpline
210
0.0
220
0.0
230
1.0
 70
     8
 71
     3
 72
    13
 73
     9
 74
     0
 42
0.00000001
 43
0.00000001
 12
1.0
 22
0.0
 32
0.0
 13
1.0
 23
0.0
 33
0.0
 40
0.0
 40
0.0
 40
0.0
 40
0.0
 40
0.1706735795031994
 40
0.3465464225713777
 40
0.5636480163268814
 40
0.7361436958749592
 40
0.9092362130104941
 40
1.0
 40
1.0
 40
1.0
 40
1.0
 10
1344.549169035295
 20
473.655899519159
 30
0.0
 10
1344.644329082208
 20
473.5620947863598
 30
0.0
 10
1344.837548055674
 20
473.371627728327
 30
0.0
 10
1345.145194713879
 20
473.0743647208537
 30
0.0
 10
1345.429010988456
 20
472.7889752081299
 30
0.0
 10
1345.669363038042
 20
472.5896266039491
 30
0.0
 10
1345.784994685614
 20
472.5008378997689
 30
0.0
 10
1345.795541159471
 20
472.4828111940153
 30
0.0
 10
1345.799169035295
 20
472.4766101972776
 30
0.0
  0
SPLINE
  5
1A9
330
1F
100
AcDbEntity
  8
0
  6
Continuous
 62
     7
370
    15
100
AcDbSpline
210
0.0
220
0.0
230
1.0
 70
     8
 71
     3
 72
    11
 73
     7
 74
     0
 42
0.00000001
 43
0.00000001
 12
1.0
 22
0.0
 32
0.0
 13
1.0
 23
0.0
 33
0.0
 40
0.0
 40
0.0
 40
0.0
 40
0.0
 40
0.2500000000000075
 40
0.5
 40
0.7500000000000177
 40
1.0
 40
1.0
 40
1.0
 40
1.0
 10
1345.728458357176
 20
472.4058995191589
 30
0.0
 10
1345.63018424702
 20
472.424688985143
 30
0.0
 10
1345.433636026706
 20
472.4622679171114
 30
0.0
 10
1345.138813696236
 20
472.7513294335145
 30
0.0
 10
1344.843991365765
 20
473.1645106048854
 30
0.0
 10
1344.647443145452
 20
473.4921032144011
 30
0.0
 10
1344.549169035295
 20
473.6558995191589
 30
0.0
  0
LINE
  5
1AA
330
1F
100
AcDbEntity
  8
0
  6
Continuous
 62
     7
370
    15
100
AcDbLine
 10
1345.7284583572
 20
472.4058995192
 30
0.0
 11
1345.7284583572
 21
471.6058995192
 31
0.0
  0
LINE
  5
1AB
330
1F
100
AcDbEntity
  8
0
  6
Continuous
 62
     7
370
    15
100
AcDbLine
 10
1345.7284583572
 20
735.8058995192
 30
0.0
 11
1345.7284583572
 21
736.6058995192
 31
0.0
  0
SPLINE
  5
1AC
330
1F
100
AcDbEntity
  8
0
  6
Continuous
 62
     7
370
    15
100
AcDbSpline
210
0.0
220
0.0
230
1.0
 70
     8
 71
     3
 72
    11
 73
     7
 74
     0
 42
0.00000001
 43
0.00000001
 12
1.0
 22
0.0
 32
0.0
 13
1.0
 23
0.0
 33
0.0
 40
0.0
 40
0.0
 40
0.0
 40
0.0
 40
0.2506688637244403
 40
0.5014856490565068
 40
0.7523028878589514
 40
1.0
 40
1.0
 40
1.0
 40
1.0
 10
1344.549169035295
 20
734.555899519159
 30
0.0
 10
1344.647708608827
 20
734.7201370603979
 30
0.0
 10
1344.844845904844
 20
735.0487090607011
 30
0.0
 10
1345.140580007116
 20
735.4627584505595
 30
0.0
 10
1345.43516026243
 20
735.7503186850993
 30
0.0
 10
1345.631101113742
 20
735.7874500410043
 30
0.0
 10
1345.728458357177
 20
735.805899519159
 30
0.0
  0
SPLINE
  5
1AD
330
1F
100
AcDbEntity
  8
0
  6
Continuous
 62
     7
370
    15
100
AcDbSpline
210
0.0
220
0.0
230
1.0
 70
     8
 71
     3
 72
    13
 73
     9
 74
     0
 42
0.00000001
 43
0.00000001
 12
1.0
 22
0.0
 32
0.0
 13
1.0
 23
0.0
 33
0.0
 40
0.0
 40
0.0
 40
0.0
 40
0.0
 40
0.1324496571138692
 40
0.2535502158970218
 40
0.3645036189801388
 40
0.4668796236378672
 40
0.6855382790611615
 40
1.0
 40
1.0
 40
1.0
 40
1.0
 10
1345.799169035295
 20
735.7351888410402
 30
0.0
 10
1345.791867205479
 20
735.7183034784862
 30
0.0
 10
1345.777889211376
 20
735.6859795947224
 30
0.0
 10
1345.677493039028
 20
735.6086060689266
 30
0.0
 10
1345.547550369944
 20
735.512488743786
 30
0.0
 10
1345.346761197585
 20
735.3454905168417
 30
0.0
 10
1345.021341319473
 20
735.0222229474447
 30
0.0
 10
1344.724349834341
 20
734.7289103321997
 30
0.0
 10
1344.549169035295
 20
734.555899519159
 30
0.0
  0
LINE
  5
1AE
330
1F
100
AcDbEntity
  8
0
  6
Continuous
 62
     7
370
    15
100
AcDbLine
 10
1346.5991690353
 20
735.735188841
 30
0.0
 11
1345.7991690353
 21
735.735188841
 31
0.0
  0
LINE
  5
1AF
330
1F
100
AcDbEntity
  8
0
  6
Continuous
 62
     7
370
    15
100
AcDbLine
 10
639.9698797134
 20
736.6058995192
 30
0.0
 11
639.9698797134
 21
735.8058995192
 31
0.0
  0
LWPOLYLINE
  5
1B0
330
1F
100
AcDbEntity
  8
0
  6
Continuous
 62
     7
370
    15
100
AcDbPolyline
 90
        2
 70
   128
 43
0.0
 10
641.1491690353
 20
734.5558995192
 10
641.1491690353
 20
734.5558995192
  0
SPLINE
  5
1B1
330
1F
100
AcDbEntity
  8
0
  6
Continuous
 62
     7
370
    15
100
AcDbSpline
210
0.0
220
0.0
230
1.0
 70
     8
 71
     3
 72
    12
 73
     8
 74
     0
 42
0.00000001
 43
0.00000001
 12
1.0
 22
0.0
 32
0.0
 13
1.0
 23
0.0
 33
0.0
 40
0.0
 40
0.0
 40
0.0
 40
0.0
 40
0.1779530337825743
 40
0.3355033292119169
 40
0.4996134486686008
 40
0.7742146412149856
 40
1.0
 40
1.0
 40
1.0
 40
1.0
 10
639.9698797134134
 20
735.805899519159
 30
0.0
 10
639.985636387115
 20
735.7921998562899
 30
0.0
 10
640.0153431944213
 20
735.7663712294667
 30
0.0
 10
640.1535242644793
 20
735.5863814857826
 30
0.0
 10
640.401050680674
 20
735.3132558249831
 30
0.0
 10
640.7527295232543
 20
734.9617088404593
 30
0.0
 10
641.0259058847713
 20
734.6820759822411
 30
0.0
 10
641.1491690352949
 20
734.555899519159
 30
0.0
  0
LINE
  5
1B2
330
1F
100
AcDbEntity
  8
0
  6
Continuous
 62
     7
370
    15
100
AcDbLine
 10
639.9698797134
 20
471.6058995192
 30
0.0
 11
639.9698797134
 21
472.4058995192
 31
0.0
  0
SPLINE
  5
1B3
330
1F
100
AcDbEntity
  8
0
  6
Continuous
 62
     7
370
    15
100
AcDbSpline
210
0.0
220
0.0
230
1.0
 70
     8
 71
     3
 72
    13
 73
     9
 74
     0
 42
0.00000001
 43
0.00000001
 12
1.0
 22
0.0
 32
0.0
 13
1.0
 23
0.0
 33
0.0
 40
0.0
 40
0.0
 40
0.0
 40
0.0
 40
0.1706725568587208
 40
0.3465442917825712
 40
0.5636460767905835
 40
0.7361419523036636
 40
0.9092346611696279
 40
1.0
 40
1.0
 40
1.0
 40
1.0
 10
641.1491690352947
 20
473.6558995191589
 30
0.0
 10
641.055365495862
 20
473.5607394406242
 30
0.0
 10
640.8649008907863
 20
473.3675204332528
 30
0.0
 10
640.5676389308168
 20
473.059875062822
 30
0.0
 10
640.2822467622079
 20
472.7760606500377
 30
0.0
 10
640.0828978031977
 20
472.5357072542845
 30
0.0
 10
639.9941080120255
 20
472.4200742367412
 30
0.0
 10
639.9760809111245
 20
472.409527517461
 30
0.0
 10
639.9698797134134
 20
472.405899519159
 30
0.0
  0
SPLINE
  5
1B4
330
1F
100
AcDbEntity
  8
0
  6
Continuous
 62
     7
370
    15
100
AcDbSpline
210
0.0
220
0.0
230
1.0
 70
     8
 71
     3
 72
    11
 73
     7
 74
     0
 42
0.00000001
 43
0.00000001
 12
1.0
 22
0.0
 32
0.0
 13
1.0
 23
0.0
 33
0.0
 40
0.0
 40
0.0
 40
0.0
 40
0.0
 40
0.2500000000000028
 40
0.5000000000000224
 40
0.7500000000000152
 40
1.0
 40
1.0
 40
1.0
 40
1.0
 10
639.0991690352948
 20
472.4766101972779
 30
0.0
 10
639.129983759509
 20
472.5748843074346
 30
0.0
 10
639.1916132079369
 20
472.7714325277482
 30
0.0
 10
639.6656740948379
 20
473.0662548582184
 30
0.0
 10
640.3432912158866
 20
473.3610771886886
 30
0.0
 10
640.8805430954919
 20
473.5576254090021
 30
0.0
 10
641.1491690352947
 20
473.6558995191589
 30
0.0
  0
SPLINE
  5
1B5
330
1F
100
AcDbEntity
  8
0
  6
Continuous
 62
     7
370
    15
100
AcDbSpline
210
0.0
220
0.0
230
1.0
 70
     8
 71
     3
 72
    11
 73
     7
 74
     0
 42
0.00000001
 43
0.00000001
 12
1.0
 22
0.0
 32
0.0
 13
1.0
 23
0.0
 33
0.0
 40
0.0
 40
0.0
 40
0.0
 40
0.0
 40
0.2500000000000076
 40
0.4999999999999923
 40
0.7499999999999761
 40
0.9999999999999999
 40
0.9999999999999999
 40
0.9999999999999999
 40
0.9999999999999999
 10
639.8991690352948
 20
472.4766101972779
 30
0.0
 10
639.917958501279
 20
472.5748843074346
 30
0.0
 10
639.9555374332474
 20
472.7714325277481
 30
0.0
 10
640.2445989496504
 20
473.0662548582185
 30
0.0
 10
640.6577801210216
 20
473.3610771886886
 30
0.0
 10
640.985372730537
 20
473.5576254090022
 30
0.0
 10
641.1491690352949
 20
473.6558995191589
 30
0.0
  0
LINE
  5
1B6
330
1F
100
AcDbEntity
  8
0
  6
Continuous
 62
     7
370
    15
100
AcDbLine
 10
639.8991690353
 20
472.4766101973
 30
0.0
 11
639.0991690353
 21
472.4766101973
 31
0.0
  0
LINE
  5
1B7
330
1F
100
AcDbEntity
  8
0
  6
Continuous
 62
     7
370
    15
100
AcDbLine
 10
639.0991690353
 20
472.4766101973
 30
0.0
 11
639.0991690353
 21
735.735188841
 31
0.0
  0
SPLINE
  5
1B8
330
1F
100
AcDbEntity
  8
0
  6
Continuous
 62
     7
370
    15
100
AcDbSpline
210
0.0
220
0.0
230
1.0
 70
     8
 71
     3
 72
    11
 73
     7
 74
     0
 42
0.00000001
 43
0.00000001
 12
1.0
 22
0.0
 32
0.0
 13
1.0
 23
0.0
 33
0.0
 40
0.0
 40
0.0
 40
0.0
 40
0.0
 40
0.2500000000000008
 40
0.4999999999999964
 40
0.750000000000002
 40
1.0
 40
1.0
 40
1.0
 40
1.0
 10
641.1491690352949
 20
734.555899519159
 30
0.0
 10
640.8805430954923
 20
734.6541736293158
 30
0.0
 10
640.3432912158866
 20
734.8507218496293
 30
0.0
 10
639.6656740948379
 20
735.1455441800996
 30
0.0
 10
639.1916132079369
 20
735.4403665105699
 30
0.0
 10
639.129983759509
 20
735.6369147308835
 30
0.0
 10
639.0991690352948
 20
735.7351888410402
 30
0.0
  0
LINE
  5
1B9
330
1F
100
AcDbEntity
  8
0
  6
Continuous
 62
     7
370
    15
100
AcDbLine
 10
639.8991690353
 20
735.735188841
 30
0.0
 11
639.0991690353
 21
735.735188841
 31
0.0
  0
SPLINE
  5
1BA
330
1F
100
AcDbEntity
  8
0
  6
Continuous
 62
     7
370
    15
100
AcDbSpline
210
0.0
220
0.0
230
1.0
 70
     8
 71
     3
 72
    11
 73
     7
 74
     0
 42
0.00000001
 43
0.00000001
 12
1.0
 22
0.0
 32
0.0
 13
1.0
 23
0.0
 33
0.0
 40
0.0
 40
0.0
 40
0.0
 40
0.0
 40
0.250000000000017
 40
0.5000000000000169
 40
0.7500000000000119
 40
1.0
 40
1.0
 40
1.0
 40
1.0
 10
641.1491690352949
 20
734.555899519159
 30
0.0
 10
640.9853727305372
 20
734.6541736293158
 30
0.0
 10
640.6577801210216
 20
734.8507218496293
 30
0.0
 10
640.2445989496504
 20
735.1455441800996
 30
0.0
 10
639.9555374332474
 20
735.4403665105699
 30
0.0
 10
639.917958501279
 20
735.6369147308835
 30
0.0
 10
639.8991690352948
 20
735.7351888410402
 30
0.0
  0
LINE
  5
1BB
330
1F
100
AcDbEntity
  8
0
  6
Continuous
 62
     7
370
    15
100
AcDbLine
 10
720.2991690353
 20
322.4058995192
 30
0.0
 11
667.2991690353
 21
322.4058995192
 31
0.0
  0
LINE
  5
1BC
330
1F
100
AcDbEntity
  8
0
  6
Continuous
 62
     7
370
    15
100
AcDbLine
 10
722.2991690353
 20
328.4058995192
 30
0.0
 11
665.2991690353
 21
328.4058995192
 31
0.0
  0
LINE
  5
1BD
330
1F
100
AcDbEntity
  8
0
  6
Continuous
 62
     7
370
    15
100
AcDbLine
 10
1315.5991690353
 20
328.4058995192
 30
0.0
 11
1258.5991690353
 21
328.4058995192
 31
0.0
  0
LINE
  5
1BE
330
1F
100
AcDbEntity
  8
0
  6
Continuous
 62
     7
370
    15
100
AcDbLine
 10
1313.5991690353
 20
322.4058995192
 30
0.0
 11
1260.5991690353
 21
322.4058995192
 31
0.0
  0
LINE
  5
1BF
330
1F
100
AcDbEntity
  8
0
  6
Continuous
 62
     7
370
    15
100
AcDbLine
 10
738.7991690353
 20
470.4058995192
 30
0.0
 11
738.7991690353
 21
471.6058995192
 31
0.0
  0
LINE
  5
1C0
330
1F
100
AcDbEntity
  8
0
  6
Continuous
 62
     7
370
    15
100
AcDbLine
 10
648.7991690353
 20
470.4058995192
 30
0.0
 11
648.7991690353
 21
471.6058995192
 31
0.0
  0
LINE
  5
1C1
330
1F
100
AcDbEntity
  8
0
  6
Continuous
 62
     7
370
    15
100
AcDbLine
 10
648.7991690353
 20
470.4058995192
 30
0.0
 11
738.7991690353
 21
470.4058995192
 31
0.0
  0
LINE
  5
1C2
330
1F
100
AcDbEntity
  8
0
  6
Continuous
 62
     7
370
    15
100
AcDbLine
 10
724.7588192556
 20
376.4058995192
 30
0.0
 11
662.839518815
 21
376.4058995192
 31
0.0
  0
LINE
  5
1C3
330
1F
100
AcDbEntity
  8
0
  6
Continuous
 62
     7
370
    15
100
AcDbLine
 10
1332.0991690353
 20
470.4058995192
 30
0.0
 11
1332.0991690353
 21
471.6058995192
 31
0.0
  0
LINE
  5
1C4
330
1F
100
AcDbEntity
  8
0
  6
Continuous
 62
     7
370
    15
100
AcDbLine
 10
1242.0991690353
 20
470.4058995192
 30
0.0
 11
1332.0991690353
 21
470.4058995192
 31
0.0
  0
LINE
  5
1C5
330
1F
100
AcDbEntity
  8
0
  6
Continuous
 62
     7
370
    15
100
AcDbLine
 10
1242.0991690353
 20
470.4058995192
 30
0.0
 11
1242.0991690353
 21
471.6058995192
 31
0.0
  0
LINE
  5
1C6
330
1F
100
AcDbEntity
  8
0
  6
Continuous
 62
     7
370
    15
100
AcDbLine
 10
1318.0588192556
 20
376.4058995192
 30
0.0
 11
1256.139518815
 21
376.4058995192
 31
0.0
  0
SPLINE
  5
1C7
330
1F
100
AcDbEntity
  8
0
  6
Continuous
 62
     7
370
    15
100
AcDbSpline
210
0.0
220
0.0
230
1.0
 70
     8
 71
     3
 72
    12
 73
     8
 74
     0
 42
0.00000001
 43
0.00000001
 12
1.0
 22
0.0
 32
0.0
 13
1.0
 23
0.0
 33
0.0
 40
0.0
 40
0.0
 40
0.0
 40
0.0
 40
0.2289440738516458
 40
0.4594214300241913
 40
0.6825355698157085
 40
0.8947175231628385
 40
1.0
 40
1.0
 40
1.0
 40
1.0
 10
626.2991690352959
 20
504.4978051926202
 30
0.0
 10
626.3165035198734
 20
504.4900234185536
 30
0.0
 10
626.3512885813926
 20
504.4744077543885
 30
0.0
 10
626.625158427205
 20
504.4566548203979
 30
0.0
 10
627.022194961688
 20
504.4448099248068
 30
0.0
 10
627.4230709510407
 20
504.4398006721009
 30
0.0
 10
627.6679563441277
 20
504.4393753096795
 30
0.0
 10
627.749169035296
 20
504.4392342443978
 30
0.0
  0
LINE
  5
1C8
330
1F
100
AcDbEntity
  8
0
  6
Continuous
 62
     7
370
    15
100
AcDbLine
 10
626.2991690353
 20
504.4978051926
 30
0.0
 11
626.2991690353
 21
510.4974316443
 31
0.0
  0
SPLINE
  5
1C9
330
1F
100
AcDbEntity
  8
0
  6
Continuous
 62
     7
370
    15
100
AcDbSpline
210
0.0
220
0.0
230
1.0
 70
     8
 71
     3
 72
    12
 73
     8
 74
     0
 42
0.00000001
 43
0.00000001
 12
1.0
 22
0.0
 32
0.0
 13
1.0
 23
0.0
 33
0.0
 40
0.0
 40
0.0
 40
0.0
 40
0.0
 40
0.2028202020467326
 40
0.4049472449426636
 40
0.6098312030740793
 40
0.8226939241827781
 40
1.0
 40
1.0
 40
1.0
 40
1.0
 10
627.7491690352964
 20
510.5896050793355
 30
0.0
 10
627.5920281947609
 20
510.5887543671402
 30
0.0
 10
627.2782835588683
 20
510.587055850147
 30
0.0
 10
626.8578873083989
 20
510.5736256189563
 30
0.0
 10
626.5308087729593
 20
510.5528360249747
 30
0.0
 10
626.3325995066933
 20
510.5266192661178
 30
0.0
 10
626.3096143007713
 20
510.5065512422849
 30
0.0
 10
626.2991690352964
 20
510.4974316443486
 30
0.0
  0
LINE
  5
1CA
330
1F
100
AcDbEntity
  8
0
  6
Continuous
 62
     7
370
    15
100
AcDbLine
 10
627.7491690353
 20
510.5896050793
 30
0.0
 11
627.7491690353
 21
504.4392342444
 31
0.0
  0
LINE
  5
1CB
330
1F
100
AcDbEntity
  8
0
  6
Continuous
 62
     7
370
    15
100
AcDbLine
 10
627.7491690353
 20
504.4392342444
 30
0.0
 11
632.8491690353
 21
504.4392342444
 31
0.0
  0
LINE
  5
1CC
330
1F
100
AcDbEntity
  8
0
  6
Continuous
 62
     7
370
    15
100
AcDbLine
 10
632.8491690353
 20
510.5896050793
 30
0.0
 11
627.7491690353
 21
510.5896050793
 31
0.0
  0
LINE
  5
1CD
330
1F
100
AcDbEntity
  8
0
  6
Continuous
 62
     7
370
    15
100
AcDbLine
 10
632.8491690353
 20
504.4392342444
 30
0.0
 11
632.8491690353
 21
510.5896050793
 31
0.0
  0
LWPOLYLINE
  5
1CE
330
1F
100
AcDbEntity
  8
0
  6
Continuous
 62
     7
370
    15
100
AcDbPolyline
 90
        9
 70
   128
 43
0.0
 10
632.8491690353
 20
510.5896050793
 10
632.8979416158
 20
510.5881057164
 10
632.9448398934
 20
510.5836652471
 10
632.9880615936
 20
510.5764543163
 10
633.0259457306
 20
510.566750036
 10
633.0570364384
 20
510.5549253362
 10
633.0801389184
 20
510.5414346335
 10
633.0943653554
 20
510.5267963681
 10
633.0991690353
 20
510.5115730803
  0
LINE
  5
1CF
330
1F
100
AcDbEntity
  8
0
  6
Continuous
 62
     7
370
    15
100
AcDbLine
 10
633.0991690353
 20
510.5115730803
 30
0.0
 11
633.0991690353
 21
504.5119466286
 31
0.0
  0
LWPOLYLINE
  5
1D0
330
1F
100
AcDbEntity
  8
0
  6
Continuous
 62
     7
370
    15
100
AcDbPolyline
 90
        9
 70
   128
 43
0.0
 10
632.8491690353
 20
504.4392342444
 10
632.8979416158
 20
504.4406313925
 10
632.9448398934
 20
504.4447691451
 10
632.9880615936
 20
504.4514884907
 10
633.0259457306
 20
504.4605312086
 10
633.0570364384
 20
504.4715497924
 10
633.0801389184
 20
504.4841208038
 10
633.0943653554
 20
504.4977611461
 10
633.0991690353
 20
504.5119466286
  0
LINE
  5
1D1
330
1F
100
AcDbEntity
  8
0
  6
Continuous
 62
     7
370
    15
100
AcDbLine
 10
627.7491690353
 20
504.4392342444
 30
0.0
 11
627.7491690353
 21
504.2619621931
 31
0.0
  0
SPLINE
  5
1D2
330
1F
100
AcDbEntity
  8
0
  6
Continuous
 62
     7
370
    15
100
AcDbSpline
210
0.0
220
0.0
230
1.0
 70
     8
 71
     3
 72
    12
 73
     8
 74
     0
 42
0.00000001
 43
0.00000001
 12
1.0
 22
0.0
 32
0.0
 13
1.0
 23
0.0
 33
0.0
 40
0.0
 40
0.0
 40
0.0
 40
0.0
 40
0.104420382643987
 40
0.3151731030980184
 40
0.537747297458686
 40
0.7690283494735581
 40
0.9999999999999999
 40
0.9999999999999999
 40
0.9999999999999999
 40
0.9999999999999999
 10
627.749169035296
 20
504.2619621930942
 30
0.0
 10
627.6819494666594
 20
504.2619222543597
 30
0.0
 10
627.4790599588863
 20
504.261801706871
 30
0.0
 10
627.1467025937213
 20
504.2603812382018
 30
0.0
 10
626.8180578054678
 20
504.2572177644855
 30
0.0
 10
626.5919960925917
 20
504.2528204021393
 30
0.0
 10
626.5634383495042
 20
504.2494865616495
 30
0.0
 10
626.5491690352959
 20
504.2478207571313
 30
0.0
  0
ARC
  5
1D3
330
1F
100
AcDbEntity
  8
0
  6
Continuous
 62
     7
370
    15
100
AcDbCircle
 10
626.5491612533
 20
504.4978129751
 30
0.0
 40
0.2499922181081665
100
AcDbArc
 50
180.0017836727
 51
270.0017835615
  0
SPLINE
  5
1D4
330
1F
100
AcDbEntity
  8
0
  6
Continuous
 62
     7
370
    15
100
AcDbSpline
210
0.0
220
0.0
230
1.0
 70
     8
 71
     3
 72
    11
 73
     7
 74
     0
 42
0.00000001
 43
0.00000001
 12
1.0
 22
0.0
 32
0.0
 13
1.0
 23
0.0
 33
0.0
 40
0.0
 40
0.0
 40
0.0
 40
0.0
 40
0.0661893176400381
 40
0.3811977764372402
 40
0.6904982303246529
 40
1.0
 40
1.0
 40
1.0
 40
1.0
 10
626.7269144092738
 20
510.7546087633223
 30
0.0
 10
626.7375226369287
 20
510.7548952683644
 30
0.0
 10
626.7986175830335
 20
510.7565453093208
 30
0.0
 10
627.0171582927302
 20
510.7588424867984
 30
0.0
 10
627.3573472679444
 20
510.7611314008964
 30
0.0
 10
627.6185334554906
 20
510.7614154466957
 30
0.0
 10
627.7491690352964
 20
510.7615575157997
 30
0.0
  0
LINE
  5
1D5
330
1F
100
AcDbEntity
  8
0
  6
Continuous
 62
     7
370
    15
100
AcDbLine
 10
627.7491690353
 20
510.7615575158
 30
0.0
 11
627.7491690353
 21
510.5896050793
 31
0.0
  0
LINE
  5
1D6
330
1F
100
AcDbEntity
  8
0
  6
Continuous
 62
     7
370
    15
100
AcDbLine
 10
632.8491690353
 20
504.4392342444
 30
0.0
 11
632.8491690353
 21
504.2619621931
 31
0.0
  0
LINE
  5
1D7
330
1F
100
AcDbEntity
  8
0
  6
Continuous
 62
     7
370
    15
100
AcDbLine
 10
632.8491690353
 20
504.2619621931
 30
0.0
 11
627.7491690353
 21
504.2619621931
 31
0.0
  0
ARC
  5
1D8
330
1F
100
AcDbEntity
  8
0
  6
Continuous
 62
     7
370
    15
100
AcDbCircle
 10
632.8491768173
 20
504.5119544111
 30
0.0
 40
0.2499922181086213
100
AcDbArc
 50
269.9982164386
 51
359.9982163272
  0
ARC
  5
1D9
330
1F
100
AcDbEntity
  8
0
  6
Continuous
 62
     7
370
    15
100
AcDbCircle
 10
632.8491768173
 20
510.5115652978
 30
0.0
 40
0.2499922181075981
100
AcDbArc
 50
0.0017836726
 51
90.0017835616
  0
LINE
  5
1DA
330
1F
100
AcDbEntity
  8
0
  6
Continuous
 62
     7
370
    15
100
AcDbLine
 10
632.8491690353
 20
510.7615575158
 30
0.0
 11
632.8491690353
 21
510.5896050793
 31
0.0
  0
LINE
  5
1DB
330
1F
100
AcDbEntity
  8
0
  6
Continuous
 62
     7
370
    15
100
AcDbLine
 10
627.7491690353
 20
510.7615575158
 30
0.0
 11
632.8491690353
 21
510.7615575158
 31
0.0
  0
LINE
  5
1DC
330
1F
100
AcDbEntity
  8
0
  6
Continuous
 62
     7
370
    15
100
AcDbLine
 10
626.5491690353
 20
504.2478207571
 30
0.0
 11
626.5491690353
 21
504.2461527837
 31
0.0
  0
LINE
  5
1DD
330
1F
100
AcDbEntity
  8
0
  6
Continuous
 62
     7
370
    15
100
AcDbLine
 10
632.8491690353
 20
504.253738769
 30
0.0
 11
632.8491690353
 21
504.2619621931
 31
0.0
  0
LINE
  5
1DE
330
1F
100
AcDbEntity
  8
0
  6
Continuous
 62
     7
370
    15
100
AcDbLine
 10
627.7491690353
 20
504.253738769
 30
0.0
 11
632.8491690353
 21
504.253738769
 31
0.0
  0
SPLINE
  5
1DF
330
1F
100
AcDbEntity
  8
0
  6
Continuous
 62
     7
370
    15
100
AcDbSpline
210
0.0
220
0.0
230
1.0
 70
     8
 71
     3
 72
    12
 73
     8
 74
     0
 42
0.00000001
 43
0.00000001
 12
1.0
 22
0.0
 32
0.0
 13
1.0
 23
0.0
 33
0.0
 40
0.0
 40
0.0
 40
0.0
 40
0.0
 40
0.1009214352040675
 40
0.3119724040343459
 40
0.5359629038280774
 40
0.7681188099360684
 40
1.0
 40
1.0
 40
1.0
 40
1.0
 10
627.7491690352958
 20
504.2537387689831
 30
0.0
 10
627.7220480766238
 20
504.253723012446
 30
0.0
 10
627.6382106771698
 20
504.2536743052038
 30
0.0
 10
627.4997394747853
 20
504.2530868084174
 30
0.0
 10
627.3620179368165
 20
504.2517601194921
 30
0.0
 10
627.2672164895055
 20
504.2499160069436
 30
0.0
 10
627.2551824786016
 20
504.2485188980331
 30
0.0
 10
627.249169035296
 20
504.2478207571312
 30
0.0
  0
LINE
  5
1E0
330
1F
100
AcDbEntity
  8
0
  6
Continuous
 62
     7
370
    15
100
AcDbLine
 10
627.2491690353
 20
504.2461527837
 30
0.0
 11
627.2491690353
 21
504.2478207571
 31
0.0
  0
LINE
  5
1E1
330
1F
100
AcDbEntity
  8
0
  6
Continuous
 62
     7
370
    15
100
AcDbLine
 10
627.2491690353
 20
504.2461527837
 30
0.0
 11
626.5491690353
 21
504.2461527837
 31
0.0
  0
ARC
  5
1E2
330
1F
100
AcDbEntity
  8
0
  6
Continuous
 62
     7
370
    15
100
AcDbCircle
 10
632.8491768173
 20
504.503730987
 30
0.0
 40
0.2499922181080529
100
AcDbArc
 50
269.9982164385
 51
359.9982163273
  0
LINE
  5
1E3
330
1F
100
AcDbEntity
  8
0
  6
Continuous
 62
     7
370
    15
100
AcDbLine
 10
633.0991690353
 20
504.5119466286
 30
0.0
 11
633.0991690353
 21
504.5037232045
 31
0.0
  0
LINE
  5
1E4
330
1F
100
AcDbEntity
  8
0
  6
Continuous
 62
     7
370
    15
100
AcDbLine
 10
627.3028740303
 20
504.2540321901
 30
0.0
 11
627.2491690353
 21
504.2461527837
 31
0.0
  0
SPLINE
  5
1E5
330
1F
100
AcDbEntity
  8
0
  6
Continuous
 62
     7
370
    15
100
AcDbSpline
210
0.0
220
0.0
230
1.0
 70
     8
 71
     3
 72
    13
 73
     9
 74
     0
 42
0.00000001
 43
0.00000001
 12
1.0
 22
0.0
 32
0.0
 13
1.0
 23
0.0
 33
0.0
 40
0.0
 40
0.0
 40
0.0
 40
0.0
 40
0.1695411050603631
 40
0.3386458383075771
 40
0.5184804584268692
 40
0.7277236211484818
 40
0.9924537768856266
 40
1.0
 40
1.0
 40
1.0
 40
1.0
 10
626.5491690352959
 20
504.2461527836821
 30
0.0
 10
626.5245578880093
 20
504.2482825826903
 30
0.0
 10
626.475398938611
 20
504.2525366989431
 30
0.0
 10
626.4092631452302
 20
504.2848513991526
 30
0.0
 10
626.3535915421263
 20
504.3336607640288
 30
0.0
 10
626.3108727628536
 20
504.4039394230775
 30
0.0
 10
626.2992871032425
 20
504.4612175469278
 30
0.0
 10
626.2991722193384
 20
504.493342817345
 30
0.0
 10
626.2991690352959
 20
504.49423317904
 30
0.0
  0
LINE
  5
1E6
330
1F
100
AcDbEntity
  8
0
  6
Continuous
 62
     7
370
    15
100
AcDbLine
 10
626.2991690353
 20
504.494233179
 30
0.0
 11
626.2991690353
 21
504.4978051926
 31
0.0
  0
LINE
  5
1E7
330
1F
100
AcDbEntity
  8
0
  6
Continuous
 62
     7
370
    15
100
AcDbLine
 10
627.4991690353
 20
504.314367394
 30
0.0
 11
627.4991690353
 21
499.353071276
 31
0.0
  0
LINE
  5
1E8
330
1F
100
AcDbEntity
  8
0
  6
Continuous
 62
     7
370
    15
100
AcDbLine
 10
627.4991690353
 20
499.0334417982
 30
0.0
 11
627.4991690353
 21
498.9558995192
 31
0.0
  0
LINE
  5
1E9
330
1F
100
AcDbEntity
  8
0
  6
Continuous
 62
     7
370
    15
100
AcDbLine
 10
626.2991690353
 20
498.9558995192
 30
0.0
 11
626.2991690353
 21
504.494233179
 31
0.0
  0
LINE
  5
1EA
330
1F
100
AcDbEntity
  8
0
  6
Continuous
 62
     7
370
    15
100
AcDbLine
 10
627.4991690353
 20
515.128119396
 30
0.0
 11
627.4991690353
 21
510.7810496102
 31
0.0
  0
LINE
  5
1EB
330
1F
100
AcDbEntity
  8
0
  6
Continuous
 62
     7
370
    15
100
AcDbLine
 10
626.2991690353
 20
510.4938596308
 30
0.0
 11
626.2991690353
 21
515.7273020221
 31
0.0
  0
SPLINE
  5
1EC
330
1F
100
AcDbEntity
  8
0
  6
Continuous
 62
     7
370
    15
100
AcDbSpline
210
0.0
220
0.0
230
1.0
 70
     8
 71
     3
 72
    13
 73
     9
 74
     0
 42
0.00000001
 43
0.00000001
 12
1.0
 22
0.0
 32
0.0
 13
1.0
 23
0.0
 33
0.0
 40
0.0
 40
0.0
 40
0.0
 40
0.0
 40
0.1695411050601069
 40
0.3386458383076982
 40
0.5184804584266762
 40
0.7277236211483793
 40
0.9924537768852311
 40
0.9999999999999999
 40
0.9999999999999999
 40
0.9999999999999999
 40
0.9999999999999999
 10
628.4491690352962
 20
515.2847205980357
 30
0.0
 10
628.4737801825829
 20
515.283392387259
 30
0.0
 10
628.5229391319813
 20
515.2807393843088
 30
0.0
 10
628.589074925362
 20
515.2605470326381
 30
0.0
 10
628.6447465284662
 20
515.229929885501
 30
0.0
 10
628.6874653077382
 20
515.1856091314065
 30
0.0
 10
628.6990509673508
 20
515.1492054576535
 30
0.0
 10
628.6991658512537
 20
515.1286880424227
 30
0.0
 10
628.6991690352963
 20
515.1281193959843
 30
0.0
  0
LINE
  5
1ED
330
1F
100
AcDbEntity
  8
0
  6
Continuous
 62
     7
370
    15
100
AcDbLine
 10
628.6991690353
 20
515.128119396
 30
0.0
 11
628.6991690353
 21
510.7615575158
 31
0.0
  0
LINE
  5
1EE
330
1F
100
AcDbEntity
  8
0
  6
Continuous
 62
     7
370
    15
100
AcDbLine
 10
628.6991690353
 20
504.4058995192
 30
0.0
 11
628.6991690353
 21
499.353071276
 31
0.0
  0
SPLINE
  5
1EF
330
1F
100
AcDbEntity
  8
0
  6
Continuous
 62
     7
370
    15
100
AcDbSpline
210
0.0
220
0.0
230
1.0
 70
     8
 71
     3
 72
    13
 73
     9
 74
     0
 42
0.00000001
 43
0.00000001
 12
1.0
 22
0.0
 32
0.0
 13
1.0
 23
0.0
 33
0.0
 40
0.0
 40
0.0
 40
0.0
 40
0.0
 40
0.1695411050603609
 40
0.3386458383075585
 40
0.5184804584267967
 40
0.7277236211484227
 40
0.9924537768855887
 40
1.0
 40
1.0
 40
1.0
 40
1.0
 10
628.4491690352964
 20
499.1689193767504
 30
0.0
 10
628.4737801825829
 20
499.1704840934623
 30
0.0
 10
628.5229391319813
 20
499.1736094995546
 30
0.0
 10
628.589074925362
 20
499.1973903227234
 30
0.0
 10
628.6447465284662
 20
499.2334277803301
 30
0.0
 10
628.6874653077384
 20
499.2855533146994
 30
0.0
 10
628.699050967351
 20
499.3283183443499
 30
0.0
 10
628.699165851254
 20
499.3524037418388
 30
0.0
 10
628.6991690352963
 20
499.3530712759966
 30
0.0
  0
LINE
  5
1F0
330
1F
100
AcDbEntity
  8
0
  6
Continuous
 62
     7
370
    15
100
AcDbLine
 10
627.4991690353
 20
499.353071276
 30
0.0
 11
627.4991690353
 21
504.2221397884
 31
0.0
  0
LINE
  5
1F1
330
1F
100
AcDbEntity
  8
0
  6
Continuous
 62
     7
370
    15
100
AcDbLine
 10
627.4991690353
 20
510.8101800918
 30
0.0
 11
627.4991690353
 21
515.128119396
 31
0.0
  0
SPLINE
  5
1F2
330
1F
100
AcDbEntity
  8
0
  6
Continuous
 62
     7
370
    15
100
AcDbSpline
210
0.0
220
0.0
230
1.0
 70
     8
 71
     3
 72
    13
 73
     9
 74
     0
 42
0.00000001
 43
0.00000001
 12
1.0
 22
0.0
 32
0.0
 13
1.0
 23
0.0
 33
0.0
 40
0.0
 40
0.0
 40
0.0
 40
0.0
 40
0.0075462231143556
 40
0.2722763788518203
 40
0.4815195415732749
 40
0.6613541616925015
 40
0.8304588949399725
 40
1.0
 40
1.0
 40
1.0
 40
1.0
 10
627.4991690352963
 20
515.1281193959841
 30
0.0
 10
627.4991722193388
 20
515.1286880424225
 30
0.0
 10
627.4992871032414
 20
515.1492054576557
 30
0.0
 10
627.5108727628542
 20
515.1856091314057
 30
0.0
 10
627.5535915421266
 20
515.229929885501
 30
0.0
 10
627.6092631452307
 20
515.2605470326376
 30
0.0
 10
627.6753989386114
 20
515.2807393843088
 30
0.0
 10
627.7245578880096
 20
515.283392387259
 30
0.0
 10
627.7491690352963
 20
515.2847205980356
 30
0.0
  0
SPLINE
  5
1F3
330
1F
100
AcDbEntity
  8
0
  6
Continuous
 62
     7
370
    15
100
AcDbSpline
210
0.0
220
0.0
230
1.0
 70
     8
 71
     3
 72
    13
 73
     9
 74
     0
 42
0.00000001
 43
0.00000001
 12
1.0
 22
0.0
 32
0.0
 13
1.0
 23
0.0
 33
0.0
 40
0.0
 40
0.0
 40
0.0
 40
0.0
 40
0.0075462231148909
 40
0.2722763788517349
 40
0.4815195415731905
 40
0.6613541616925346
 40
0.8304588949396495
 40
1.0
 40
1.0
 40
1.0
 40
1.0
 10
627.4991690352963
 20
499.3530712759966
 30
0.0
 10
627.4991722193388
 20
499.3524037418387
 30
0.0
 10
627.4992871032431
 20
499.3283183443496
 30
0.0
 10
627.510872762854
 20
499.2855533146994
 30
0.0
 10
627.5535915421268
 20
499.2334277803298
 30
0.0
 10
627.6092631452307
 20
499.1973903227234
 30
0.0
 10
627.6753989386115
 20
499.1736094995546
 30
0.0
 10
627.7245578880097
 20
499.1704840934623
 30
0.0
 10
627.7491690352963
 20
499.1689193767502
 30
0.0
  0
LINE
  5
1F4
330
1F
100
AcDbEntity
  8
0
  6
Continuous
 62
     7
370
    15
100
AcDbLine
 10
627.7491690353
 20
515.284720598
 30
0.0
 11
628.4491690353
 21
515.284720598
 31
0.0
  0
LINE
  5
1F5
330
1F
100
AcDbEntity
  8
0
  6
Continuous
 62
     7
370
    15
100
AcDbLine
 10
627.7491690353
 20
499.1689193768
 30
0.0
 11
628.4491690353
 21
499.1689193768
 31
0.0
  0
SPLINE
  5
1F6
330
1F
100
AcDbEntity
  8
0
  6
Continuous
 62
     7
370
    15
100
AcDbSpline
210
0.0
220
0.0
230
1.0
 70
     8
 71
     3
 72
    12
 73
     8
 74
     0
 42
0.00000001
 43
0.00000001
 12
1.0
 22
0.0
 32
0.0
 13
1.0
 23
0.0
 33
0.0
 40
0.0
 40
0.0
 40
0.0
 40
0.0
 40
0.1789601577904895
 40
0.3929009169382414
 40
0.5976976172812992
 40
0.7987833678438285
 40
1.0
 40
1.0
 40
1.0
 40
1.0
 10
628.4491690352961
 20
515.4339735251599
 30
0.0
 10
628.4405570654421
 20
515.5492561306645
 30
0.0
 10
628.4216497796302
 20
515.8023551554364
 30
0.0
 10
628.2581137544788
 20
516.1609096377058
 30
0.0
 10
627.9875414427129
 20
516.4594278128512
 30
0.0
 10
627.639411323153
 20
516.6604972212633
 30
0.0
 10
627.3792780077597
 20
516.6864107911981
 30
0.0
 10
627.2491690352963
 20
516.6993717914144
 30
0.0
  0
LINE
  5
1F7
330
1F
100
AcDbEntity
  8
0
  6
Continuous
 62
     7
370
    15
100
AcDbLine
 10
627.2491690353
 20
516.6993717914
 30
0.0
 11
627.2491690353
 21
516.9469975827
 31
0.0
  0
SPLINE
  5
1F8
330
1F
100
AcDbEntity
  8
0
  6
Continuous
 62
     7
370
    15
100
AcDbSpline
210
0.0
220
0.0
230
1.0
 70
     8
 71
     3
 72
    12
 73
     8
 74
     0
 42
0.00000001
 43
0.00000001
 12
1.0
 22
0.0
 32
0.0
 13
1.0
 23
0.0
 33
0.0
 40
0.0
 40
0.0
 40
0.0
 40
0.0
 40
0.2028202020467061
 40
0.4049472449427047
 40
0.6098312030741206
 40
0.8226939241827029
 40
1.0
 40
1.0
 40
1.0
 40
1.0
 10
627.2491690352963
 20
516.9469975827463
 30
0.0
 10
627.4063098758318
 20
516.9316222362652
 30
0.0
 10
627.7200545117244
 20
516.9009240901498
 30
0.0
 10
628.1404507621935
 20
516.6625712114086
 30
0.0
 10
628.4675292976333
 20
516.308727370787
 30
0.0
 10
628.6657385638993
 20
515.8838287071791
 30
0.0
 10
628.6887237698213
 20
515.584000904853
 30
0.0
 10
628.6991690352961
 20
515.4477488737572
 30
0.0
  0
ARC
  5
1F9
330
1F
100
AcDbEntity
  8
0
  6
Continuous
 62
     7
370
    15
100
AcDbCircle
 10
628.5114792751
 20
516.5785776025
 30
0.0
 40
1.146298852795337
100
AcDbArc
 50
266.8839938779
 51
279.4237821566
  0
ARC
  5
1FA
330
1F
100
AcDbEntity
  8
0
  6
Continuous
 62
     7
370
    15
100
AcDbCircle
 10
622.1413550649
 20
516.7047935419
 30
0.0
 40
0.2423300549218057
100
AcDbArc
 50
88.1521683413
 51
178.0245093512
  0
LINE
  5
1FB
330
1F
100
AcDbEntity
  8
0
  6
Continuous
 62
     7
370
    15
100
AcDbLine
 10
622.1491690353
 20
516.6993717914
 30
0.0
 11
622.1491690353
 21
516.9469975827
 31
0.0
  0
ARC
  5
1FC
330
1F
100
AcDbEntity
  8
0
  6
Continuous
 62
     7
370
    15
100
AcDbCircle
 10
622.0868587955
 20
517.8439758688
 30
0.0
 40
1.146298852830864
100
AcDbArc
 50
260.5762178436
 51
273.116006122
  0
LINE
  5
1FD
330
1F
100
AcDbEntity
  8
0
  6
Continuous
 62
     7
370
    15
100
AcDbLine
 10
627.2491690353
 20
516.6993717914
 30
0.0
 11
622.1491690353
 21
516.6993717914
 31
0.0
  0
LINE
  5
1FE
330
1F
100
AcDbEntity
  8
0
  6
Continuous
 62
     7
370
    15
100
AcDbLine
 10
622.1491690353
 20
516.9469975827
 30
0.0
 11
627.2491690353
 21
516.9469975827
 31
0.0
  0
LINE
  5
1FF
330
1F
100
AcDbEntity
  8
0
  6
Continuous
 62
     7
370
    15
100
AcDbLine
 10
622.1491690353
 20
515.9635266735
 30
0.0
 11
627.2491690353
 21
515.9635266735
 31
0.0
  0
LINE
  5
200
330
1F
100
AcDbEntity
  8
0
  6
Continuous
 62
     7
370
    15
100
AcDbLine
 10
622.1491690353
 20
516.6993717914
 30
0.0
 11
622.1491690353
 21
515.9635266735
 31
0.0
  0
LINE
  5
201
330
1F
100
AcDbEntity
  8
0
  6
Continuous
 62
     7
370
    15
100
AcDbLine
 10
628.4491690353
 20
515.284720598
 30
0.0
 11
628.4491690353
 21
515.4339735252
 31
0.0
  0
LINE
  5
202
330
1F
100
AcDbEntity
  8
0
  6
Continuous
 62
     7
370
    15
100
AcDbLine
 10
627.7491690353
 20
515.4339735252
 30
0.0
 11
627.7491690353
 21
515.284720598
 31
0.0
  0
SPLINE
  5
203
330
1F
100
AcDbEntity
  8
0
  6
Continuous
 62
     7
370
    15
100
AcDbSpline
210
0.0
220
0.0
230
1.0
 70
     8
 71
     3
 72
    12
 73
     8
 74
     0
 42
0.00000001
 43
0.00000001
 12
1.0
 22
0.0
 32
0.0
 13
1.0
 23
0.0
 33
0.0
 40
0.0
 40
0.0
 40
0.0
 40
0.0
 40
0.1818603118647214
 40
0.3964966430181075
 40
0.6005836871110645
 40
0.8002123703309038
 40
1.0
 40
1.0
 40
1.0
 40
1.0
 10
627.749169035296
 20
515.4339735251598
 30
0.0
 10
627.7454512837022
 20
515.4828869314221
 30
0.0
 10
627.7373457437334
 20
515.5895292283736
 30
0.0
 10
627.6681910447268
 20
515.7396982795503
 30
0.0
 10
627.555351637773
 20
515.8638340838553
 30
0.0
 10
627.4109305370276
 20
515.9473552036351
 30
0.0
 10
627.3031038389704
 20
515.9581347536657
 30
0.0
 10
627.2491690352963
 20
515.9635266735249
 30
0.0
  0
ARC
  5
204
330
1F
100
AcDbEntity
  8
0
  6
Continuous
 62
     7
370
    15
100
AcDbCircle
 10
622.0868587955
 20
517.1081307509
 30
0.0
 40
1.146298852803038
100
AcDbArc
 50
260.5762178434
 51
273.1160061221
  0
LINE
  5
205
330
1F
100
AcDbEntity
  8
0
  6
Continuous
 62
     7
370
    15
100
AcDbLine
 10
621.8991690353
 20
515.9773020221
 30
0.0
 11
621.8991690353
 21
516.71314714
 31
0.0
  0
ARC
  5
206
330
1F
100
AcDbEntity
  8
0
  6
Continuous
 62
     7
370
    15
100
AcDbCircle
 10
627.6868587955
 20
516.5785776025
 30
0.0
 40
1.146298852799153
100
AcDbArc
 50
260.5762178434
 51
273.1160061221
  0
LINE
  5
207
330
1F
100
AcDbEntity
  8
0
  6
Continuous
 62
     7
370
    15
100
AcDbLine
 10
628.6991690353
 20
516.1558995192
 30
0.0
 11
628.6991690353
 21
515.4477488738
 31
0.0
  0
LINE
  5
208
330
1F
100
AcDbEntity
  8
0
  6
Continuous
 62
     7
370
    15
100
AcDbLine
 10
628.6991690353
 20
515.4477488738
 30
0.0
 11
628.6991690353
 21
515.128119396
 31
0.0
  0
LINE
  5
209
330
1F
100
AcDbEntity
  8
0
  6
Continuous
 62
     7
370
    15
100
AcDbLine
 10
627.4991690353
 20
515.128119396
 30
0.0
 11
627.4991690353
 21
515.4477488738
 31
0.0
  0
LINE
  5
20A
330
1F
100
AcDbEntity
  8
0
  6
Continuous
 62
     7
370
    15
100
AcDbLine
 10
621.8991690353
 20
516.71314714
 30
0.0
 11
621.8991690353
 21
517.3558995192
 31
0.0
  0
LINE
  5
20B
330
1F
100
AcDbEntity
  8
0
  6
Continuous
 62
     7
370
    15
100
AcDbLine
 10
627.7491690353
 20
499.1689193768
 30
0.0
 11
627.7491690353
 21
499.0196664496
 31
0.0
  0
ARC
  5
20C
330
1F
100
AcDbEntity
  8
0
  6
Continuous
 62
     7
370
    15
100
AcDbCircle
 10
627.6868587955
 20
500.164270527
 30
0.0
 40
1.1462988527992
100
AcDbArc
 50
260.5762178434
 51
273.1160061221
  0
LINE
  5
20D
330
1F
100
AcDbEntity
  8
0
  6
Continuous
 62
     7
370
    15
100
AcDbLine
 10
627.4991690353
 20
499.0334417982
 30
0.0
 11
627.4991690353
 21
499.353071276
 31
0.0
  0
LINE
  5
20E
330
1F
100
AcDbEntity
  8
0
  6
Continuous
 62
     7
370
    15
100
AcDbLine
 10
628.4491690353
 20
499.0196664496
 30
0.0
 11
628.4491690353
 21
499.1689193768
 31
0.0
  0
ARC
  5
20F
330
1F
100
AcDbEntity
  8
0
  6
Continuous
 62
     7
370
    15
100
AcDbCircle
 10
628.5114792751
 20
500.164270527
 30
0.0
 40
1.146298852780864
100
AcDbArc
 50
266.8839938778
 51
279.4237821567
  0
LINE
  5
210
330
1F
100
AcDbEntity
  8
0
  6
Continuous
 62
     7
370
    15
100
AcDbLine
 10
628.6991690353
 20
499.353071276
 30
0.0
 11
628.6991690353
 21
499.0334417982
 31
0.0
  0
SPLINE
  5
211
330
1F
100
AcDbEntity
  8
0
  6
Continuous
 62
     7
370
    15
100
AcDbSpline
210
0.0
220
0.0
230
1.0
 70
     8
 71
     3
 72
    12
 73
     8
 74
     0
 42
0.00000001
 43
0.00000001
 12
1.0
 22
0.0
 32
0.0
 13
1.0
 23
0.0
 33
0.0
 40
0.0
 40
0.0
 40
0.0
 40
0.0
 40
0.1044203826439861
 40
0.3151731030980113
 40
0.5377472974586683
 40
0.7690283494735494
 40
1.0
 40
1.0
 40
1.0
 40
1.0
 10
627.2491690352963
 20
497.7542681833717
 30
0.0
 10
627.3163886039329
 20
497.7578419650997
 30
0.0
 10
627.5192781117058
 20
497.7686287468418
 30
0.0
 10
627.8516354768709
 20
497.8957345511373
 30
0.0
 10
628.1802802651245
 20
498.1788072295784
 30
0.0
 10
628.4063419780006
 20
498.5722902325995
 30
0.0
 10
628.434899721088
 20
498.870607601945
 30
0.0
 10
628.4491690352964
 20
499.0196664496265
 30
0.0
  0
LINE
  5
212
330
1F
100
AcDbEntity
  8
0
  6
Continuous
 62
     7
370
    15
100
AcDbLine
 10
622.1491690353
 20
497.7542681834
 30
0.0
 11
627.2491690353
 21
497.7542681834
 31
0.0
  0
LINE
  5
213
330
1F
100
AcDbEntity
  8
0
  6
Continuous
 62
     7
370
    15
100
AcDbLine
 10
622.1491690353
 20
498.4901133013
 30
0.0
 11
622.1491690353
 21
497.7542681834
 31
0.0
  0
LINE
  5
214
330
1F
100
AcDbEntity
  8
0
  6
Continuous
 62
     7
370
    15
100
AcDbLine
 10
627.2491690353
 20
498.4901133013
 30
0.0
 11
622.1491690353
 21
498.4901133013
 31
0.0
  0
SPLINE
  5
215
330
1F
100
AcDbEntity
  8
0
  6
Continuous
 62
     7
370
    15
100
AcDbSpline
210
0.0
220
0.0
230
1.0
 70
     8
 71
     3
 72
    12
 73
     8
 74
     0
 42
0.00000001
 43
0.00000001
 12
1.0
 22
0.0
 32
0.0
 13
1.0
 23
0.0
 33
0.0
 40
0.0
 40
0.0
 40
0.0
 40
0.0
 40
0.1009214352040612
 40
0.3119724040343355
 40
0.5359629038280604
 40
0.7681188099360354
 40
0.9999999999999999
 40
0.9999999999999999
 40
0.9999999999999999
 40
0.9999999999999999
 10
627.2491690352963
 20
498.490113301261
 30
0.0
 10
627.2762899939685
 20
498.4915232213591
 30
0.0
 10
627.3601273934223
 20
498.4958816231355
 30
0.0
 10
627.4985985958068
 20
498.5484517735342
 30
0.0
 10
627.6363201337759
 20
498.6671660165487
 30
0.0
 10
627.7311215810867
 20
498.8321801514738
 30
0.0
 10
627.7431555919906
 20
498.9571956871874
 30
0.0
 10
627.7491690352963
 20
499.0196664496263
 30
0.0
  0
SPLINE
  5
216
330
1F
100
AcDbEntity
  8
0
  6
Continuous
 62
     7
370
    15
100
AcDbSpline
210
0.0
220
0.0
230
1.0
 70
     8
 71
     3
 72
    12
 73
     8
 74
     0
 42
0.00000001
 43
0.00000001
 12
1.0
 22
0.0
 32
0.0
 13
1.0
 23
0.0
 33
0.0
 40
0.0
 40
0.0
 40
0.0
 40
0.0
 40
0.2289440738516433
 40
0.4594214300241908
 40
0.6825355698157108
 40
0.894717523162837
 40
1.0
 40
1.0
 40
1.0
 40
1.0
 10
628.6991690352963
 20
499.0334417982237
 30
0.0
 10
628.6818345507188
 20
498.8561063988338
 30
0.0
 10
628.6470494891996
 20
498.5002479509129
 30
0.0
 10
628.3731796433873
 20
498.0314884199187
 30
0.0
 10
627.9761431089042
 20
497.6943302710919
 30
0.0
 10
627.5752671195517
 20
497.5430232409721
 30
0.0
 10
627.3303817264645
 20
497.5301541829321
 30
0.0
 10
627.2491690352963
 20
497.5258863463613
 30
0.0
  0
LINE
  5
217
330
1F
100
AcDbEntity
  8
0
  6
Continuous
 62
     7
370
    15
100
AcDbLine
 10
627.2491690353
 20
497.5258863464
 30
0.0
 11
627.2491690353
 21
497.7542681834
 31
0.0
  0
ARC
  5
218
330
1F
100
AcDbEntity
  8
0
  6
Continuous
 62
     7
370
    15
100
AcDbCircle
 10
622.0868587955
 20
499.6347173786
 30
0.0
 40
1.146298852774659
100
AcDbArc
 50
260.5762178433
 51
273.1160061223
  0
LINE
  5
219
330
1F
100
AcDbEntity
  8
0
  6
Continuous
 62
     7
370
    15
100
AcDbLine
 10
621.8991690353
 20
497.768043532
 30
0.0
 11
621.8991690353
 21
498.5038886499
 31
0.0
  0
ARC
  5
21A
330
1F
100
AcDbEntity
  8
0
  6
Continuous
 62
     7
370
    15
100
AcDbCircle
 10
622.0868587955
 20
498.8988722608
 30
0.0
 40
1.146298852840907
100
AcDbArc
 50
260.5762178435
 51
273.1160061218
  0
LINE
  5
21B
330
1F
100
AcDbEntity
  8
0
  6
Continuous
 62
     7
370
    15
100
AcDbLine
 10
627.2491690353
 20
497.5258863464
 30
0.0
 11
622.1491690353
 21
497.5258863464
 31
0.0
  0
LINE
  5
21C
330
1F
100
AcDbEntity
  8
0
  6
Continuous
 62
     7
370
    15
100
AcDbLine
 10
622.1491690353
 20
497.5258863464
 30
0.0
 11
622.1491690353
 21
497.7542681834
 31
0.0
  0
ARC
  5
21D
330
1F
100
AcDbEntity
  8
0
  6
Continuous
 62
     7
370
    15
100
AcDbCircle
 10
622.1453091378
 20
497.772028441
 30
0.0
 40
0.2461723574640166
100
AcDbArc
 50
180.9275145513
 51
270.8984148299
  0
LINE
  5
21E
330
1F
100
AcDbEntity
  8
0
  6
Continuous
 62
     7
370
    15
100
AcDbLine
 10
628.6991690353
 20
499.0334417982
 30
0.0
 11
628.6991690353
 21
498.6558995192
 31
0.0
  0
LINE
  5
21F
330
1F
100
AcDbEntity
  8
0
  6
Continuous
 62
     7
370
    15
100
AcDbLine
 10
621.8991690353
 20
497.4558995192
 30
0.0
 11
621.8991690353
 21
497.768043532
 31
0.0
  0
LINE
  5
220
330
1F
100
AcDbEntity
  8
0
  6
Continuous
 62
     7
370
    15
100
AcDbLine
 10
621.8991690353
 20
498.5038886499
 30
0.0
 11
621.8991690353
 21
498.8344970162
 31
0.0
  0
ARC
  5
221
330
1F
100
AcDbEntity
  8
0
  6
Continuous
 62
     7
370
    15
100
AcDbCircle
 10
622.1403351718
 20
498.8249637762
 30
0.0
 40
0.2413544863050603
100
AcDbArc
 50
87.9024372814
 51
177.7362900637
  0
SPLINE
  5
222
330
1F
100
AcDbEntity
  8
0
  6
Continuous
 62
     7
370
    15
100
AcDbSpline
210
0.0
220
0.0
230
1.0
 70
     8
 71
     3
 72
     9
 73
     5
 74
     0
 42
0.00000001
 43
0.00000001
 12
1.0
 22
0.0
 32
0.0
 13
1.0
 23
0.0
 33
0.0
 40
0.0
 40
0.0
 40
0.0
 40
0.0
 40
0.4954579634769633
 40
1.0
 40
1.0
 40
1.0
 40
1.0
 10
625.8525870479112
 20
508.3643373532104
 30
0.0
 10
625.9774058269627
 20
507.9250462608355
 30
0.0
 10
626.2293318999141
 20
507.0384098057623
 30
0.0
 10
626.2757494367371
 20
506.1218560593077
 30
0.0
 10
626.2991690352962
 20
505.6594161654887
 30
0.0
  0
SPLINE
  5
223
330
1F
100
AcDbEntity
  8
0
  6
Continuous
 62
     7
370
    15
100
AcDbSpline
210
0.0
220
0.0
230
1.0
 70
     8
 71
     3
 72
    10
 73
     6
 74
     0
 42
0.00000001
 43
0.00000001
 12
1.0
 22
0.0
 32
0.0
 13
1.0
 23
0.0
 33
0.0
 40
0.0
 40
0.0
 40
0.0
 40
0.0
 40
0.0700627427123965
 40
0.5307703520768339
 40
1.0
 40
1.0
 40
1.0
 40
1.0
 10
626.2991690352962
 20
505.6594161654887
 30
0.0
 10
626.2986362178518
 20
505.5953257780322
 30
0.0
 10
626.294599782915
 20
505.1097998594334
 30
0.0
 10
626.1970719235032
 20
504.1943398639887
 30
0.0
 10
625.968114735342
 20
503.3702938201171
 30
0.0
 10
625.8525870479109
 20
502.9544949777671
 30
0.0
  0
LINE
  5
224
330
1F
100
AcDbEntity
  8
0
  6
Continuous
 62
     7
370
    15
100
AcDbLine
 10
625.8525870479
 20
502.9544949778
 30
0.0
 11
621.5457510227
 21
502.9544949778
 31
0.0
  0
SPLINE
  5
225
330
1F
100
AcDbEntity
  8
0
  6
Continuous
 62
     7
370
    15
100
AcDbSpline
210
0.0
220
0.0
230
1.0
 70
     8
 71
     3
 72
    10
 73
     6
 74
     0
 42
0.00000001
 43
0.00000001
 12
1.0
 22
0.0
 32
0.0
 13
1.0
 23
0.0
 33
0.0
 40
0.0
 40
0.0
 40
0.0
 40
0.0
 40
0.0700627427124409
 40
0.5307703520768855
 40
1.0
 40
1.0
 40
1.0
 40
1.0
 10
621.0991690352961
 20
505.6594161654887
 30
0.0
 10
621.0997018527403
 20
505.5953257780321
 30
0.0
 10
621.1037382876772
 20
505.1097998594331
 30
0.0
 10
621.2012661470886
 20
504.1943398639885
 30
0.0
 10
621.4302233352503
 20
503.3702938201171
 30
0.0
 10
621.5457510226813
 20
502.9544949777671
 30
0.0
  0
SPLINE
  5
226
330
1F
100
AcDbEntity
  8
0
  6
Continuous
 62
     7
370
    15
100
AcDbSpline
210
0.0
220
0.0
230
1.0
 70
     8
 71
     3
 72
     9
 73
     5
 74
     0
 42
0.00000001
 43
0.00000001
 12
1.0
 22
0.0
 32
0.0
 13
1.0
 23
0.0
 33
0.0
 40
0.0
 40
0.0
 40
0.0
 40
0.0
 40
0.4954579634769652
 40
0.9999999999999999
 40
0.9999999999999999
 40
0.9999999999999999
 40
0.9999999999999999
 10
621.5457510226817
 20
508.3643373532103
 30
0.0
 10
621.4209322436301
 20
507.9250462608354
 30
0.0
 10
621.1690061706782
 20
507.0384098057624
 30
0.0
 10
621.1225886338552
 20
506.1218560593077
 30
0.0
 10
621.0991690352961
 20
505.6594161654887
 30
0.0
  0
LINE
  5
227
330
1F
100
AcDbEntity
  8
0
  6
Continuous
 62
     7
370
    15
100
AcDbLine
 10
625.8525870479
 20
508.3643373532
 30
0.0
 11
621.5457510227
 21
508.3643373532
 31
0.0
  0
SPLINE
  5
228
330
1F
100
AcDbEntity
  8
0
  6
Continuous
 62
     7
370
    15
100
AcDbSpline
210
0.0
220
0.0
230
1.0
 70
     8
 71
     3
 72
    10
 73
     6
 74
     0
 42
0.00000001
 43
0.00000001
 12
1.0
 22
0.0
 32
0.0
 13
1.0
 23
0.0
 33
0.0
 40
0.0
 40
0.0
 40
0.0
 40
0.0
 40
0.0700627427124649
 40
0.5307703520768922
 40
1.0
 40
1.0
 40
1.0
 40
1.0
 10
626.2991690352965
 20
510.5900396239057
 30
0.0
 10
626.2986362178523
 20
510.5373038467825
 30
0.0
 10
626.2945997829156
 20
510.1377964066353
 30
0.0
 10
626.1970719235036
 20
509.3845244074949
 30
0.0
 10
625.9681147353423
 20
508.706470954652
 30
0.0
 10
625.8525870479112
 20
508.3643373532104
 30
0.0
  0
SPLINE
  5
229
330
1F
100
AcDbEntity
  8
0
  6
Continuous
 62
     7
370
    15
100
AcDbSpline
210
0.0
220
0.0
230
1.0
 70
     8
 71
     3
 72
    10
 73
     6
 74
     0
 42
0.00000001
 43
0.00000001
 12
1.0
 22
0.0
 32
0.0
 13
1.0
 23
0.0
 33
0.0
 40
0.0
 40
0.0
 40
0.0
 40
0.0
 40
0.070062742712489
 40
0.5307703520768375
 40
1.0
 40
1.0
 40
1.0
 40
1.0
 10
621.0991690352964
 20
510.5900396239057
 30
0.0
 10
621.0997018527406
 20
510.5373038467824
 30
0.0
 10
621.1037382876776
 20
510.1377964066352
 30
0.0
 10
621.2012661470889
 20
509.3845244074948
 30
0.0
 10
621.4302233352505
 20
508.706470954652
 30
0.0
 10
621.5457510226817
 20
508.3643373532103
 30
0.0
  0
LINE
  5
22A
330
1F
100
AcDbEntity
  8
0
  6
Continuous
 62
     7
370
    15
100
AcDbLine
 10
621.0991690353
 20
505.6594161655
 30
0.0
 11
621.0991690353
 21
510.5900396239
 31
0.0
  0
SPLINE
  5
22B
330
1F
100
AcDbEntity
  8
0
  6
Continuous
 62
     7
370
    15
100
AcDbSpline
210
0.0
220
0.0
230
1.0
 70
     8
 71
     3
 72
     9
 73
     5
 74
     0
 42
0.00000001
 43
0.00000001
 12
1.0
 22
0.0
 32
0.0
 13
1.0
 23
0.0
 33
0.0
 40
0.0
 40
0.0
 40
0.0
 40
0.0
 40
0.4954579634770156
 40
1.0
 40
1.0
 40
1.0
 40
1.0
 10
625.8525870479112
 20
512.815741894601
 30
0.0
 10
625.9774058269625
 20
512.4542780611137
 30
0.0
 10
626.2293318999142
 20
511.7247230632473
 30
0.0
 10
626.2757494367374
 20
510.9705510881234
 30
0.0
 10
626.2991690352965
 20
510.5900396239057
 30
0.0
  0
SPLINE
  5
22C
330
1F
100
AcDbEntity
  8
0
  6
Continuous
 62
     7
370
    15
100
AcDbSpline
210
0.0
220
0.0
230
1.0
 70
     8
 71
     3
 72
     9
 73
     5
 74
     0
 42
0.00000001
 43
0.00000001
 12
1.0
 22
0.0
 32
0.0
 13
1.0
 23
0.0
 33
0.0
 40
0.0
 40
0.0
 40
0.0
 40
0.0
 40
0.495457963477054
 40
1.0
 40
1.0
 40
1.0
 40
1.0
 10
621.5457510226817
 20
512.815741894601
 30
0.0
 10
621.4209322436302
 20
512.4542780611137
 30
0.0
 10
621.1690061706785
 20
511.7247230632471
 30
0.0
 10
621.1225886338555
 20
510.9705510881232
 30
0.0
 10
621.0991690352964
 20
510.5900396239057
 30
0.0
  0
LINE
  5
22D
330
1F
100
AcDbEntity
  8
0
  6
Continuous
 62
     7
370
    15
100
AcDbLine
 10
625.8525870479
 20
512.8157418946
 30
0.0
 11
621.5457510227
 21
512.8157418946
 31
0.0
  0
SPLINE
  5
22E
330
1F
100
AcDbEntity
  8
0
  6
Continuous
 62
     7
370
    15
100
AcDbSpline
210
0.0
220
0.0
230
1.0
 70
     8
 71
     3
 72
    10
 73
     6
 74
     0
 42
0.00000001
 43
0.00000001
 12
1.0
 22
0.0
 32
0.0
 13
1.0
 23
0.0
 33
0.0
 40
0.0
 40
0.0
 40
0.0
 40
0.0
 40
0.2572432618847675
 40
0.62637988577231
 40
0.9999999999999999
 40
0.9999999999999999
 40
0.9999999999999999
 40
0.9999999999999999
 10
621.5457510226813
 20
502.9544949777671
 30
0.0
 10
621.4799410314938
 20
502.9142522948725
 30
0.0
 10
621.3196956106392
 20
502.8162625285711
 30
0.0
 10
621.1403260351673
 20
502.6563294862531
 30
0.0
 10
621.1129431322427
 20
502.5358695792996
 30
0.0
 10
621.0991690352961
 20
502.4752760607407
 30
0.0
  0
LINE
  5
22F
330
1F
100
AcDbEntity
  8
0
  6
Continuous
 62
     7
370
    15
100
AcDbLine
 10
621.0991690353
 20
502.4752760607
 30
0.0
 11
621.0991690353
 21
505.6594161655
 31
0.0
  0
SPLINE
  5
230
330
1F
100
AcDbEntity
  8
0
  6
Continuous
 62
     7
370
    15
100
AcDbSpline
210
0.0
220
0.0
230
1.0
 70
     8
 71
     3
 72
    10
 73
     6
 74
     0
 42
0.00000001
 43
0.00000001
 12
1.0
 22
0.0
 32
0.0
 13
1.0
 23
0.0
 33
0.0
 40
0.0
 40
0.0
 40
0.0
 40
0.0
 40
0.2572432618848012
 40
0.6263798857723548
 40
1.0
 40
1.0
 40
1.0
 40
1.0
 10
625.8525870479109
 20
502.9544949777671
 30
0.0
 10
625.9183970390985
 20
502.9142522948725
 30
0.0
 10
626.078642459953
 20
502.8162625285713
 30
0.0
 10
626.2580120354249
 20
502.6563294862531
 30
0.0
 10
626.2853949383496
 20
502.5358695792997
 30
0.0
 10
626.2991690352962
 20
502.4752760607408
 30
0.0
  0
SPLINE
  5
231
330
1F
100
AcDbEntity
  8
0
  6
Continuous
 62
     7
370
    15
100
AcDbSpline
210
0.0
220
0.0
230
1.0
 70
     8
 71
     3
 72
    10
 73
     6
 74
     0
 42
0.00000001
 43
0.00000001
 12
1.0
 22
0.0
 32
0.0
 13
1.0
 23
0.0
 33
0.0
 40
0.0
 40
0.0
 40
0.0
 40
0.0
 40
0.3586602157259176
 40
0.8733272285208422
 40
1.0
 40
1.0
 40
1.0
 40
1.0
 10
625.8525870479112
 20
512.815741894601
 30
0.0
 10
625.9175277054109
 20
512.7754855073607
 30
0.0
 10
626.0756563239358
 20
512.6774623713751
 30
0.0
 10
626.2195883401317
 20
512.5629938828699
 30
0.0
 10
626.2430016277534
 20
512.488494596532
 30
0.0
 10
626.2476260501035
 20
512.4737800391241
 30
0.0
  0
SPLINE
  5
232
330
1F
100
AcDbEntity
  8
0
  6
Continuous
 62
     7
370
    15
100
AcDbSpline
210
0.0
220
0.0
230
1.0
 70
     8
 71
     3
 72
    10
 73
     6
 74
     0
 42
0.00000001
 43
0.00000001
 12
1.0
 22
0.0
 32
0.0
 13
1.0
 23
0.0
 33
0.0
 40
0.0
 40
0.0
 40
0.0
 40
0.0
 40
0.2572432618847222
 40
0.6263798857722539
 40
0.9999999999999999
 40
0.9999999999999999
 40
0.9999999999999999
 40
0.9999999999999999
 10
621.5457510226817
 20
512.815741894601
 30
0.0
 10
621.4799410314941
 20
512.7754992117065
 30
0.0
 10
621.3196956106395
 20
512.6775094454053
 30
0.0
 10
621.1403260351675
 20
512.5175764030872
 30
0.0
 10
621.1129431322429
 20
512.3971164961337
 30
0.0
 10
621.0991690352963
 20
512.3365229775746
 30
0.0
  0
LINE
  5
233
330
1F
100
AcDbEntity
  8
0
  6
Continuous
 62
     7
370
    15
100
AcDbLine
 10
621.0991690353
 20
510.5900396239
 30
0.0
 11
621.0991690353
 21
512.4026816631
 31
0.0
  0
SPLINE
  5
234
330
1F
100
AcDbEntity
  8
0
  6
Continuous
 62
     7
370
    15
100
AcDbSpline
210
0.0
220
0.0
230
1.0
 70
     8
 71
     3
 72
    10
 73
     6
 74
     0
 42
0.00000001
 43
0.00000001
 12
1.0
 22
0.0
 32
0.0
 13
1.0
 23
0.0
 33
0.0
 40
0.0
 40
0.0
 40
0.0
 40
0.0
 40
0.2684065359322381
 40
0.6323728964503254
 40
1.0
 40
1.0
 40
1.0
 40
1.0
 10
626.2991690352962
 20
502.4752760607408
 30
0.0
 10
626.2919132810663
 20
502.4317559421944
 30
0.0
 10
626.2748185322281
 20
502.3292213920444
 30
0.0
 10
626.1279885050506
 20
502.1683579865038
 30
0.0
 10
625.9446932575144
 20
502.0536820296016
 30
0.0
 10
625.8525870479109
 20
501.9960571437144
 30
0.0
  0
LINE
  5
235
330
1F
100
AcDbEntity
  8
0
  6
Continuous
 62
     7
370
    15
100
AcDbLine
 10
625.8525870479
 20
501.9960571437
 30
0.0
 11
621.5457510227
 21
501.9960571437
 31
0.0
  0
SPLINE
  5
236
330
1F
100
AcDbEntity
  8
0
  6
Continuous
 62
     7
370
    15
100
AcDbSpline
210
0.0
220
0.0
230
1.0
 70
     8
 71
     3
 72
    10
 73
     6
 74
     0
 42
0.00000001
 43
0.00000001
 12
1.0
 22
0.0
 32
0.0
 13
1.0
 23
0.0
 33
0.0
 40
0.0
 40
0.0
 40
0.0
 40
0.0
 40
0.2684065359322274
 40
0.6323728964502849
 40
1.0
 40
1.0
 40
1.0
 40
1.0
 10
621.0991690352961
 20
502.4752760607407
 30
0.0
 10
621.106424789526
 20
502.4317559421942
 30
0.0
 10
621.1235195383641
 20
502.3292213920444
 30
0.0
 10
621.2703495655418
 20
502.1683579865035
 30
0.0
 10
621.4536448130777
 20
502.0536820296014
 30
0.0
 10
621.5457510226813
 20
501.9960571437143
 30
0.0
  0
SPLINE
  5
237
330
1F
100
AcDbEntity
  8
0
  6
Continuous
 62
     7
370
    15
100
AcDbSpline
210
0.0
220
0.0
230
1.0
 70
     8
 71
     3
 72
     9
 73
     5
 74
     0
 42
0.00000001
 43
0.00000001
 12
1.0
 22
0.0
 32
0.0
 13
1.0
 23
0.0
 33
0.0
 40
0.0
 40
0.0
 40
0.0
 40
0.0
 40
0.4954579634770036
 40
1.0
 40
1.0
 40
1.0
 40
1.0
 10
625.8525870479109
 20
501.9960571437144
 30
0.0
 10
625.9774058269624
 20
502.3575209772019
 30
0.0
 10
626.2293318999141
 20
503.0870759750683
 30
0.0
 10
626.2757494367371
 20
503.8412479501922
 30
0.0
 10
626.2991690352962
 20
504.2217594144098
 30
0.0
  0
SPLINE
  5
238
330
1F
100
AcDbEntity
  8
0
  6
Continuous
 62
     7
370
    15
100
AcDbSpline
210
0.0
220
0.0
230
1.0
 70
     8
 71
     3
 72
     9
 73
     5
 74
     0
 42
0.00000001
 43
0.00000001
 12
1.0
 22
0.0
 32
0.0
 13
1.0
 23
0.0
 33
0.0
 40
0.0
 40
0.0
 40
0.0
 40
0.0
 40
0.4954579634769794
 40
1.0
 40
1.0
 40
1.0
 40
1.0
 10
621.5457510226813
 20
501.9960571437143
 30
0.0
 10
621.42093224363
 20
502.3575209772017
 30
0.0
 10
621.1690061706782
 20
503.0870759750683
 30
0.0
 10
621.1225886338553
 20
503.841247950192
 30
0.0
 10
621.0991690352961
 20
504.2217594144096
 30
0.0
  0
SPLINE
  5
239
330
1F
100
AcDbEntity
  8
0
  6
Continuous
 62
     7
370
    15
100
AcDbSpline
210
0.0
220
0.0
230
1.0
 70
     8
 71
     3
 72
     9
 73
     5
 74
     0
 42
0.00000001
 43
0.00000001
 12
1.0
 22
0.0
 32
0.0
 13
1.0
 23
0.0
 33
0.0
 40
0.0
 40
0.0
 40
0.0
 40
0.0
 40
0.4954579634769604
 40
0.9999999999999999
 40
0.9999999999999999
 40
0.9999999999999999
 40
0.9999999999999999
 10
633.4525870479113
 20
510.200328898082
 30
0.0
 10
633.5774058269626
 20
509.7315868729499
 30
0.0
 10
633.8293318999141
 20
508.7855085783505
 30
0.0
 10
633.8757494367372
 20
507.8075072787274
 30
0.0
 10
633.899169035296
 20
507.3140645112935
 30
0.0
  0
SPLINE
  5
23A
330
1F
100
AcDbEntity
  8
0
  6
Continuous
 62
     7
370
    15
100
AcDbSpline
210
0.0
220
0.0
230
1.0
 70
     8
 71
     3
 72
    10
 73
     6
 74
     0
 42
0.00000001
 43
0.00000001
 12
1.0
 22
0.0
 32
0.0
 13
1.0
 23
0.0
 33
0.0
 40
0.0
 40
0.0
 40
0.0
 40
0.0
 40
0.0700627427123979
 40
0.5307703520768375
 40
1.0
 40
1.0
 40
1.0
 40
1.0
 10
633.899169035296
 20
507.3140645112935
 30
0.0
 10
633.898636217852
 20
507.245677379095
 30
0.0
 10
633.8945997829148
 20
506.7276008546936
 30
0.0
 10
633.7970719235035
 20
505.7507666332843
 30
0.0
 10
633.568114735342
 20
504.8714749332907
 30
0.0
 10
633.452587047911
 20
504.427800124505
 30
0.0
  0
LINE
  5
23B
330
1F
100
AcDbEntity
  8
0
  6
Continuous
 62
     7
370
    15
100
AcDbLine
 10
633.4525870479
 20
504.4278001245
 30
0.0
 11
633.0873600681
 21
504.4278001245
 31
0.0
  0
LINE
  5
23C
330
1F
100
AcDbEntity
  8
0
  6
Continuous
 62
     7
370
    15
100
AcDbLine
 10
633.4525870479
 20
510.2003288981
 30
0.0
 11
633.0991690353
 21
510.2003288981
 31
0.0
  0
SPLINE
  5
23D
330
1F
100
AcDbEntity
  8
0
  6
Continuous
 62
     7
370
    15
100
AcDbSpline
210
0.0
220
0.0
230
1.0
 70
     8
 71
     3
 72
    10
 73
     6
 74
     0
 42
0.00000001
 43
0.00000001
 12
1.0
 22
0.0
 32
0.0
 13
1.0
 23
0.0
 33
0.0
 40
0.0
 40
0.0
 40
0.0
 40
0.0
 40
0.0700627427124573
 40
0.5307703520768848
 40
1.0
 40
1.0
 40
1.0
 40
1.0
 10
633.8991690352965
 20
511.6893785954084
 30
0.0
 10
633.8986362178523
 20
511.6540970602284
 30
0.0
 10
633.8945997829154
 20
511.3868167322782
 30
0.0
 10
633.7970719235035
 20
510.8828591917335
 30
0.0
 10
633.5681147353422
 20
510.4292247132948
 30
0.0
 10
633.4525870479113
 20
510.200328898082
 30
0.0
  0
LINE
  5
23E
330
1F
100
AcDbEntity
  8
0
  6
Continuous
 62
     7
370
    15
100
AcDbLine
 10
633.8991690353
 20
511.6893785954
 30
0.0
 11
633.8991690353
 21
507.3140645113
 31
0.0
  0
SPLINE
  5
23F
330
1F
100
AcDbEntity
  8
0
  6
Continuous
 62
     7
370
    15
100
AcDbSpline
210
0.0
220
0.0
230
1.0
 70
     8
 71
     3
 72
    10
 73
     6
 74
     0
 42
0.00000001
 43
0.00000001
 12
1.0
 22
0.0
 32
0.0
 13
1.0
 23
0.0
 33
0.0
 40
0.0
 40
0.0
 40
0.0
 40
0.0
 40
0.1132560710412238
 40
0.8579876033123183
 40
1.0
 40
1.0
 40
1.0
 40
1.0
 10
628.6991690352963
 20
511.6893785954082
 30
0.0
 10
628.6997983794887
 20
511.6541075424175
 30
0.0
 10
628.7045660666429
 20
511.3869066237943
 30
0.0
 10
628.7463813916203
 20
511.0731363069696
 30
0.0
 10
628.8724747511399
 20
510.8045687224266
 30
0.0
 10
628.8926686533555
 20
510.7615575157997
 30
0.0
  0
SPLINE
  5
240
330
1F
100
AcDbEntity
  8
0
  6
Continuous
 62
     7
370
    15
100
AcDbSpline
210
0.0
220
0.0
230
1.0
 70
     8
 71
     3
 72
    10
 73
     6
 74
     0
 42
0.00000001
 43
0.00000001
 12
1.0
 22
0.0
 32
0.0
 13
1.0
 23
0.0
 33
0.0
 40
0.0
 40
0.0
 40
0.0
 40
0.0
 40
0.1493672255023679
 40
0.572116282404805
 40
1.0
 40
1.0
 40
1.0
 40
1.0
 10
629.052401964618
 20
504.2537387689831
 30
0.0
 10
629.0195152218536
 20
504.1941865151824
 30
0.0
 10
628.8935502322288
 20
503.9660855115071
 30
0.0
 10
628.7415048166202
 20
503.5583092249611
 30
0.0
 10
628.7133376374318
 20
503.2071998303128
 30
0.0
 10
628.6991690352961
 20
503.0305854350429
 30
0.0
  0
SPLINE
  5
241
330
1F
100
AcDbEntity
  8
0
  6
Continuous
 62
     7
370
    15
100
AcDbSpline
210
0.0
220
0.0
230
1.0
 70
     8
 71
     3
 72
    10
 73
     6
 74
     0
 42
0.00000001
 43
0.00000001
 12
1.0
 22
0.0
 32
0.0
 13
1.0
 23
0.0
 33
0.0
 40
0.0
 40
0.0
 40
0.0
 40
0.0
 40
0.2572432618847942
 40
0.6263798857723442
 40
1.0
 40
1.0
 40
1.0
 40
1.0
 10
633.452587047911
 20
504.427800124505
 30
0.0
 10
633.5183970390984
 20
504.3104682210974
 30
0.0
 10
633.6786424599532
 20
504.0247684374941
 30
0.0
 10
633.8580120354248
 20
503.5584663193641
 30
0.0
 10
633.8853949383496
 20
503.2072524054167
 30
0.0
 10
633.8991690352962
 20
503.030585435043
 30
0.0
  0
LINE
  5
242
330
1F
100
AcDbEntity
  8
0
  6
Continuous
 62
     7
370
    15
100
AcDbLine
 10
633.8991690353
 20
507.3140645113
 30
0.0
 11
633.8991690353
 21
503.030585435
 31
0.0
  0
SPLINE
  5
243
330
1F
100
AcDbEntity
  8
0
  6
Continuous
 62
     7
370
    15
100
AcDbSpline
210
0.0
220
0.0
230
1.0
 70
     8
 71
     3
 72
     9
 73
     5
 74
     0
 42
0.00000001
 43
0.00000001
 12
1.0
 22
0.0
 32
0.0
 13
1.0
 23
0.0
 33
0.0
 40
0.0
 40
0.0
 40
0.0
 40
0.0
 40
0.495457963477024
 40
1.0
 40
1.0
 40
1.0
 40
1.0
 10
633.4525870479113
 20
513.1784282927346
 30
0.0
 10
633.5774058269626
 20
512.9366000756656
 30
0.0
 10
633.8293318999141
 20
512.4485097937537
 30
0.0
 10
633.8757494367372
 20
511.9439501470856
 30
0.0
 10
633.8991690352965
 20
511.6893785954084
 30
0.0
  0
SPLINE
  5
244
330
1F
100
AcDbEntity
  8
0
  6
Continuous
 62
     7
370
    15
100
AcDbSpline
210
0.0
220
0.0
230
1.0
 70
     8
 71
     3
 72
     9
 73
     5
 74
     0
 42
0.00000001
 43
0.00000001
 12
1.0
 22
0.0
 32
0.0
 13
1.0
 23
0.0
 33
0.0
 40
0.0
 40
0.0
 40
0.0
 40
0.0
 40
0.4954579634770701
 40
1.0
 40
1.0
 40
1.0
 40
1.0
 10
629.1457510226817
 20
513.1784282927346
 30
0.0
 10
629.0209322436302
 20
512.9366000756655
 30
0.0
 10
628.7690061706785
 20
512.4485097937535
 30
0.0
 10
628.7225886338555
 20
511.9439501470855
 30
0.0
 10
628.6991690352963
 20
511.6893785954082
 30
0.0
  0
LINE
  5
245
330
1F
100
AcDbEntity
  8
0
  6
Continuous
 62
     7
370
    15
100
AcDbLine
 10
633.4525870479
 20
513.1784282927
 30
0.0
 11
629.1457510227
 21
513.1784282927
 31
0.0
  0
SPLINE
  5
246
330
1F
100
AcDbEntity
  8
0
  6
Continuous
 62
     7
370
    15
100
AcDbSpline
210
0.0
220
0.0
230
1.0
 70
     8
 71
     3
 72
    10
 73
     6
 74
     0
 42
0.00000001
 43
0.00000001
 12
1.0
 22
0.0
 32
0.0
 13
1.0
 23
0.0
 33
0.0
 40
0.0
 40
0.0
 40
0.0
 40
0.0
 40
0.2684065359322196
 40
0.6323728964503138
 40
1.0
 40
1.0
 40
1.0
 40
1.0
 10
633.8991690352962
 20
503.030585435043
 30
0.0
 10
633.8919132810664
 20
502.9036978127897
 30
0.0
 10
633.8748185322281
 20
502.6047472193205
 30
0.0
 10
633.7279885050503
 20
502.1357325263841
 30
0.0
 10
633.5446932575145
 20
501.801382345665
 30
0.0
 10
633.452587047911
 20
501.6333707455809
 30
0.0
  0
LINE
  5
247
330
1F
100
AcDbEntity
  8
0
  6
Continuous
 62
     7
370
    15
100
AcDbLine
 10
633.4525870479
 20
501.6333707456
 30
0.0
 11
629.1457510227
 21
501.6333707456
 31
0.0
  0
SPLINE
  5
248
330
1F
100
AcDbEntity
  8
0
  6
Continuous
 62
     7
370
    15
100
AcDbSpline
210
0.0
220
0.0
230
1.0
 70
     8
 71
     3
 72
    10
 73
     6
 74
     0
 42
0.00000001
 43
0.00000001
 12
1.0
 22
0.0
 32
0.0
 13
1.0
 23
0.0
 33
0.0
 40
0.0
 40
0.0
 40
0.0
 40
0.0
 40
0.2684065359322307
 40
0.6323728964502902
 40
1.0
 40
1.0
 40
1.0
 40
1.0
 10
628.6991690352961
 20
503.0305854350429
 30
0.0
 10
628.7064247895261
 20
502.9036978127896
 30
0.0
 10
628.7235195383641
 20
502.6047472193204
 30
0.0
 10
628.8703495655418
 20
502.1357325263838
 30
0.0
 10
629.0536448130777
 20
501.8013823456648
 30
0.0
 10
629.1457510226813
 20
501.6333707455807
 30
0.0
  0
LINE
  5
249
330
1F
100
AcDbEntity
  8
0
  6
Continuous
 62
     7
370
    15
100
AcDbLine
 10
633.8991690353
 20
512.4058995192
 30
0.0
 11
633.8991690353
 21
511.6893785954
 31
0.0
  0
LINE
  5
24A
330
1F
100
AcDbEntity
  8
0
  6
Continuous
 62
     7
370
    15
100
AcDbLine
 10
633.8991690353
 20
503.030585435
 30
0.0
 11
633.8991690353
 21
502.4058995192
 31
0.0
  0
LINE
  5
24B
330
1F
100
AcDbEntity
  8
0
  6
Continuous
 62
     7
370
    15
100
AcDbLine
 10
638.9025870479
 20
512.2674663385
 30
0.0
 11
639.0991690353
 21
511.5053510296
 31
0.0
  0
LINE
  5
24C
330
1F
100
AcDbEntity
  8
0
  6
Continuous
 62
     7
370
    15
100
AcDbLine
 10
639.0991690353
 20
507.8902784756
 30
0.0
 11
638.9025870479
 21
507.1396704992
 31
0.0
  0
LINE
  5
24D
330
1F
100
AcDbEntity
  8
0
  6
Continuous
 62
     7
370
    15
100
AcDbLine
 10
638.9025870479
 20
507.1396704992
 30
0.0
 11
634.5957510227
 21
507.1396704992
 31
0.0
  0
SPLINE
  5
24E
330
1F
100
AcDbEntity
  8
0
  6
Continuous
 62
     7
370
    15
100
AcDbSpline
210
0.0
220
0.0
230
1.0
 70
     8
 71
     3
 72
    10
 73
     6
 74
     0
 42
0.00000001
 43
0.00000001
 12
1.0
 22
0.0
 32
0.0
 13
1.0
 23
0.0
 33
0.0
 40
0.0
 40
0.0
 40
0.0
 40
0.0
 40
0.0700627427124464
 40
0.5307703520768915
 40
1.0
 40
1.0
 40
1.0
 40
1.0
 10
634.1491690352962
 20
509.7035684188814
 30
0.0
 10
634.1497018527403
 20
509.6428194359478
 30
0.0
 10
634.1537382876775
 20
509.182606806358
 30
0.0
 10
634.2512661470887
 20
508.3148750630071
 30
0.0
 10
634.4802233352502
 20
507.5337913304484
 30
0.0
 10
634.5957510226813
 20
507.1396704992259
 30
0.0
  0
SPLINE
  5
24F
330
1F
100
AcDbEntity
  8
0
  6
Continuous
 62
     7
370
    15
100
AcDbSpline
210
0.0
220
0.0
230
1.0
 70
     8
 71
     3
 72
     9
 73
     5
 74
     0
 42
0.00000001
 43
0.00000001
 12
1.0
 22
0.0
 32
0.0
 13
1.0
 23
0.0
 33
0.0
 40
0.0
 40
0.0
 40
0.0
 40
0.0
 40
0.4954579634769703
 40
1.0
 40
1.0
 40
1.0
 40
1.0
 10
634.5957510226817
 20
512.2674663385369
 30
0.0
 10
634.4709322436303
 20
511.8510780448685
 30
0.0
 10
634.2190061706782
 20
511.0106671031481
 30
0.0
 10
634.1725886338553
 20
510.1418986323865
 30
0.0
 10
634.1491690352962
 20
509.7035684188814
 30
0.0
  0
LINE
  5
250
330
1F
100
AcDbEntity
  8
0
  6
Continuous
 62
     7
370
    15
100
AcDbLine
 10
638.9025870479
 20
512.2674663385
 30
0.0
 11
634.5957510227
 21
512.2674663385
 31
0.0
  0
SPLINE
  5
251
330
1F
100
AcDbEntity
  8
0
  6
Continuous
 62
     7
370
    15
100
AcDbSpline
210
0.0
220
0.0
230
1.0
 70
     8
 71
     3
 72
    10
 73
     6
 74
     0
 42
0.00000001
 43
0.00000001
 12
1.0
 22
0.0
 32
0.0
 13
1.0
 23
0.0
 33
0.0
 40
0.0
 40
0.0
 40
0.0
 40
0.0
 40
0.2572432618847668
 40
0.6263798857723184
 40
1.0
 40
1.0
 40
1.0
 40
1.0
 10
634.5957510226813
 20
507.1396704992259
 30
0.0
 10
634.5299410314939
 20
506.9355440708526
 30
0.0
 10
634.3696956106392
 20
506.4385021349406
 30
0.0
 10
634.1903260351675
 20
505.6272599821048
 30
0.0
 10
634.1629431322426
 20
505.0162408153905
 30
0.0
 10
634.1491690352962
 20
504.7088870895362
 30
0.0
  0
LINE
  5
252
330
1F
100
AcDbEntity
  8
0
  6
Continuous
 62
     7
370
    15
100
AcDbLine
 10
634.1491690353
 20
504.7088870895
 30
0.0
 11
634.1491690353
 21
509.7035684189
 31
0.0
  0
SPLINE
  5
253
330
1F
100
AcDbEntity
  8
0
  6
Continuous
 62
     7
370
    15
100
AcDbSpline
210
0.0
220
0.0
230
1.0
 70
     8
 71
     3
 72
     9
 73
     5
 74
     0
 42
0.00000001
 43
0.00000001
 12
1.0
 22
0.0
 32
0.0
 13
1.0
 23
0.0
 33
0.0
 40
0.0
 40
0.0
 40
0.0
 40
0.0
 40
0.947999475711602
 40
1.0
 40
1.0
 40
1.0
 40
1.0
 10
638.902587047911
 20
507.1396704992259
 30
0.0
 10
638.9747982508846
 20
506.9365909897723
 30
0.0
 10
639.050970448047
 20
506.7223719794704
 30
0.0
 10
639.0967865727876
 20
506.5025743405982
 30
0.0
 10
639.0991690352948
 20
506.4911447481394
 30
0.0
  0
LINE
  5
254
330
1F
100
AcDbEntity
  8
0
  6
Continuous
 62
     7
370
    15
100
AcDbLine
 10
639.0991690353
 20
502.951375512
 30
0.0
 11
638.9025870479
 21
502.2781036798
 31
0.0
  0
LINE
  5
255
330
1F
100
AcDbEntity
  8
0
  6
Continuous
 62
     7
370
    15
100
AcDbLine
 10
638.9025870479
 20
502.2781036798
 30
0.0
 11
634.5957510227
 21
502.2781036798
 31
0.0
  0
SPLINE
  5
256
330
1F
100
AcDbEntity
  8
0
  6
Continuous
 62
     7
370
    15
100
AcDbSpline
210
0.0
220
0.0
230
1.0
 70
     8
 71
     3
 72
    10
 73
     6
 74
     0
 42
0.00000001
 43
0.00000001
 12
1.0
 22
0.0
 32
0.0
 13
1.0
 23
0.0
 33
0.0
 40
0.0
 40
0.0
 40
0.0
 40
0.0
 40
0.2684065359322367
 40
0.6323728964502894
 40
1.0
 40
1.0
 40
1.0
 40
1.0
 10
634.1491690352962
 20
504.7088870895362
 30
0.0
 10
634.1564247895259
 20
504.4881362418717
 30
0.0
 10
634.1735195383641
 20
503.9680414071963
 30
0.0
 10
634.320349565542
 20
503.152080092812
 30
0.0
 10
634.5036448130778
 20
502.5703993543768
 30
0.0
 10
634.5957510226813
 20
502.2781036798465
 30
0.0
  0
LINE
  5
257
330
1F
100
AcDbEntity
  8
0
  6
Continuous
 62
     7
370
    15
100
AcDbLine
 10
639.0991690353
 20
512.3064370059
 30
0.0
 11
638.9025870479
 21
512.2674663385
 31
0.0
  0
SPLINE
  5
258
330
1F
100
AcDbEntity
  8
0
  6
Continuous
 62
     7
370
    15
100
AcDbSpline
210
0.0
220
0.0
230
1.0
 70
     8
 71
     3
 72
    10
 73
     6
 74
     0
 42
0.00000001
 43
0.00000001
 12
1.0
 22
0.0
 32
0.0
 13
1.0
 23
0.0
 33
0.0
 40
0.0
 40
0.0
 40
0.0
 40
0.0
 40
0.0700627427125055
 40
0.5307703520768516
 40
0.9999999999999999
 40
0.9999999999999999
 40
0.9999999999999999
 40
0.9999999999999999
 10
634.1491690352966
 20
512.4005808485028
 30
0.0
 10
634.1497018527406
 20
512.3974268340501
 30
0.0
 10
634.1537382876775
 20
512.3735331453823
 30
0.0
 10
634.2512661470889
 20
512.3284815522935
 30
0.0
 10
634.4802233352505
 20
512.287928620172
 30
0.0
 10
634.5957510226816
 20
512.2674663385369
 30
0.0
  0
LINE
  5
259
330
1F
100
AcDbEntity
  8
0
  6
Continuous
 62
     7
370
    15
100
AcDbLine
 10
634.1491690353
 20
509.7035684189
 30
0.0
 11
634.1491690353
 21
512.4005808485
 31
0.0
  0
SPLINE
  5
25A
330
1F
100
AcDbEntity
  8
0
  6
Continuous
 62
     7
370
    15
100
AcDbSpline
210
0.0
220
0.0
230
1.0
 70
     8
 71
     3
 72
     9
 73
     5
 74
     0
 42
0.00000001
 43
0.00000001
 12
1.0
 22
0.0
 32
0.0
 13
1.0
 23
0.0
 33
0.0
 40
0.0
 40
0.0
 40
0.0
 40
0.0
 40
0.5376408044630521
 40
1.0
 40
1.0
 40
1.0
 40
1.0
 10
634.5957510226813
 20
502.2781036798465
 30
0.0
 10
634.4695005461847
 20
502.2997118046085
 30
0.0
 10
634.2346774534269
 20
502.3399024385457
 30
0.0
 10
634.1892388715587
 20
502.3814498468942
 30
0.0
 10
634.1682299253998
 20
502.4006596731948
 30
0.0
  0
LINE
  5
25B
330
1F
100
AcDbEntity
  8
0
  6
Continuous
 62
     7
370
    15
100
AcDbLine
 10
634.1491690353
 20
502.4112181898
 30
0.0
 11
634.1491690353
 21
504.7088870895
 31
0.0
  0
LINE
  5
25C
330
1F
100
AcDbEntity
  8
0
  6
Continuous
 62
     7
370
    15
100
AcDbLine
 10
638.9025870479
 20
502.2781036798
 30
0.0
 11
639.0991690353
 21
502.3176717941
 31
0.0
  0
LINE
  5
25D
330
1F
100
AcDbEntity
  8
0
  6
Continuous
 62
     7
370
    15
100
AcDbLine
 10
638.9025870479
 20
512.5336953585
 30
0.0
 11
639.0991690353
 21
512.4941272442
 31
0.0
  0
SPLINE
  5
25E
330
1F
100
AcDbEntity
  8
0
  6
Continuous
 62
     7
370
    15
100
AcDbSpline
210
0.0
220
0.0
230
1.0
 70
     8
 71
     3
 72
     9
 73
     5
 74
     0
 42
0.00000001
 43
0.00000001
 12
1.0
 22
0.0
 32
0.0
 13
1.0
 23
0.0
 33
0.0
 40
0.0
 40
0.0
 40
0.0
 40
0.0
 40
0.4954579634770615
 40
1.0
 40
1.0
 40
1.0
 40
1.0
 10
634.5957510226816
 20
512.5336953584688
 30
0.0
 10
634.4709322436302
 20
512.5120769768466
 30
0.0
 10
634.2190061706784
 20
512.4684438470643
 30
0.0
 10
634.1725886338555
 20
512.4233384283295
 30
0.0
 10
634.1491690352966
 20
512.4005808485028
 30
0.0
  0
LINE
  5
25F
330
1F
100
AcDbEntity
  8
0
  6
Continuous
 62
     7
370
    15
100
AcDbLine
 10
638.9025870479
 20
512.5336953585
 30
0.0
 11
634.5957510227
 21
512.5336953585
 31
0.0
  0
LINE
  5
260
330
1F
100
AcDbEntity
  8
0
  6
Continuous
 62
     7
370
    15
100
AcDbLine
 10
1404.5991690353
 20
503.0998828491
 30
0.0
 11
1406.1991690353
 21
503.0998828491
 31
0.0
  0
LINE
  5
261
330
1F
100
AcDbEntity
  8
0
  6
Continuous
 62
     7
370
    15
100
AcDbLine
 10
1404.5991690353
 20
501.1058995192
 30
0.0
 11
1406.1991690353
 21
501.1058995192
 31
0.0
  0
SPLINE
  5
262
330
1F
100
AcDbEntity
  8
0
  6
Continuous
 62
     7
370
    15
100
AcDbSpline
210
0.0
220
0.0
230
1.0
 70
    24
 71
     3
 72
    11
 73
     7
 74
     0
 42
0.00000001
 43
0.00000001
 12
1.0
 22
0.0
 32
0.0
 13
1.0
 23
0.0
 33
0.0
 40
0.0
 40
0.0
 40
0.0
 40
0.0
 40
0.2832771686238255
 40
0.5580022489005086
 40
0.7754022428539191
 40
0.9999999999999999
 40
0.9999999999999999
 40
0.9999999999999999
 40
0.9999999999999999
 10
1406.199169035299
 20
501.105899519161
 30
0.0
 10
1406.199169035299
 20
501.1441833513379
 30
0.0
 10
1406.199169035299
 20
501.2195952334708
 30
0.0
 10
1406.199169035299
 20
501.7525338995915
 30
0.0
 10
1406.199169035299
 20
502.4029583294888
 30
0.0
 10
1406.199169035299
 20
502.865066259305
 30
0.0
 10
1406.199169035299
 20
503.0998828490679
 30
0.0
  0
LINE
  5
263
330
1F
100
AcDbEntity
  8
0
  6
Continuous
 62
     7
370
    15
100
AcDbLine
 10
1404.5991690353
 20
559.1115216394
 30
0.0
 11
1406.1991690353
 21
559.1115216394
 31
0.0
  0
LINE
  5
264
330
1F
100
AcDbEntity
  8
0
  6
Continuous
 62
     7
370
    15
100
AcDbLine
 10
1406.1991690353
 20
503.0998828491
 30
0.0
 11
1406.1991690353
 21
559.1115216394
 31
0.0
  0
LINE
  5
265
330
1F
100
AcDbEntity
  8
0
  6
Continuous
 62
     7
370
    15
100
AcDbLine
 10
1404.5991690353
 20
561.1058995192
 30
0.0
 11
1406.1991690353
 21
561.1058995192
 31
0.0
  0
SPLINE
  5
266
330
1F
100
AcDbEntity
  8
0
  6
Continuous
 62
     7
370
    15
100
AcDbSpline
210
0.0
220
0.0
230
1.0
 70
    24
 71
     3
 72
    11
 73
     7
 74
     0
 42
0.00000001
 43
0.00000001
 12
1.0
 22
0.0
 32
0.0
 13
1.0
 23
0.0
 33
0.0
 40
0.0
 40
0.0
 40
0.0
 40
0.0
 40
0.283353412441132
 40
0.5581116990962756
 40
0.7754835424211847
 40
1.0
 40
1.0
 40
1.0
 40
1.0
 10
1406.199169035299
 20
559.1115216394345
 30
0.0
 10
1406.199169035299
 20
559.4085702142411
 30
0.0
 10
1406.199169035299
 20
559.9936568146499
 30
0.0
 10
1406.199169035299
 20
560.6417665850573
 30
0.0
 10
1406.199169035299
 20
561.0356719871695
 30
0.0
 10
1406.199169035299
 20
561.0822393689197
 30
0.0
 10
1406.199169035299
 20
561.1058995191611
 30
0.0
  0
SPLINE
  5
267
330
1F
100
AcDbEntity
  8
0
  6
Continuous
 62
     7
370
    15
100
AcDbSpline
210
0.0
220
0.0
230
1.0
 70
     8
 71
     3
 72
    11
 73
     7
 74
     0
 42
0.00000001
 43
0.00000001
 12
1.0
 22
0.0
 32
0.0
 13
1.0
 23
0.0
 33
0.0
 40
0.0
 40
0.0
 40
0.0
 40
0.0
 40
0.2371516183831997
 40
0.4978002014463943
 40
0.7485397230460092
 40
1.0
 40
1.0
 40
1.0
 40
1.0
 10
1406.199169035299
 20
559.1115216394345
 30
0.0
 10
1406.394157878606
 20
559.0808091150834
 30
0.0
 10
1406.803455045286
 20
559.0163410717568
 30
0.0
 10
1407.247044015887
 20
558.8833180968525
 30
0.0
 10
1407.544291023312
 20
558.729919956085
 30
0.0
 10
1407.580858870622
 20
558.6221475509325
 30
0.0
 10
1407.599169035299
 20
558.5681840110711
 30
0.0
  0
LINE
  5
268
330
1F
100
AcDbEntity
  8
0
  6
Continuous
 62
     7
370
    15
100
AcDbLine
 10
1407.5991690353
 20
558.5681840111
 30
0.0
 11
1407.5991690353
 21
503.6436150273
 31
0.0
  0
SPLINE
  5
269
330
1F
100
AcDbEntity
  8
0
  6
Continuous
 62
     7
370
    15
100
AcDbSpline
210
0.0
220
0.0
230
1.0
 70
     8
 71
     3
 72
    11
 73
     7
 74
     0
 42
0.00000001
 43
0.00000001
 12
1.0
 22
0.0
 32
0.0
 13
1.0
 23
0.0
 33
0.0
 40
0.0
 40
0.0
 40
0.0
 40
0.0
 40
0.2371429336589569
 40
0.4977971043283196
 40
0.7485377110304096
 40
1.0
 40
1.0
 40
1.0
 40
1.0
 10
1406.199169035299
 20
503.0998828490679
 30
0.0
 10
1406.394153116937
 20
503.1306172428925
 30
0.0
 10
1406.803452731021
 20
503.195133153247
 30
0.0
 10
1407.247042901877
 20
503.3282510499383
 30
0.0
 10
1407.544291243078
 20
503.4817620100109
 30
0.0
 10
1407.580858921569
 20
503.5896123599906
 30
0.0
 10
1407.599169035299
 20
503.6436150272509
 30
0.0
  0
SPLINE
  5
26A
330
1F
100
AcDbEntity
  8
0
  6
Continuous
 62
     7
370
    15
100
AcDbSpline
210
0.0
220
0.0
230
1.0
 70
     8
 71
     3
 72
    11
 73
     7
 74
     0
 42
0.00000001
 43
0.00000001
 12
1.0
 22
0.0
 32
0.0
 13
1.0
 23
0.0
 33
0.0
 40
0.0
 40
0.0
 40
0.0
 40
0.0
 40
0.2371941589275934
 40
0.4978619749471079
 40
0.7485798819786964
 40
1.0
 40
1.0
 40
1.0
 40
1.0
 10
1406.199169035299
 20
561.1058995191611
 30
0.0
 10
1406.394148276354
 20
560.9629810154239
 30
0.0
 10
1406.803402662987
 20
560.6630002366022
 30
0.0
 10
1407.247017676031
 20
560.0396290912772
 30
0.0
 10
1407.544286035768
 20
559.3239126193655
 30
0.0
 10
1407.580857654358
 20
558.8203282916893
 30
0.0
 10
1407.599169035299
 20
558.5681840110711
 30
0.0
  0
SPLINE
  5
26B
330
1F
100
AcDbEntity
  8
0
  6
Continuous
 62
     7
370
    15
100
AcDbSpline
210
0.0
220
0.0
230
1.0
 70
    24
 71
     3
 72
    13
 73
     9
 74
     0
 42
0.00000001
 43
0.00000001
 12
1.0
 22
0.0
 32
0.0
 13
1.0
 23
0.0
 33
0.0
 40
0.0
 40
0.0
 40
0.0
 40
0.0
 40
0.1275360740474428
 40
0.2545887198592317
 40
0.4999418984797865
 40
0.745329982864976
 40
0.8725055605771178
 40
1.0
 40
1.0
 40
1.0
 40
1.0
 10
1406.199169035299
 20
561.1058995191611
 30
0.0
 10
1406.199169035299
 20
561.0986322752898
 30
0.0
 10
1406.199169035299
 20
561.0841253341918
 30
0.0
 10
1406.199169035299
 20
560.9236342092153
 30
0.0
 10
1406.199169035299
 20
560.5578548038447
 30
0.0
 10
1406.199169035299
 20
560.0102798136053
 30
0.0
 10
1406.199169035299
 20
559.510432829669
 30
0.0
 10
1406.199169035299
 20
559.2446029810028
 30
0.0
 10
1406.199169035299
 20
559.1115216394345
 30
0.0
  0
SPLINE
  5
26C
330
1F
100
AcDbEntity
  8
0
  6
Continuous
 62
     7
370
    15
100
AcDbSpline
210
0.0
220
0.0
230
1.0
 70
     8
 71
     3
 72
    11
 73
     7
 74
     0
 42
0.00000001
 43
0.00000001
 12
1.0
 22
0.0
 32
0.0
 13
1.0
 23
0.0
 33
0.0
 40
0.0
 40
0.0
 40
0.0
 40
0.0
 40
0.2514201137491375
 40
0.5021380165204833
 40
0.7627995894819183
 40
0.9999999999999999
 40
0.9999999999999999
 40
0.9999999999999999
 40
0.9999999999999999
 10
1407.599169035299
 20
503.6436150272509
 30
0.0
 10
1407.580857663647
 20
503.3914707500236
 30
0.0
 10
1407.54428606361
 20
502.88788642912
 30
0.0
 10
1407.247019994411
 20
502.17217575936
 30
0.0
 10
1406.803407362226
 20
501.5488038325369
 30
0.0
 10
1406.394153271152
 20
501.2488221959445
 30
0.0
 10
1406.199169035299
 20
501.105899519161
 30
0.0
  0
SPLINE
  5
26D
330
1F
100
AcDbEntity
  8
0
  6
Continuous
 62
     7
370
    15
100
AcDbSpline
210
0.0
220
0.0
230
1.0
 70
    24
 71
     3
 72
    13
 73
     9
 74
     0
 42
0.00000001
 43
0.00000001
 12
1.0
 22
0.0
 32
0.0
 13
1.0
 23
0.0
 33
0.0
 40
0.0
 40
0.0
 40
0.0
 40
0.0
 40
0.1275872441294529
 40
0.2546759233236647
 40
0.5000487292309118
 40
0.7453982611490161
 40
0.872539756542471
 40
1.0
 40
1.0
 40
1.0
 40
1.0
 10
1406.199169035299
 20
503.0998828490679
 30
0.0
 10
1406.199169035299
 20
502.9667113476161
 30
0.0
 10
1406.199169035299
 20
502.7008887309112
 30
0.0
 10
1406.199169035299
 20
502.2011448977722
 30
0.0
 10
1406.199169035299
 20
501.6537415225507
 30
0.0
 10
1406.199169035299
 20
501.2879887463723
 30
0.0
 10
1406.199169035299
 20
501.1277284081912
 30
0.0
 10
1406.199169035299
 20
501.1131818859994
 30
0.0
 10
1406.199169035299
 20
501.105899519161
 30
0.0
  0
LINE
  5
26E
330
1F
100
AcDbEntity
  8
0
  6
Continuous
 62
     7
370
    15
100
AcDbLine
 10
633.5991690353
 20
563.8366758399
 30
0.0
 11
637.4991690353
 21
563.8366758399
 31
0.0
  0
LINE
  5
26F
330
1F
100
AcDbEntity
  8
0
  6
Continuous
 62
     7
370
    15
100
AcDbLine
 10
633.5991690353
 20
573.1689291203
 30
0.0
 11
633.5991690353
 21
563.8366758399
 31
0.0
  0
LINE
  5
270
330
1F
100
AcDbEntity
  8
0
  6
Continuous
 62
     7
370
    15
100
AcDbLine
 10
637.4991690353
 20
573.1689291203
 30
0.0
 11
633.5991690353
 21
573.1689291203
 31
0.0
  0
LINE
  5
271
330
1F
100
AcDbEntity
  8
0
  6
Continuous
 62
     7
370
    15
100
AcDbLine
 10
637.4991690353
 20
573.1689291203
 30
0.0
 11
637.4991690353
 21
563.8366758399
 31
0.0
  0
LINE
  5
272
330
1F
100
AcDbEntity
  8
0
  6
Continuous
 62
     7
370
    15
100
AcDbLine
 10
633.5991690353
 20
574.785092714
 30
0.0
 11
637.4991690353
 21
574.785092714
 31
0.0
  0
LINE
  5
273
330
1F
100
AcDbEntity
  8
0
  6
Continuous
 62
     7
370
    15
100
AcDbLine
 10
633.5991690353
 20
573.1689291203
 30
0.0
 11
633.5991690353
 21
574.785092714
 31
0.0
  0
LINE
  5
274
330
1F
100
AcDbEntity
  8
0
  6
Continuous
 62
     7
370
    15
100
AcDbLine
 10
637.4991690353
 20
574.785092714
 30
0.0
 11
637.4991690353
 21
573.1689291203
 31
0.0
  0
LINE
  5
275
330
1F
100
AcDbEntity
  8
0
  6
Continuous
 62
     7
370
    15
100
AcDbLine
 10
637.4991690353
 20
584.1207876742
 30
0.0
 11
633.5991690353
 21
584.1207876742
 31
0.0
  0
LINE
  5
276
330
1F
100
AcDbEntity
  8
0
  6
Continuous
 62
     7
370
    15
100
AcDbLine
 10
633.5991690353
 20
584.1207876742
 30
0.0
 11
633.5991690353
 21
574.785092714
 31
0.0
  0
LINE
  5
277
330
1F
100
AcDbEntity
  8
0
  6
Continuous
 62
     7
370
    15
100
AcDbLine
 10
637.4991690353
 20
584.1207876742
 30
0.0
 11
637.4991690353
 21
574.785092714
 31
0.0
  0
LINE
  5
278
330
1F
100
AcDbEntity
  8
0
  6
Continuous
 62
     7
370
    15
100
AcDbLine
 10
624.8991690353
 20
583.1558995192
 30
0.0
 11
624.8991690353
 21
564.0558995192
 31
0.0
  0
LINE
  5
279
330
1F
100
AcDbEntity
  8
0
  6
Continuous
 62
     7
370
    15
100
AcDbLine
 10
637.4991690353
 20
562.6540409652
 30
0.0
 11
633.5991690353
 21
562.6540409652
 31
0.0
  0
LINE
  5
27A
330
1F
100
AcDbEntity
  8
0
  6
Continuous
 62
     7
370
    15
100
AcDbLine
 10
633.5991690353
 20
562.6540409652
 30
0.0
 11
633.5991690353
 21
563.8366758399
 31
0.0
  0
LINE
  5
27B
330
1F
100
AcDbEntity
  8
0
  6
Continuous
 62
     7
370
    15
100
AcDbLine
 10
637.4991690353
 20
563.8366758399
 30
0.0
 11
637.4991690353
 21
562.6540409652
 31
0.0
  0
LINE
  5
27C
330
1F
100
AcDbEntity
  8
0
  6
Continuous
 62
     7
370
    15
100
AcDbLine
 10
633.5991690353
 20
584.5543163932
 30
0.0
 11
637.4991690353
 21
584.5543163932
 31
0.0
  0
LINE
  5
27D
330
1F
100
AcDbEntity
  8
0
  6
Continuous
 62
     7
370
    15
100
AcDbLine
 10
633.5991690353
 20
584.1207876742
 30
0.0
 11
633.5991690353
 21
584.5543163932
 31
0.0
  0
LINE
  5
27E
330
1F
100
AcDbEntity
  8
0
  6
Continuous
 62
     7
370
    15
100
AcDbLine
 10
637.4991690353
 20
584.5543163932
 30
0.0
 11
637.4991690353
 21
584.1207876742
 31
0.0
  0
LINE
  5
27F
330
1F
100
AcDbEntity
  8
0
  6
Continuous
 62
     7
370
    15
100
AcDbLine
 10
637.4991690353
 20
584.5577580731
 30
0.0
 11
633.5991690353
 21
584.5577580731
 31
0.0
  0
LINE
  5
280
330
1F
100
AcDbEntity
  8
0
  6
Continuous
 62
     7
370
    15
100
AcDbLine
 10
633.5991690353
 20
584.5577580731
 30
0.0
 11
633.5991690353
 21
584.5543163932
 31
0.0
  0
LINE
  5
281
330
1F
100
AcDbEntity
  8
0
  6
Continuous
 62
     7
370
    15
100
AcDbLine
 10
637.4991690353
 20
584.5577580731
 30
0.0
 11
637.4991690353
 21
584.5543163932
 31
0.0
  0
LINE
  5
282
330
1F
100
AcDbEntity
  8
0
  6
Continuous
 62
     7
370
    15
100
AcDbLine
 10
626.3991690353
 20
562.7058995192
 30
0.0
 11
626.3991690353
 21
584.5058995192
 31
0.0
  0
LINE
  5
283
330
1F
100
AcDbEntity
  8
0
  6
Continuous
 62
     8
370
    15
100
AcDbLine
 10
693.8991690353
 20
774.2537896054
 30
0.0
 11
693.6991690353
 21
774.2537896054
 31
0.0
  0
LINE
  5
284
330
1F
100
AcDbEntity
  8
0
  6
Continuous
 62
     8
370
    15
100
AcDbLine
 10
691.8491690353
 20
774.2563159734
 30
0.0
 11
691.8491690353
 21
774.2528988899
 31
0.0
  0
LINE
  5
285
330
1F
100
AcDbEntity
  8
0
  6
Continuous
 62
     8
370
    15
100
AcDbLine
 10
641.1491690353
 20
774.2528988899
 30
0.0
 11
641.1491690353
 21
774.2563159734
 31
0.0
  0
LINE
  5
286
330
1F
100
AcDbEntity
  8
0
  6
Continuous
 62
     8
370
    15
100
AcDbLine
 10
1384.5326000853
 20
664.447720266
 30
0.0
 11
1382.659736373
 21
670.2118020808
 31
0.0
  0
LINE
  5
287
330
1F
100
AcDbEntity
  8
0
  6
Continuous
 62
     8
370
    15
100
AcDbLine
 10
1378.092906649
 20
684.2670587395
 30
0.0
 11
1375.7565174451
 21
691.4577253288
 31
0.0
  0
LINE
  5
288
330
1F
100
AcDbEntity
  8
0
  6
Continuous
 62
     8
370
    15
100
AcDbLine
 10
1377.963405816
 20
686.2836553101
 30
0.0
 11
1379.2631506428
 21
684.2631975407
 31
0.0
  0
SPLINE
  5
289
330
1F
100
AcDbEntity
  8
0
  6
Continuous
 62
     8
370
    15
100
AcDbSpline
210
0.0
220
0.0
230
1.0
 70
     8
 71
     3
 72
     9
 73
     5
 74
     0
 42
0.00000001
 43
0.00000001
 12
1.0
 22
0.0
 32
0.0
 13
1.0
 23
0.0
 33
0.0
 40
0.0
 40
0.0
 40
0.0
 40
0.0
 40
0.0890272786293216
 40
1.0
 40
1.0
 40
1.0
 40
1.0
 10
1381.681363312091
 20
680.5040776929565
 30
0.0
 10
1381.814692100287
 20
680.2947608391671
 30
0.0
 10
1383.312309350291
 20
677.9436067096449
 30
0.0
 10
1385.152643120199
 20
675.8382128750434
 30
0.0
 10
1386.829136982802
 20
673.9202565239797
 30
0.0
  0
LINE
  5
28A
330
1F
100
AcDbEntity
  8
0
  6
Continuous
 62
     8
370
    15
100
AcDbLine
 10
1365.1584043265
 20
717.3984913103
 30
0.0
 11
1364.6954937413
 21
717.2480825436
 31
0.0
  0
LINE
  5
28B
330
1F
100
AcDbEntity
  8
0
  6
Continuous
 62
     8
370
    15
100
AcDbLine
 10
1364.2199654832
 20
718.0803070399
 30
0.0
 11
1364.2199654832
 21
717.5935740464
 31
0.0
  0
LINE
  5
28C
330
1F
100
AcDbEntity
  8
0
  6
Continuous
 62
     8
370
    15
100
AcDbLine
 10
1374.9207434711
 20
722.5429163995
 30
0.0
 11
1375.2442515357
 21
721.8163053899
 31
0.0
  0
LINE
  5
28D
330
1F
100
AcDbEntity
  8
0
  6
Continuous
 62
     8
370
    15
100
AcDbLine
 10
722.2991690353
 20
324.4058995192
 30
0.0
 11
665.2991690353
 21
324.4058995192
 31
0.0
  0
LINE
  5
28E
330
1F
100
AcDbEntity
  8
0
  6
Continuous
 62
     8
370
    15
100
AcDbLine
 10
1315.5991690353
 20
324.4058995192
 30
0.0
 11
1258.5991690353
 21
324.4058995192
 31
0.0
  0
LINE
  5
28F
330
1F
100
AcDbEntity
  8
0
  6
Continuous
 62
     8
370
    15
100
AcDbLine
 10
725.6991690353
 20
468.9058995192
 30
0.0
 11
661.8991690353
 21
468.9058995192
 31
0.0
  0
LINE
  5
290
330
1F
100
AcDbEntity
  8
0
  6
Continuous
 62
     8
370
    15
100
AcDbLine
 10
725.6991690353
 20
382.4384654648
 30
0.0
 11
661.8991690353
 21
382.4384654648
 31
0.0
  0
LINE
  5
291
330
1F
100
AcDbEntity
  8
0
  6
Continuous
 62
     8
370
    15
100
AcDbLine
 10
725.6352558083
 20
381.6660022403
 30
0.0
 11
661.9630822623
 21
381.6660022403
 31
0.0
  0
LINE
  5
292
330
1F
100
AcDbEntity
  8
0
  6
Continuous
 62
     8
370
    15
100
AcDbLine
 10
1318.9991690353
 20
468.9058995192
 30
0.0
 11
1255.1991690353
 21
468.9058995192
 31
0.0
  0
LINE
  5
293
330
1F
100
AcDbEntity
  8
0
  6
Continuous
 62
     8
370
    15
100
AcDbLine
 10
1318.9352558083
 20
381.6660022403
 30
0.0
 11
1255.2630822623
 21
381.6660022403
 31
0.0
  0
LINE
  5
294
330
1F
100
AcDbEntity
  8
0
  6
Continuous
 62
     8
370
    15
100
AcDbLine
 10
1318.9991690353
 20
382.4384654648
 30
0.0
 11
1255.1991690353
 21
382.4384654648
 31
0.0
  0
LINE
  5
295
330
1F
100
AcDbEntity
  8
0
  6
Continuous
 62
     8
370
    15
100
AcDbLine
 10
627.2491690353
 20
504.2478207571
 30
0.0
 11
627.2754759831
 21
504.2492086346
 31
0.0
  0
LINE
  5
296
330
1F
100
AcDbEntity
  8
0
  6
Continuous
 62
     8
370
    15
100
AcDbLine
 10
627.2491690353
 20
498.7538886499
 30
0.0
 11
627.2491690353
 21
504.2461527837
 31
0.0
  0
LINE
  5
297
330
1F
100
AcDbEntity
  8
0
  6
Continuous
 62
     8
370
    15
100
AcDbLine
 10
626.5491690353
 20
504.2461527837
 30
0.0
 11
626.5491690353
 21
498.7538886499
 31
0.0
  0
LINE
  5
298
330
1F
100
AcDbEntity
  8
0
  6
Continuous
 62
     8
370
    15
100
AcDbLine
 10
627.2491690353
 20
510.7457481064
 30
0.0
 11
627.2491690353
 21
515.7273020221
 31
0.0
  0
LINE
  5
299
330
1F
100
AcDbEntity
  8
0
  6
Continuous
 62
     8
370
    15
100
AcDbLine
 10
626.5491690353
 20
515.7273020221
 30
0.0
 11
626.5491690353
 21
510.7457481064
 31
0.0
  0
LINE
  5
29A
330
1F
100
AcDbEntity
  8
0
  6
Continuous
 62
     8
370
    15
100
AcDbLine
 10
628.4491690353
 20
499.1689193768
 30
0.0
 11
628.4491690353
 21
504.253738769
 31
0.0
  0
LINE
  5
29B
330
1F
100
AcDbEntity
  8
0
  6
Continuous
 62
     8
370
    15
100
AcDbLine
 10
628.4491690353
 20
510.7615575158
 30
0.0
 11
628.4491690353
 21
515.284720598
 31
0.0
  0
LINE
  5
29C
330
1F
100
AcDbEntity
  8
0
  6
Continuous
 62
     8
370
    15
100
AcDbLine
 10
627.7491690353
 20
515.284720598
 30
0.0
 11
627.7491690353
 21
510.8088335564
 31
0.0
  0
LINE
  5
29D
330
1F
100
AcDbEntity
  8
0
  6
Continuous
 62
     8
370
    15
100
AcDbLine
 10
627.7491690353
 20
504.2160356855
 30
0.0
 11
627.7491690353
 21
499.1689193768
 31
0.0
  0
LINE
  5
29E
330
1F
100
AcDbEntity
  8
0
  6
Continuous
 62
     8
370
    15
100
AcDbLine
 10
627.2491690353
 20
515.9635266735
 30
0.0
 11
627.2491690353
 21
515.7273045237
 31
0.0
  0
LINE
  5
29F
330
1F
100
AcDbEntity
  8
0
  6
Continuous
 62
     8
370
    15
100
AcDbLine
 10
622.1491690353
 20
515.9635266735
 30
0.0
 11
622.1491690353
 21
515.7273020221
 31
0.0
  0
LINE
  5
2A0
330
1F
100
AcDbEntity
  8
0
  6
Continuous
 62
     8
370
    15
100
AcDbLine
 10
627.2491690353
 20
516.9469975827
 30
0.0
 11
627.2491690353
 21
517.6058995192
 31
0.0
  0
LINE
  5
2A1
330
1F
100
AcDbEntity
  8
0
  6
Continuous
 62
     8
370
    15
100
AcDbLine
 10
622.1491690353
 20
517.6058995192
 30
0.0
 11
622.1491690353
 21
516.9469975827
 31
0.0
  0
LINE
  5
2A2
330
1F
100
AcDbEntity
  8
0
  6
Continuous
 62
     8
370
    15
100
AcDbLine
 10
627.2491690353
 20
498.7538877144
 30
0.0
 11
627.2491690353
 21
498.4901133013
 31
0.0
  0
LINE
  5
2A3
330
1F
100
AcDbEntity
  8
0
  6
Continuous
 62
     8
370
    15
100
AcDbLine
 10
622.1491690353
 20
498.7538886499
 30
0.0
 11
622.1491690353
 21
498.4901133013
 31
0.0
  0
LINE
  5
2A4
330
1F
100
AcDbEntity
  8
0
  6
Continuous
 62
     8
370
    15
100
AcDbLine
 10
627.2491690353
 20
497.2058995192
 30
0.0
 11
627.2491690353
 21
497.5258863464
 31
0.0
  0
LINE
  5
2A5
330
1F
100
AcDbEntity
  8
0
  6
Continuous
 62
     8
370
    15
100
AcDbLine
 10
622.1491690353
 20
497.5258863464
 30
0.0
 11
622.1491690353
 21
497.2058995192
 31
0.0
  0
LINE
  5
2A6
330
1F
100
AcDbEntity
  8
0
  6
Continuous
 62
     8
370
    15
100
AcDbLine
 10
622.1491690353
 20
499.0661565433
 30
0.0
 11
622.1491690353
 21
498.7538886499
 31
0.0
  0
LINE
  5
2A7
330
1F
100
AcDbEntity
  8
0
  6
Continuous
 62
     8
370
    15
100
AcDbLine
 10
626.2991690353
 20
499.0661565433
 30
0.0
 11
622.1491690353
 21
499.0661565433
 31
0.0
  0
LINE
  5
2A8
330
1F
100
AcDbEntity
  8
0
  6
Continuous
 62
     8
370
    15
100
AcDbLine
 10
622.1491690353
 20
499.0844970162
 30
0.0
 11
622.1491690353
 21
499.0661565433
 31
0.0
  0
LINE
  5
2A9
330
1F
100
AcDbEntity
  8
0
  6
Continuous
 62
     8
370
    15
100
AcDbLine
 10
626.7905970672
 20
584.5058995192
 30
0.0
 11
626.7905970672
 21
562.7058995192
 31
0.0
  0
ENDSEC
  0
SECTION
  2
OBJECTS
  0
DICTIONARY
  5
C
330
0
100
AcDbDictionary
281
     1
  3
ACAD_GROUP
350
D
  3
ACAD_LAYOUT
350
1A
  3
ACAD_MLINESTYLE
350
17
  3
ACAD_PLOTSETTINGS
350
19
  3
ACAD_PLOTSTYLENAME
350
E
  0
DICTIONARY
  5
D
102
{ACAD_REACTORS
330
C
102
}
330
C
100
AcDbDictionary
281
     1
  0
DICTIONARY
  5
1A
102
{ACAD_REACTORS
330
C
102
}
330
C
100
AcDbDictionary
281
     1
  3
Layout1
350
1E
  3
Layout2
350
26
  3
Model
350
22
  0
DICTIONARY
  5
17
102
{ACAD_REACTORS
330
C
102
}
330
C
100
AcDbDictionary
281
     1
  3
Standard
350
18
  0
DICTIONARY
  5
19
102
{ACAD_REACTORS
330
C
102
}
330
C
100
AcDbDictionary
281
     1
  0
ACDBDICTIONARYWDFLT
  5
E
102
{ACAD_REACTORS
330
C
102
}
330
C
100
AcDbDictionary
281
     1
  3
Normal
350
F
100
AcDbDictionaryWithDefault
340
F
  0
LAYOUT
  5
1E
102
{ACAD_REACTORS
330
1A
102
}
330
1A
100
AcDbPlotSettings
  1

  2
none_device
  4

  6

 40
0.0
 41
0.0
 42
0.0
 43
0.0
 44
0.0
 45
0.0
 46
0.0
 47
0.0
 48
0.0
 49
0.0
140
0.0
141
0.0
142
1.0
143
1.0
 70
   688
 72
     0
 73
     0
 74
     5
  7

 75
    16
147
1.0
148
0.0
149
0.0
100
AcDbLayout
  1
Layout1
 70
     1
 71
     1
 10
0.0
 20
0.0
 11
420.0
 21
297.0
 12
0.0
 22
0.0
 32
0.0
 14
1.0000000000E+20
 24
1.0000000000E+20
 34
1.0000000000E+20
 15
-1.0000000000E+20
 25
-1.0000000000E+20
 35
-1.0000000000E+20
146
0.0
 13
0.0
 23
0.0
 33
0.0
 16
1.0
 26
0.0
 36
0.0
 17
0.0
 27
1.0
 37
0.0
 76
     0
330
1B
  0
LAYOUT
  5
26
102
{ACAD_REACTORS
330
1A
102
}
330
1A
100
AcDbPlotSettings
  1

  2
none_device
  4

  6

 40
0.0
 41
0.0
 42
0.0
 43
0.0
 44
0.0
 45
0.0
 46
0.0
 47
0.0
 48
0.0
 49
0.0
140
0.0
141
0.0
142
1.0
143
1.0
 70
   688
 72
     0
 73
     0
 74
     5
  7

 75
    16
147
1.0
148
0.0
149
0.0
100
AcDbLayout
  1
Layout2
 70
     1
 71
     2
 10
0.0
 20
0.0
 11
0.0
 21
0.0
 12
0.0
 22
0.0
 32
0.0
 14
0.0
 24
0.0
 34
0.0
 15
0.0
 25
0.0
 35
0.0
146
0.0
 13
0.0
 23
0.0
 33
0.0
 16
1.0
 26
0.0
 36
0.0
 17
0.0
 27
1.0
 37
0.0
 76
     0
330
23
  0
LAYOUT
  5
22
102
{ACAD_REACTORS
330
1A
102
}
330
1A
100
AcDbPlotSettings
  1

  2
none_device
  4

  6

 40
0.0
 41
0.0
 42
0.0
 43
0.0
 44
0.0
 45
0.0
 46
0.0
 47
0.0
 48
0.0
 49
0.0
140
0.0
141
0.0
142
1.0
143
1.0
 70
  1712
 72
     0
 73
     0
 74
     0
  7

 75
     0
147
1.0
148
0.0
149
0.0
100
AcDbLayout
  1
Model
 70
     1
 71
     0
 10
0.0
 20
0.0
 11
2159.0
 21
1397.0
 12
0.0
 22
0.0
 32
0.0
 14
0.0
 24
0.0
 34
0.0
 15
2159.0
 25
1397.0
 35
0.0
146
0.0
 13
0.0
 23
0.0
 33
0.0
 16
1.0
 26
0.0
 36
0.0
 17
0.0
 27
1.0
 37
0.0
 76
     0
330
1F
331
29
  0
MLINESTYLE
  5
18
102
{ACAD_REACTORS
330
17
102
}
330
17
100
AcDbMlineStyle
  2
Standard
 70
     0
  3

 62
   256
 51
90.0
 52
90.0
 71
     2
 49
0.5
 62
   256
  6
BYLAYER
 49
-0.5
 62
   256
  6
BYLAYER
  0
ACDBPLACEHOLDER
  5
F
102
{ACAD_REACTORS
330
E
102
}
330
E
  0
ENDSEC
  0
EOF
