  0
SECTION
  2
HEADER
  9
$ACADVER
  1
AC1015
  9
$ACADMAINTVER
 70
     6
  9
$DWGCODEPAGE
  3
ANSI_1252
  9
$INSBASE
 10
0.0
 20
0.0
 30
0.0
  9
$EXTMIN
 10
0.0
 20
0.0
 30
0.0
  9
$EXTMAX
 10
2159.0
 20
1397.0
 30
0.0
  9
$LIMMIN
 10
0.0
 20
0.0
  9
$LIMMAX
 10
2159.0
 20
1397.0
  9
$ORTHOMODE
 70
     0
  9
$REGENMODE
 70
     1
  9
$FILLMODE
 70
     1
  9
$QTEXTMODE
 70
     0
  9
$MIRRTEXT
 70
     1
  9
$LTSCALE
 40
5.0
  9
$ATTMODE
 70
     1
  9
$TEXTSIZE
 40
17.5
  9
$TRACEWID
 40
1.0
  9
$TEXTSTYLE
  7
Standard
  9
$CLAYER
  8
0
  9
$CELTYPE
  6
ByLayer
  9
$CECOLOR
 62
   256
  9
$CELTSCALE
 40
1.0
  9
$DISPSILH
 70
     0
  9
$DIMSCALE
 40
1.0
  9
$DIMASZ
 40
16.51
  9
$DIMEXO
 40
5.0
  9
$DIMDLI
 40
3.75
  9
$DIMRND
 40
0.0
  9
$DIMDLE
 40
0.0
  9
$DIMEXE
 40
5.0
  9
$DIMTP
 40
0.0
  9
$DIMTM
 40
0.0
  9
$DIMTXT
 40
17.5
  9
$DIMCEN
 40
2.5
  9
$DIMTSZ
 40
0.0
  9
$DIMTOL
 70
     0
  9
$DIMLIM
 70
     0
  9
$DIMTIH
 70
     1
  9
$DIMTOH
 70
     1
  9
$DIMSE1
 70
     0
  9
$DIMSE2
 70
     0
  9
$DIMTAD
 70
     1
  9
$DIMZIN
 70
     0
  9
$DIMBLK
  1

  9
$DIMASO
 70
     1
  9
$DIMSHO
 70
     1
  9
$DIMPOST
  1

  9
$DIMAPOST
  1

  9
$DIMALT
 70
     0
  9
$DIMALTD
 70
     3
  9
$DIMALTF
 40
0.0393700787
  9
$DIMLFAC
 40
1.0
  9
$DIMTOFL
 70
     1
  9
$DIMTVP
 40
0.0
  9
$DIMTIX
 70
     0
  9
$DIMSOXD
 70
     0
  9
$DIMSAH
 70
     0
  9
$DIMBLK1
  1

  9
$DIMBLK2
  1

  9
$DIMSTYLE
  2
ISO-25
  9
$DIMCLRD
 70
     0
  9
$DIMCLRE
 70
     0
  9
$DIMCLRT
 70
     0
  9
$DIMTFAC
 40
1.0
  9
$DIMGAP
 40
7.62
  9
$DIMJUST
 70
     0
  9
$DIMSD1
 70
     0
  9
$DIMSD2
 70
     0
  9
$DIMTOLJ
 70
     0
  9
$DIMTZIN
 70
     0
  9
$DIMALTZ
 70
     0
  9
$DIMALTTZ
 70
     0
  9
$DIMUPT
 70
     0
  9
$DIMDEC
 70
     3
  9
$DIMTDEC
 70
     3
  9
$DIMALTU
 70
     2
  9
$DIMALTTD
 70
     3
  9
$DIMTXSTY
  7
Standard
  9
$DIMAUNIT
 70
     0
  9
$DIMADEC
 70
     2
  9
$DIMALTRND
 40
0.0
  9
$DIMAZIN
 70
     0
  9
$DIMDSEP
 70
    44
  9
$DIMATFIT
 70
     3
  9
$DIMFRAC
 70
     0
  9
$DIMLDRBLK
  1

  9
$DIMLUNIT
 70
     2
  9
$DIMLWD
 70
    -2
  9
$DIMLWE
 70
    -2
  9
$DIMTMOVE
 70
     0
  9
$LUNITS
 70
     2
  9
$LUPREC
 70
     8
  9
$SKETCHINC
 40
1.0
  9
$FILLETRAD
 40
10.0
  9
$AUNITS
 70
     0
  9
$AUPREC
 70
     8
  9
$MENU
  1
.
  9
$ELEVATION
 40
0.0
  9
$PELEVATION
 40
0.0
  9
$THICKNESS
 40
0.0
  9
$LIMCHECK
 70
     0
  9
$CHAMFERA
 40
10.0
  9
$CHAMFERB
 40
10.0
  9
$CHAMFERC
 40
20.0
  9
$CHAMFERD
 40
0.0
  9
$SKPOLY
 70
     0
  9
$TDCREATE
 40
2456398.519945324
  9
$TDUCREATE
 40
2456398.478278657
  9
$TDUPDATE
 40
2456398.519949838
  9
$TDUUPDATE
 40
2456398.478283171
  9
$TDINDWG
 40
0.0000000116
  9
$TDUSRTIMER
 40
0.0000000116
  9
$USRTIMER
 70
     1
  9
$ANGBASE
 50
0.0
  9
$ANGDIR
 70
     0
  9
$PDMODE
 70
     0
  9
$PDSIZE
 40
-1.0
  9
$PLINEWID
 40
0.0
  9
$SPLFRAME
 70
     0
  9
$SPLINETYPE
 70
     6
  9
$SPLINESEGS
 70
     8
  9
$HANDSEED
  5
35E
  9
$SURFTAB1
 70
     6
  9
$SURFTAB2
 70
     6
  9
$SURFTYPE
 70
     6
  9
$SURFU
 70
     6
  9
$SURFV
 70
     6
  9
$UCSBASE
  2

  9
$UCSNAME
  2

  9
$UCSORG
 10
0.0
 20
0.0
 30
0.0
  9
$UCSXDIR
 10
1.0
 20
0.0
 30
0.0
  9
$UCSYDIR
 10
0.0
 20
1.0
 30
0.0
  9
$UCSORTHOREF
  2

  9
$UCSORTHOVIEW
 70
     0
  9
$UCSORGTOP
 10
0.0
 20
0.0
 30
0.0
  9
$UCSORGBOTTOM
 10
0.0
 20
0.0
 30
0.0
  9
$UCSORGLEFT
 10
0.0
 20
0.0
 30
0.0
  9
$UCSORGRIGHT
 10
0.0
 20
0.0
 30
0.0
  9
$UCSORGFRONT
 10
0.0
 20
0.0
 30
0.0
  9
$UCSORGBACK
 10
0.0
 20
0.0
 30
0.0
  9
$PUCSBASE
  2

  9
$PUCSNAME
  2

  9
$PUCSORG
 10
0.0
 20
0.0
 30
0.0
  9
$PUCSXDIR
 10
1.0
 20
0.0
 30
0.0
  9
$PUCSYDIR
 10
0.0
 20
1.0
 30
0.0
  9
$PUCSORTHOREF
  2

  9
$PUCSORTHOVIEW
 70
     0
  9
$PUCSORGTOP
 10
0.0
 20
0.0
 30
0.0
  9
$PUCSORGBOTTOM
 10
0.0
 20
0.0
 30
0.0
  9
$PUCSORGLEFT
 10
0.0
 20
0.0
 30
0.0
  9
$PUCSORGRIGHT
 10
0.0
 20
0.0
 30
0.0
  9
$PUCSORGFRONT
 10
0.0
 20
0.0
 30
0.0
  9
$PUCSORGBACK
 10
0.0
 20
0.0
 30
0.0
  9
$USERI1
 70
     0
  9
$USERI2
 70
     0
  9
$USERI3
 70
     0
  9
$USERI4
 70
     0
  9
$USERI5
 70
     0
  9
$USERR1
 40
0.0
  9
$USERR2
 40
0.0
  9
$USERR3
 40
0.0
  9
$USERR4
 40
0.0
  9
$USERR5
 40
0.0
  9
$WORLDVIEW
 70
     1
  9
$SHADEDGE
 70
     3
  9
$SHADEDIF
 70
    70
  9
$TILEMODE
 70
     1
  9
$MAXACTVP
 70
    64
  9
$PINSBASE
 10
0.0
 20
0.0
 30
0.0
  9
$PLIMCHECK
 70
     0
  9
$PEXTMIN
 10
1.0000000000E+20
 20
1.0000000000E+20
 30
1.0000000000E+20
  9
$PEXTMAX
 10
-1.0000000000E+20
 20
-1.0000000000E+20
 30
-1.0000000000E+20
  9
$PLIMMIN
 10
0.0
 20
0.0
  9
$PLIMMAX
 10
420.0
 20
297.0
  9
$UNITMODE
 70
     0
  9
$VISRETAIN
 70
     1
  9
$PLINEGEN
 70
     0
  9
$PSLTSCALE
 70
     1
  9
$TREEDEPTH
 70
  3020
  9
$CMLSTYLE
  2
Standard
  9
$CMLJUST
 70
     0
  9
$CMLSCALE
 40
20.0
  9
$PROXYGRAPHICS
 70
     1
  9
$MEASUREMENT
 70
     1
  9
$CELWEIGHT
370
    -1
  9
$ENDCAPS
280
     0
  9
$JOINSTYLE
280
     0
  9
$LWDISPLAY
290
     1
  9
$INSUNITS
 70
     4
  9
$HYPERLINKBASE
  1

  9
$STYLESHEET
  1

  9
$XEDIT
290
     1
  9
$CEPSNTYPE
380
     0
  9
$PSTYLEMODE
290
     1
  9
$FINGERPRINTGUID
  2
{E480144B-8E37-4B42-8422-78C3CF495EBB}
  9
$VERSIONGUID
  2
{FAEB1C32-E019-11D5-929B-00C0DF256EC4}
  9
$EXTNAMES
290
     1
  9
$PSVPSCALE
 40
0.0
  9
$OLESTARTUP
290
     0
  0
ENDSEC
  0
SECTION
  2
CLASSES
  0
CLASS
  1
ACDBDICTIONARYWDFLT
  2
AcDbDictionaryWithDefault
  3
ObjectDBX Classes
 90
        0
280
     0
281
     0
  0
CLASS
  1
VISUALSTYLE
  2
AcDbVisualStyle
  3
ObjectDBX Classes
 90
     4095
280
     0
281
     0
  0
CLASS
  1
MATERIAL
  2
AcDbMaterial
  3
ObjectDBX Classes
 90
     1153
280
     0
281
     0
  0
CLASS
  1
ACDBPLACEHOLDER
  2
AcDbPlaceHolder
  3
ObjectDBX Classes
 90
        0
280
     0
281
     0
  0
CLASS
  1
LAYOUT
  2
AcDbLayout
  3
ObjectDBX Classes
 90
        0
280
     0
281
     0
  0
ENDSEC
  0
SECTION
  2
TABLES
  0
TABLE
  2
VPORT
  5
8
330
0
100
AcDbSymbolTable
 70
     1
  0
VPORT
  5
29
330
8
100
AcDbSymbolTableRecord
100
AcDbViewportTableRecord
  2
*Active
 70
     0
 10
0.0
 20
0.0
 11
1.0
 21
1.0
 12
1079.5
 22
698.5
 13
0.0
 23
0.0
 14
10.0
 24
10.0
 15
10.0
 25
10.0
 16
0.0
 26
0.0
 36
1.0
 17
0.0
 27
0.0
 37
0.0
 40
1397.0
 41
1.5454545455
 42
50.0
 43
0.0
 44
0.0
 50
0.0
 51
0.0
 71
     0
 72
  2000
 73
     1
 74
     3
 75
     0
 76
     0
 77
     0
 78
     0
281
     0
 65
     1
110
0.0
120
0.0
130
0.0
111
1.0
121
0.0
131
0.0
112
0.0
122
1.0
132
0.0
 79
     0
146
0.0
  0
ENDTAB
  0
TABLE
  2
LTYPE
  5
5
330
0
100
AcDbSymbolTable
 70
     6
  0
LTYPE
  5
14
330
5
100
AcDbSymbolTableRecord
100
AcDbLinetypeTableRecord
  2
ByBlock
 70
     0
  3

 72
    65
 73
     0
 40
0.0
  0
LTYPE
  5
15
330
5
100
AcDbSymbolTableRecord
100
AcDbLinetypeTableRecord
  2
ByLayer
 70
     0
  3

 72
    65
 73
     0
 40
0.0
  0
LTYPE
  5
16
330
5
100
AcDbSymbolTableRecord
100
AcDbLinetypeTableRecord
  2
Continuous
 70
     0
  3
Solid line
 72
    65
 73
     0
 40
0.0
  0
LTYPE
  5
3F
330
5
100
AcDbSymbolTableRecord
100
AcDbLinetypeTableRecord
  2
HIDDEN
 70
     0
  3
Hidden __ __ __ __ __ __ __ __ __ __ __ __ __ __
 72
    65
 73
     2
 40
1.905
 49
1.27
 74
     0
 49
-0.635
 74
     0
  0
LTYPE
  5
40
330
5
100
AcDbSymbolTableRecord
100
AcDbLinetypeTableRecord
  2
PHANTOM
 70
     0
  3
Phantom ______  __  __  ______  __  __  ______
 72
    65
 73
     6
 40
12.7
 49
6.35
 74
     0
 49
-1.27
 74
     0
 49
1.27
 74
     0
 49
-1.27
 74
     0
 49
1.27
 74
     0
 49
-1.27
 74
     0
  0
LTYPE
  5
41
330
5
100
AcDbSymbolTableRecord
100
AcDbLinetypeTableRecord
  2
CENTER
 70
     0
  3
Center ____ _ ____ _ ____ _ ____ _ ____ _ ____
 72
    65
 73
     4
 40
10.16
 49
6.35
 74
     0
 49
-1.27
 74
     0
 49
1.27
 74
     0
 49
-1.27
 74
     0
  0
LTYPE
  5
42
330
5
100
AcDbSymbolTableRecord
100
AcDbLinetypeTableRecord
  2
CENTERX2
 70
     0
  3
Center (2x) ________  __  ________  __  _____
 72
    65
 73
     4
 40
20.32
 49
12.7
 74
     0
 49
-2.54
 74
     0
 49
2.54
 74
     0
 49
-2.54
 74
     0
  0
LTYPE
  5
43
330
5
100
AcDbSymbolTableRecord
100
AcDbLinetypeTableRecord
  2
DOT2
 70
     0
  3
Dot (.5x) ........................................
 72
    65
 73
     2
 40
0.635
 49
0.0
 74
     0
 49
-0.635
 74
     0
  0
ENDTAB
  0
TABLE
  2
LAYER
  5
2
330
0
100
AcDbSymbolTable
 70
     1
  0
LAYER
  5
10
330
2
100
AcDbSymbolTableRecord
100
AcDbLayerTableRecord
  2
0
 70
     0
 62
     7
  6
Continuous
370
    -3
390
F
  0
ENDTAB
  0
TABLE
  2
STYLE
  5
3
330
0
100
AcDbSymbolTable
 70
     1
  0
STYLE
  5
11
330
3
100
AcDbSymbolTableRecord
100
AcDbTextStyleTableRecord
  2
Standard
 70
     0
 40
0.0
 41
1.0
 50
0.0
 71
     0
 42
17.5
  3
txt
  4

  0
ENDTAB
  0
TABLE
  2
VIEW
  5
6
330
0
100
AcDbSymbolTable
 70
     0
  0
ENDTAB
  0
TABLE
  2
UCS
  5
7
330
0
100
AcDbSymbolTable
 70
     0
  0
ENDTAB
  0
TABLE
  2
APPID
  5
9
330
0
100
AcDbSymbolTable
 70
     1
  0
APPID
  5
12
330
9
100
AcDbSymbolTableRecord
100
AcDbRegAppTableRecord
  2
ACAD
 70
     0
  0
ENDTAB
  0
TABLE
  2
DIMSTYLE
  5
A
330
0
100
AcDbSymbolTable
 70
     1
100
AcDbDimStyleTable
  0
DIMSTYLE
105
27
330
A
100
AcDbSymbolTableRecord
100
AcDbDimStyleTableRecord
  2
ISO-25
 70
     0
 41
2.5
 42
0.625
 43
3.75
 44
1.25
 73
     0
 74
     0
 77
     1
 78
     8
140
2.5
141
2.5
143
0.0393700787
147
0.625
171
     3
172
     1
178
     0
271
     2
272
     2
274
     3
278
    44
283
     0
284
     8
340
11
  0
ENDTAB
  0
TABLE
  2
BLOCK_RECORD
  5
1
330
0
100
AcDbSymbolTable
 70
     1
  0
BLOCK_RECORD
  5
1F
330
1
100
AcDbSymbolTableRecord
100
AcDbBlockTableRecord
  2
*Model_Space
340
22
  0
BLOCK_RECORD
  5
1B
330
1
100
AcDbSymbolTableRecord
100
AcDbBlockTableRecord
  2
*Paper_Space
340
1E
  0
BLOCK_RECORD
  5
23
330
1
100
AcDbSymbolTableRecord
100
AcDbBlockTableRecord
  2
*Paper_Space0
340
26
  0
ENDTAB
  0
ENDSEC
  0
SECTION
  2
BLOCKS
  0
BLOCK
  5
20
330
1F
100
AcDbEntity
  8
0
100
AcDbBlockBegin
  2
*Model_Space
 70
     0
 10
0.0
 20
0.0
 30
0.0
  3
*Model_Space
  1

  0
ENDBLK
  5
21
330
1F
100
AcDbEntity
  8
0
100
AcDbBlockEnd
  0
BLOCK
  5
1C
330
1B
100
AcDbEntity
 67
     1
  8
0
100
AcDbBlockBegin
  2
*Paper_Space
 70
     0
 10
0.0
 20
0.0
 30
0.0
  3
*Paper_Space
  1

  0
ENDBLK
  5
1D
330
1B
100
AcDbEntity
 67
     1
  8
0
100
AcDbBlockEnd
  0
BLOCK
  5
24
330
23
100
AcDbEntity
  8
0
100
AcDbBlockBegin
  2
*Paper_Space0
 70
     0
 10
0.0
 20
0.0
 30
0.0
  3
*Paper_Space0
  1

  0
ENDBLK
  5
25
330
23
100
AcDbEntity
  8
0
100
AcDbBlockEnd
  0
ENDSEC
  0
SECTION
  2
ENTITIES
  0
ARC
  5
44
330
1F
100
AcDbEntity
  8
0
  6
Continuous
 62
     7
370
    15
100
AcDbCircle
 10
1145.8352483785
 20
806.6966141029
 30
0.0
 40
0.9999999999999539
100
AcDbArc
 50
165.8589940239
 51
170.284779606
  0
ARC
  5
45
330
1F
100
AcDbEntity
  8
0
  6
Continuous
 62
     7
370
    15
100
AcDbCircle
 10
1167.1019864326
 20
807.0288230462
 30
0.0
 40
1.00000000000005
100
AcDbArc
 50
10.8880395365
 51
16.1069693045
  0
SPLINE
  5
46
330
1F
100
AcDbEntity
  8
0
  6
Continuous
 62
     7
370
    15
100
AcDbSpline
210
0.0
220
0.0
230
1.0
 70
     8
 71
     3
 72
    16
 73
    12
 74
     0
 42
0.00000001
 43
0.00000001
 12
1.0
 22
0.0
 32
0.0
 13
1.0
 23
0.0
 33
0.0
 40
0.0
 40
0.0
 40
0.0
 40
0.0
 40
0.2234132823516816
 40
0.428564086048927
 40
0.5985642029192135
 40
0.7307764076928908
 40
0.8047320482588208
 40
0.8486172204058643
 40
0.8860750475871317
 40
0.9367337887462194
 40
1.0
 40
1.0
 40
1.0
 40
1.0
 10
1154.839887582729
 20
839.3998369456725
 30
0.0
 10
1154.775684577034
 20
839.4473456271883
 30
0.0
 10
1154.652526713867
 20
839.5384794866387
 30
0.0
 10
1154.526337892372
 20
839.7133680532229
 30
0.0
 10
1154.448713827951
 20
839.8766878202683
 30
0.0
 10
1154.41202045161
 20
840.0050044186643
 30
0.0
 10
1154.397707829203
 20
840.0892795068945
 30
0.0
 10
1154.393198823824
 20
840.1289965889307
 30
0.0
 10
1154.391427932632
 20
840.1492336347203
 30
0.0
 10
1154.390638140884
 20
840.1611128479836
 30
0.0
 10
1154.390653664188
 20
840.1610149834102
 30
0.0
 10
1154.390662284781
 20
840.1609606360469
 30
0.0
  0
LINE
  5
47
330
1F
100
AcDbEntity
  8
0
  6
Continuous
 62
     7
370
    15
100
AcDbLine
 10
1241.5129537367
 20
1104.9014055691
 30
0.0
 11
843.1129537367
 21
1104.9014055691
 31
0.0
  0
LINE
  5
48
330
1F
100
AcDbEntity
  8
0
  6
Continuous
 62
     7
370
    15
100
AcDbLine
 10
843.1129537367
 20
1104.0014055691
 30
0.0
 11
842.3129537367
 21
1104.0014055691
 31
0.0
  0
LINE
  5
49
330
1F
100
AcDbEntity
  8
0
  6
Continuous
 62
     7
370
    15
100
AcDbLine
 10
1242.3129537367
 20
1104.0014055691
 30
0.0
 11
1241.5129537367
 21
1104.0014055691
 31
0.0
  0
LINE
  5
4A
330
1F
100
AcDbEntity
  8
0
  6
Continuous
 62
     7
370
    15
100
AcDbLine
 10
1053.4629537371
 20
848.4856096903
 30
0.0
 11
883.4629537371
 21
848.4856096903
 31
0.0
  0
LINE
  5
4B
330
1F
100
AcDbEntity
  8
0
  6
Continuous
 62
     7
370
    15
100
AcDbLine
 10
939.3129537367
 20
454.6790214772
 30
0.0
 11
939.3129537367
 21
458.6790214772
 31
0.0
  0
LINE
  5
4C
330
1F
100
AcDbEntity
  8
0
  6
Continuous
 62
     7
370
    15
100
AcDbLine
 10
882.3129537367
 20
458.6790214772
 30
0.0
 11
882.3129537367
 21
454.6790214772
 31
0.0
  0
ARC
  5
4D
330
1F
100
AcDbEntity
  8
0
  6
Continuous
 62
     7
370
    15
100
AcDbCircle
 10
937.3129537367
 20
454.6790214772
 30
0.0
 40
1.999999999999943
100
AcDbArc
 50
270.0
 51
0.0
  0
ARC
  5
4E
330
1F
100
AcDbEntity
  8
0
  6
Continuous
 62
     7
370
    15
100
AcDbCircle
 10
884.3129537367
 20
454.6790214772
 30
0.0
 40
2.000000000000114
100
AcDbArc
 50
180.0
 51
270.0
  0
LINE
  5
4F
330
1F
100
AcDbEntity
  8
0
  6
Continuous
 62
     7
370
    15
100
AcDbLine
 10
1202.3129537367
 20
454.6790214772
 30
0.0
 11
1202.3129537367
 21
458.6790214772
 31
0.0
  0
LINE
  5
50
330
1F
100
AcDbEntity
  8
0
  6
Continuous
 62
     7
370
    15
100
AcDbLine
 10
1145.3129537367
 20
458.6790214772
 30
0.0
 11
1145.3129537367
 21
454.6790214772
 31
0.0
  0
ARC
  5
51
330
1F
100
AcDbEntity
  8
0
  6
Continuous
 62
     7
370
    15
100
AcDbCircle
 10
1200.3129537367
 20
454.6790214772
 30
0.0
 40
2.000000000000227
100
AcDbArc
 50
270.0
 51
0.0
  0
ARC
  5
52
330
1F
100
AcDbEntity
  8
0
  6
Continuous
 62
     7
370
    15
100
AcDbCircle
 10
1147.3129537367
 20
454.6790214772
 30
0.0
 40
1.999999999999943
100
AcDbArc
 50
180.0
 51
270.0
  0
LINE
  5
53
330
1F
100
AcDbEntity
  8
0
  6
Continuous
 62
     7
370
    15
100
AcDbLine
 10
1202.1129537367
 20
458.6790214772
 30
0.0
 11
1202.1129537367
 21
506.6790214772
 31
0.0
  0
LINE
  5
54
330
1F
100
AcDbEntity
  8
0
  6
Continuous
 62
     7
370
    15
100
AcDbLine
 10
1145.5129537367
 20
506.6790214772
 30
0.0
 11
1145.5129537367
 21
458.6790214772
 31
0.0
  0
LINE
  5
55
330
1F
100
AcDbEntity
  8
0
  6
Continuous
 62
     7
370
    15
100
AcDbLine
 10
939.1129537367
 20
458.6790214772
 30
0.0
 11
939.1129537367
 21
506.6790214772
 31
0.0
  0
LINE
  5
56
330
1F
100
AcDbEntity
  8
0
  6
Continuous
 62
     7
370
    15
100
AcDbLine
 10
882.5129537367
 20
506.6790214772
 30
0.0
 11
882.5129537367
 21
458.6790214772
 31
0.0
  0
ARC
  5
57
330
1F
100
AcDbEntity
  8
0
  6
Continuous
 62
     7
370
    15
100
AcDbCircle
 10
944.2129537367
 20
599.1790214772
 30
0.0
 40
1.5
100
AcDbArc
 50
90.0
 51
180.0
  0
ARC
  5
58
330
1F
100
AcDbEntity
  8
0
  6
Continuous
 62
     7
370
    15
100
AcDbCircle
 10
877.4129537367
 20
599.1790214772
 30
0.0
 40
1.5
100
AcDbArc
 50
0.0
 51
90.0
  0
LINE
  5
59
330
1F
100
AcDbEntity
  8
0
  6
Continuous
 62
     7
370
    15
100
AcDbLine
 10
942.7129537367
 20
512.7115874228
 30
0.0
 11
942.7129537367
 21
599.1790214772
 31
0.0
  0
LINE
  5
5A
330
1F
100
AcDbEntity
  8
0
  6
Continuous
 62
     7
370
    15
100
AcDbLine
 10
878.9129537367
 20
599.1790214772
 30
0.0
 11
878.9129537367
 21
512.7115874228
 31
0.0
  0
ARC
  5
5B
330
1F
100
AcDbEntity
  8
0
  6
Continuous
 62
     7
370
    15
100
AcDbCircle
 10
938.0129537367
 20
512.7115874228
 30
0.0
 40
4.699999999999932
100
AcDbArc
 50
350.5402980318
 51
0.0
  0
ARC
  5
5C
330
1F
100
AcDbEntity
  8
0
  6
Continuous
 62
     7
370
    15
100
AcDbCircle
 10
883.6129537367
 20
512.7115874228
 30
0.0
 40
4.7
100
AcDbArc
 50
180.0
 51
189.4597019682
  0
LINE
  5
5D
330
1F
100
AcDbEntity
  8
0
  6
Continuous
 62
     7
370
    15
100
AcDbLine
 10
878.9768669637
 20
511.9391241983
 30
0.0
 11
879.8533035163
 21
506.6790214772
 31
0.0
  0
LINE
  5
5E
330
1F
100
AcDbEntity
  8
0
  6
Continuous
 62
     7
370
    15
100
AcDbLine
 10
941.772603957
 20
506.6790214772
 30
0.0
 11
942.6490405097
 21
511.9391241983
 31
0.0
  0
ARC
  5
5F
330
1F
100
AcDbEntity
  8
0
  6
Continuous
 62
     7
370
    15
100
AcDbCircle
 10
1207.2129537367
 20
599.1790214772
 30
0.0
 40
1.5
100
AcDbArc
 50
90.0
 51
180.0
  0
ARC
  5
60
330
1F
100
AcDbEntity
  8
0
  6
Continuous
 62
     7
370
    15
100
AcDbCircle
 10
1140.4129537367
 20
599.1790214772
 30
0.0
 40
1.5
100
AcDbArc
 50
0.0
 51
90.0
  0
ARC
  5
61
330
1F
100
AcDbEntity
  8
0
  6
Continuous
 62
     7
370
    15
100
AcDbCircle
 10
1201.0129537367
 20
512.7115874228
 30
0.0
 40
4.700000000000045
100
AcDbArc
 50
350.5402980318
 51
0.0
  0
ARC
  5
62
330
1F
100
AcDbEntity
  8
0
  6
Continuous
 62
     7
370
    15
100
AcDbCircle
 10
1146.6129537367
 20
512.7115874228
 30
0.0
 40
4.700000000000045
100
AcDbArc
 50
180.0
 51
189.4597019682
  0
LINE
  5
63
330
1F
100
AcDbEntity
  8
0
  6
Continuous
 62
     7
370
    15
100
AcDbLine
 10
1205.7129537367
 20
512.7115874228
 30
0.0
 11
1205.7129537367
 21
599.1790214772
 31
0.0
  0
LINE
  5
64
330
1F
100
AcDbEntity
  8
0
  6
Continuous
 62
     7
370
    15
100
AcDbLine
 10
1141.9129537367
 20
599.1790214772
 30
0.0
 11
1141.9129537367
 21
512.7115874228
 31
0.0
  0
LINE
  5
65
330
1F
100
AcDbEntity
  8
0
  6
Continuous
 62
     7
370
    15
100
AcDbLine
 10
1141.9768669637
 20
511.9391241983
 30
0.0
 11
1142.8533035163
 21
506.6790214772
 31
0.0
  0
LINE
  5
66
330
1F
100
AcDbEntity
  8
0
  6
Continuous
 62
     7
370
    15
100
AcDbLine
 10
1204.772603957
 20
506.6790214772
 30
0.0
 11
1205.6490405097
 21
511.9391241983
 31
0.0
  0
LINE
  5
67
330
1F
100
AcDbEntity
  8
0
  6
Continuous
 62
     7
370
    15
100
AcDbLine
 10
861.3129537371
 20
727.1790214772
 30
0.0
 11
861.3129537371
 21
727.6790214772
 31
0.0
  0
LINE
  5
68
330
1F
100
AcDbEntity
  8
0
  6
Continuous
 62
     7
370
    15
100
AcDbLine
 10
853.3129537371
 20
727.6790214772
 30
0.0
 11
853.3129537371
 21
727.1790214772
 31
0.0
  0
LINE
  5
69
330
1F
100
AcDbEntity
  8
0
  6
Continuous
 62
     7
370
    15
100
AcDbLine
 10
1046.3129537371
 20
727.1790214772
 30
0.0
 11
1046.3129537371
 21
727.6790214772
 31
0.0
  0
LINE
  5
6A
330
1F
100
AcDbEntity
  8
0
  6
Continuous
 62
     7
370
    15
100
AcDbLine
 10
1038.3129537371
 20
727.6790214772
 30
0.0
 11
1038.3129537371
 21
727.1790214772
 31
0.0
  0
LINE
  5
6B
330
1F
100
AcDbEntity
  8
0
  6
Continuous
 62
     7
370
    15
100
AcDbLine
 10
1231.3129537371
 20
727.1790214772
 30
0.0
 11
1231.3129537371
 21
727.6790214772
 31
0.0
  0
LINE
  5
6C
330
1F
100
AcDbEntity
  8
0
  6
Continuous
 62
     7
370
    15
100
AcDbLine
 10
1223.3129537371
 20
727.6790214772
 30
0.0
 11
1223.3129537371
 21
727.1790214772
 31
0.0
  0
LINE
  5
6D
330
1F
100
AcDbEntity
  8
0
  6
Continuous
 62
     7
370
    15
100
AcDbLine
 10
845.3129537367
 20
910.7719504093
 30
0.0
 11
1239.3129537367
 21
910.7719504093
 31
0.0
  0
LINE
  5
6E
330
1F
100
AcDbEntity
  8
0
  6
Continuous
 62
     7
370
    15
100
AcDbLine
 10
1241.3129537367
 20
914.7775501309
 30
0.0
 11
1239.3129537367
 21
914.7775501309
 31
0.0
  0
LINE
  5
6F
330
1F
100
AcDbEntity
  8
0
  6
Continuous
 62
     7
370
    15
100
AcDbLine
 10
1239.3129537367
 20
914.7775501309
 30
0.0
 11
1239.3129537367
 21
904.8719504093
 31
0.0
  0
LINE
  5
70
330
1F
100
AcDbEntity
  8
0
  6
Continuous
 62
     7
370
    15
100
AcDbLine
 10
1241.3129537367
 20
914.7775501309
 30
0.0
 11
1241.3129537367
 21
904.5719504093
 31
0.0
  0
LINE
  5
71
330
1F
100
AcDbEntity
  8
0
  6
Continuous
 62
     7
370
    15
100
AcDbLine
 10
843.3129537367
 20
904.5719504093
 30
0.0
 11
843.3129537367
 21
914.7775501309
 31
0.0
  0
LINE
  5
72
330
1F
100
AcDbEntity
  8
0
  6
Continuous
 62
     7
370
    15
100
AcDbLine
 10
843.3129537367
 20
914.7775501309
 30
0.0
 11
845.3129537367
 21
914.7775501309
 31
0.0
  0
LINE
  5
73
330
1F
100
AcDbEntity
  8
0
  6
Continuous
 62
     7
370
    15
100
AcDbLine
 10
845.3129537367
 20
904.8719504093
 30
0.0
 11
845.3129537367
 21
914.7775501309
 31
0.0
  0
LINE
  5
74
330
1F
100
AcDbEntity
  8
0
  6
Continuous
 62
     7
370
    15
100
AcDbLine
 10
1241.3129537367
 20
920.0979019521
 30
0.0
 11
1239.3129537367
 21
920.0979019521
 31
0.0
  0
LINE
  5
75
330
1F
100
AcDbEntity
  8
0
  6
Continuous
 62
     7
370
    15
100
AcDbLine
 10
1239.3129537367
 20
920.0979019521
 30
0.0
 11
1239.3129537367
 21
914.7775501309
 31
0.0
  0
LINE
  5
76
330
1F
100
AcDbEntity
  8
0
  6
Continuous
 62
     7
370
    15
100
AcDbLine
 10
1241.3129537367
 20
920.0979019521
 30
0.0
 11
1241.3129537367
 21
914.7775501309
 31
0.0
  0
LINE
  5
77
330
1F
100
AcDbEntity
  8
0
  6
Continuous
 62
     7
370
    15
100
AcDbLine
 10
843.3129537367
 20
920.0979019521
 30
0.0
 11
845.3129537367
 21
920.0979019521
 31
0.0
  0
LINE
  5
78
330
1F
100
AcDbEntity
  8
0
  6
Continuous
 62
     7
370
    15
100
AcDbLine
 10
843.3129537367
 20
914.7775501309
 30
0.0
 11
843.3129537367
 21
920.0979019521
 31
0.0
  0
LINE
  5
79
330
1F
100
AcDbEntity
  8
0
  6
Continuous
 62
     7
370
    15
100
AcDbLine
 10
845.3129537367
 20
914.7775501309
 30
0.0
 11
845.3129537367
 21
920.0979019521
 31
0.0
  0
LINE
  5
7A
330
1F
100
AcDbEntity
  8
0
  6
Continuous
 62
     7
370
    15
100
AcDbLine
 10
1239.3129537367
 20
1061.7990337427
 30
0.0
 11
1241.3129537367
 21
1061.7990337427
 31
0.0
  0
LINE
  5
7B
330
1F
100
AcDbEntity
  8
0
  6
Continuous
 62
     7
370
    15
100
AcDbLine
 10
1239.3129537367
 20
1061.7990337427
 30
0.0
 11
1239.3129537367
 21
920.0979019521
 31
0.0
  0
LINE
  5
7C
330
1F
100
AcDbEntity
  8
0
  6
Continuous
 62
     7
370
    15
100
AcDbLine
 10
1241.3129537367
 20
1061.7990337427
 30
0.0
 11
1241.3129537367
 21
920.0979019521
 31
0.0
  0
LINE
  5
7D
330
1F
100
AcDbEntity
  8
0
  6
Continuous
 62
     7
370
    15
100
AcDbLine
 10
845.3129537367
 20
1061.7990337427
 30
0.0
 11
843.3129537367
 21
1061.7990337427
 31
0.0
  0
LINE
  5
7E
330
1F
100
AcDbEntity
  8
0
  6
Continuous
 62
     7
370
    15
100
AcDbLine
 10
843.3129537367
 20
920.0979019521
 30
0.0
 11
843.3129537367
 21
1061.7990337427
 31
0.0
  0
LINE
  5
7F
330
1F
100
AcDbEntity
  8
0
  6
Continuous
 62
     7
370
    15
100
AcDbLine
 10
845.3129537367
 20
920.0979019521
 30
0.0
 11
845.3129537367
 21
1061.7990337427
 31
0.0
  0
SPLINE
  5
80
330
1F
100
AcDbEntity
  8
0
  6
Continuous
 62
     7
370
    15
100
AcDbSpline
210
0.0
220
0.0
230
1.0
 70
     8
 71
     3
 72
    11
 73
     7
 74
     0
 42
0.00000001
 43
0.00000001
 12
1.0
 22
0.0
 32
0.0
 13
1.0
 23
0.0
 33
0.0
 40
0.0
 40
0.0
 40
0.0
 40
0.0
 40
0.2500000000000004
 40
0.4999999999999975
 40
0.7499999999999987
 40
1.0
 40
1.0
 40
1.0
 40
1.0
 10
846.8129537366553
 20
1062.171950409342
 30
0.0
 10
846.3543240833335
 20
1062.140874020453
 30
0.0
 10
845.4370647766897
 20
1062.078721242675
 30
0.0
 10
844.2801574968505
 20
1061.985492076008
 30
0.0
 10
843.4707852509223
 20
1061.892262909342
 30
0.0
 10
843.3655642414109
 20
1061.830110131564
 30
0.0
 10
843.3129537366553
 20
1061.799033742675
 30
0.0
  0
SPLINE
  5
81
330
1F
100
AcDbEntity
  8
0
  6
Continuous
 62
     7
370
    15
100
AcDbSpline
210
0.0
220
0.0
230
1.0
 70
     8
 71
     3
 72
    11
 73
     7
 74
     0
 42
0.00000001
 43
0.00000001
 12
1.0
 22
0.0
 32
0.0
 13
1.0
 23
0.0
 33
0.0
 40
0.0
 40
0.0
 40
0.0
 40
0.0
 40
0.2499999999999999
 40
0.5000000000000051
 40
0.7499999999999911
 40
1.0
 40
1.0
 40
1.0
 40
1.0
 10
846.8129537366553
 20
1062.171950409342
 30
0.0
 10
846.6163981709458
 20
1062.140874020453
 30
0.0
 10
846.2232870395271
 20
1062.078721242675
 30
0.0
 10
845.7274696338818
 20
1061.985492076008
 30
0.0
 10
845.3805958141983
 20
1061.892262909342
 30
0.0
 10
845.3355010958362
 20
1061.830110131564
 30
0.0
 10
845.3129537366552
 20
1061.799033742675
 30
0.0
  0
SPLINE
  5
82
330
1F
100
AcDbEntity
  8
0
  6
Continuous
 62
     7
370
    15
100
AcDbSpline
210
0.0
220
0.0
230
1.0
 70
     8
 71
     3
 72
    11
 73
     7
 74
     0
 42
0.00000001
 43
0.00000001
 12
1.0
 22
0.0
 32
0.0
 13
1.0
 23
0.0
 33
0.0
 40
0.0
 40
0.0
 40
0.0
 40
0.0
 40
0.2500000000000002
 40
0.5000000000000069
 40
0.7499999999999997
 40
0.9999999999999999
 40
0.9999999999999999
 40
0.9999999999999999
 40
0.9999999999999999
 10
1241.312953736655
 20
1061.799033742675
 30
0.0
 10
1241.2603432319
 20
1061.830110131564
 30
0.0
 10
1241.155122222388
 20
1061.892262909342
 30
0.0
 10
1240.34574997646
 20
1061.985492076008
 30
0.0
 10
1239.188842696621
 20
1062.078721242675
 30
0.0
 10
1238.271583389977
 20
1062.140874020453
 30
0.0
 10
1237.812953736655
 20
1062.171950409342
 30
0.0
  0
SPLINE
  5
83
330
1F
100
AcDbEntity
  8
0
  6
Continuous
 62
     7
370
    15
100
AcDbSpline
210
0.0
220
0.0
230
1.0
 70
     8
 71
     3
 72
    11
 73
     7
 74
     0
 42
0.00000001
 43
0.00000001
 12
1.0
 22
0.0
 32
0.0
 13
1.0
 23
0.0
 33
0.0
 40
0.0
 40
0.0
 40
0.0
 40
0.0
 40
0.2500000000000126
 40
0.5
 40
0.7499999999999875
 40
1.0
 40
1.0
 40
1.0
 40
1.0
 10
1239.312953736655
 20
1061.799033742675
 30
0.0
 10
1239.290406377474
 20
1061.830110131564
 30
0.0
 10
1239.245311659112
 20
1061.892262909342
 30
0.0
 10
1238.898437839429
 20
1061.985492076008
 30
0.0
 10
1238.402620433783
 20
1062.078721242675
 30
0.0
 10
1238.009509302365
 20
1062.140874020453
 30
0.0
 10
1237.812953736655
 20
1062.171950409342
 30
0.0
  0
LINE
  5
84
330
1F
100
AcDbEntity
  8
0
  6
Continuous
 62
     7
370
    15
100
AcDbLine
 10
1237.8129537367
 20
1062.1719504093
 30
0.0
 11
846.8129537367
 21
1062.1719504093
 31
0.0
  0
LINE
  5
85
330
1F
100
AcDbEntity
  8
0
  6
Continuous
 62
     7
370
    15
100
AcDbLine
 10
846.8129537367
 20
1062.1719504093
 30
0.0
 11
846.8129537367
 21
1063.6511143254
 31
0.0
  0
LINE
  5
86
330
1F
100
AcDbEntity
  8
0
  6
Continuous
 62
     7
370
    15
100
AcDbLine
 10
846.8129537367
 20
1063.6511143254
 30
0.0
 11
1237.8129537367
 21
1063.6511143254
 31
0.0
  0
LINE
  5
87
330
1F
100
AcDbEntity
  8
0
  6
Continuous
 62
     7
370
    15
100
AcDbLine
 10
1237.8129537367
 20
1063.6511143254
 30
0.0
 11
1237.8129537367
 21
1062.1719504093
 31
0.0
  0
ARC
  5
88
330
1F
100
AcDbEntity
  8
0
  6
Continuous
 62
     7
370
    15
100
AcDbCircle
 10
851.5896959927
 20
1072.1664691322
 30
0.0
 40
4.783089882693183
100
AcDbArc
 50
87.3246632995
 51
177.0478590626
  0
LINE
  5
89
330
1F
100
AcDbEntity
  8
0
  6
Continuous
 62
     7
370
    15
100
AcDbLine
 10
851.8129537367
 20
1076.9443457323
 30
0.0
 11
1232.8129537367
 21
1076.9443457323
 31
0.0
  0
ARC
  5
8A
330
1F
100
AcDbEntity
  8
0
  6
Continuous
 62
     7
370
    15
100
AcDbCircle
 10
1233.0362114806
 20
1072.1664691322
 30
0.0
 40
4.783089882693536
100
AcDbArc
 50
2.9521409374
 51
92.6753367005
  0
LINE
  5
8B
330
1F
100
AcDbEntity
  8
0
  6
Continuous
 62
     7
370
    15
100
AcDbLine
 10
846.8129537367
 20
1063.6511143254
 30
0.0
 11
846.8129537367
 21
1072.4128067972
 31
0.0
  0
LINE
  5
8C
330
1F
100
AcDbEntity
  8
0
  6
Continuous
 62
     7
370
    15
100
AcDbLine
 10
1237.8129537367
 20
1072.4128067972
 30
0.0
 11
1237.8129537367
 21
1063.6511143254
 31
0.0
  0
LINE
  5
8D
330
1F
100
AcDbEntity
  8
0
  6
Continuous
 62
     7
370
    15
100
AcDbLine
 10
1197.8058469555
 20
849.4139095998
 30
0.0
 11
1197.8058469555
 21
850.1293684577
 31
0.0
  0
LINE
  5
8E
330
1F
100
AcDbEntity
  8
0
  6
Continuous
 62
     7
370
    15
100
AcDbLine
 10
886.8058469555
 20
850.1293684577
 30
0.0
 11
886.8058469555
 21
849.4139095998
 31
0.0
  0
LINE
  5
8F
330
1F
100
AcDbEntity
  8
0
  6
Continuous
 62
     7
370
    15
100
AcDbLine
 10
1156.8915961752
 20
844.2719504093
 30
0.0
 11
1155.4324479036
 21
844.2719504093
 31
0.0
  0
LINE
  5
90
330
1F
100
AcDbEntity
  8
0
  6
Continuous
 62
     7
370
    15
100
AcDbLine
 10
886.8129537367
 20
849.4139095998
 30
0.0
 11
886.8129537367
 21
850.1293684577
 31
0.0
  0
LINE
  5
91
330
1F
100
AcDbEntity
  8
0
  6
Continuous
 62
     7
370
    15
100
AcDbLine
 10
1197.7987401743
 20
849.4139095998
 30
0.0
 11
1197.7987401743
 21
850.1293684577
 31
0.0
  0
LINE
  5
92
330
1F
100
AcDbEntity
  8
0
  6
Continuous
 62
     7
370
    15
100
AcDbLine
 10
1198.5058469555
 20
849.4139095998
 30
0.0
 11
1198.5058469555
 21
850.1293684577
 31
0.0
  0
LINE
  5
93
330
1F
100
AcDbEntity
  8
0
  6
Continuous
 62
     7
370
    15
100
AcDbLine
 10
1199.3058469555
 20
849.4139095998
 30
0.0
 11
1199.3058469555
 21
850.1293684577
 31
0.0
  0
LINE
  5
94
330
1F
100
AcDbEntity
  8
0
  6
Continuous
 62
     7
370
    15
100
AcDbLine
 10
885.3058469555
 20
849.4139095998
 30
0.0
 11
885.3058469555
 21
850.1293684577
 31
0.0
  0
LINE
  5
95
330
1F
100
AcDbEntity
  8
0
  6
Continuous
 62
     7
370
    15
100
AcDbLine
 10
886.1058469555
 20
849.4139095998
 30
0.0
 11
886.1058469555
 21
850.1293684577
 31
0.0
  0
LINE
  5
96
330
1F
100
AcDbEntity
  8
0
  6
Continuous
 62
     7
370
    15
100
AcDbLine
 10
1198.1058469555
 20
850.1293684577
 30
0.0
 11
1198.1058469555
 21
849.4139095998
 31
0.0
  0
LINE
  5
97
330
1F
100
AcDbEntity
  8
0
  6
Continuous
 62
     7
370
    15
100
AcDbLine
 10
1145.3332887602
 20
806.0993471575
 30
0.0
 11
1142.9746444803
 21
794.4508595898
 31
0.0
  0
ARC
  5
98
330
1F
100
AcDbEntity
  8
0
  6
Continuous
 62
     7
370
    15
100
AcDbCircle
 10
1156.2108283521
 20
823.5677859349
 30
0.0
 40
20.57831919505755
100
AcDbArc
 50
238.0896133955
 51
303.7002823867
  0
LINE
  5
99
330
1F
100
AcDbEntity
  8
0
  6
Continuous
 62
     7
370
    15
100
AcDbLine
 10
1170.2168096012
 20
794.8764110245
 30
0.0
 11
1167.628678462
 21
806.4476247276
 31
0.0
  0
SPLINE
  5
9A
330
1F
100
AcDbEntity
  8
0
  6
Continuous
 62
     7
370
    15
100
AcDbSpline
210
0.0
220
0.0
230
1.0
 70
     8
 71
     3
 72
    10
 73
     6
 74
     0
 42
0.00000001
 43
0.00000001
 12
1.0
 22
0.0
 32
0.0
 13
1.0
 23
0.0
 33
0.0
 40
0.0
 40
0.0
 40
0.0
 40
0.0
 40
0.2857669779336547
 40
0.6445560549562764
 40
1.0
 40
1.0
 40
1.0
 40
1.0
 10
1172.459918507078
 20
793.5364919158337
 30
0.0
 10
1172.145472946961
 20
793.5281754929783
 30
0.0
 10
1171.43623148319
 20
793.5094175498956
 30
0.0
 10
1170.596314142893
 20
793.9857975271345
 30
0.0
 10
1170.34291551505
 20
794.5804682447907
 30
0.0
 10
1170.2168096012
 20
794.8764110244653
 30
0.0
  0
SPLINE
  5
9B
330
1F
100
AcDbEntity
  8
0
  6
Continuous
 62
     7
370
    15
100
AcDbSpline
210
0.0
220
0.0
230
1.0
 70
     8
 71
     3
 72
    11
 73
     7
 74
     0
 42
0.00000001
 43
0.00000001
 12
1.0
 22
0.0
 32
0.0
 13
1.0
 23
0.0
 33
0.0
 40
0.0
 40
0.0
 40
0.0
 40
0.0
 40
0.3704320937885887
 40
0.7442498469311158
 40
0.9442480537695761
 40
1.0
 40
1.0
 40
1.0
 40
1.0
 10
1172.429453234882
 20
793.5055782887115
 30
0.0
 10
1172.433983996734
 20
793.5087036797099
 30
0.0
 10
1172.4430869305
 20
793.514983027021
 30
0.0
 10
1172.453562688405
 20
793.5250055008302
 30
0.0
 10
1172.458480233602
 20
793.5327113437402
 30
0.0
 10
1172.459661088121
 20
793.53581527753
 30
0.0
 10
1172.459918507077
 20
793.5364919158337
 30
0.0
  0
ARC
  5
9C
330
1F
100
AcDbEntity
  8
0
  6
Continuous
 62
     7
370
    15
100
AcDbCircle
 10
1156.2101216373
 20
818.3557004279
 30
0.0
 40
29.67482582605402
100
AcDbArc
 50
238.6579659272
 51
303.131929855
  0
SPLINE
  5
9D
330
1F
100
AcDbEntity
  8
0
  6
Continuous
 62
     7
370
    15
100
AcDbSpline
210
0.0
220
0.0
230
1.0
 70
     8
 71
     3
 72
    10
 73
     6
 74
     0
 42
0.00000001
 43
0.00000001
 12
1.0
 22
0.0
 32
0.0
 13
1.0
 23
0.0
 33
0.0
 40
0.0
 40
0.0
 40
0.0
 40
0.0
 40
0.2117958997119794
 40
0.4880069094702014
 40
1.0
 40
1.0
 40
1.0
 40
1.0
 10
1140.743507711894
 20
793.0410480311474
 30
0.0
 10
1140.744790959467
 20
793.0384839099203
 30
0.0
 10
1140.747747738531
 20
793.0325758216271
 30
0.0
 10
1140.7586583392
 20
793.0217108887958
 30
0.0
 10
1140.768495061292
 20
793.0152786375771
 30
0.0
 10
1140.774884692788
 20
793.011100445432
 30
0.0
  0
SPLINE
  5
9E
330
1F
100
AcDbEntity
  8
0
  6
Continuous
 62
     7
370
    15
100
AcDbSpline
210
0.0
220
0.0
230
1.0
 70
     8
 71
     3
 72
    10
 73
     6
 74
     0
 42
0.00000001
 43
0.00000001
 12
1.0
 22
0.0
 32
0.0
 13
1.0
 23
0.0
 33
0.0
 40
0.0
 40
0.0
 40
0.0
 40
0.0
 40
0.3554439450437185
 40
0.7142330220663445
 40
1.0
 40
1.0
 40
1.0
 40
1.0
 10
1142.974644480286
 20
794.4508595898487
 30
0.0
 10
1142.853965514611
 20
794.1510617693191
 30
0.0
 10
1142.611471856873
 20
793.5486446896317
 30
0.0
 10
1141.775754478339
 20
793.0460895256805
 30
0.0
 10
1141.060582564929
 20
793.0425966251369
 30
0.0
 10
1140.743507711894
 20
793.0410480311474
 30
0.0
  0
ARC
  5
9F
330
1F
100
AcDbEntity
  8
0
  6
Continuous
 62
     7
370
    15
100
AcDbCircle
 10
1143.2282907185
 20
795.1868745097
 30
0.0
 40
0.7784949430815208
100
AcDbArc
 50
162.983503677
 51
250.984970471
  0
LINE
  5
A0
330
1F
100
AcDbEntity
  8
0
  6
Continuous
 62
     7
370
    15
100
AcDbLine
 10
1142.4838778651
 20
795.4146987405
 30
0.0
 11
1144.8629237665
 21
806.9235855279
 31
0.0
  0
LINE
  5
A1
330
1F
100
AcDbEntity
  8
0
  6
Continuous
 62
     7
370
    15
100
AcDbLine
 10
1144.8495897027
 20
806.8653653247
 30
0.0
 11
1144.8534235633
 21
806.8854509515
 31
0.0
  0
LINE
  5
A2
330
1F
100
AcDbEntity
  8
0
  6
Continuous
 62
     7
370
    15
100
AcDbLine
 10
1168.0839845975
 20
807.2177135017
 30
0.0
 11
1168.0780165874
 21
807.2449264596
 31
0.0
  0
LINE
  5
A3
330
1F
100
AcDbEntity
  8
0
  6
Continuous
 62
     7
370
    15
100
AcDbLine
 10
1168.066135213
 20
807.2860442339
 30
0.0
 11
1170.6698363978
 21
795.8549932265
 31
0.0
  0
ARC
  5
A4
330
1F
100
AcDbEntity
  8
0
  6
Continuous
 62
     7
370
    15
100
AcDbCircle
 10
1169.9419829857
 20
795.5977934715
 30
0.0
 40
0.7719600400423572
100
AcDbArc
 50
290.8554467269
 51
19.4617537633
  0
ARC
  5
A5
330
1F
100
AcDbEntity
  8
0
  6
Continuous
 62
     7
370
    15
100
AcDbCircle
 10
1149.5924112187
 20
804.3325162624
 30
0.0
 40
4.611053624517067
100
AcDbArc
 50
144.5692275355
 51
157.4696401727
  0
ARC
  5
A6
330
1F
100
AcDbEntity
  8
0
  6
Continuous
 62
     7
370
    15
100
AcDbCircle
 10
1156.2108242531
 20
823.6746610771
 30
0.0
 40
19.63438655009781
100
AcDbArc
 50
238.0999541374
 51
303.6899416448
  0
ARC
  5
A7
330
1F
100
AcDbEntity
  8
0
  6
Continuous
 62
     7
370
    15
100
AcDbCircle
 10
1163.6270055395
 20
804.680967481
 30
0.0
 40
4.374295829671168
100
AcDbArc
 50
23.8204836526
 51
37.4005104175
  0
LINE
  5
A8
330
1F
100
AcDbEntity
  8
0
  6
Continuous
 62
     7
370
    15
100
AcDbLine
 10
1144.3597722612
 20
836.057644125
 30
0.0
 11
1141.7560710764
 21
837.5570065909
 31
0.0
  0
ARC
  5
A9
330
1F
100
AcDbEntity
  8
0
  6
Continuous
 62
     7
370
    15
100
AcDbCircle
 10
1090.7902264476
 20
820.5611123941
 30
0.0
 40
55.76592807761883
100
AcDbArc
 50
345.8447909883
 51
16.1340333484
  0
ARC
  5
AA
330
1F
100
AcDbEntity
  8
0
  6
Continuous
 62
     7
370
    15
100
AcDbCircle
 10
1090.6667671863
 20
815.5813981701
 30
0.0
 40
55.60930332995107
100
AcDbArc
 50
359.3394145501
 51
17.3884716147
  0
ARC
  5
AB
330
1F
100
AcDbEntity
  8
0
  6
Continuous
 62
     7
370
    15
100
AcDbCircle
 10
1156.4911942654
 20
805.8702471027
 30
0.0
 40
1.501202978163789
100
AcDbArc
 50
183.2072005277
 51
358.5826952545
  0
LINE
  5
AC
330
1F
100
AcDbEntity
  8
0
  6
Continuous
 62
     7
370
    15
100
AcDbLine
 10
1157.9919379731
 20
805.8331161806
 30
0.0
 11
1157.4041082923
 21
839.8703081361
 31
0.0
  0
ARC
  5
AD
330
1F
100
AcDbEntity
  8
0
  6
Continuous
 62
     7
370
    15
100
AcDbCircle
 10
1156.2622467863
 20
820.3954745207
 30
0.0
 40
19.50828008937266
100
AcDbArc
 50
58.0325526085
 51
86.6444371497
  0
ARC
  5
AE
330
1F
100
AcDbEntity
  8
0
  6
Continuous
 62
     7
370
    15
100
AcDbCircle
 10
1221.5419968773
 20
823.0861786997
 30
0.0
 40
56.6720822604748
100
AcDbArc
 50
165.8447909883
 51
196.1340333484
  0
ARC
  5
AF
330
1F
100
AcDbEntity
  8
0
  6
Continuous
 62
     7
370
    15
100
AcDbCircle
 10
1090.8839105969
 20
820.8647574677
 30
0.0
 40
56.67208226047111
100
AcDbArc
 50
345.8447909883
 51
16.1340333484
  0
ARC
  5
B0
330
1F
100
AcDbEntity
  8
0
  6
Continuous
 62
     7
370
    15
100
AcDbCircle
 10
1156.1459871247
 20
820.4500866649
 30
0.0
 40
19.45147781452694
100
AcDbArc
 50
95.136519936
 51
123.8045878609
  0
LINE
  5
B1
330
1F
100
AcDbEntity
  8
0
  6
Continuous
 62
     7
370
    15
100
AcDbLine
 10
1154.404512879
 20
839.8234512829
 30
0.0
 11
1154.9923425598
 21
805.7862593274
 31
0.0
  0
ARC
  5
B2
330
1F
100
AcDbEntity
  8
0
  6
Continuous
 62
     7
370
    15
100
AcDbCircle
 10
1221.6356810265
 20
822.7825759648
 30
0.0
 40
55.76592807761883
100
AcDbArc
 50
165.8447909883
 51
196.1340333484
  0
LINE
  5
B3
330
1F
100
AcDbEntity
  8
0
  6
Continuous
 62
     7
370
    15
100
AcDbLine
 10
1169.9420296091
 20
837.997301077
 30
0.0
 11
1167.5629837077
 21
836.420102831
 31
0.0
  0
ARC
  5
B4
330
1F
100
AcDbEntity
  8
0
  6
Continuous
 62
     7
370
    15
100
AcDbCircle
 10
1221.799471882
 20
817.8003734199
 30
0.0
 40
55.64957379289982
100
AcDbArc
 50
161.8292287195
 51
180.6548624679
  0
LINE
  5
B5
330
1F
100
AcDbEntity
  8
0
  6
Continuous
 62
     7
370
    15
100
AcDbLine
 10
1157.413037583
 20
839.1901952758
 30
0.0
 11
1157.4184885167
 21
838.883139303
 31
0.0
  0
SPLINE
  5
B6
330
1F
100
AcDbEntity
  8
0
  6
Continuous
 62
     7
370
    15
100
AcDbSpline
210
0.0
220
0.0
230
1.0
 70
     8
 71
     3
 72
    10
 73
     6
 74
     0
 42
0.00000001
 43
0.00000001
 12
1.0
 22
0.0
 32
0.0
 13
1.0
 23
0.0
 33
0.0
 40
0.0
 40
0.0
 40
0.0
 40
0.0
 40
0.3110155923040187
 40
0.7327352999746748
 40
1.0
 40
1.0
 40
1.0
 40
1.0
 10
1157.385026230658
 20
840.3262988206919
 30
0.0
 10
1157.385158737262
 20
840.3178494681794
 30
0.0
 10
1157.385470915393
 20
840.2979432673295
 30
0.0
 10
1157.385922769619
 20
840.2730953213152
 30
0.0
 10
1157.386209746028
 20
840.2583498753746
 30
0.0
 10
1157.386321067363
 20
840.252629953208
 30
0.0
  0
LINE
  5
B7
330
1F
100
AcDbEntity
  8
0
  6
Continuous
 62
     7
370
    15
100
AcDbLine
 10
1157.3850262307
 20
840.3262988207
 30
0.0
 11
1157.3790976303
 21
840.7197832207
 31
0.0
  0
LINE
  5
B8
330
1F
100
AcDbEntity
  8
0
  6
Continuous
 62
     7
370
    15
100
AcDbLine
 10
1157.3890866265
 20
840.5579026135
 30
0.0
 11
1157.3790976303
 21
840.7197832207
 31
0.0
  0
SPLINE
  5
B9
330
1F
100
AcDbEntity
  8
0
  6
Continuous
 62
     7
370
    15
100
AcDbSpline
210
0.0
220
0.0
230
1.0
 70
     8
 71
     3
 72
    11
 73
     7
 74
     0
 42
0.00000001
 43
0.00000001
 12
1.0
 22
0.0
 32
0.0
 13
1.0
 23
0.0
 33
0.0
 40
0.0
 40
0.0
 40
0.0
 40
0.0
 40
0.2947335968588937
 40
0.589483610822338
 40
0.8837752324726013
 40
0.9999999999999999
 40
0.9999999999999999
 40
0.9999999999999999
 40
0.9999999999999999
 10
1157.40410829227
 20
839.8703081360554
 30
0.0
 10
1157.402250636308
 20
839.9744475466684
 30
0.0
 10
1157.398535220909
 20
840.1827321686163
 30
0.0
 10
1157.39361107772
 20
840.4142499221882
 30
0.0
 10
1157.390568038237
 20
840.5277700448955
 30
0.0
 10
1157.389413498105
 20
840.5512539005038
 30
0.0
 10
1157.389086626482
 20
840.5579026135165
 30
0.0
  0
ARC
  5
BA
330
1F
100
AcDbEntity
  8
0
  6
Continuous
 62
     7
370
    15
100
AcDbCircle
 10
1156.4918249328
 20
805.366348712
 30
0.0
 40
0.5004009927210942
100
AcDbArc
 50
183.2072005277
 51
358.5826952545
  0
LINE
  5
BB
330
1F
100
AcDbEntity
  8
0
  6
Continuous
 62
     7
370
    15
100
AcDbLine
 10
1144.8655509643
 20
806.9409231793
 30
0.0
 11
1144.8629237665
 21
806.9235855279
 31
0.0
  0
ARC
  5
BC
330
1F
100
AcDbEntity
  8
0
  6
Continuous
 62
     7
370
    15
100
AcDbCircle
 10
1145.466410115
 20
835.2512582677
 30
0.0
 40
1.369271883235312
100
AcDbArc
 50
95.9731229748
 51
143.9198916722
  0
LINE
  5
BD
330
1F
100
AcDbEntity
  8
0
  6
Continuous
 62
     7
370
    15
100
AcDbLine
 10
1155.4187582412
 20
838.5428844065
 30
0.0
 11
1155.9922076976
 21
805.3383527869
 31
0.0
  0
LINE
  5
BE
330
1F
100
AcDbEntity
  8
0
  6
Continuous
 62
     7
370
    15
100
AcDbLine
 10
1156.9920728353
 20
805.353971738
 30
0.0
 11
1156.4186233789
 21
838.5585033575
 31
0.0
  0
LWPOLYLINE
  5
BF
330
1F
100
AcDbEntity
  8
0
  6
Continuous
 62
     7
370
    15
100
AcDbPolyline
 90
        9
 70
   128
 43
0.0
 10
1157.4184885167
 20
838.883139303
 10
1157.3992763885
 20
838.8225529643
 10
1157.342378315
 20
838.763694697
 10
1157.2499808574
 20
838.7088263915
 10
1157.1256347981
 20
838.6600566059
 10
1156.9741186865
 20
838.6192595357
 10
1156.8012552018
 20
838.5880029894
 10
1156.6136873906
 20
838.5674881386
 10
1156.4186233789
 20
838.5585033575
  0
ARC
  5
C0
330
1F
100
AcDbEntity
  8
0
  6
Continuous
 62
     7
370
    15
100
AcDbCircle
 10
1166.5016247284
 20
835.6178229569
 30
0.0
 40
1.330464535168591
100
AcDbArc
 50
37.0855871691
 51
86.1629126414
  0
LINE
  5
C1
330
1F
100
AcDbEntity
  8
0
  6
Continuous
 62
     7
370
    15
100
AcDbLine
 10
1156.4186233789
 20
838.5585033575
 30
0.0
 11
1155.4187582412
 21
838.5428844065
 31
0.0
  0
ARC
  5
C2
330
1F
100
AcDbEntity
  8
0
  6
Continuous
 62
     7
370
    15
100
AcDbCircle
 10
1145.340273983
 20
836.2900696813
 30
0.0
 40
1.007673193921274
100
AcDbArc
 50
122.6094557769
 51
193.3356780491
  0
ARC
  5
C3
330
1F
100
AcDbEntity
  8
0
  6
Continuous
 62
     7
370
    15
100
AcDbCircle
 10
1144.00727545
 20
835.8209112186
 30
0.0
 40
1.536591208624132
100
AcDbArc
 50
31.0340207702
 51
59.06303014
  0
ARC
  5
C4
330
1F
100
AcDbEntity
  8
0
  6
Continuous
 62
     7
370
    15
100
AcDbCircle
 10
1156.1440121003
 20
820.1912834828
 30
0.0
 40
20.39536914495925
100
AcDbArc
 50
94.9349950531
 51
123.8031395045
  0
SPLINE
  5
C5
330
1F
100
AcDbEntity
  8
0
  6
Continuous
 62
     7
370
    15
100
AcDbSpline
210
0.0
220
0.0
230
1.0
 70
     8
 71
     3
 72
    11
 73
     7
 74
     0
 42
0.00000001
 43
0.00000001
 12
1.0
 22
0.0
 32
0.0
 13
1.0
 23
0.0
 33
0.0
 40
0.0
 40
0.0
 40
0.0
 40
0.0
 40
0.2933118760927501
 40
0.5865991201419738
 40
0.8805021461503003
 40
1.0
 40
1.0
 40
1.0
 40
1.0
 10
1154.389491213201
 20
840.511045760336
 30
0.0
 10
1154.390417354177
 20
840.4877198701457
 30
0.0
 10
1154.392269558353
 20
840.4410700486508
 30
0.0
 10
1154.396875420407
 20
840.2365098766518
 30
0.0
 10
1154.401169101741
 20
840.0144721374648
 30
0.0
 10
1154.403763066352
 20
839.8662860293664
 30
0.0
 10
1154.404512878989
 20
839.8234512828749
 30
0.0
  0
ARC
  5
C6
330
1F
100
AcDbEntity
  8
0
  6
Continuous
 62
     7
370
    15
100
AcDbCircle
 10
1156.2635692236
 20
820.1342629457
 30
0.0
 40
20.45462897989386
100
AcDbArc
 50
58.0338577428
 51
86.8457025801
  0
ARC
  5
C7
330
1F
100
AcDbEntity
  8
0
  6
Continuous
 62
     7
370
    15
100
AcDbCircle
 10
1167.9611334149
 20
836.1791979888
 30
0.0
 40
1.570070036572796
100
AcDbArc
 50
123.5847199787
 51
150.794429401
  0
ARC
  5
C8
330
1F
100
AcDbEntity
  8
0
  6
Continuous
 62
     7
370
    15
100
AcDbCircle
 10
1166.5775227377
 20
836.6229159237
 30
0.0
 40
1.006114543193149
100
AcDbArc
 50
348.3706012327
 51
59.2051576569
  0
ARC
  5
C9
330
1F
100
AcDbEntity
  8
0
  6
Continuous
 62
     7
370
    15
100
AcDbCircle
 10
1142.7097821367
 20
837.8979943578
 30
0.0
 40
1.012836336039651
100
AcDbArc
 50
119.6261572123
 51
199.6738909804
  0
LINE
  5
CA
330
1F
100
AcDbEntity
  8
0
  6
Continuous
 62
     7
370
    15
100
AcDbLine
 10
1142.209097873
 20
838.778421931
 30
0.0
 11
1144.7972290122
 21
837.1388967693
 31
0.0
  0
LINE
  5
CB
330
1F
100
AcDbEntity
  8
0
  6
Continuous
 62
     7
370
    15
100
AcDbLine
 10
1167.092618714
 20
837.4871743395
 30
0.0
 11
1169.4512629939
 21
839.2039733656
 31
0.0
  0
ARC
  5
CC
330
1F
100
AcDbEntity
  8
0
  6
Continuous
 62
     7
370
    15
100
AcDbCircle
 10
1168.9798447677
 20
838.3091063178
 30
0.0
 40
1.011445587843405
100
AcDbArc
 50
342.0445850076
 51
62.2196250298
  0
SPLINE
  5
CD
330
1F
100
AcDbEntity
  8
0
  6
Continuous
 62
     7
370
    15
100
AcDbSpline
210
0.0
220
0.0
230
1.0
 70
     8
 71
     3
 72
    10
 73
     6
 74
     0
 42
0.00000001
 43
0.00000001
 12
1.0
 22
0.0
 32
0.0
 13
1.0
 23
0.0
 33
0.0
 40
0.0
 40
0.0
 40
0.0
 40
0.0
 40
0.2117958997117831
 40
0.4880069094714378
 40
1.0
 40
1.0
 40
1.0
 40
1.0
 10
1171.682399762296
 20
838.5572787657221
 30
0.0
 10
1171.681116514723
 20
838.5585026164787
 30
0.0
 10
1171.678159735659
 20
838.5613225371011
 30
0.0
 10
1171.66724913499
 20
838.5690445686903
 30
0.0
 10
1171.657412412898
 20
838.5751742771727
 30
0.0
 10
1171.651022781401
 20
838.5791559468809
 30
0.0
  0
SPLINE
  5
CE
330
1F
100
AcDbEntity
  8
0
  6
Continuous
 62
     7
370
    15
100
AcDbSpline
210
0.0
220
0.0
230
1.0
 70
     8
 71
     3
 72
    10
 73
     6
 74
     0
 42
0.00000001
 43
0.00000001
 12
1.0
 22
0.0
 32
0.0
 13
1.0
 23
0.0
 33
0.0
 40
0.0
 40
0.0
 40
0.0
 40
0.0
 40
0.355443945043707
 40
0.7142330220663119
 40
1.0
 40
1.0
 40
1.0
 40
1.0
 10
1169.451262993903
 20
839.2039733656308
 30
0.0
 10
1169.571941959579
 20
839.2222679964833
 30
0.0
 10
1169.814435617316
 20
839.2590294314821
 30
0.0
 10
1170.65015299585
 20
839.0258404828362
 30
0.0
 10
1171.36532490926
 20
838.7012066930563
 30
0.0
 10
1171.682399762296
 20
838.5572787657221
 30
0.0
  0
LINE
  5
CF
330
1F
100
AcDbEntity
  8
0
  6
Continuous
 62
     7
370
    15
100
AcDbLine
 10
1156.0149562515
 20
842.8200228553
 30
0.0
 11
1157.3790976303
 21
840.7197832207
 31
0.0
  0
SPLINE
  5
D0
330
1F
100
AcDbEntity
  8
0
  6
Continuous
 62
     7
370
    15
100
AcDbSpline
210
0.0
220
0.0
230
1.0
 70
     8
 71
     3
 72
    12
 73
     8
 74
     0
 42
0.00000001
 43
0.00000001
 12
1.0
 22
0.0
 32
0.0
 13
1.0
 23
0.0
 33
0.0
 40
0.0
 40
0.0
 40
0.0
 40
0.0
 40
0.2238925288134476
 40
0.4477848652797917
 40
0.6716820736205243
 40
0.8955819150460796
 40
1.0
 40
1.0
 40
1.0
 40
1.0
 10
1155.763917927691
 20
842.842609824481
 30
0.0
 10
1155.792039995216
 20
842.8427123544004
 30
0.0
 10
1155.848284106106
 20
842.8429174141511
 30
0.0
 10
1155.923470355739
 20
842.8390591088823
 30
0.0
 10
1155.980499840581
 20
842.8326860052489
 30
0.0
 10
1156.008540146427
 20
842.8258157018689
 30
0.0
 10
1156.013408061899
 20
842.8214206542261
 30
0.0
 10
1156.014956251536
 20
842.8200228552597
 30
0.0
  0
ELLIPSE
  5
D1
330
1F
100
AcDbEntity
  8
0
  6
Continuous
 62
     7
370
    15
100
AcDbEllipse
 10
1156.3309441644
 20
804.1703288224
 30
0.0
 11
-0.4930957439685244
 21
38.67331122135556
 31
0.0
210
0.0
220
0.0
230
1.0
 40
0.898320895
 41
0.0021280784208278
 42
0.0030286331805449
  0
SPLINE
  5
D2
330
1F
100
AcDbEntity
  8
0
  6
Continuous
 62
     7
370
    15
100
AcDbSpline
210
0.0
220
0.0
230
1.0
 70
     8
 71
     3
 72
    12
 73
     8
 74
     0
 42
0.00000001
 43
0.00000001
 12
1.0
 22
0.0
 32
0.0
 13
1.0
 23
0.0
 33
0.0
 40
0.0
 40
0.0
 40
0.0
 40
0.0
 40
0.2238925571850972
 40
0.4477848984198173
 40
0.6716824862031742
 40
0.8955821585468934
 40
1.0
 40
1.0
 40
1.0
 40
1.0
 10
1155.484780770835
 20
842.8117409534575
 30
0.0
 10
1155.489163351653
 20
842.8148741185139
 30
0.0
 10
1155.497928509063
 20
842.8211404456047
 30
0.0
 10
1155.545275579846
 20
842.8300548699966
 30
0.0
 10
1155.611866250981
 20
842.8371566836921
 30
0.0
 10
1155.67856455331
 20
842.8409502125199
 30
0.0
 10
1155.719586407589
 20
842.8418385834844
 30
0.0
 10
1155.732632965559
 20
842.8421211202808
 30
0.0
  0
LINE
  5
D3
330
1F
100
AcDbEntity
  8
0
  6
Continuous
 62
     7
370
    15
100
AcDbLine
 10
1155.4847807708
 20
842.8117409535
 30
0.0
 11
1154.379502217
 21
840.6729263675
 31
0.0
  0
SPLINE
  5
D4
330
1F
100
AcDbEntity
  8
0
  6
Continuous
 62
     7
370
    15
100
AcDbSpline
210
0.0
220
0.0
230
1.0
 70
     8
 71
     3
 72
    10
 73
     6
 74
     0
 42
0.00000001
 43
0.00000001
 12
1.0
 22
0.0
 32
0.0
 13
1.0
 23
0.0
 33
0.0
 40
0.0
 40
0.0
 40
0.0
 40
0.0
 40
0.2857669779336534
 40
0.6445560549562778
 40
1.0
 40
1.0
 40
1.0
 40
1.0
 10
1139.965988967112
 20
838.0618348810358
 30
0.0
 10
1140.280434527228
 20
838.2156278252148
 30
0.0
 10
1140.989675991
 20
838.5625124586209
 30
0.0
 10
1141.829593331296
 20
838.8218765939793
 30
0.0
 10
1142.08299195914
 20
838.7928615210119
 30
0.0
 10
1142.209097872989
 20
838.7784219310145
 30
0.0
  0
SPLINE
  5
D5
330
1F
100
AcDbEntity
  8
0
  6
Continuous
 62
     7
370
    15
100
AcDbSpline
210
0.0
220
0.0
230
1.0
 70
     8
 71
     3
 72
    11
 73
     7
 74
     0
 42
0.00000001
 43
0.00000001
 12
1.0
 22
0.0
 32
0.0
 13
1.0
 23
0.0
 33
0.0
 40
0.0
 40
0.0
 40
0.0
 40
0.0
 40
0.3704320937878137
 40
0.7442498469287536
 40
0.9442480537685242
 40
1.0
 40
1.0
 40
1.0
 40
1.0
 10
1139.996454239307
 20
838.0846781036015
 30
0.0
 10
1139.991923477455
 20
838.0816591018727
 30
0.0
 10
1139.982820543689
 20
838.0755935054725
 30
0.0
 10
1139.972344785785
 20
838.067891106758
 30
0.0
 10
1139.967427240587
 20
838.0635072115949
 30
0.0
 10
1139.966246386069
 20
838.062134191004
 30
0.0
 10
1139.965988967112
 20
838.0618348810358
 30
0.0
  0
ARC
  5
D6
330
1F
100
AcDbEntity
  8
0
  6
Continuous
 62
     7
370
    15
100
AcDbCircle
 10
1156.2157858369
 20
813.2345559644
 30
0.0
 40
29.67482582605468
100
AcDbArc
 50
58.6579659272
 51
123.131929855
  0
LINE
  5
D7
330
1F
100
AcDbEntity
  8
0
  6
Continuous
 62
     7
370
    15
100
AcDbLine
 10
1154.379502217
 20
840.6729263675
 30
0.0
 11
1154.3894912132
 21
840.5110457603
 31
0.0
  0
ARC
  5
D8
330
1F
100
AcDbEntity
  8
0
  6
Continuous
 62
     7
370
    15
100
AcDbCircle
 10
1110.5695495593
 20
837.9152508291
 30
0.0
 40
44.85360011525417
100
AcDbArc
 50
0.8017623693
 51
1.6686716805
  0
SPLINE
  5
D9
330
1F
100
AcDbEntity
  8
0
  6
Continuous
 62
     7
370
    15
100
AcDbSpline
210
0.0
220
0.0
230
1.0
 70
     8
 71
     3
 72
    10
 73
     6
 74
     0
 42
0.00000001
 43
0.00000001
 12
1.0
 22
0.0
 32
0.0
 13
1.0
 23
0.0
 33
0.0
 40
0.0
 40
0.0
 40
0.0
 40
0.0
 40
0.1218258934006429
 40
0.5209863183066586
 40
0.9999999999999999
 40
0.9999999999999999
 40
0.9999999999999999
 40
0.9999999999999999
 10
1155.371293971689
 20
839.2259774206904
 30
0.0
 10
1155.351280178934
 20
839.2280860907729
 30
0.0
 10
1155.265691541644
 20
839.2371037817754
 30
0.0
 10
1155.067749050537
 20
839.2686679891625
 30
0.0
 10
1154.922795154414
 20
839.3567123399632
 30
0.0
 10
1154.843727804403
 20
839.4047374961509
 30
0.0
  0
LWPOLYLINE
  5
DA
330
1F
100
AcDbEntity
  8
0
  6
Continuous
 62
     7
370
    15
100
AcDbPolyline
 90
        3
 70
   128
 43
0.0
 10
1155.3712939717
 20
839.2259774207
 10
1155.3996237905
 20
839.2220055065
 10
1155.4041286836
 20
839.2213741193
  0
ARC
  5
DB
330
1F
100
AcDbEntity
  8
0
  6
Continuous
 62
     7
370
    15
100
AcDbCircle
 10
1111.5694146916
 20
837.93086978
 30
0.0
 40
44.85360012066744
100
AcDbArc
 50
0.8017623694
 51
1.6686716805
  0
LWPOLYLINE
  5
DC
330
1F
100
AcDbEntity
  8
0
  6
Continuous
 62
     7
370
    15
100
AcDbPolyline
 90
        3
 70
   128
 43
0.0
 10
1156.4039938213
 20
839.2369930704
 10
1156.4084319715
 20
839.2377641574
 10
1156.4363419401
 20
839.2426145965
  0
SPLINE
  5
DD
330
1F
100
AcDbEntity
  8
0
  6
Continuous
 62
     7
370
    15
100
AcDbSpline
210
0.0
220
0.0
230
1.0
 70
     8
 71
     3
 72
    12
 73
     8
 74
     0
 42
0.00000001
 43
0.00000001
 12
1.0
 22
0.0
 32
0.0
 13
1.0
 23
0.0
 33
0.0
 40
0.0
 40
0.0
 40
0.0
 40
0.0
 40
0.1252468056917054
 40
0.6666337746655028
 40
0.8658618029454124
 40
0.9738349037720002
 40
1.0
 40
1.0
 40
1.0
 40
1.0
 10
1156.993753477222
 20
839.466498086537
 30
0.0
 10
1156.975010057906
 20
839.4481533583531
 30
0.0
 10
1156.875247063551
 20
839.3505124219079
 30
0.0
 10
1156.694522012041
 20
839.2899421528
 30
0.0
 10
1156.527144918744
 20
839.2546592455639
 30
0.0
 10
1156.461526221899
 20
839.2466097581653
 30
0.0
 10
1156.440452580268
 20
839.2432666965926
 30
0.0
 10
1156.436341940098
 20
839.2426145965223
 30
0.0
  0
LINE
  5
DE
330
1F
100
AcDbEntity
  8
0
  6
Continuous
 62
     7
370
    15
100
AcDbLine
 10
1155.4041286836
 20
839.2213741193
 30
0.0
 11
1156.4039938213
 21
839.2369930704
 31
0.0
  0
SPLINE
  5
DF
330
1F
100
AcDbEntity
  8
0
  6
Continuous
 62
     7
370
    15
100
AcDbSpline
210
0.0
220
0.0
230
1.0
 70
     8
 71
     3
 72
     9
 73
     5
 74
     0
 42
0.00000001
 43
0.00000001
 12
1.0
 22
0.0
 32
0.0
 13
1.0
 23
0.0
 33
0.0
 40
0.0
 40
0.0
 40
0.0
 40
0.0
 40
0.5599883518063924
 40
1.0
 40
1.0
 40
1.0
 40
1.0
 10
1154.385430817377
 20
840.2794419675114
 30
0.0
 10
1154.591318432676
 20
840.706885760103
 30
0.0
 10
1154.958982536106
 20
841.4701941239517
 30
0.0
 10
1155.32682604041
 20
842.2220321554151
 30
0.0
 10
1155.488681467016
 20
842.5528496468139
 30
0.0
  0
SPLINE
  5
E0
330
1F
100
AcDbEntity
  8
0
  6
Continuous
 62
     7
370
    15
100
AcDbSpline
210
0.0
220
0.0
230
1.0
 70
     8
 71
     3
 72
    13
 73
     9
 74
     0
 42
0.00000001
 43
0.00000001
 12
1.0
 22
0.0
 32
0.0
 13
1.0
 23
0.0
 33
0.0
 40
0.0
 40
0.0
 40
0.0
 40
0.0
 40
0.2395002964000033
 40
0.3683885601041462
 40
0.4999999829034785
 40
0.631611408004416
 40
0.7604996784703805
 40
1.0
 40
1.0
 40
1.0
 40
1.0
 10
1155.742217742245
 20
842.3078073337028
 30
0.0
 10
1155.710791795842
 20
842.3109246520223
 30
0.0
 10
1155.662453821655
 20
842.3157195705435
 30
0.0
 10
1155.603911155097
 20
842.346108755814
 30
0.0
 10
1155.563451628882
 20
842.3776691788881
 30
0.0
 10
1155.530614968487
 20
842.4169494191531
 30
0.0
 10
1155.49853954883
 20
842.4741424764469
 30
0.0
 10
1155.492565422968
 20
842.5218400458981
 30
0.0
 10
1155.488681467016
 20
842.5528496468139
 30
0.0
  0
SPLINE
  5
E1
330
1F
100
AcDbEntity
  8
0
  6
Continuous
 62
     7
370
    15
100
AcDbSpline
210
0.0
220
0.0
230
1.0
 70
     8
 71
     3
 72
    10
 73
     6
 74
     0
 42
0.00000001
 43
0.00000001
 12
1.0
 22
0.0
 32
0.0
 13
1.0
 23
0.0
 33
0.0
 40
0.0
 40
0.0
 40
0.0
 40
0.0
 40
0.2799064441986901
 40
0.5601541560749644
 40
1.0
 40
1.0
 40
1.0
 40
1.0
 10
1155.742217604547
 20
842.307806933242
 30
0.0
 10
1155.678178823699
 20
842.0198979645667
 30
0.0
 10
1155.550023184609
 20
841.4437290026967
 30
0.0
 10
1155.660030219815
 20
840.419359335168
 30
0.0
 10
1155.480781966285
 20
839.6785045746273
 30
0.0
 10
1155.371293971689
 20
839.2259774206892
 30
0.0
  0
SPLINE
  5
E2
330
1F
100
AcDbEntity
  8
0
  6
Continuous
 62
     7
370
    15
100
AcDbSpline
210
0.0
220
0.0
230
1.0
 70
     8
 71
     3
 72
     9
 73
     5
 74
     0
 42
0.00000001
 43
0.00000001
 12
1.0
 22
0.0
 32
0.0
 13
1.0
 23
0.0
 33
0.0
 40
0.0
 40
0.0
 40
0.0
 40
0.0
 40
0.5599643505413427
 40
1.0
 40
1.0
 40
1.0
 40
1.0
 10
1156.436341940144
 20
839.2426145965131
 30
0.0
 10
1156.302568117708
 20
839.8146408972362
 30
0.0
 10
1156.063671083803
 20
840.8361814652563
 30
0.0
 10
1155.861725666889
 20
841.8584509988501
 30
0.0
 10
1155.772862484201
 20
842.3082860369868
 30
0.0
  0
SPLINE
  5
E3
330
1F
100
AcDbEntity
  8
0
  6
Continuous
 62
     7
370
    15
100
AcDbSpline
210
0.0
220
0.0
230
1.0
 70
     8
 71
     3
 72
    13
 73
     9
 74
     0
 42
0.00000001
 43
0.00000001
 12
1.0
 22
0.0
 32
0.0
 13
1.0
 23
0.0
 33
0.0
 40
0.0
 40
0.0
 40
0.0
 40
0.0
 40
0.2395003215296364
 40
0.3683885919955771
 40
0.5000000170965225
 40
0.6316114398958909
 40
0.7604997035999916
 40
1.0
 40
1.0
 40
1.0
 40
1.0
 10
1156.018856947717
 20
842.5611315486161
 30
0.0
 10
1156.015895636179
 20
842.5300150173816
 30
0.0
 10
1156.011340680341
 20
842.482152972537
 30
0.0
 10
1155.980995009685
 20
842.4239848317865
 30
0.0
 10
1155.949358512385
 20
842.3836974526018
 30
0.0
 10
1155.909879130031
 20
842.3508882992203
 30
0.0
 10
1155.852302286696
 20
842.3186852043799
 30
0.0
 10
1155.804160732294
 20
842.3123831735708
 30
0.0
 10
1155.772862484201
 20
842.3082860369868
 30
0.0
  0
SPLINE
  5
E4
330
1F
100
AcDbEntity
  8
0
  6
Continuous
 62
     7
370
    15
100
AcDbSpline
210
0.0
220
0.0
230
1.0
 70
     8
 71
     3
 72
    10
 73
     6
 74
     0
 42
0.00000001
 43
0.00000001
 12
1.0
 22
0.0
 32
0.0
 13
1.0
 23
0.0
 33
0.0
 40
0.0
 40
0.0
 40
0.0
 40
0.0
 40
0.2798941683426679
 40
0.5601310591730921
 40
0.9999999999999999
 40
0.9999999999999999
 40
0.9999999999999999
 40
0.9999999999999999
 10
1156.018856765933
 20
842.5611319347523
 30
0.0
 10
1156.146773212824
 20
842.3216182526285
 30
0.0
 10
1156.402762736675
 20
841.8422976106558
 30
0.0
 10
1156.854963329169
 20
841.3130515435614
 30
0.0
 10
1157.184023404924
 20
840.7004809885825
 30
0.0
 10
1157.385026230658
 20
840.3262988206919
 30
0.0
  0
LINE
  5
E5
330
1F
100
AcDbEntity
  8
0
  6
Continuous
 62
     7
370
    15
100
AcDbLine
 10
1155.7728624842
 20
842.308286037
 30
0.0
 11
1155.7422177422
 21
842.3078073337
 31
0.0
  0
LINE
  5
E6
330
1F
100
AcDbEntity
  8
0
  6
Continuous
 62
     7
370
    15
100
AcDbLine
 10
1155.488681467
 20
842.5528496468
 30
0.0
 11
1155.4847807708
 21
842.8117409535
 31
0.0
  0
LINE
  5
E7
330
1F
100
AcDbEntity
  8
0
  6
Continuous
 62
     7
370
    15
100
AcDbLine
 10
1156.0149562515
 20
842.8200228553
 30
0.0
 11
1156.0188569477
 21
842.5611315486
 31
0.0
  0
SPLINE
  5
E8
330
1F
100
AcDbEntity
  8
0
  6
Continuous
 62
     7
370
    15
100
AcDbSpline
210
0.0
220
0.0
230
1.0
 70
     8
 71
     3
 72
    12
 73
     8
 74
     0
 42
0.00000001
 43
0.00000001
 12
1.0
 22
0.0
 32
0.0
 13
1.0
 23
0.0
 33
0.0
 40
0.0
 40
0.0
 40
0.0
 40
0.0
 40
0.0304717459459369
 40
0.0888135668586034
 40
0.3925556175487555
 40
0.6962774394174166
 40
1.0
 40
1.0
 40
1.0
 40
1.0
 10
1140.75431361034
 20
794.0875363501767
 30
0.0
 10
1140.750796125358
 20
794.0774717796827
 30
0.0
 10
1140.740543992508
 20
794.0481373790193
 30
0.0
 10
1140.699390037538
 20
793.9149947506476
 30
0.0
 10
1140.655586396621
 20
793.670950575385
 30
0.0
 10
1140.658742538205
 20
793.3293933005614
 30
0.0
 10
1140.71525263109
 20
793.1371631988758
 30
0.0
 10
1140.743507711894
 20
793.0410480311474
 30
0.0
  0
SPLINE
  5
E9
330
1F
100
AcDbEntity
  8
0
  6
Continuous
 62
     7
370
    15
100
AcDbSpline
210
0.0
220
0.0
230
1.0
 70
     8
 71
     3
 72
    11
 73
     7
 74
     0
 42
0.00000001
 43
0.00000001
 12
1.0
 22
0.0
 32
0.0
 13
1.0
 23
0.0
 33
0.0
 40
0.0
 40
0.0
 40
0.0
 40
0.0
 40
0.2357948537758689
 40
0.274901996804482
 40
0.6342531696138372
 40
0.9999999999999999
 40
0.9999999999999999
 40
0.9999999999999999
 40
0.9999999999999999
 10
1140.75431361034
 20
794.0875363501767
 30
0.0
 10
1140.957990295035
 20
794.0951641669292
 30
0.0
 10
1141.195447247248
 20
794.1040570754167
 30
0.0
 10
1141.673912212033
 20
794.2694456347753
 30
0.0
 10
1142.17269250575
 20
794.6172908333376
 30
0.0
 10
1142.379541248797
 20
795.1473376955752
 30
0.0
 10
1142.483877865096
 20
795.414698740517
 30
0.0
  0
SPLINE
  5
EA
330
1F
100
AcDbEntity
  8
0
  6
Continuous
 62
     7
370
    15
100
AcDbSpline
210
0.0
220
0.0
230
1.0
 70
     8
 71
     3
 72
    11
 73
     7
 74
     0
 42
0.00000001
 43
0.00000001
 12
1.0
 22
0.0
 32
0.0
 13
1.0
 23
0.0
 33
0.0
 40
0.0
 40
0.0
 40
0.0
 40
0.0
 40
0.3658281109894355
 40
0.7252591430831028
 40
0.9820690181776371
 40
0.9999999999999999
 40
0.9999999999999999
 40
0.9999999999999999
 40
0.9999999999999999
 10
1170.669836397796
 20
795.8549932265238
 30
0.0
 10
1170.780148391096
 20
795.5911635582429
 30
0.0
 10
1170.998843399296
 20
795.0681176976614
 30
0.0
 10
1171.639757636399
 20
794.6388597721078
 30
0.0
 10
1172.163367373815
 20
794.5618340730045
 30
0.0
 10
1172.402133046642
 20
794.5809073691028
 30
0.0
 10
1172.417716105483
 20
794.5821521891469
 30
0.0
  0
SPLINE
  5
EB
330
1F
100
AcDbEntity
  8
0
  6
Continuous
 62
     7
370
    15
100
AcDbSpline
210
0.0
220
0.0
230
1.0
 70
     8
 71
     3
 72
    12
 73
     8
 74
     0
 42
0.00000001
 43
0.00000001
 12
1.0
 22
0.0
 32
0.0
 13
1.0
 23
0.0
 33
0.0
 40
0.0
 40
0.0
 40
0.0
 40
0.0
 40
0.3037225605806269
 40
0.6074443824473348
 40
0.9111864331355222
 40
0.9695282540476287
 40
1.0
 40
1.0
 40
1.0
 40
1.0
 10
1172.459918507078
 20
793.5364919158337
 30
0.0
 10
1172.48568662287
 20
793.633450983036
 30
0.0
 10
1172.537222791781
 20
793.8273688816167
 30
0.0
 10
1172.530222302614
 20
794.1688661036657
 30
0.0
 10
1172.478537003288
 20
794.4114186406755
 30
0.0
 10
1172.432849005142
 20
794.5432047058873
 30
0.0
 10
1172.421581844381
 20
794.5722029524237
 30
0.0
 10
1172.41771610548
 20
794.5821521891531
 30
0.0
  0
LWPOLYLINE
  5
EC
330
1F
100
AcDbEntity
  8
0
  6
Continuous
 62
     7
370
    15
100
AcDbPolyline
 90
       61
 70
   128
 43
0.0
 10
1155.6792147839
 20
843.6101265296
 10
1159.0788555673
 20
843.4938850951
 10
1162.4470969305
 20
843.0403137351
 10
1165.7470357163
 20
842.2543818723
 10
1168.9425171048
 20
841.1447003407
 10
1171.9985307332
 20
839.7234270434
 10
1174.8815942767
 20
838.0061337481
 10
1177.5601202878
 20
836.0116354794
 10
1180.004762275
 20
833.7617843778
 10
1182.1887362291
 20
831.2812302827
 10
1184.0881140744
 20
828.597150664
 10
1185.6820858298
 20
825.7389528595
 10
1186.9531876072
 20
822.7379518825
 10
1187.8874929495
 20
819.6270273279
 10
1188.4747654119
 20
816.4402631358
 10
1188.7085707143
 20
813.2125741619
 10
1188.586347237
 20
809.9793236418
 10
1188.1094340859
 20
806.7759357448
 10
1187.2830564214
 20
803.6375074592
 10
1186.11626821
 20
800.598424062
 10
1184.6218530276
 20
797.6919823868
 10
1182.8161839996
 20
794.9500260168
 10
1180.7190444138
 20
792.4025963999
 10
1178.3534109703
 20
790.077603708
 10
1175.7452020442
 20
788.0005210475
 10
1172.9229937182
 20
786.1941053708
 10
1169.9177066974
 20
784.6781481461
 10
1166.7622675352
 20
783.4692585178
 10
1163.4912478835
 20
782.5806813338
 10
1160.140485718
 20
782.0221520316
 10
1156.7466926903
 20
781.7997899752
 10
1153.3470519069
 20
781.9160314097
 10
1149.9788105437
 20
782.3696027698
 10
1146.6788717579
 20
783.1555346325
 10
1143.4833903694
 20
784.2652161641
 10
1140.427376741
 20
785.6864894614
 10
1137.5443131975
 20
787.4037827567
 10
1134.8657871864
 20
789.3982810254
 10
1132.4211451992
 20
791.648132127
 10
1130.2371712451
 20
794.1286862221
 10
1128.3377933998
 20
796.8127658408
 10
1126.7438216444
 20
799.6709636453
 10
1125.472719867
 20
802.6719646223
 10
1124.5384145247
 20
805.782889177
 10
1123.9511420623
 20
808.969653369
 10
1123.7173367599
 20
812.197342343
 10
1123.8395602372
 20
815.4305928631
 10
1124.3164733882
 20
818.63398076
 10
1125.1428510528
 20
821.7724090456
 10
1126.3096392642
 20
824.8114924429
 10
1127.8040544466
 20
827.7179341181
 10
1129.6097234746
 20
830.459890488
 10
1131.7068630604
 20
833.0073201049
 10
1134.0724965039
 20
835.3323127968
 10
1136.68070543
 20
837.4093954573
 10
1139.502913756
 20
839.215811134
 10
1142.5082007768
 20
840.7317683587
 10
1145.663639939
 20
841.940657987
 10
1148.9346595907
 20
842.829235171
 10
1152.2854217561
 20
843.3877644732
 10
1155.6792147839
 20
843.6101265296
  0
SPLINE
  5
ED
330
1F
100
AcDbEntity
  8
0
  6
Continuous
 62
     7
370
    15
100
AcDbSpline
210
0.0
220
0.0
230
1.0
 70
     8
 71
     3
 72
     9
 73
     5
 74
     0
 42
0.00000001
 43
0.00000001
 12
1.0
 22
0.0
 32
0.0
 13
1.0
 23
0.0
 33
0.0
 40
0.0
 40
0.0
 40
0.0
 40
0.0
 40
0.520974465233523
 40
1.0
 40
1.0
 40
1.0
 40
1.0
 10
1174.361068528748
 20
794.3922860834725
 30
0.0
 10
1174.028982862722
 20
794.163916091506
 30
0.0
 10
1173.391551110905
 20
793.7255644884885
 30
0.0
 10
1172.741056678316
 20
793.5768272323655
 30
0.0
 10
1172.429453234882
 20
793.5055782887115
 30
0.0
  0
ARC
  5
EE
330
1F
100
AcDbEntity
  8
0
  6
Continuous
 62
     7
370
    15
100
AcDbCircle
 10
1157.8780303108
 20
815.2606228191
 30
0.0
 40
27.13619416533534
100
AcDbArc
 50
13.1979910632
 51
54.5445327688
  0
SPLINE
  5
EF
330
1F
100
AcDbEntity
  8
0
  6
Continuous
 62
     7
370
    15
100
AcDbSpline
210
0.0
220
0.0
230
1.0
 70
     8
 71
     3
 72
     9
 73
     5
 74
     0
 42
0.00000001
 43
0.00000001
 12
1.0
 22
0.0
 32
0.0
 13
1.0
 23
0.0
 33
0.0
 40
0.0
 40
0.0
 40
0.0
 40
0.0
 40
0.4790255347664771
 40
1.0
 40
1.0
 40
1.0
 40
1.0
 10
1171.651022781401
 20
838.5791559468809
 30
0.0
 10
1171.966807490522
 20
838.4082964236385
 30
0.0
 10
1172.626030613722
 20
838.0516149717288
 30
0.0
 10
1173.278830684127
 20
837.6000924720023
 30
0.0
 10
1173.618922851711
 20
837.3648607791664
 30
0.0
  0
SPLINE
  5
F0
330
1F
100
AcDbEntity
  8
0
  6
Continuous
 62
     7
370
    15
100
AcDbSpline
210
0.0
220
0.0
230
1.0
 70
     8
 71
     3
 72
     9
 73
     5
 74
     0
 42
0.00000001
 43
0.00000001
 12
1.0
 22
0.0
 32
0.0
 13
1.0
 23
0.0
 33
0.0
 40
0.0
 40
0.0
 40
0.0
 40
0.0
 40
0.5209744652335261
 40
0.9999999999999999
 40
0.9999999999999999
 40
0.9999999999999999
 40
0.9999999999999999
 10
1138.064838945442
 20
836.8094683811823
 30
0.0
 10
1138.396924611468
 20
837.055200202776
 30
0.0
 10
1139.034356363285
 20
837.5268774883094
 30
0.0
 10
1139.684850795874
 20
837.9040181137957
 30
0.0
 10
1139.996454239307
 20
838.0846781036015
 30
0.0
  0
ARC
  5
F1
330
1F
100
AcDbEntity
  8
0
  6
Continuous
 62
     7
370
    15
100
AcDbCircle
 10
1154.5322609887
 20
815.2759411402
 30
0.0
 40
27.1084633313853
100
AcDbArc
 50
127.4063759033
 51
170.8997006005
  0
SPLINE
  5
F2
330
1F
100
AcDbEntity
  8
0
  6
Continuous
 62
     7
370
    15
100
AcDbSpline
210
0.0
220
0.0
230
1.0
 70
     8
 71
     3
 72
     9
 73
     5
 74
     0
 42
0.00000001
 43
0.00000001
 12
1.0
 22
0.0
 32
0.0
 13
1.0
 23
0.0
 33
0.0
 40
0.0
 40
0.0
 40
0.0
 40
0.0
 40
0.4790255347664742
 40
1.0
 40
1.0
 40
1.0
 40
1.0
 10
1140.774884692788
 20
793.0111004454322
 30
0.0
 10
1140.459099983667
 20
793.072548922523
 30
0.0
 10
1139.799876860468
 20
793.2008270050694
 30
0.0
 10
1139.147076790062
 20
793.6190238222798
 30
0.0
 10
1138.806984622479
 20
793.8368936854883
 30
0.0
  0
LINE
  5
F3
330
1F
100
AcDbEntity
  8
0
  6
Continuous
 62
     7
370
    15
100
AcDbLine
 10
1186.4121008602
 20
814.570207414
 30
0.0
 11
1186.4624722069
 21
815.1780785431
 31
0.0
  0
SPLINE
  5
F4
330
1F
100
AcDbEntity
  8
0
  6
Continuous
 62
     7
370
    15
100
AcDbSpline
210
0.0
220
0.0
230
1.0
 70
     8
 71
     3
 72
    10
 73
     6
 74
     0
 42
0.00000001
 43
0.00000001
 12
1.0
 22
0.0
 32
0.0
 13
1.0
 23
0.0
 33
0.0
 40
0.0
 40
0.0
 40
0.0
 40
0.0
 40
0.25002449698438
 40
0.5001267367216525
 40
1.0
 40
1.0
 40
1.0
 40
1.0
 10
1186.511845147809
 20
813.976546748203
 30
0.0
 10
1186.510910727372
 20
814.0272803176508
 30
0.0
 10
1186.509041595947
 20
814.1287632316698
 30
0.0
 10
1186.478899328113
 20
814.3376698043271
 30
0.0
 10
1186.438816706997
 20
814.477204694868
 30
0.0
 10
1186.412100860229
 20
814.5702074140172
 30
0.0
  0
SPLINE
  5
F5
330
1F
100
AcDbEntity
  8
0
  6
Continuous
 62
     7
370
    15
100
AcDbSpline
210
0.0
220
0.0
230
1.0
 70
     8
 71
     3
 72
    14
 73
    10
 74
     0
 42
0.00000001
 43
0.00000001
 12
1.0
 22
0.0
 32
0.0
 13
1.0
 23
0.0
 33
0.0
 40
0.0
 40
0.0
 40
0.0
 40
0.0
 40
0.1253212759754536
 40
0.2504985141949315
 40
0.4996277450168933
 40
0.6247307260444894
 40
0.749796863926145
 40
0.8748485128354095
 40
1.0
 40
1.0
 40
1.0
 40
1.0
 10
1186.23501229361
 20
813.586326178573
 30
0.0
 10
1186.251381020198
 20
813.5753187388447
 30
0.0
 10
1186.28409966001
 20
813.5533165107663
 30
0.0
 10
1186.34911429201
 20
813.5390347982285
 30
0.0
 10
1186.410276282857
 20
813.5764843296381
 30
0.0
 10
1186.45906543351
 20
813.6610373205269
 30
0.0
 10
1186.488034244488
 20
813.7467039644772
 30
0.0
 10
1186.50696681291
 20
813.8534609404225
 30
0.0
 10
1186.510218603657
 20
813.9355072326651
 30
0.0
 10
1186.511845147809
 20
813.976546748203
 30
0.0
  0
SPLINE
  5
F6
330
1F
100
AcDbEntity
  8
0
  6
Continuous
 62
     7
370
    15
100
AcDbSpline
210
0.0
220
0.0
230
1.0
 70
     8
 71
     3
 72
    11
 73
     7
 74
     0
 42
0.00000001
 43
0.00000001
 12
1.0
 22
0.0
 32
0.0
 13
1.0
 23
0.0
 33
0.0
 40
0.0
 40
0.0
 40
0.0
 40
0.0
 40
0.2838588111577245
 40
0.5673528831085286
 40
0.8507740755574529
 40
1.0
 40
1.0
 40
1.0
 40
1.0
 10
1185.689904207145
 20
814.6876227733251
 30
0.0
 10
1185.696251004687
 20
814.8514766278438
 30
0.0
 10
1185.708936444569
 20
815.1789737958566
 30
0.0
 10
1185.80217281669
 20
815.543331181874
 30
0.0
 10
1185.918167914366
 20
815.7450656811103
 30
0.0
 10
1186.010579948364
 20
815.7490934420125
 30
0.0
 10
1186.042454126337
 20
815.7504826719892
 30
0.0
  0
SPLINE
  5
F7
330
1F
100
AcDbEntity
  8
0
  6
Continuous
 62
     7
370
    15
100
AcDbSpline
210
0.0
220
0.0
230
1.0
 70
     8
 71
     3
 72
    11
 73
     7
 74
     0
 42
0.00000001
 43
0.00000001
 12
1.0
 22
0.0
 32
0.0
 13
1.0
 23
0.0
 33
0.0
 40
0.0
 40
0.0
 40
0.0
 40
0.0
 40
0.2501170261244775
 40
0.5000346532167461
 40
0.7499985010532446
 40
1.0
 40
1.0
 40
1.0
 40
1.0
 10
1186.210451770667
 20
812.7857190442322
 30
0.0
 10
1186.136311118418
 20
812.863202854066
 30
0.0
 10
1185.988088920551
 20
813.0181087018625
 30
0.0
 10
1185.818057090951
 20
813.5069739556549
 30
0.0
 10
1185.701457201255
 20
814.091841580528
 30
0.0
 10
1185.693755398516
 20
814.4890190722527
 30
0.0
 10
1185.689904207145
 20
814.6876227733251
 30
0.0
  0
LINE
  5
F8
330
1F
100
AcDbEntity
  8
0
  6
Continuous
 62
     7
370
    15
100
AcDbLine
 10
1186.4235553145
 20
812.7081023746
 30
0.0
 11
1186.2104517707
 21
812.7857190442
 31
0.0
  0
LINE
  5
F9
330
1F
100
AcDbEntity
  8
0
  6
Continuous
 62
     7
370
    15
100
AcDbLine
 10
1187.094840095
 20
813.5736076156
 30
0.0
 11
1186.7952378238
 21
813.9823925802
 31
0.0
  0
LINE
  5
FA
330
1F
100
AcDbEntity
  8
0
  6
Continuous
 62
     7
370
    15
100
AcDbLine
 10
1187.0461245376
 20
812.1896842656
 30
0.0
 11
1187.094840095
 21
813.5736076156
 31
0.0
  0
LINE
  5
FB
330
1F
100
AcDbEntity
  8
0
  6
Continuous
 62
     7
370
    15
100
AcDbLine
 10
1187.3361702347
 20
811.9611692067
 30
0.0
 11
1187.0461245376
 21
812.1896842656
 31
0.0
  0
SPLINE
  5
FC
330
1F
100
AcDbEntity
  8
0
  6
Continuous
 62
     7
370
    15
100
AcDbSpline
210
0.0
220
0.0
230
1.0
 70
     8
 71
     3
 72
    13
 73
     9
 74
     0
 42
0.00000001
 43
0.00000001
 12
1.0
 22
0.0
 32
0.0
 13
1.0
 23
0.0
 33
0.0
 40
0.0
 40
0.0
 40
0.0
 40
0.0
 40
0.1251383122053587
 40
0.2500462683789532
 40
0.3742191777999712
 40
0.4999373377631834
 40
0.7494294254181203
 40
1.0
 40
1.0
 40
1.0
 40
1.0
 10
1155.710057206651
 20
843.0708426360585
 30
0.0
 10
1155.577341739528
 20
843.068599212126
 30
0.0
 10
1155.312155109427
 20
843.064116493981
 30
0.0
 10
1154.934092471369
 20
843.0600263333375
 30
0.0
 10
1154.618727768811
 20
843.0622706737622
 30
0.0
 10
1154.315540996059
 20
843.0751206127767
 30
0.0
 10
1154.129399413843
 20
843.1068121323376
 30
0.0
 10
1154.112220252249
 20
843.1411929900046
 30
0.0
 10
1154.103612146273
 20
843.1584204934973
 30
0.0
  0
SPLINE
  5
FD
330
1F
100
AcDbEntity
  8
0
  6
Continuous
 62
     7
370
    15
100
AcDbSpline
210
0.0
220
0.0
230
1.0
 70
     8
 71
     3
 72
    13
 73
     9
 74
     0
 42
0.00000001
 43
0.00000001
 12
1.0
 22
0.0
 32
0.0
 13
1.0
 23
0.0
 33
0.0
 40
0.0
 40
0.0
 40
0.0
 40
0.0
 40
0.2507437464610202
 40
0.5003629547126897
 40
0.627217357064144
 40
0.7500908867140946
 40
0.8749320593095206
 40
1.0
 40
1.0
 40
1.0
 40
1.0
 10
1157.243426124196
 20
843.215444440288
 30
0.0
 10
1157.240417055736
 20
843.1977776107869
 30
0.0
 10
1157.234412413918
 20
843.1625231841689
 30
0.0
 10
1157.067086280095
 20
843.1238949735249
 30
0.0
 10
1156.788277342663
 20
843.0996665443156
 30
0.0
 10
1156.486196110802
 20
843.0859307397485
 30
0.0
 10
1156.109950488967
 20
843.0773697954735
 30
0.0
 10
1155.8434355795
 20
843.0730196716343
 30
0.0
 10
1155.710057206651
 20
843.0708426360585
 30
0.0
  0
LINE
  5
FE
330
1F
100
AcDbEntity
  8
0
  6
Continuous
 62
     7
370
    15
100
AcDbLine
 10
1128.4965311496
 20
800.9700494278
 30
0.0
 11
1128.9152941944
 21
800.1815774925
 31
0.0
  0
LINE
  5
FF
330
1F
100
AcDbEntity
  8
0
  6
Continuous
 62
     7
370
    15
100
AcDbLine
 10
1129.7342498538
 20
802.5957680643
 30
0.0
 11
1128.4965311496
 21
800.9700494278
 31
0.0
  0
LINE
  5
100
330
1F
100
AcDbEntity
  8
0
  6
Continuous
 62
     7
370
    15
100
AcDbLine
 10
1129.3688183148
 20
803.3259660358
 30
0.0
 11
1129.7342498538
 21
802.5957680643
 31
0.0
  0
LINE
  5
101
330
1F
100
AcDbEntity
  8
0
  6
Continuous
 62
     7
370
    15
100
AcDbLine
 10
1183.1659339729
 20
802.5149340032
 30
0.0
 11
1183.9536500249
 21
804.20948486
 31
0.0
  0
LINE
  5
102
330
1F
100
AcDbEntity
  8
0
  6
Continuous
 62
     7
370
    15
100
AcDbLine
 10
1182.4898330371
 20
802.2019263827
 30
0.0
 11
1182.8561871369
 21
802.915292908
 31
0.0
  0
LINE
  5
103
330
1F
100
AcDbEntity
  8
0
  6
Continuous
 62
     7
370
    15
100
AcDbLine
 10
1182.7997643305
 20
801.8015056373
 30
0.0
 11
1182.4898330371
 21
802.2019263827
 31
0.0
  0
LINE
  5
104
330
1F
100
AcDbEntity
  8
0
  6
Continuous
 62
     7
370
    15
100
AcDbLine
 10
1182.6185117279
 20
801.4627847012
 30
0.0
 11
1182.7997643305
 21
801.8015056373
 31
0.0
  0
LINE
  5
105
330
1F
100
AcDbEntity
  8
0
  6
Continuous
 62
     7
370
    15
100
AcDbLine
 10
1182.8842320018
 20
801.1207200147
 30
0.0
 11
1182.6185117279
 21
801.4627847012
 31
0.0
  0
LINE
  5
106
330
1F
100
AcDbEntity
  8
0
  6
Continuous
 62
     7
370
    15
100
AcDbLine
 10
1184.036757345
 20
800.2056444445
 30
0.0
 11
1183.0653429695
 21
801.4594912928
 31
0.0
  0
LINE
  5
107
330
1F
100
AcDbEntity
  8
0
  6
Continuous
 62
     7
370
    15
100
AcDbLine
 10
1170.8033941879
 20
788.2642716293
 30
0.0
 11
1171.5227241383
 21
788.6376559775
 31
0.0
  0
SPLINE
  5
108
330
1F
100
AcDbEntity
  8
0
  6
Continuous
 62
     7
370
    15
100
AcDbSpline
210
0.0
220
0.0
230
1.0
 70
     8
 71
     3
 72
    12
 73
     8
 74
     0
 42
0.00000001
 43
0.00000001
 12
1.0
 22
0.0
 32
0.0
 13
1.0
 23
0.0
 33
0.0
 40
0.0
 40
0.0
 40
0.0
 40
0.0
 40
0.125342099000837
 40
0.2505766495713369
 40
0.5003594126837804
 40
0.7502158850233464
 40
1.0
 40
1.0
 40
1.0
 40
1.0
 10
1170.394741171323
 20
787.787166970013
 30
0.0
 10
1170.421029334552
 20
787.801105303308
 30
0.0
 10
1170.473583104736
 20
787.828970010262
 30
0.0
 10
1170.571793497756
 20
787.8976091120547
 30
0.0
 10
1170.677785633994
 20
787.9986521637745
 30
0.0
 10
1170.772343281185
 20
788.1337117021035
 30
0.0
 10
1170.793044885001
 20
788.220755855415
 30
0.0
 10
1170.803394187918
 20
788.2642716292547
 30
0.0
  0
SPLINE
  5
109
330
1F
100
AcDbEntity
  8
0
  6
Continuous
 62
     7
370
    15
100
AcDbSpline
210
0.0
220
0.0
230
1.0
 70
     8
 71
     3
 72
    14
 73
    10
 74
     0
 42
0.00000001
 43
0.00000001
 12
1.0
 22
0.0
 32
0.0
 13
1.0
 23
0.0
 33
0.0
 40
0.0
 40
0.0
 40
0.0
 40
0.0
 40
0.125185536330837
 40
0.2501590837917375
 40
0.3739032495526016
 40
0.5002395262217628
 40
0.6250671855108128
 40
0.7503825288823405
 40
1.0
 40
1.0
 40
1.0
 40
1.0
 10
1169.909961718314
 20
787.8424507338245
 30
0.0
 10
1169.916401685716
 20
787.8255007926111
 30
0.0
 10
1169.929270715095
 20
787.791629613172
 30
0.0
 10
1169.966596366995
 20
787.7516173014955
 30
0.0
 10
1170.019243499929
 20
787.7244750882866
 30
0.0
 10
1170.084121418406
 20
787.7113365871953
 30
0.0
 10
1170.157284989378
 20
787.7114574885289
 30
0.0
 10
1170.261839980266
 20
787.7289644066242
 30
0.0
 10
1170.341623816349
 20
787.7639048292046
 30
0.0
 10
1170.394741171323
 20
787.787166970013
 30
0.0
  0
SPLINE
  5
10A
330
1F
100
AcDbEntity
  8
0
  6
Continuous
 62
     7
370
    15
100
AcDbSpline
210
0.0
220
0.0
230
1.0
 70
     8
 71
     3
 72
    13
 73
     9
 74
     0
 42
0.00000001
 43
0.00000001
 12
1.0
 22
0.0
 32
0.0
 13
1.0
 23
0.0
 33
0.0
 40
0.0
 40
0.0
 40
0.0
 40
0.0
 40
0.1249545821384469
 40
0.249926338068112
 40
0.3749780315022264
 40
0.5000948438578803
 40
0.749671310106945
 40
1.0
 40
1.0
 40
1.0
 40
1.0
 10
1169.339073984874
 20
788.9509182693317
 30
0.0
 10
1169.353024958281
 20
788.9173368129763
 30
0.0
 10
1169.380928822521
 20
788.8501692848208
 30
0.0
 10
1169.478046497505
 20
788.7851679964458
 30
0.0
 10
1169.604662441277
 20
788.7534579763543
 30
0.0
 10
1169.797523721907
 20
788.7481166217075
 30
0.0
 10
1170.067942108149
 20
788.8118641271583
 30
0.0
 10
1170.27801130084
 20
788.908117908854
 30
0.0
 10
1170.383203946179
 20
788.9563172178092
 30
0.0
  0
SPLINE
  5
10B
330
1F
100
AcDbEntity
  8
0
  6
Continuous
 62
     7
370
    15
100
AcDbSpline
210
0.0
220
0.0
230
1.0
 70
     8
 71
     3
 72
    13
 73
     9
 74
     0
 42
0.00000001
 43
0.00000001
 12
1.0
 22
0.0
 32
0.0
 13
1.0
 23
0.0
 33
0.0
 40
0.0
 40
0.0
 40
0.0
 40
0.0
 40
0.2881794591099336
 40
0.4319410002050302
 40
0.5772046789141987
 40
0.7201783724840577
 40
0.8661989506383838
 40
1.0
 40
1.0
 40
1.0
 40
1.0
 10
1169.753057542169
 20
790.1367909025935
 30
0.0
 10
1169.930847067859
 20
790.2148249640888
 30
0.0
 10
1170.197328883703
 20
790.3317871885184
 30
0.0
 10
1170.539733670844
 20
790.3866657266974
 30
0.0
 10
1170.774032473752
 20
790.3826444349897
 30
0.0
 10
1170.976273117018
 20
790.3309915635218
 30
0.0
 10
1171.143028933914
 20
790.2431718888264
 30
0.0
 10
1171.199716557773
 20
790.1424892528817
 30
0.0
 10
1171.226822623968
 20
790.0943462895891
 30
0.0
  0
SPLINE
  5
10C
330
1F
100
AcDbEntity
  8
0
  6
Continuous
 62
     7
370
    15
100
AcDbSpline
210
0.0
220
0.0
230
1.0
 70
     8
 71
     3
 72
    14
 73
    10
 74
     0
 42
0.00000001
 43
0.00000001
 12
1.0
 22
0.0
 32
0.0
 13
1.0
 23
0.0
 33
0.0
 40
0.0
 40
0.0
 40
0.0
 40
0.0
 40
0.0627098161327468
 40
0.1253992349461799
 40
0.2505818306578954
 40
0.375758445988696
 40
0.5010161182504004
 40
0.7502081152926771
 40
1.0
 40
1.0
 40
1.0
 40
1.0
 10
1168.577613588802
 20
788.6057295303036
 30
0.0
 10
1168.570183689738
 20
788.636173963968
 30
0.0
 10
1168.555326308298
 20
788.6970529287829
 30
0.0
 10
1168.550559459615
 20
788.8282256157969
 30
0.0
 10
1168.577540961334
 20
789.0023798235052
 30
0.0
 10
1168.677817170672
 20
789.2208991923252
 30
0.0
 10
1168.873774800027
 20
789.507131556063
 30
0.0
 10
1169.226530731339
 20
789.8507279792474
 30
0.0
 10
1169.577407994844
 20
790.0413602009488
 30
0.0
 10
1169.753057542169
 20
790.1367909025935
 30
0.0
  0
LINE
  5
10D
330
1F
100
AcDbEntity
  8
0
  6
Continuous
 62
     7
370
    15
100
AcDbLine
 10
1168.6353907632
 20
788.5030338532
 30
0.0
 11
1168.5776135888
 21
788.6057295303
 31
0.0
  0
SPLINE
  5
10E
330
1F
100
AcDbEntity
  8
0
  6
Continuous
 62
     7
370
    15
100
AcDbSpline
210
0.0
220
0.0
230
1.0
 70
     8
 71
     3
 72
    12
 73
     8
 74
     0
 42
0.00000001
 43
0.00000001
 12
1.0
 22
0.0
 32
0.0
 13
1.0
 23
0.0
 33
0.0
 40
0.0
 40
0.0
 40
0.0
 40
0.0
 40
0.1252495207036618
 40
0.2503882813437304
 40
0.500061062677739
 40
0.7498375370267337
 40
1.0
 40
1.0
 40
1.0
 40
1.0
 10
1169.142978897226
 20
787.4448565820476
 30
0.0
 10
1169.136260179517
 20
787.4759414478754
 30
0.0
 10
1169.122828685562
 20
787.5380836907092
 30
0.0
 10
1169.130178835168
 20
787.6748408588716
 30
0.0
 10
1169.195074575407
 20
787.8584376542908
 30
0.0
 10
1169.34552433262
 20
788.0792538989971
 30
0.0
 10
1169.486792799519
 20
788.2123758890451
 30
0.0
 10
1169.557481567649
 20
788.278988273919
 30
0.0
  0
LINE
  5
10F
330
1F
100
AcDbEntity
  8
0
  6
Continuous
 62
     7
370
    15
100
AcDbLine
 10
1143.9319717094
 20
787.4293023437
 30
0.0
 11
1144.69636701
 21
787.115650355
 31
0.0
  0
SPLINE
  5
110
330
1F
100
AcDbEntity
  8
0
  6
Continuous
 62
     7
370
    15
100
AcDbSpline
210
0.0
220
0.0
230
1.0
 70
     8
 71
     3
 72
    13
 73
     9
 74
     0
 42
0.00000001
 43
0.00000001
 12
1.0
 22
0.0
 32
0.0
 13
1.0
 23
0.0
 33
0.0
 40
0.0
 40
0.0
 40
0.0
 40
0.0
 40
0.1252180928283893
 40
0.2502722717739797
 40
0.3740508939928864
 40
0.5006080042240436
 40
0.7498894672981021
 40
1.0
 40
1.0
 40
1.0
 40
1.0
 10
1143.220132850352
 20
787.2246162508554
 30
0.0
 10
1143.262774983415
 20
787.2075305010383
 30
0.0
 10
1143.34800342983
 20
787.1733813671142
 30
0.0
 10
1143.475880810656
 20
787.1500586047625
 30
0.0
 10
1143.594671063154
 20
787.1508990211405
 30
0.0
 10
1143.733539425445
 20
787.1819948872263
 30
0.0
 10
1143.865753765464
 20
787.2698111745291
 30
0.0
 10
1143.909874645573
 20
787.3760798130513
 30
0.0
 10
1143.931971709444
 20
787.4293023436788
 30
0.0
  0
SPLINE
  5
111
330
1F
100
AcDbEntity
  8
0
  6
Continuous
 62
     7
370
    15
100
AcDbSpline
210
0.0
220
0.0
230
1.0
 70
     8
 71
     3
 72
    14
 73
    10
 74
     0
 42
0.00000001
 43
0.00000001
 12
1.0
 22
0.0
 32
0.0
 13
1.0
 23
0.0
 33
0.0
 40
0.0
 40
0.0
 40
0.0
 40
0.0
 40
0.1252271331056424
 40
0.2502809998976477
 40
0.3754980922832049
 40
0.5003898093789518
 40
0.6255324296711868
 40
0.7505534150568095
 40
0.9999999999999999
 40
0.9999999999999999
 40
0.9999999999999999
 40
0.9999999999999999
 10
1142.756827460659
 20
787.8366323180769
 30
0.0
 10
1142.752213319178
 20
787.8115231565725
 30
0.0
 10
1142.742991420419
 20
787.7613395750116
 30
0.0
 10
1142.75542412749
 20
787.6766809541527
 30
0.0
 10
1142.789432170501
 20
787.5887000057958
 30
0.0
 10
1142.845639927458
 20
787.500637066357
 30
0.0
 10
1142.920057368079
 20
787.4169635193215
 30
0.0
 10
1143.039931953763
 20
787.3146150322208
 30
0.0
 10
1143.148086883967
 20
787.26059858668
 30
0.0
 10
1143.220132850352
 20
787.2246162508554
 30
0.0
  0
LINE
  5
112
330
1F
100
AcDbEntity
  8
0
  6
Continuous
 62
     7
370
    15
100
AcDbLine
 10
1145.2828557559
 20
788.9164543499
 30
0.0
 11
1145.2189840656
 21
788.6684315636
 31
0.0
  0
LINE
  5
113
330
1F
100
AcDbEntity
  8
0
  6
Continuous
 62
     7
370
    15
100
AcDbLine
 10
1142.4657222404
 20
790.151687487
 30
0.0
 11
1145.2828557559
 21
788.9164543499
 31
0.0
  0
LINE
  5
114
330
1F
100
AcDbEntity
  8
0
  6
Continuous
 62
     7
370
    15
100
AcDbLine
 10
1143.2387617621
 20
788.8923511072
 30
0.0
 11
1143.7764998893
 21
789.0116527831
 31
0.0
  0
SPLINE
  5
115
330
1F
100
AcDbEntity
  8
0
  6
Continuous
 62
     7
370
    15
100
AcDbSpline
210
0.0
220
0.0
230
1.0
 70
     8
 71
     3
 72
    10
 73
     6
 74
     0
 42
0.00000001
 43
0.00000001
 12
1.0
 22
0.0
 32
0.0
 13
1.0
 23
0.0
 33
0.0
 40
0.0
 40
0.0
 40
0.0
 40
0.0
 40
0.1294386597078704
 40
0.4195578586518801
 40
1.0
 40
1.0
 40
1.0
 40
1.0
 10
1142.085667464949
 20
788.3150899455189
 30
0.0
 10
1142.109231623869
 20
788.3608968975403
 30
0.0
 10
1142.185611648818
 20
788.5093739193576
 30
0.0
 10
1142.56174781094
 20
788.7271430546624
 30
0.0
 10
1142.967937168994
 20
788.8262632466586
 30
0.0
 10
1143.238761762126
 20
788.8923511072496
 30
0.0
  0
LINE
  5
116
330
1F
100
AcDbEntity
  8
0
  6
Continuous
 62
     7
370
    15
100
AcDbLine
 10
1144.69636701
 20
787.115650355
 30
0.0
 11
1144.6288862639
 21
787.0047755901
 31
0.0
  0
ARC
  5
117
330
1F
100
AcDbEntity
  8
0
  6
Continuous
 62
     7
370
    15
100
AcDbCircle
 10
1090.3374264202
 20
814.6858139864
 30
0.0
 40
52.93561110863673
100
AcDbArc
 50
337.8577295458
 51
24.121094791
  0
SPLINE
  5
118
330
1F
100
AcDbEntity
  8
0
  6
Continuous
 62
     7
370
    15
100
AcDbSpline
210
0.0
220
0.0
230
1.0
 70
     8
 71
     3
 72
     9
 73
     5
 74
     0
 42
0.00000001
 43
0.00000001
 12
1.0
 22
0.0
 32
0.0
 13
1.0
 23
0.0
 33
0.0
 40
0.0
 40
0.0
 40
0.0
 40
0.0
 40
0.4684410573252075
 40
1.0
 40
1.0
 40
1.0
 40
1.0
 10
1140.008191368707
 20
837.2903666741545
 30
0.0
 10
1139.787760517034
 20
837.1631065139683
 30
0.0
 10
1139.317197896131
 20
836.8914391223167
 30
0.0
 10
1138.882152353412
 20
836.5175628997285
 30
0.0
 10
1138.650900004709
 20
836.3188256501585
 30
0.0
  0
SPLINE
  5
119
330
1F
100
AcDbEntity
  8
0
  6
Continuous
 62
     7
370
    15
100
AcDbSpline
210
0.0
220
0.0
230
1.0
 70
     8
 71
     3
 72
    11
 73
     7
 74
     0
 42
0.00000001
 43
0.00000001
 12
1.0
 22
0.0
 32
0.0
 13
1.0
 23
0.0
 33
0.0
 40
0.0
 40
0.0
 40
0.0
 40
0.0
 40
0.3658281109894426
 40
0.7252591430831242
 40
0.9820690181776782
 40
1.0
 40
1.0
 40
1.0
 40
1.0
 10
1141.756071076393
 20
837.5570065909479
 30
0.0
 10
1141.645759083093
 20
837.6100446820543
 30
0.0
 10
1141.427064074893
 20
837.715193409971
 30
0.0
 10
1140.786149837791
 20
837.6129212509117
 30
0.0
 10
1140.262540100375
 20
837.4139937126489
 30
0.0
 10
1140.023774427548
 20
837.2979408712126
 30
0.0
 10
1140.008191368707
 20
837.2903666741545
 30
0.0
  0
SPLINE
  5
11A
330
1F
100
AcDbEntity
  8
0
  6
Continuous
 62
     7
370
    15
100
AcDbSpline
210
0.0
220
0.0
230
1.0
 70
     8
 71
     3
 72
     9
 73
     5
 74
     0
 42
0.00000001
 43
0.00000001
 12
1.0
 22
0.0
 32
0.0
 13
1.0
 23
0.0
 33
0.0
 40
0.0
 40
0.0
 40
0.0
 40
0.0
 40
0.5315589426747946
 40
0.9999999999999999
 40
0.9999999999999999
 40
0.9999999999999999
 40
0.9999999999999999
 10
1139.369079408301
 20
794.7339737529338
 30
0.0
 10
1139.606848977849
 20
794.5553433666707
 30
0.0
 10
1140.054155100388
 20
794.219293359941
 30
0.0
 10
1140.530959059566
 20
794.1295675864026
 30
0.0
 10
1140.75431361034
 20
794.0875363501767
 30
0.0
  0
ARC
  5
11B
330
1F
100
AcDbEntity
  8
0
  6
Continuous
 62
     7
370
    15
100
AcDbCircle
 10
1222.088481054
 20
816.9044424059
 30
0.0
 40
52.93561110863703
100
AcDbArc
 50
157.8577295458
 51
204.121094791
  0
SPLINE
  5
11C
330
1F
100
AcDbEntity
  8
0
  6
Continuous
 62
     7
370
    15
100
AcDbSpline
210
0.0
220
0.0
230
1.0
 70
     8
 71
     3
 72
     9
 73
     5
 74
     0
 42
0.00000001
 43
0.00000001
 12
1.0
 22
0.0
 32
0.0
 13
1.0
 23
0.0
 33
0.0
 40
0.0
 40
0.0
 40
0.0
 40
0.0
 40
0.4684410573252123
 40
1.0
 40
1.0
 40
1.0
 40
1.0
 10
1172.417716105483
 20
794.5821521891469
 30
0.0
 10
1172.638146957156
 20
794.6311158227733
 30
0.0
 10
1173.108709578058
 20
794.7356404643707
 30
0.0
 10
1173.543755120777
 20
795.0854737374201
 30
0.0
 10
1173.77500746948
 20
795.2714307421546
 30
0.0
  0
SPLINE
  5
11D
330
1F
100
AcDbEntity
  8
0
  6
Continuous
 62
     7
370
    15
100
AcDbSpline
210
0.0
220
0.0
230
1.0
 70
     8
 71
     3
 72
    11
 73
     7
 74
     0
 42
0.00000001
 43
0.00000001
 12
1.0
 22
0.0
 32
0.0
 13
1.0
 23
0.0
 33
0.0
 40
0.0
 40
0.0
 40
0.0
 40
0.0
 40
0.2357948537758822
 40
0.2749019968045001
 40
0.6342531696138424
 40
1.0
 40
1.0
 40
1.0
 40
1.0
 10
1171.671593863849
 20
837.7849825131245
 30
0.0
 10
1171.467917179154
 20
837.8687054220146
 30
0.0
 10
1171.230460226941
 20
837.9663139765003
 30
0.0
 10
1170.751995262157
 20
838.0995302744784
 30
0.0
 10
1170.253214968439
 20
838.1662752310697
 30
0.0
 10
1170.046366225393
 20
838.0539560285869
 30
0.0
 10
1169.942029609093
 20
837.9973010769546
 30
0.0
  0
SPLINE
  5
11E
330
1F
100
AcDbEntity
  8
0
  6
Continuous
 62
     7
370
    15
100
AcDbSpline
210
0.0
220
0.0
230
1.0
 70
     8
 71
     3
 72
     9
 73
     5
 74
     0
 42
0.00000001
 43
0.00000001
 12
1.0
 22
0.0
 32
0.0
 13
1.0
 23
0.0
 33
0.0
 40
0.0
 40
0.0
 40
0.0
 40
0.0
 40
0.5315589426747904
 40
1.0
 40
1.0
 40
1.0
 40
1.0
 10
1173.056828065888
 20
836.8562826393793
 30
0.0
 10
1172.81905849634
 20
837.0476932704779
 30
0.0
 10
1172.371752373802
 20
837.4077862267462
 30
0.0
 10
1171.894948414624
 20
837.6646547503391
 30
0.0
 10
1171.671593863849
 20
837.7849825131245
 30
0.0
  0
ARC
  5
11F
330
1F
100
AcDbEntity
  8
0
  6
Continuous
 62
     7
370
    15
100
AcDbCircle
 10
1142.47294214
 20
792.1645078391
 30
0.0
 40
4.029406772652403
100
AcDbArc
 50
140.3810747161
 51
155.4778384868
  0
ARC
  5
120
330
1F
100
AcDbEntity
  8
0
  6
Continuous
 62
     7
370
    15
100
AcDbCircle
 10
1170.9008017789
 20
792.72049506
 30
0.0
 40
3.842958652705268
100
AcDbArc
 50
25.7870160766
 51
41.5899262942
  0
ARC
  5
121
330
1F
100
AcDbEntity
  8
0
  6
Continuous
 62
     7
370
    15
100
AcDbCircle
 10
1154.1529519601
 20
815.7879219411
 30
0.0
 40
25.7260883528127
100
AcDbArc
 50
127.0549724077
 51
234.923851929
  0
ARC
  5
122
330
1F
100
AcDbEntity
  8
0
  6
Continuous
 62
     7
370
    15
100
AcDbCircle
 10
1137.5120419862
 20
835.5538262207
 30
0.0
 40
1.371940856359122
100
AcDbArc
 50
33.890245722
 51
66.2384869527
  0
ARC
  5
123
330
1F
100
AcDbEntity
  8
0
  6
Continuous
 62
     7
370
    15
100
AcDbCircle
 10
1158.2729555141
 20
815.8023344512
 30
0.0
 40
25.72608835281274
100
AcDbArc
 50
307.0549724077
 51
54.923851929
  0
ARC
  5
124
330
1F
100
AcDbEntity
  8
0
  6
Continuous
 62
     7
370
    15
100
AcDbCircle
 10
1174.2345684393
 20
836.1195215454
 30
0.0
 40
1.389204555386527
100
AcDbArc
 50
116.3059381633
 51
147.971066344
  0
LINE
  5
125
330
1F
100
AcDbEntity
  8
0
  6
Continuous
 62
     7
370
    15
100
AcDbLine
 10
1143.9282512635
 20
787.4223595825
 30
0.0
 11
1144.6928785983
 21
787.1086146241
 31
0.0
  0
SPLINE
  5
126
330
1F
100
AcDbEntity
  8
0
  6
Continuous
 62
     7
370
    15
100
AcDbSpline
210
0.0
220
0.0
230
1.0
 70
     8
 71
     3
 72
    13
 73
     9
 74
     0
 42
0.00000001
 43
0.00000001
 12
1.0
 22
0.0
 32
0.0
 13
1.0
 23
0.0
 33
0.0
 40
0.0
 40
0.0
 40
0.0
 40
0.0
 40
0.2498540589253833
 40
0.3750470395114247
 40
0.5001944468296873
 40
0.6254014874026785
 40
0.7505555983677316
 40
0.9999999999999999
 40
0.9999999999999999
 40
0.9999999999999999
 40
0.9999999999999999
 10
1144.692878598326
 20
787.1086146241125
 30
0.0
 10
1144.640500540431
 20
786.9926382392345
 30
0.0
 10
1144.561877701028
 20
786.8185502136533
 30
0.0
 10
1144.33797590008
 20
786.6606830895573
 30
0.0
 10
1144.127062281456
 20
786.5829196468989
 30
0.0
 10
1143.879157120972
 20
786.5534261756749
 30
0.0
 10
1143.515123680995
 20
786.5768244450286
 30
0.0
 10
1143.231059338644
 20
786.6838222896779
 30
0.0
 10
1143.041901460223
 20
786.7550719408028
 30
0.0
  0
SPLINE
  5
127
330
1F
100
AcDbEntity
  8
0
  6
Continuous
 62
     7
370
    15
100
AcDbSpline
210
0.0
220
0.0
230
1.0
 70
     8
 71
     3
 72
    12
 73
     8
 74
     0
 42
0.00000001
 43
0.00000001
 12
1.0
 22
0.0
 32
0.0
 13
1.0
 23
0.0
 33
0.0
 40
0.0
 40
0.0
 40
0.0
 40
0.0
 40
0.2500826401114652
 40
0.3759240248397709
 40
0.5009092212021969
 40
0.7506400632362731
 40
1.0
 40
1.0
 40
1.0
 40
1.0
 10
1143.041901460223
 20
786.7550719408028
 30
0.0
 10
1142.880919779785
 20
786.8364471164876
 30
0.0
 10
1142.638932246349
 20
786.9587702155712
 30
0.0
 10
1142.370129588547
 20
787.1903311554275
 30
0.0
 10
1142.150743776225
 20
787.4424277557094
 30
0.0
 10
1141.966396596802
 20
787.7875738869718
 30
0.0
 10
1141.978420268576
 20
788.0261150474138
 30
0.0
 10
1141.984427636695
 20
788.1452969902795
 30
0.0
  0
SPLINE
  5
128
330
1F
100
AcDbEntity
  8
0
  6
Continuous
 62
     7
370
    15
100
AcDbSpline
210
0.0
220
0.0
230
1.0
 70
     8
 71
     3
 72
    10
 73
     6
 74
     0
 42
0.00000001
 43
0.00000001
 12
1.0
 22
0.0
 32
0.0
 13
1.0
 23
0.0
 33
0.0
 40
0.0
 40
0.0
 40
0.0
 40
0.0
 40
0.2494771409140424
 40
0.4995818600697924
 40
1.0
 40
1.0
 40
1.0
 40
1.0
 10
1141.984427636695
 20
788.1452969902796
 30
0.0
 10
1142.03370078864
 20
788.2501097638291
 30
0.0
 10
1142.132371042796
 20
788.4599989752298
 30
0.0
 10
1142.551345164344
 20
788.7247892252602
 30
0.0
 10
1142.961363883443
 20
788.8212321093582
 30
0.0
 10
1143.23474770149
 20
788.8855363048741
 30
0.0
  0
LINE
  5
129
330
1F
100
AcDbEntity
  8
0
  6
Continuous
 62
     7
370
    15
100
AcDbLine
 10
1143.2347477015
 20
788.8855363049
 30
0.0
 11
1143.7726267656
 21
789.0047750924
 31
0.0
  0
LINE
  5
12A
330
1F
100
AcDbEntity
  8
0
  6
Continuous
 62
     7
370
    15
100
AcDbLine
 10
1143.7726267656
 20
789.0047750924
 30
0.0
 11
1142.3385513325
 21
789.6652810295
 31
0.0
  0
LINE
  5
12B
330
1F
100
AcDbEntity
  8
0
  6
Continuous
 62
     7
370
    15
100
AcDbLine
 10
1142.3385513325
 20
789.6652810295
 30
0.0
 11
1142.4613991381
 21
790.145020028
 31
0.0
  0
LINE
  5
12C
330
1F
100
AcDbEntity
  8
0
  6
Continuous
 62
     7
370
    15
100
AcDbLine
 10
1142.461399222
 20
790.1450203553
 30
0.0
 11
1145.2794186745
 21
788.9093989965
 31
0.0
  0
LINE
  5
12D
330
1F
100
AcDbEntity
  8
0
  6
Continuous
 62
     7
370
    15
100
AcDbLine
 10
1145.2794186745
 20
788.9093989965
 30
0.0
 11
1145.2155445531
 21
788.6613771319
 31
0.0
  0
LINE
  5
12E
330
1F
100
AcDbEntity
  8
0
  6
Continuous
 62
     7
370
    15
100
AcDbLine
 10
1145.2155445531
 20
788.6613771319
 30
0.0
 11
1143.7232028774
 21
788.3287285718
 31
0.0
  0
SPLINE
  5
12F
330
1F
100
AcDbEntity
  8
0
  6
Continuous
 62
     7
370
    15
100
AcDbSpline
210
0.0
220
0.0
230
1.0
 70
     8
 71
     3
 72
    10
 73
     6
 74
     0
 42
0.00000001
 43
0.00000001
 12
1.0
 22
0.0
 32
0.0
 13
1.0
 23
0.0
 33
0.0
 40
0.0
 40
0.0
 40
0.0
 40
0.0
 40
0.5008711031414943
 40
0.7508812264126835
 40
1.0
 40
1.0
 40
1.0
 40
1.0
 10
1143.723202877417
 20
788.3287285717516
 30
0.0
 10
1143.519574232401
 20
788.2845686954743
 30
0.0
 10
1143.214304222324
 20
788.2183663894331
 30
0.0
 10
1142.87398188157
 20
788.0520784884901
 30
0.0
 10
1142.793118476786
 20
787.903832942608
 30
0.0
 10
1142.752758977758
 20
787.829842538902
 30
0.0
  0
SPLINE
  5
130
330
1F
100
AcDbEntity
  8
0
  6
Continuous
 62
     7
370
    15
100
AcDbSpline
210
0.0
220
0.0
230
1.0
 70
     8
 71
     3
 72
    14
 73
    10
 74
     0
 42
0.00000001
 43
0.00000001
 12
1.0
 22
0.0
 32
0.0
 13
1.0
 23
0.0
 33
0.0
 40
0.0
 40
0.0
 40
0.0
 40
0.0
 40
0.2491517448975562
 40
0.3743639980514044
 40
0.4993153758558544
 40
0.6244772330629648
 40
0.7495631766582823
 40
0.8746961789581444
 40
1.0
 40
1.0
 40
1.0
 40
1.0
 10
1142.752758977758
 20
787.829842538902
 30
0.0
 10
1142.746934426439
 20
787.7779006740341
 30
0.0
 10
1142.738182722454
 20
787.6998552073796
 30
0.0
 10
1142.785747918277
 20
787.5817266118119
 30
0.0
 10
1142.841524637598
 20
787.4939273117184
 30
0.0
 10
1142.91605328933
 20
787.4099420147769
 30
0.0
 10
1143.006241855165
 20
787.3339616990686
 30
0.0
 10
1143.108013505317
 20
787.2689173892265
 30
0.0
 10
1143.18014307915
 20
787.2348138910089
 30
0.0
 10
1143.21623246525
 20
787.2177505111891
 30
0.0
  0
SPLINE
  5
131
330
1F
100
AcDbEntity
  8
0
  6
Continuous
 62
     7
370
    15
100
AcDbSpline
210
0.0
220
0.0
230
1.0
 70
     8
 71
     3
 72
    13
 73
     9
 74
     0
 42
0.00000001
 43
0.00000001
 12
1.0
 22
0.0
 32
0.0
 13
1.0
 23
0.0
 33
0.0
 40
0.0
 40
0.0
 40
0.0
 40
0.0
 40
0.1252333207927126
 40
0.2503050681495392
 40
0.3740781661371557
 40
0.5006537761402432
 40
0.749919410641198
 40
1.0
 40
1.0
 40
1.0
 40
1.0
 10
1143.216238590865
 20
787.2177479827014
 30
0.0
 10
1143.258891166382
 20
787.2006576899208
 30
0.0
 10
1143.344141287949
 20
787.1664991539012
 30
0.0
 10
1143.472045602631
 20
787.1431619578804
 30
0.0
 10
1143.590868733067
 20
787.1439859373589
 30
0.0
 10
1143.729771338142
 20
787.1750636011724
 30
0.0
 10
1143.862023420356
 20
787.2628672631218
 30
0.0
 10
1143.906151309597
 20
787.3691376634221
 30
0.0
 10
1143.928251263538
 20
787.4223595825408
 30
0.0
  0
LINE
  5
132
330
1F
100
AcDbEntity
  8
0
  6
Continuous
 62
     7
370
    15
100
AcDbLine
 10
1170.8077958658
 20
788.2576443151
 30
0.0
 11
1171.5273422753
 21
788.6311430735
 31
0.0
  0
SPLINE
  5
133
330
1F
100
AcDbEntity
  8
0
  6
Continuous
 62
     7
370
    15
100
AcDbSpline
210
0.0
220
0.0
230
1.0
 70
     8
 71
     3
 72
     9
 73
     5
 74
     0
 42
0.00000001
 43
0.00000001
 12
1.0
 22
0.0
 32
0.0
 13
1.0
 23
0.0
 33
0.0
 40
0.0
 40
0.0
 40
0.0
 40
0.0
 40
0.5005224124383266
 40
0.9999999999999999
 40
0.9999999999999999
 40
0.9999999999999999
 40
0.9999999999999999
 10
1171.527342275311
 20
788.6311430734519
 30
0.0
 10
1171.529237741472
 20
788.5297107528771
 30
0.0
 10
1171.533024717068
 20
788.3270578485234
 30
0.0
 10
1171.411762522298
 20
788.0999931638229
 30
0.0
 10
1171.351194773792
 20
787.9865794428882
 30
0.0
  0
SPLINE
  5
134
330
1F
100
AcDbEntity
  8
0
  6
Continuous
 62
     7
370
    15
100
AcDbSpline
210
0.0
220
0.0
230
1.0
 70
     8
 71
     3
 72
     9
 73
     5
 74
     0
 42
0.00000001
 43
0.00000001
 12
1.0
 22
0.0
 32
0.0
 13
1.0
 23
0.0
 33
0.0
 40
0.0
 40
0.0
 40
0.0
 40
0.0
 40
0.4996765497475527
 40
1.0
 40
1.0
 40
1.0
 40
1.0
 10
1171.351191660365
 20
787.986574408651
 30
0.0
 10
1171.241472713412
 20
787.844116038286
 30
0.0
 10
1171.021892773132
 20
787.5590148654635
 30
0.0
 10
1170.683778246796
 20
787.3700062834747
 30
0.0
 10
1170.514611620399
 20
787.2754408576069
 30
0.0
  0
SPLINE
  5
135
330
1F
100
AcDbEntity
  8
0
  6
Continuous
 62
     7
370
    15
100
AcDbSpline
210
0.0
220
0.0
230
1.0
 70
     8
 71
     3
 72
    14
 73
    10
 74
     0
 42
0.00000001
 43
0.00000001
 12
1.0
 22
0.0
 32
0.0
 13
1.0
 23
0.0
 33
0.0
 40
0.0
 40
0.0
 40
0.0
 40
0.0
 40
0.2497184073722217
 40
0.4990368466146191
 40
0.624297848228152
 40
0.7494806894433623
 40
0.8746179506578777
 40
0.9372980968417187
 40
1.0
 40
1.0
 40
1.0
 40
1.0
 10
1170.514611620399
 20
787.2754408576069
 30
0.0
 10
1170.366603346895
 20
787.2128617300457
 30
0.0
 10
1170.070823861276
 20
787.0878037064479
 30
0.0
 10
1169.711064434918
 20
787.0702148387475
 30
0.0
 10
1169.469495766424
 20
787.119563016511
 30
0.0
 10
1169.314564816995
 20
787.1897906465092
 30
0.0
 10
1169.221754162536
 20
787.2796544752426
 30
0.0
 10
1169.17086509031
 20
787.3659060237463
 30
0.0
 10
1169.154874351445
 20
787.4139592947959
 30
0.0
 10
1169.146877594613
 20
787.4379900995528
 30
0.0
  0
SPLINE
  5
136
330
1F
100
AcDbEntity
  8
0
  6
Continuous
 62
     7
370
    15
100
AcDbSpline
210
0.0
220
0.0
230
1.0
 70
     8
 71
     3
 72
    11
 73
     7
 74
     0
 42
0.00000001
 43
0.00000001
 12
1.0
 22
0.0
 32
0.0
 13
1.0
 23
0.0
 33
0.0
 40
0.0
 40
0.0
 40
0.0
 40
0.0
 40
0.2498327384559443
 40
0.4996706489946139
 40
0.7496329001178177
 40
1.0
 40
1.0
 40
1.0
 40
1.0
 10
1169.146877594613
 20
787.4379900995528
 30
0.0
 10
1169.137000541779
 20
787.5018813567752
 30
0.0
 10
1169.117246231633
 20
787.6296651939081
 30
0.0
 10
1169.200061093735
 20
787.8520555347577
 30
0.0
 10
1169.349270085756
 20
788.0723260370577
 30
0.0
 10
1169.490752917787
 20
788.2055387269542
 30
0.0
 10
1169.561551575247
 20
788.2721989673935
 30
0.0
  0
SPLINE
  5
137
330
1F
100
AcDbEntity
  8
0
  6
Continuous
 62
     7
370
    15
100
AcDbSpline
210
0.0
220
0.0
230
1.0
 70
     8
 71
     3
 72
    11
 73
     7
 74
     0
 42
0.00000001
 43
0.00000001
 12
1.0
 22
0.0
 32
0.0
 13
1.0
 23
0.0
 33
0.0
 40
0.0
 40
0.0
 40
0.0
 40
0.0
 40
0.2502521822413093
 40
0.5000355135374998
 40
0.7498626133024886
 40
1.0
 40
1.0
 40
1.0
 40
1.0
 10
1169.56155163355
 20
788.2721993301063
 30
0.0
 10
1169.444714765686
 20
788.2486335796581
 30
0.0
 10
1169.211259925455
 20
788.201546229523
 30
0.0
 10
1168.905192073768
 20
788.2455449208152
 30
0.0
 10
1168.674622735434
 20
788.3776322201046
 30
0.0
 10
1168.612512361187
 20
788.5250673690966
 30
0.0
 10
1168.581437900657
 20
788.5988306940422
 30
0.0
  0
SPLINE
  5
138
330
1F
100
AcDbEntity
  8
0
  6
Continuous
 62
     7
370
    15
100
AcDbSpline
210
0.0
220
0.0
230
1.0
 70
     8
 71
     3
 72
    13
 73
     9
 74
     0
 42
0.00000001
 43
0.00000001
 12
1.0
 22
0.0
 32
0.0
 13
1.0
 23
0.0
 33
0.0
 40
0.0
 40
0.0
 40
0.0
 40
0.0
 40
0.1252225186885725
 40
0.2504100069949559
 40
0.3755981757422324
 40
0.5008751233690414
 40
0.7501281381767693
 40
0.9999999999999999
 40
0.9999999999999999
 40
0.9999999999999999
 40
0.9999999999999999
 10
1168.581437900657
 20
788.5988306940422
 30
0.0
 10
1168.56953899439
 20
788.6609775802394
 30
0.0
 10
1168.545744510515
 20
788.7852539673488
 30
0.0
 10
1168.582265256631
 20
788.9958439495476
 30
0.0
 10
1168.681488909045
 20
789.2139476912756
 30
0.0
 10
1168.877889348557
 20
789.500364894971
 30
0.0
 10
1169.230605492117
 20
789.8439466589573
 30
0.0
 10
1169.581604969116
 20
790.0346333252793
 30
0.0
 10
1169.757322303441
 20
790.1300948712163
 30
0.0
  0
SPLINE
  5
139
330
1F
100
AcDbEntity
  8
0
  6
Continuous
 62
     7
370
    15
100
AcDbSpline
210
0.0
220
0.0
230
1.0
 70
     8
 71
     3
 72
    13
 73
     9
 74
     0
 42
0.00000001
 43
0.00000001
 12
1.0
 22
0.0
 32
0.0
 13
1.0
 23
0.0
 33
0.0
 40
0.0
 40
0.0
 40
0.0
 40
0.0
 40
0.2496429360740716
 40
0.3744927032217561
 40
0.4999931049032664
 40
0.6238140432781586
 40
0.750287923492703
 40
1.0
 40
1.0
 40
1.0
 40
1.0
 10
1169.757322303441
 20
790.1300948712163
 30
0.0
 10
1169.935146158876
 20
790.2081492936405
 30
0.0
 10
1170.201902099847
 20
790.325239775397
 30
0.0
 10
1170.544521669546
 20
790.3801320031663
 30
0.0
 10
1170.778378279307
 20
790.3757687096986
 30
0.0
 10
1170.982297147687
 20
790.3256050156815
 30
0.0
 10
1171.20094158186
 20
790.1984916961152
 30
0.0
 10
1171.284278906066
 20
790.0384928476741
 30
0.0
 10
1171.339598186082
 20
789.9322856807953
 30
0.0
  0
LINE
  5
13A
330
1F
100
AcDbEntity
  8
0
  6
Continuous
 62
     7
370
    15
100
AcDbLine
 10
1171.3395981861
 20
789.9322856808
 30
0.0
 11
1170.6006566628
 21
789.5441844078
 31
0.0
  0
SPLINE
  5
13B
330
1F
100
AcDbEntity
  8
0
  6
Continuous
 62
     7
370
    15
100
AcDbSpline
210
0.0
220
0.0
230
1.0
 70
     8
 71
     3
 72
    12
 73
     8
 74
     0
 42
0.00000001
 43
0.00000001
 12
1.0
 22
0.0
 32
0.0
 13
1.0
 23
0.0
 33
0.0
 40
0.0
 40
0.0
 40
0.0
 40
0.0
 40
0.2504102512661144
 40
0.499718149929447
 40
0.6250872428128073
 40
0.7502651840962531
 40
1.0
 40
1.0
 40
1.0
 40
1.0
 10
1170.600656662832
 20
789.5441844077604
 30
0.0
 10
1170.56927397588
 20
789.5898816628916
 30
0.0
 10
1170.506646754414
 20
789.6810750053186
 30
0.0
 10
1170.362969730722
 20
789.7454219882087
 30
0.0
 10
1170.217553160692
 20
789.75107017397
 30
0.0
 10
1170.05785710242
 20
789.729089888055
 30
0.0
 10
1169.933420444621
 20
789.6750421799313
 30
0.0
 10
1169.850531385149
 20
789.6390402189962
 30
0.0
  0
SPLINE
  5
13C
330
1F
100
AcDbEntity
  8
0
  6
Continuous
 62
     7
370
    15
100
AcDbSpline
210
0.0
220
0.0
230
1.0
 70
     8
 71
     3
 72
    13
 73
     9
 74
     0
 42
0.00000001
 43
0.00000001
 12
1.0
 22
0.0
 32
0.0
 13
1.0
 23
0.0
 33
0.0
 40
0.0
 40
0.0
 40
0.0
 40
0.0
 40
0.2497381979926828
 40
0.3739096695765068
 40
0.50029098036309
 40
0.7494861681723511
 40
0.8746527555354879
 40
1.0
 40
1.0
 40
1.0
 40
1.0
 10
1169.85052414095
 20
789.6390368933537
 30
0.0
 10
1169.772073891732
 20
789.5957337771143
 30
0.0
 10
1169.654617663573
 20
789.5309000671939
 30
0.0
 10
1169.524120260091
 20
789.4136275966448
 30
0.0
 10
1169.417252434231
 20
789.2877860968381
 30
0.0
 10
1169.34592172526
 20
789.1530348893748
 30
0.0
 10
1169.326339257414
 20
789.0273989390136
 30
0.0
 10
1169.337533209373
 20
788.9718961027786
 30
0.0
 10
1169.343134221591
 20
788.9441246718311
 30
0.0
  0
SPLINE
  5
13D
330
1F
100
AcDbEntity
  8
0
  6
Continuous
 62
     7
370
    15
100
AcDbSpline
210
0.0
220
0.0
230
1.0
 70
     8
 71
     3
 72
    13
 73
     9
 74
     0
 42
0.00000001
 43
0.00000001
 12
1.0
 22
0.0
 32
0.0
 13
1.0
 23
0.0
 33
0.0
 40
0.0
 40
0.0
 40
0.0
 40
0.0
 40
0.1249313909873093
 40
0.2498860208899684
 40
0.3749299821460228
 40
0.5000474038982282
 40
0.7496433936924457
 40
1.0
 40
1.0
 40
1.0
 40
1.0
 10
1169.343134221591
 20
788.9441246718311
 30
0.0
 10
1169.357086808667
 20
788.9105436212174
 30
0.0
 10
1169.384994578188
 20
788.8433752734641
 30
0.0
 10
1169.482137137432
 20
788.7783845557979
 30
0.0
 10
1169.608785303223
 20
788.7466908912046
 30
0.0
 10
1169.801703054077
 20
788.7413754301623
 30
0.0
 10
1170.072195218087
 20
788.8051620394086
 30
0.0
 10
1170.282323786489
 20
788.901445585517
 30
0.0
 10
1170.387547913103
 20
788.9496606003703
 30
0.0
  0
LINE
  5
13E
330
1F
100
AcDbEntity
  8
0
  6
Continuous
 62
     7
370
    15
100
AcDbLine
 10
1170.3875479131
 20
788.9496606004
 30
0.0
 11
1170.5113175321
 21
788.5090482512
 31
0.0
  0
SPLINE
  5
13F
330
1F
100
AcDbEntity
  8
0
  6
Continuous
 62
     7
370
    15
100
AcDbSpline
210
0.0
220
0.0
230
1.0
 70
     8
 71
     3
 72
    14
 73
    10
 74
     0
 42
0.00000001
 43
0.00000001
 12
1.0
 22
0.0
 32
0.0
 13
1.0
 23
0.0
 33
0.0
 40
0.0
 40
0.0
 40
0.0
 40
0.0
 40
0.2504845438226485
 40
0.4999368393873592
 40
0.6249581057136167
 40
0.7499235558769736
 40
0.8748227137232356
 40
0.9373873657544639
 40
1.0
 40
1.0
 40
1.0
 40
1.0
 10
1170.51131762314
 20
788.5090479271109
 30
0.0
 10
1170.434536500328
 20
788.4652107373305
 30
0.0
 10
1170.281290670157
 20
788.3777170110831
 30
0.0
 10
1170.101612152372
 20
788.242995032101
 30
0.0
 10
1169.9912878356
 20
788.1174107605589
 30
0.0
 10
1169.933769185158
 20
788.0186721825711
 30
0.0
 10
1169.908156695341
 20
787.9374310532419
 30
0.0
 10
1169.905376026878
 20
787.8769029562147
 30
0.0
 10
1169.911188050029
 20
787.8494320800988
 30
0.0
 10
1169.91409517552
 20
787.8356913770541
 30
0.0
  0
SPLINE
  5
140
330
1F
100
AcDbEntity
  8
0
  6
Continuous
 62
     7
370
    15
100
AcDbSpline
210
0.0
220
0.0
230
1.0
 70
     8
 71
     3
 72
    13
 73
     9
 74
     0
 42
0.00000001
 43
0.00000001
 12
1.0
 22
0.0
 32
0.0
 13
1.0
 23
0.0
 33
0.0
 40
0.0
 40
0.0
 40
0.0
 40
0.0
 40
0.2492054822127825
 40
0.3730537246330585
 40
0.4995790460529554
 40
0.6245393410047347
 40
0.7500441302229115
 40
1.0
 40
1.0
 40
1.0
 40
1.0
 10
1169.91409517552
 20
787.8356913770541
 30
0.0
 10
1169.929303520883
 20
787.802681921771
 30
0.0
 10
1169.952069993886
 20
787.753267678825
 30
0.0
 10
1170.02363427328
 20
787.7178336681924
 30
0.0
 10
1170.088218095811
 20
787.7045669450254
 30
0.0
 10
1170.161488192318
 20
787.7047320306742
 30
0.0
 10
1170.266046646584
 20
787.7222401988266
 30
0.0
 10
1170.345862968211
 20
787.7571962733875
 30
0.0
 10
1170.398999182663
 20
787.78046762236
 30
0.0
  0
SPLINE
  5
141
330
1F
100
AcDbEntity
  8
0
  6
Continuous
 62
     7
370
    15
100
AcDbSpline
210
0.0
220
0.0
230
1.0
 70
     8
 71
     3
 72
    12
 73
     8
 74
     0
 42
0.00000001
 43
0.00000001
 12
1.0
 22
0.0
 32
0.0
 13
1.0
 23
0.0
 33
0.0
 40
0.0
 40
0.0
 40
0.0
 40
0.0
 40
0.2498175420406044
 40
0.4996156626585189
 40
0.7494658511180881
 40
0.874671018599956
 40
1.0
 40
1.0
 40
1.0
 40
1.0
 10
1170.399004242741
 20
787.7804703007912
 30
0.0
 10
1170.45113659374
 20
787.8099918222053
 30
0.0
 10
1170.555397242841
 20
787.8690325699586
 30
0.0
 10
1170.682613754457
 20
787.9926269893244
 30
0.0
 10
1170.759107609047
 20
788.104072350302
 30
0.0
 10
1170.795647371304
 20
788.1934177023059
 30
0.0
 10
1170.803745033711
 20
788.2362283918335
 30
0.0
 10
1170.807795865845
 20
788.2576443151136
 30
0.0
  0
LINE
  5
142
330
1F
100
AcDbEntity
  8
0
  6
Continuous
 62
     7
370
    15
100
AcDbLine
 10
1169.7573223034
 20
790.1300948712
 30
0.0
 11
1169.7530575422
 21
790.1367909026
 31
0.0
  0
LINE
  5
143
330
1F
100
AcDbEntity
  8
0
  6
Continuous
 62
     7
370
    15
100
AcDbLine
 10
1168.5814379007
 20
788.598830694
 30
0.0
 11
1168.5776135888
 21
788.6057295303
 31
0.0
  0
LINE
  5
144
330
1F
100
AcDbEntity
  8
0
  6
Continuous
 62
     7
370
    15
100
AcDbLine
 10
1145.2155445531
 20
788.6613771319
 30
0.0
 11
1145.2189840656
 21
788.6684315636
 31
0.0
  0
LINE
  5
145
330
1F
100
AcDbEntity
  8
0
  6
Continuous
 62
     7
370
    15
100
AcDbLine
 10
1145.2794186745
 20
788.9093989965
 30
0.0
 11
1145.2828557559
 21
788.9164543499
 31
0.0
  0
LINE
  5
146
330
1F
100
AcDbEntity
  8
0
  6
Continuous
 62
     7
370
    15
100
AcDbLine
 10
1142.461399222
 20
790.1450203553
 30
0.0
 11
1142.4657222404
 21
790.151687487
 31
0.0
  0
LINE
  5
147
330
1F
100
AcDbEntity
  8
0
  6
Continuous
 62
     7
370
    15
100
AcDbLine
 10
1143.2347477015
 20
788.8855363049
 30
0.0
 11
1143.2387617621
 21
788.8923511072
 31
0.0
  0
LINE
  5
148
330
1F
100
AcDbEntity
  8
0
  6
Continuous
 62
     7
370
    15
100
AcDbLine
 10
1170.6006566628
 20
789.5441844078
 30
0.0
 11
1170.5962089002
 21
789.5507879633
 31
0.0
  0
LINE
  5
149
330
1F
100
AcDbEntity
  8
0
  6
Continuous
 62
     7
370
    15
100
AcDbLine
 10
1170.3875479131
 20
788.9496606004
 30
0.0
 11
1170.3832039462
 21
788.9563172178
 31
0.0
  0
LINE
  5
14A
330
1F
100
AcDbEntity
  8
0
  6
Continuous
 62
     7
370
    15
100
AcDbLine
 10
1169.3431342216
 20
788.9441246718
 30
0.0
 11
1169.3390739849
 21
788.9509182693
 31
0.0
  0
LINE
  5
14B
330
1F
100
AcDbEntity
  8
0
  6
Continuous
 62
     7
370
    15
100
AcDbLine
 10
1142.7527589778
 20
787.8298425389
 30
0.0
 11
1142.7568274607
 21
787.8366323181
 31
0.0
  0
LINE
  5
14C
330
1F
100
AcDbEntity
  8
0
  6
Continuous
 62
     7
370
    15
100
AcDbLine
 10
1169.1468775946
 20
787.4379900996
 30
0.0
 11
1169.1429788972
 21
787.444856582
 31
0.0
  0
LINE
  5
14D
330
1F
100
AcDbEntity
  8
0
  6
Continuous
 62
     7
370
    15
100
AcDbLine
 10
1144.6928785983
 20
787.1086146241
 30
0.0
 11
1144.69636701
 21
787.115650355
 31
0.0
  0
LINE
  5
14E
330
1F
100
AcDbEntity
  8
0
  6
Continuous
 62
     7
370
    15
100
AcDbLine
 10
1143.9282512635
 20
787.4223595825
 30
0.0
 11
1143.9319717094
 21
787.4293023437
 31
0.0
  0
LINE
  5
14F
330
1F
100
AcDbEntity
  8
0
  6
Continuous
 62
     7
370
    15
100
AcDbLine
 10
1143.2162324652
 20
787.2177505112
 30
0.0
 11
1143.2201328504
 21
787.2246162509
 31
0.0
  0
LINE
  5
150
330
1F
100
AcDbEntity
  8
0
  6
Continuous
 62
     7
370
    15
100
AcDbLine
 10
1170.3989991827
 20
787.7804676224
 30
0.0
 11
1170.3947411713
 21
787.78716697
 31
0.0
  0
LINE
  5
151
330
1F
100
AcDbEntity
  8
0
  6
Continuous
 62
     7
370
    15
100
AcDbLine
 10
1170.8077958658
 20
788.2576443151
 30
0.0
 11
1170.8033941879
 21
788.2642716293
 31
0.0
  0
LINE
  5
152
330
1F
100
AcDbEntity
  8
0
  6
Continuous
 62
     7
370
    15
100
AcDbLine
 10
1171.5273422753
 20
788.6311430735
 30
0.0
 11
1171.5227241383
 21
788.6376559775
 31
0.0
  0
LINE
  5
153
330
1F
100
AcDbEntity
  8
0
  6
Continuous
 62
     7
370
    15
100
AcDbLine
 10
1128.4107745165
 20
800.24536609
 30
0.0
 11
1127.8528362791
 21
801.3435035111
 31
0.0
  0
LINE
  5
154
330
1F
100
AcDbEntity
  8
0
  6
Continuous
 62
     7
370
    15
100
AcDbLine
 10
1127.8528362791
 20
801.3435035111
 30
0.0
 11
1129.3603752901
 21
803.3234398311
 31
0.0
  0
LINE
  5
155
330
1F
100
AcDbEntity
  8
0
  6
Continuous
 62
     7
370
    15
100
AcDbLine
 10
1129.3603752901
 20
803.3234398311
 30
0.0
 11
1129.7259216355
 21
802.5930120255
 31
0.0
  0
LINE
  5
156
330
1F
100
AcDbEntity
  8
0
  6
Continuous
 62
     7
370
    15
100
AcDbLine
 10
1129.7259216355
 20
802.5930120255
 30
0.0
 11
1128.488201046
 21
800.9672970291
 31
0.0
  0
LINE
  5
157
330
1F
100
AcDbEntity
  8
0
  6
Continuous
 62
     7
370
    15
100
AcDbLine
 10
1128.488201046
 20
800.9672970291
 30
0.0
 11
1128.9070907991
 21
800.1785892923
 31
0.0
  0
LINE
  5
158
330
1F
100
AcDbEntity
  8
0
  6
Continuous
 62
     7
370
    15
100
AcDbLine
 10
1128.9070907991
 20
800.1785892923
 30
0.0
 11
1128.4107745165
 21
800.24536609
 31
0.0
  0
LINE
  5
159
330
1F
100
AcDbEntity
  8
0
  6
Continuous
 62
     7
370
    15
100
AcDbLine
 10
1184.4185059781
 20
800.9325758997
 30
0.0
 11
1184.0450301887
 21
800.2027833194
 31
0.0
  0
LINE
  5
15A
330
1F
100
AcDbEntity
  8
0
  6
Continuous
 62
     7
370
    15
100
AcDbLine
 10
1184.0450301887
 20
800.2027833194
 30
0.0
 11
1183.0736101513
 21
801.4566196166
 31
0.0
  0
LINE
  5
15B
330
1F
100
AcDbEntity
  8
0
  6
Continuous
 62
     7
370
    15
100
AcDbLine
 10
1183.0736101513
 20
801.4566196166
 30
0.0
 11
1182.8924427291
 21
801.1177449955
 31
0.0
  0
LINE
  5
15C
330
1F
100
AcDbEntity
  8
0
  6
Continuous
 62
     7
370
    15
100
AcDbLine
 10
1182.8924427291
 20
801.1177449955
 30
0.0
 11
1182.6267201561
 21
801.459805543
 31
0.0
  0
LINE
  5
15D
330
1F
100
AcDbEntity
  8
0
  6
Continuous
 62
     7
370
    15
100
AcDbLine
 10
1182.6267201561
 20
801.459805543
 30
0.0
 11
1182.8080298164
 21
801.7986308075
 31
0.0
  0
LINE
  5
15E
330
1F
100
AcDbEntity
  8
0
  6
Continuous
 62
     7
370
    15
100
AcDbLine
 10
1182.8080298164
 20
801.7986308075
 30
0.0
 11
1182.4980966263
 21
802.1990480297
 31
0.0
  0
LINE
  5
15F
330
1F
100
AcDbEntity
  8
0
  6
Continuous
 62
     7
370
    15
100
AcDbLine
 10
1182.4980966263
 20
802.1990480297
 30
0.0
 11
1182.8645668042
 21
802.9126377605
 31
0.0
  0
LINE
  5
160
330
1F
100
AcDbEntity
  8
0
  6
Continuous
 62
     7
370
    15
100
AcDbLine
 10
1182.8645668042
 20
802.9126377605
 30
0.0
 11
1183.1743141435
 21
802.512279859
 31
0.0
  0
LINE
  5
161
330
1F
100
AcDbEntity
  8
0
  6
Continuous
 62
     7
370
    15
100
AcDbLine
 10
1183.1743141435
 20
802.512279859
 30
0.0
 11
1183.9622734688
 21
804.2073595713
 31
0.0
  0
LINE
  5
162
330
1F
100
AcDbEntity
  8
0
  6
Continuous
 62
     7
370
    15
100
AcDbLine
 10
1183.9622734688
 20
804.2073595713
 30
0.0
 11
1184.227967932
 21
803.8653228704
 31
0.0
  0
LINE
  5
163
330
1F
100
AcDbEntity
  8
0
  6
Continuous
 62
     7
370
    15
100
AcDbLine
 10
1184.227967932
 20
803.8653228704
 30
0.0
 11
1184.4185059515
 21
800.9325764455
 31
0.0
  0
LINE
  5
164
330
1F
100
AcDbEntity
  8
0
  6
Continuous
 62
     7
370
    15
100
AcDbLine
 10
1183.8649684879
 20
803.054434577
 30
0.0
 11
1183.4397222745
 21
802.1703237928
 31
0.0
  0
LINE
  5
165
330
1F
100
AcDbEntity
  8
0
  6
Continuous
 62
     7
370
    15
100
AcDbLine
 10
1183.4397222745
 20
802.1703237928
 30
0.0
 11
1183.9450651596
 21
801.5175536035
 31
0.0
  0
LINE
  5
166
330
1F
100
AcDbEntity
  8
0
  6
Continuous
 62
     7
370
    15
100
AcDbLine
 10
1183.9450651596
 20
801.5175536035
 30
0.0
 11
1183.8649684879
 21
803.054434577
 31
0.0
  0
LINE
  5
167
330
1F
100
AcDbEntity
  8
0
  6
Continuous
 62
     7
370
    15
100
AcDbLine
 10
1128.488201046
 20
800.9672970291
 30
0.0
 11
1128.4965311496
 21
800.9700494278
 31
0.0
  0
LINE
  5
168
330
1F
100
AcDbEntity
  8
0
  6
Continuous
 62
     7
370
    15
100
AcDbLine
 10
1129.7259216355
 20
802.5930120255
 30
0.0
 11
1129.7342498538
 21
802.5957680643
 31
0.0
  0
LINE
  5
169
330
1F
100
AcDbEntity
  8
0
  6
Continuous
 62
     7
370
    15
100
AcDbLine
 10
1182.4980966263
 20
802.1990480297
 30
0.0
 11
1182.4898330371
 21
802.2019263827
 31
0.0
  0
LINE
  5
16A
330
1F
100
AcDbEntity
  8
0
  6
Continuous
 62
     7
370
    15
100
AcDbLine
 10
1182.8080298164
 20
801.7986308075
 30
0.0
 11
1182.7997643305
 21
801.8015056373
 31
0.0
  0
LINE
  5
16B
330
1F
100
AcDbEntity
  8
0
  6
Continuous
 62
     7
370
    15
100
AcDbLine
 10
1182.8645668042
 20
802.9126377605
 30
0.0
 11
1182.8561871369
 21
802.915292908
 31
0.0
  0
LINE
  5
16C
330
1F
100
AcDbEntity
  8
0
  6
Continuous
 62
     7
370
    15
100
AcDbLine
 10
1129.3603752901
 20
803.3234398311
 30
0.0
 11
1129.3688183148
 21
803.3259660358
 31
0.0
  0
LINE
  5
16D
330
1F
100
AcDbEntity
  8
0
  6
Continuous
 62
     7
370
    15
100
AcDbLine
 10
1182.6267201561
 20
801.459805543
 30
0.0
 11
1182.6185117279
 21
801.4627847012
 31
0.0
  0
LINE
  5
16E
330
1F
100
AcDbEntity
  8
0
  6
Continuous
 62
     7
370
    15
100
AcDbLine
 10
1182.8924427291
 20
801.1177449955
 30
0.0
 11
1182.8842320018
 21
801.1207200147
 31
0.0
  0
LINE
  5
16F
330
1F
100
AcDbEntity
  8
0
  6
Continuous
 62
     7
370
    15
100
AcDbLine
 10
1183.9622734688
 20
804.2073595713
 30
0.0
 11
1183.9536500249
 21
804.20948486
 31
0.0
  0
LINE
  5
170
330
1F
100
AcDbEntity
  8
0
  6
Continuous
 62
     7
370
    15
100
AcDbLine
 10
1184.0450301887
 20
800.2027833194
 30
0.0
 11
1184.036757345
 21
800.2056444445
 31
0.0
  0
LINE
  5
171
330
1F
100
AcDbEntity
  8
0
  6
Continuous
 62
     7
370
    15
100
AcDbLine
 10
1183.9366836489
 20
801.5202050749
 30
0.0
 11
1183.8564571193
 21
803.0568152595
 31
0.0
  0
LINE
  5
172
330
1F
100
AcDbEntity
  8
0
  6
Continuous
 62
     7
370
    15
100
AcDbLine
 10
1128.9070907991
 20
800.1785892923
 30
0.0
 11
1128.9152941944
 21
800.1815774925
 31
0.0
  0
LINE
  5
173
330
1F
100
AcDbEntity
  8
0
  6
Continuous
 62
     7
370
    15
100
AcDbLine
 10
1187.3967068356
 20
813.9465826829
 30
0.0
 11
1187.3454385445
 21
811.961791344
 31
0.0
  0
LINE
  5
174
330
1F
100
AcDbEntity
  8
0
  6
Continuous
 62
     7
370
    15
100
AcDbLine
 10
1187.3454385445
 20
811.961791344
 30
0.0
 11
1187.0553926245
 21
812.1903028604
 31
0.0
  0
LINE
  5
175
330
1F
100
AcDbEntity
  8
0
  6
Continuous
 62
     7
370
    15
100
AcDbLine
 10
1187.0553926245
 20
812.1903028604
 30
0.0
 11
1187.1041240873
 21
813.5746412108
 31
0.0
  0
LINE
  5
176
330
1F
100
AcDbEntity
  8
0
  6
Continuous
 62
     7
370
    15
100
AcDbLine
 10
1187.1041240873
 20
813.5746412108
 30
0.0
 11
1186.8045225754
 21
813.9834781695
 31
0.0
  0
LINE
  5
177
330
1F
100
AcDbEntity
  8
0
  6
Continuous
 62
     7
370
    15
100
AcDbLine
 10
1186.8045223877
 20
813.9834781873
 30
0.0
 11
1186.8168092563
 21
813.6973413236
 31
0.0
  0
SPLINE
  5
178
330
1F
100
AcDbEntity
  8
0
  6
Continuous
 62
     7
370
    15
100
AcDbSpline
210
0.0
220
0.0
230
1.0
 70
     8
 71
     3
 72
    13
 73
     9
 74
     0
 42
0.00000001
 43
0.00000001
 12
1.0
 22
0.0
 32
0.0
 13
1.0
 23
0.0
 33
0.0
 40
0.0
 40
0.0
 40
0.0
 40
0.0
 40
0.2493715816352741
 40
0.3722859063941992
 40
0.4998573520389962
 40
0.6250802467357326
 40
0.7503040410156582
 40
1.0
 40
1.0
 40
1.0
 40
1.0
 10
1186.816809256291
 20
813.6973413236205
 30
0.0
 10
1186.806285598171
 20
813.5207066964366
 30
0.0
 10
1186.79057486812
 20
813.2570095187126
 30
0.0
 10
1186.70829916722
 20
812.993513848227
 30
0.0
 10
1186.629646512698
 20
812.8418389960119
 30
0.0
 10
1186.536150682083
 20
812.7423632007193
 30
0.0
 10
1186.399376036504
 20
812.6814437008586
 30
0.0
 10
1186.291537968651
 20
812.744387992316
 30
0.0
 10
1186.219717987086
 20
812.7863087902501
 30
0.0
  0
SPLINE
  5
179
330
1F
100
AcDbEntity
  8
0
  6
Continuous
 62
     7
370
    15
100
AcDbSpline
210
0.0
220
0.0
230
1.0
 70
     8
 71
     3
 72
    11
 73
     7
 74
     0
 42
0.00000001
 43
0.00000001
 12
1.0
 22
0.0
 32
0.0
 13
1.0
 23
0.0
 33
0.0
 40
0.0
 40
0.0
 40
0.0
 40
0.0
 40
0.2500817488214805
 40
0.4999847717823757
 40
0.749963850594919
 40
1.0
 40
1.0
 40
1.0
 40
1.0
 10
1186.219717987086
 20
812.7863087902501
 30
0.0
 10
1186.145576755059
 20
812.8637995503667
 30
0.0
 10
1185.9973472775
 20
813.0187256902981
 30
0.0
 10
1185.827321296952
 20
813.50771533936
 30
0.0
 10
1185.710735878833
 20
814.0927229234751
 30
0.0
 10
1185.703037739982
 20
814.4899930682064
 30
0.0
 10
1185.699188231232
 20
814.6886508123242
 30
0.0
  0
SPLINE
  5
17A
330
1F
100
AcDbEntity
  8
0
  6
Continuous
 62
     7
370
    15
100
AcDbSpline
210
0.0
220
0.0
230
1.0
 70
     8
 71
     3
 72
    11
 73
     7
 74
     0
 42
0.00000001
 43
0.00000001
 12
1.0
 22
0.0
 32
0.0
 13
1.0
 23
0.0
 33
0.0
 40
0.0
 40
0.0
 40
0.0
 40
0.0
 40
0.2502091073102383
 40
0.5000799821884365
 40
0.7498589705099821
 40
0.9999999999999999
 40
0.9999999999999999
 40
0.9999999999999999
 40
0.9999999999999999
 10
1185.69918824646
 20
814.6886598876415
 30
0.0
 10
1185.705589409262
 20
814.8522785571247
 30
0.0
 10
1185.71838308178
 20
815.17929471653
 30
0.0
 10
1185.810799034537
 20
815.5480781207472
 30
0.0
 10
1185.951684650231
 20
815.7715607193494
 30
0.0
 10
1186.074269466382
 20
815.7694369297487
 30
0.0
 10
1186.135606262308
 20
815.7683742659261
 30
0.0
  0
LINE
  5
17B
330
1F
100
AcDbEntity
  8
0
  6
Continuous
 62
     7
370
    15
100
AcDbLine
 10
1186.1356062623
 20
815.7683742659
 30
0.0
 11
1186.1514845486
 21
814.9265438237
 31
0.0
  0
SPLINE
  5
17C
330
1F
100
AcDbEntity
  8
0
  6
Continuous
 62
     7
370
    15
100
AcDbSpline
210
0.0
220
0.0
230
1.0
 70
     8
 71
     3
 72
    11
 73
     7
 74
     0
 42
0.00000001
 43
0.00000001
 12
1.0
 22
0.0
 32
0.0
 13
1.0
 23
0.0
 33
0.0
 40
0.0
 40
0.0
 40
0.0
 40
0.0
 40
0.2502463948313516
 40
0.5001375578503646
 40
0.7500417599279008
 40
1.0
 40
1.0
 40
1.0
 40
1.0
 10
1186.151484548603
 20
814.9265438237111
 30
0.0
 10
1186.129556805487
 20
814.9124179079336
 30
0.0
 10
1186.085732446306
 20
814.8841861285143
 30
0.0
 10
1186.034831453884
 20
814.7784718591765
 30
0.0
 10
1185.999396580692
 20
814.630185132146
 30
0.0
 10
1185.994011741464
 20
814.5039468031908
 30
0.0
 10
1185.991319030785
 20
814.4408208151699
 30
0.0
  0
SPLINE
  5
17D
330
1F
100
AcDbEntity
  8
0
  6
Continuous
 62
     7
370
    15
100
AcDbSpline
210
0.0
220
0.0
230
1.0
 70
     8
 71
     3
 72
    14
 73
    10
 74
     0
 42
0.00000001
 43
0.00000001
 12
1.0
 22
0.0
 32
0.0
 13
1.0
 23
0.0
 33
0.0
 40
0.0
 40
0.0
 40
0.0
 40
0.0
 40
0.1251397533057494
 40
0.2501648722882204
 40
0.3736161429341521
 40
0.5003661429263302
 40
0.6254811786405812
 40
0.7505676927660039
 40
1.0
 40
1.0
 40
1.0
 40
1.0
 10
1185.991318793031
 20
814.4408130385949
 30
0.0
 10
1185.991423569687
 20
814.3963244121676
 30
0.0
 10
1185.991633027018
 20
814.3073879131375
 30
0.0
 10
1186.005340590971
 20
814.1690642438583
 30
0.0
 10
1186.028336320191
 20
814.0344007693617
 30
0.0
 10
1186.060325862205
 20
813.9091499771059
 30
0.0
 10
1186.098969636954
 20
813.7963130039076
 30
0.0
 10
1186.159002814662
 20
813.6717439279461
 30
0.0
 10
1186.210196073328
 20
813.6209729747022
 30
0.0
 10
1186.244291162535
 20
813.5871591440323
 30
0.0
  0
SPLINE
  5
17E
330
1F
100
AcDbEntity
  8
0
  6
Continuous
 62
     7
370
    15
100
AcDbSpline
210
0.0
220
0.0
230
1.0
 70
     8
 71
     3
 72
    14
 73
    10
 74
     0
 42
0.00000001
 43
0.00000001
 12
1.0
 22
0.0
 32
0.0
 13
1.0
 23
0.0
 33
0.0
 40
0.0
 40
0.0
 40
0.0
 40
0.0
 40
0.249910958293421
 40
0.4991559240359063
 40
0.62432775727024
 40
0.7494703216805718
 40
0.8746051477785245
 40
0.9372966250331967
 40
1.0
 40
1.0
 40
1.0
 40
1.0
 10
1186.244291162535
 20
813.5871591440323
 30
0.0
 10
1186.277219848681
 20
813.5674091743457
 30
0.0
 10
1186.34298946868
 20
813.5279618670489
 30
0.0
 10
1186.419595651213
 20
813.5776650261264
 30
0.0
 10
1186.468311000379
 20
813.661915519388
 30
0.0
 10
1186.497446272252
 20
813.7475616808294
 30
0.0
 10
1186.512718253625
 20
813.8369571699973
 30
0.0
 10
1186.519349773204
 20
813.9155288244293
 30
0.0
 10
1186.520535673422
 20
813.9568788712778
 30
0.0
 10
1186.521128679791
 20
813.9775558563895
 30
0.0
  0
SPLINE
  5
17F
330
1F
100
AcDbEntity
  8
0
  6
Continuous
 62
     7
370
    15
100
AcDbSpline
210
0.0
220
0.0
230
1.0
 70
     8
 71
     3
 72
    10
 73
     6
 74
     0
 42
0.00000001
 43
0.00000001
 12
1.0
 22
0.0
 32
0.0
 13
1.0
 23
0.0
 33
0.0
 40
0.0
 40
0.0
 40
0.0
 40
0.0
 40
0.2500415356636281
 40
0.5001509220709471
 40
1.0
 40
1.0
 40
1.0
 40
1.0
 10
1186.521128898856
 20
813.9775637877534
 30
0.0
 10
1186.520194726951
 20
814.0283121182176
 30
0.0
 10
1186.518326129647
 20
814.1298225501056
 30
0.0
 10
1186.488186098549
 20
814.3387791377784
 30
0.0
 10
1186.44810193608
 20
814.4783543434793
 30
0.0
 10
1186.421385747647
 20
814.5713815459033
 30
0.0
  0
LINE
  5
180
330
1F
100
AcDbEntity
  8
0
  6
Continuous
 62
     7
370
    15
100
AcDbLine
 10
1186.4213855837
 20
814.5713820843
 30
0.0
 11
1186.4717538847
 21
815.1794539703
 31
0.0
  0
LINE
  5
181
330
1F
100
AcDbEntity
  8
0
  6
Continuous
 62
     7
370
    15
100
AcDbLine
 10
1186.4717538847
 20
815.1794539703
 30
0.0
 11
1187.3967068356
 21
813.9465826829
 31
0.0
  0
LINE
  5
182
330
1F
100
AcDbEntity
  8
0
  6
Continuous
 62
     7
370
    15
100
AcDbLine
 10
1185.6991882465
 20
814.6886598876
 30
0.0
 11
1185.6899042071
 21
814.6876227733
 31
0.0
  0
LINE
  5
183
330
1F
100
AcDbEntity
  8
0
  6
Continuous
 62
     7
370
    15
100
AcDbLine
 10
1186.2197179871
 20
812.7863087903
 30
0.0
 11
1186.2104517707
 21
812.7857190442
 31
0.0
  0
LINE
  5
184
330
1F
100
AcDbEntity
  8
0
  6
Continuous
 62
     7
370
    15
100
AcDbLine
 10
1186.5211288989
 20
813.9775637878
 30
0.0
 11
1186.5118451478
 21
813.9765467482
 31
0.0
  0
SPLINE
  5
185
330
1F
100
AcDbEntity
  8
0
  6
Continuous
 62
     7
370
    15
100
AcDbSpline
210
0.0
220
0.0
230
1.0
 70
     8
 71
     3
 72
    12
 73
     8
 74
     0
 42
0.00000001
 43
0.00000001
 12
1.0
 22
0.0
 32
0.0
 13
1.0
 23
0.0
 33
0.0
 40
0.0
 40
0.0
 40
0.0
 40
0.0
 40
0.0304717459515596
 40
0.0888135668586384
 40
0.3925556175487477
 40
0.6962774394174325
 40
1.0
 40
1.0
 40
1.0
 40
1.0
 10
1140.008191368707
 20
837.2903666741545
 30
0.0
 10
1140.004325629807
 20
837.3004671034164
 30
0.0
 10
1139.99305846905
 20
837.3299060187635
 30
0.0
 10
1139.947370470895
 20
837.4592987876689
 30
0.0
 10
1139.895685171577
 20
837.6716274839052
 30
0.0
 10
1139.888684682409
 20
837.9181711539442
 30
0.0
 10
1139.94022085132
 20
838.0139469331808
 30
0.0
 10
1139.965988967112
 20
838.0618348810358
 30
0.0
  0
SPLINE
  5
186
330
1F
100
AcDbEntity
  8
0
  6
Continuous
 62
     7
370
    15
100
AcDbSpline
210
0.0
220
0.0
230
1.0
 70
     8
 71
     3
 72
    12
 73
     8
 74
     0
 42
0.00000001
 43
0.00000001
 12
1.0
 22
0.0
 32
0.0
 13
1.0
 23
0.0
 33
0.0
 40
0.0
 40
0.0
 40
0.0
 40
0.0
 40
0.0304717459545212
 40
0.0888135668586198
 40
0.3925556175487647
 40
0.6962774394174381
 40
1.0
 40
1.0
 40
1.0
 40
1.0
 10
1171.671593863849
 20
837.7849825131245
 30
0.0
 10
1171.675111348835
 20
837.7951982761533
 30
0.0
 10
1171.685363481693
 20
837.8249733456269
 30
0.0
 10
1171.726517436635
 20
837.9557226777027
 30
0.0
 10
1171.770321077575
 20
838.169543012184
 30
0.0
 10
1171.767164935983
 20
838.4161467349999
 30
0.0
 10
1171.710654843099
 20
838.5102347173412
 30
0.0
 10
1171.682399762296
 20
838.5572787657221
 30
0.0
  0
LINE
  5
187
330
1F
100
AcDbEntity
  8
0
  6
Continuous
 62
     7
370
    15
100
AcDbLine
 10
1186.4213855837
 20
814.5713820843
 30
0.0
 11
1186.4121008602
 21
814.570207414
 31
0.0
  0
LINE
  5
188
330
1F
100
AcDbEntity
  8
0
  6
Continuous
 62
     7
370
    15
100
AcDbLine
 10
1186.4717538847
 20
815.1794539703
 30
0.0
 11
1186.4624722069
 21
815.1780785431
 31
0.0
  0
LINE
  5
189
330
1F
100
AcDbEntity
  8
0
  6
Continuous
 62
     7
370
    15
100
AcDbLine
 10
1187.1041240873
 20
813.5746412108
 30
0.0
 11
1187.094840095
 21
813.5736076156
 31
0.0
  0
LINE
  5
18A
330
1F
100
AcDbEntity
  8
0
  6
Continuous
 62
     7
370
    15
100
AcDbLine
 10
1187.0553926245
 20
812.1903028604
 30
0.0
 11
1187.0461245376
 21
812.1896842656
 31
0.0
  0
LINE
  5
18B
330
1F
100
AcDbEntity
  8
0
  6
Continuous
 62
     7
370
    15
100
AcDbLine
 10
1187.3454385445
 20
811.961791344
 30
0.0
 11
1187.3361702347
 21
811.9611692067
 31
0.0
  0
LINE
  5
18C
330
1F
100
AcDbEntity
  8
0
  6
Continuous
 62
     7
370
    15
100
AcDbLine
 10
1155.7326329656
 20
842.8421211203
 30
0.0
 11
1155.736555415
 21
842.581786041
 31
0.0
  0
SPLINE
  5
18D
330
1F
100
AcDbEntity
  8
0
  6
Continuous
 62
     7
370
    15
100
AcDbSpline
210
0.0
220
0.0
230
1.0
 70
     8
 71
     3
 72
    11
 73
     7
 74
     0
 42
0.00000001
 43
0.00000001
 12
1.0
 22
0.0
 32
0.0
 13
1.0
 23
0.0
 33
0.0
 40
0.0
 40
0.0
 40
0.0
 40
0.0
 40
0.2500000000000079
 40
0.5000000000000123
 40
0.750000000000067
 40
1.0
 40
1.0
 40
1.0
 40
1.0
 10
1155.736555414956
 20
842.5817860409926
 30
0.0
 10
1155.705170987349
 20
842.5809479103638
 30
0.0
 10
1155.642402132134
 20
842.5792716491063
 30
0.0
 10
1155.562365772506
 20
842.5723102735705
 30
0.0
 10
1155.50445900702
 20
842.5631503990166
 30
0.0
 10
1155.493940647017
 20
842.5562832308815
 30
0.0
 10
1155.488681467016
 20
842.5528496468139
 30
0.0
  0
SPLINE
  5
18E
330
1F
100
AcDbEntity
  8
0
  6
Continuous
 62
     7
370
    15
100
AcDbSpline
210
0.0
220
0.0
230
1.0
 70
     8
 71
     3
 72
    11
 73
     7
 74
     0
 42
0.00000001
 43
0.00000001
 12
1.0
 22
0.0
 32
0.0
 13
1.0
 23
0.0
 33
0.0
 40
0.0
 40
0.0
 40
0.0
 40
0.0
 40
0.2499999999999666
 40
0.4999999999999233
 40
0.7499999999999963
 40
0.9999999999999999
 40
0.9999999999999999
 40
0.9999999999999999
 40
0.9999999999999999
 10
1156.018856947717
 20
842.5611315486161
 30
0.0
 10
1156.013179065061
 20
842.5643942841964
 30
0.0
 10
1156.001823299751
 20
842.5709197553566
 30
0.0
 10
1155.942883839389
 20
842.5782543682686
 30
0.0
 10
1155.862130744138
 20
842.582704042444
 30
0.0
 10
1155.799270499438
 20
842.5824178442766
 30
0.0
 10
1155.767840377088
 20
842.5822747451929
 30
0.0
  0
LINE
  5
18F
330
1F
100
AcDbEntity
  8
0
  6
Continuous
 62
     7
370
    15
100
AcDbLine
 10
1155.7678403771
 20
842.5822747452
 30
0.0
 11
1155.7639179277
 21
842.8426098245
 31
0.0
  0
SPLINE
  5
190
330
1F
100
AcDbEntity
  8
0
  6
Continuous
 62
     7
370
    15
100
AcDbSpline
210
0.0
220
0.0
230
1.0
 70
     8
 71
     3
 72
    11
 73
     7
 74
     0
 42
0.00000001
 43
0.00000001
 12
1.0
 22
0.0
 32
0.0
 13
1.0
 23
0.0
 33
0.0
 40
0.0
 40
0.0
 40
0.0
 40
0.0
 40
0.2499999999999676
 40
0.499999999999939
 40
0.7499999999999697
 40
1.0
 40
1.0
 40
1.0
 40
1.0
 10
1155.736555414956
 20
842.5817860409926
 30
0.0
 10
1155.737081189552
 20
842.5498549625919
 30
0.0
 10
1155.738132738745
 20
842.4859928057907
 30
0.0
 10
1155.73979209708
 20
842.3996165256021
 30
0.0
 10
1155.741272528394
 20
842.3331750996191
 30
0.0
 10
1155.741902670962
 20
842.3162632556749
 30
0.0
 10
1155.742217742245
 20
842.3078073337028
 30
0.0
  0
SPLINE
  5
191
330
1F
100
AcDbEntity
  8
0
  6
Continuous
 62
     7
370
    15
100
AcDbSpline
210
0.0
220
0.0
230
1.0
 70
     8
 71
     3
 72
    11
 73
     7
 74
     0
 42
0.00000001
 43
0.00000001
 12
1.0
 22
0.0
 32
0.0
 13
1.0
 23
0.0
 33
0.0
 40
0.0
 40
0.0
 40
0.0
 40
0.0
 40
0.2500000000000032
 40
0.4999999999999976
 40
0.7499999999999849
 40
1.0
 40
1.0
 40
1.0
 40
1.0
 10
1155.767840377088
 20
842.5822747451929
 30
0.0
 10
1155.768312800003
 20
842.5503428333825
 30
0.0
 10
1155.769257645833
 20
842.4864790097618
 30
0.0
 10
1155.770756949124
 20
842.4001002293443
 30
0.0
 10
1155.772077325395
 20
842.3336563031321
 30
0.0
 10
1155.772600764599
 20
842.3167427923685
 30
0.0
 10
1155.772862484201
 20
842.3082860369868
 30
0.0
  0
LINE
  5
192
330
1F
100
AcDbEntity
  8
0
  6
Continuous
 62
     7
370
    15
100
AcDbLine
 10
1155.736555415
 20
842.581786041
 30
0.0
 11
1155.7678403771
 21
842.5822747452
 31
0.0
  0
LINE
  5
193
330
1F
100
AcDbEntity
  8
0
  6
Continuous
 62
     7
370
    15
100
AcDbLine
 10
1154.1029665826
 20
843.1683771216
 30
0.0
 11
1154.1036121463
 21
843.1584204935
 31
0.0
  0
SPLINE
  5
194
330
1F
100
AcDbEntity
  8
0
  6
Continuous
 62
     7
370
    15
100
AcDbSpline
210
0.0
220
0.0
230
1.0
 70
     8
 71
     3
 72
    13
 73
     9
 74
     0
 42
0.00000001
 43
0.00000001
 12
1.0
 22
0.0
 32
0.0
 13
1.0
 23
0.0
 33
0.0
 40
0.0
 40
0.0
 40
0.0
 40
0.0
 40
0.1251634154368431
 40
0.2500916814093909
 40
0.3741805932982025
 40
0.4999865262457428
 40
0.7494570821010696
 40
1.0
 40
1.0
 40
1.0
 40
1.0
 10
1155.709898810865
 20
843.0808193493726
 30
0.0
 10
1155.577143567233
 20
843.0785752570447
 30
0.0
 10
1155.311882492503
 20
843.0740912884537
 30
0.0
 10
1154.933785871475
 20
843.0699955261115
 30
0.0
 10
1154.618370938295
 20
843.0722411223107
 30
0.0
 10
1154.314946065215
 20
843.085071553921
 30
0.0
 10
1154.128767572751
 20
843.1167695632561
 30
0.0
 10
1154.111579200418
 20
843.1511500239712
 30
0.0
 10
1154.102966582591
 20
843.1683771216366
 30
0.0
  0
LINE
  5
195
330
1F
100
AcDbEntity
  8
0
  6
Continuous
 62
     7
370
    15
100
AcDbLine
 10
1155.7098988109
 20
843.0808193494
 30
0.0
 11
1155.7100572067
 21
843.0708426361
 31
0.0
  0
SPLINE
  5
196
330
1F
100
AcDbEntity
  8
0
  6
Continuous
 62
     7
370
    15
100
AcDbSpline
210
0.0
220
0.0
230
1.0
 70
     8
 71
     3
 72
    13
 73
     9
 74
     0
 42
0.00000001
 43
0.00000001
 12
1.0
 22
0.0
 32
0.0
 13
1.0
 23
0.0
 33
0.0
 40
0.0
 40
0.0
 40
0.0
 40
0.0
 40
0.1254902436581459
 40
0.2493194740033279
 40
0.3731732632516885
 40
0.4989606843624864
 40
0.7492690339848327
 40
0.9999999999999999
 40
0.9999999999999999
 40
0.9999999999999999
 40
0.9999999999999999
 10
1155.632577440591
 20
843.3912995577405
 30
0.0
 10
1155.767348187326
 20
843.3927357354371
 30
0.0
 10
1156.035105828937
 20
843.3955890813027
 30
0.0
 10
1156.414068799043
 20
843.3851819631343
 30
0.0
 10
1156.730815722942
 20
843.3648351623519
 30
0.0
 10
1157.033033938644
 20
843.3290170145904
 30
0.0
 10
1157.215790556939
 20
843.2797624023508
 30
0.0
 10
1157.234419132654
 20
843.2435425512613
 30
0.0
 10
1157.243741276922
 20
843.2254173503655
 30
0.0
  0
SPLINE
  5
197
330
1F
100
AcDbEntity
  8
0
  6
Continuous
 62
     7
370
    15
100
AcDbSpline
210
0.0
220
0.0
230
1.0
 70
     8
 71
     3
 72
    13
 73
     9
 74
     0
 42
0.00000001
 43
0.00000001
 12
1.0
 22
0.0
 32
0.0
 13
1.0
 23
0.0
 33
0.0
 40
0.0
 40
0.0
 40
0.0
 40
0.0
 40
0.2505151290546189
 40
0.5001116384169305
 40
0.6271535859851131
 40
0.7499772368252107
 40
0.8748431134467695
 40
1.0
 40
1.0
 40
1.0
 40
1.0
 10
1157.243741276922
 20
843.2254173503655
 30
0.0
 10
1157.240740531229
 20
843.2077644421437
 30
0.0
 10
1157.234750043345
 20
843.1725233575554
 30
0.0
 10
1157.067497720705
 20
843.1338931683399
 30
0.0
 10
1156.788704351829
 20
843.109650383905
 30
0.0
 10
1156.486391218072
 20
843.0959139974887
 30
0.0
 10
1156.110047156819
 20
843.0873538594138
 30
0.0
 10
1155.843385051857
 20
843.0829992088946
 30
0.0
 10
1155.709898810865
 20
843.0808193493726
 30
0.0
  0
SPLINE
  5
198
330
1F
100
AcDbEntity
  8
0
  6
Continuous
 62
     7
370
    15
100
AcDbSpline
210
0.0
220
0.0
230
1.0
 70
     8
 71
     3
 72
     9
 73
     5
 74
     0
 42
0.00000001
 43
0.00000001
 12
1.0
 22
0.0
 32
0.0
 13
1.0
 23
0.0
 33
0.0
 40
0.0
 40
0.0
 40
0.0
 40
0.0
 40
0.5015985442838996
 40
1.0
 40
1.0
 40
1.0
 40
1.0
 10
1154.102966582591
 20
843.1683771216366
 30
0.0
 10
1154.101649604193
 20
843.1893742959069
 30
0.0
 10
1154.099024041555
 20
843.231234812668
 30
0.0
 10
1154.34175575343
 20
843.2833230411856
 30
0.0
 10
1154.462733591977
 20
843.3092838901042
 30
0.0
  0
SPLINE
  5
199
330
1F
100
AcDbEntity
  8
0
  6
Continuous
 62
     7
370
    15
100
AcDbSpline
210
0.0
220
0.0
230
1.0
 70
     8
 71
     3
 72
    12
 73
     8
 74
     0
 42
0.00000001
 43
0.00000001
 12
1.0
 22
0.0
 32
0.0
 13
1.0
 23
0.0
 33
0.0
 40
0.0
 40
0.0
 40
0.0
 40
0.0
 40
0.2499906747877423
 40
0.4997539304235231
 40
0.7495544131972924
 40
0.8747471463400169
 40
1.0
 40
1.0
 40
1.0
 40
1.0
 10
1154.462735901864
 20
843.309284225867
 30
0.0
 10
1154.532680275148
 20
843.3189836110519
 30
0.0
 10
1154.672505392582
 20
843.338373557789
 30
0.0
 10
1154.959624017093
 20
843.3638231611626
 30
0.0
 10
1155.231991159851
 20
843.379378905463
 30
0.0
 10
1155.459770586347
 20
843.3875724635145
 30
0.0
 10
1155.574965938133
 20
843.3900569941911
 30
0.0
 10
1155.632577440591
 20
843.3912995577405
 30
0.0
  0
SPLINE
  5
19A
330
1F
100
AcDbEntity
  8
0
  6
Continuous
 62
     7
370
    15
100
AcDbSpline
210
0.0
220
0.0
230
1.0
 70
     8
 71
     3
 72
    11
 73
     7
 74
     0
 42
0.00000001
 43
0.00000001
 12
1.0
 22
0.0
 32
0.0
 13
1.0
 23
0.0
 33
0.0
 40
0.0
 40
0.0
 40
0.0
 40
0.0
 40
0.2526820747729668
 40
0.4983470736768705
 40
0.7492268483260319
 40
1.0
 40
1.0
 40
1.0
 40
1.0
 10
1155.69786435425
 20
843.133112775438
 30
0.0
 10
1155.749396198429
 20
843.1341431071156
 30
0.0
 10
1155.851028828169
 20
843.136175157774
 30
0.0
 10
1155.989801013112
 20
843.1419757269866
 30
0.0
 10
1156.10503501317
 20
843.1492783723775
 30
0.0
 10
1156.159784696087
 20
843.1550779056156
 30
0.0
 10
1156.187153719206
 20
843.1579770559086
 30
0.0
  0
SPLINE
  5
19B
330
1F
100
AcDbEntity
  8
0
  6
Continuous
 62
     7
370
    15
100
AcDbSpline
210
0.0
220
0.0
230
1.0
 70
     8
 71
     3
 72
     9
 73
     5
 74
     0
 42
0.00000001
 43
0.00000001
 12
1.0
 22
0.0
 32
0.0
 13
1.0
 23
0.0
 33
0.0
 40
0.0
 40
0.0
 40
0.0
 40
0.0
 40
0.4986356485528622
 40
1.0
 40
1.0
 40
1.0
 40
1.0
 10
1156.187153719206
 20
843.1579770559086
 30
0.0
 10
1156.258449253418
 20
843.1711350938522
 30
0.0
 10
1156.401430475116
 20
843.1975231749724
 30
0.0
 10
1156.397136878871
 20
843.225738268239
 30
0.0
 10
1156.394984222774
 20
843.2398843101756
 30
0.0
  0
SPLINE
  5
19C
330
1F
100
AcDbEntity
  8
0
  6
Continuous
 62
     7
370
    15
100
AcDbSpline
210
0.0
220
0.0
230
1.0
 70
     8
 71
     3
 72
    13
 73
     9
 74
     0
 42
0.00000001
 43
0.00000001
 12
1.0
 22
0.0
 32
0.0
 13
1.0
 23
0.0
 33
0.0
 40
0.0
 40
0.0
 40
0.0
 40
0.0
 40
0.500217021356673
 40
0.6253792974878233
 40
0.7503585285916224
 40
0.8754848676968399
 40
0.9379713007528301
 40
1.0
 40
1.0
 40
1.0
 40
1.0
 10
1156.394984222774
 20
843.2398843101756
 30
0.0
 10
1156.387056734361
 20
843.2610282019937
 30
0.0
 10
1156.377145661921
 20
843.2874626327446
 30
0.0
 10
1156.221767378591
 20
843.3175393028328
 30
0.0
 10
1156.088503154283
 20
843.3305110116402
 30
0.0
 10
1155.930669443621
 20
843.3378368641023
 30
0.0
 10
1155.780307177078
 20
843.3396050277101
 30
0.0
 10
1155.701835894249
 20
843.3386202168642
 30
0.0
 10
1155.662744488152
 20
843.3381296215875
 30
0.0
  0
SPLINE
  5
19D
330
1F
100
AcDbEntity
  8
0
  6
Continuous
 62
     7
370
    15
100
AcDbSpline
210
0.0
220
0.0
230
1.0
 70
     8
 71
     3
 72
    13
 73
     9
 74
     0
 42
0.00000001
 43
0.00000001
 12
1.0
 22
0.0
 32
0.0
 13
1.0
 23
0.0
 33
0.0
 40
0.0
 40
0.0
 40
0.0
 40
0.0
 40
0.1244911865956754
 40
0.1870808638824735
 40
0.2496426463858684
 40
0.374464030011157
 40
0.4996591139939566
 40
1.0
 40
1.0
 40
1.0
 40
1.0
 10
1155.662744488152
 20
843.3381296215875
 30
0.0
 10
1155.580880632204
 20
843.3359673670084
 30
0.0
 10
1155.457858582931
 20
843.3327180088355
 30
0.0
 10
1155.316985125595
 20
843.3234126949571
 30
0.0
 10
1155.194196920896
 20
843.3127149099944
 30
0.0
 10
1155.095357904767
 20
843.2973040611554
 30
0.0
 10
1154.950427985802
 20
843.2610646978322
 30
0.0
 10
1154.952193460538
 20
843.2336031902583
 30
0.0
 10
1154.953605592271
 20
843.2116378426368
 30
0.0
  0
SPLINE
  5
19E
330
1F
100
AcDbEntity
  8
0
  6
Continuous
 62
     7
370
    15
100
AcDbSpline
210
0.0
220
0.0
230
1.0
 70
     8
 71
     3
 72
    12
 73
     8
 74
     0
 42
0.00000001
 43
0.00000001
 12
1.0
 22
0.0
 32
0.0
 13
1.0
 23
0.0
 33
0.0
 40
0.0
 40
0.0
 40
0.0
 40
0.0
 40
0.5003428727166118
 40
0.626369918968803
 40
0.7506498344936179
 40
0.8753654673899933
 40
1.0
 40
1.0
 40
1.0
 40
1.0
 10
1154.953605592271
 20
843.2116378426368
 30
0.0
 10
1154.961167621317
 20
843.1912952066984
 30
0.0
 10
1154.970634384569
 20
843.1658286398318
 30
0.0
 10
1155.137568844536
 20
843.1428055251797
 30
0.0
 10
1155.274832706247
 20
843.1347149024264
 30
0.0
 10
1155.465341523728
 20
843.1303625785699
 30
0.0
 10
1155.620373551955
 20
843.1321962419462
 30
0.0
 10
1155.69786435425
 20
843.133112775438
 30
0.0
  0
SPLINE
  5
19F
330
1F
100
AcDbEntity
  8
0
  6
Continuous
 62
     7
370
    15
100
AcDbSpline
210
0.0
220
0.0
230
1.0
 70
     8
 71
     3
 72
    13
 73
     9
 74
     0
 42
0.00000001
 43
0.00000001
 12
1.0
 22
0.0
 32
0.0
 13
1.0
 23
0.0
 33
0.0
 40
0.0
 40
0.0
 40
0.0
 40
0.0
 40
0.5002540475699284
 40
0.6254214274889768
 40
0.7503983341480909
 40
0.8755105012835968
 40
0.9379849331753876
 40
1.0
 40
1.0
 40
1.0
 40
1.0
 10
1156.394928551806
 20
843.229906470532
 30
0.0
 10
1156.387004495064
 20
843.2510501368297
 30
0.0
 10
1156.37709777886
 20
843.2774841097731
 30
0.0
 10
1156.221767602712
 20
843.3075608515592
 30
0.0
 10
1156.088548200095
 20
843.3205324822613
 30
0.0
 10
1155.930761269153
 20
843.3278590534418
 30
0.0
 10
1155.780438682985
 20
843.3296278798678
 30
0.0
 10
1155.701989495738
 20
843.3286434292529
 30
0.0
 10
1155.662909640492
 20
843.3281530202521
 30
0.0
  0
SPLINE
  5
1A0
330
1F
100
AcDbEntity
  8
0
  6
Continuous
 62
     7
370
    15
100
AcDbSpline
210
0.0
220
0.0
230
1.0
 70
     8
 71
     3
 72
    13
 73
     9
 74
     0
 42
0.00000001
 43
0.00000001
 12
1.0
 22
0.0
 32
0.0
 13
1.0
 23
0.0
 33
0.0
 40
0.0
 40
0.0
 40
0.0
 40
0.0
 40
0.1244647949685378
 40
0.1870450409995667
 40
0.249600986591251
 40
0.3744215280884045
 40
0.4996222463026446
 40
1.0
 40
1.0
 40
1.0
 40
1.0
 10
1155.662909640492
 20
843.3281530202521
 30
0.0
 10
1155.581069156431
 20
843.3259911552125
 30
0.0
 10
1155.458079706277
 20
843.3227423157712
 30
0.0
 10
1155.317251521151
 20
843.3134381773659
 30
0.0
 10
1155.194497747828
 20
843.3027411053919
 30
0.0
 10
1155.09569325595
 20
843.2873314169458
 30
0.0
 10
1154.950808655034
 20
843.2510935461388
 30
0.0
 10
1154.952576768951
 20
843.2236325336199
 30
0.0
 10
1154.953991019775
 20
843.2016674558954
 30
0.0
  0
LINE
  5
1A1
330
1F
100
AcDbEntity
  8
0
  6
Continuous
 62
     7
370
    15
100
AcDbLine
 10
1156.3949285518
 20
843.2299064705
 30
0.0
 11
1156.3949842228
 21
843.2398843102
 31
0.0
  0
LINE
  5
1A2
330
1F
100
AcDbEntity
  8
0
  6
Continuous
 62
     7
370
    15
100
AcDbLine
 10
1155.6629096405
 20
843.3281530203
 30
0.0
 11
1155.6627444882
 21
843.3381296216
 31
0.0
  0
LINE
  5
1A3
330
1F
100
AcDbEntity
  8
0
  6
Continuous
 62
     7
370
    15
100
AcDbLine
 10
1154.9539910198
 20
843.2016674559
 30
0.0
 11
1154.9536055923
 21
843.2116378426
 31
0.0
  0
LINE
  5
1A4
330
1F
100
AcDbEntity
  8
0
  6
Continuous
 62
     7
370
    15
100
AcDbLine
 10
887.2629537371
 20
849.4806210178
 30
0.0
 11
888.4629537371
 21
849.4806210178
 31
0.0
  0
LINE
  5
1A5
330
1F
100
AcDbEntity
  8
0
  6
Continuous
 62
     7
370
    15
100
AcDbLine
 10
888.4629537371
 20
849.4806210178
 30
0.0
 11
888.4629537371
 21
849.4139095998
 31
0.0
  0
LINE
  5
1A6
330
1F
100
AcDbEntity
  8
0
  6
Continuous
 62
     7
370
    15
100
AcDbLine
 10
887.2629537371
 20
849.4139095998
 30
0.0
 11
887.2629537371
 21
849.4806210178
 31
0.0
  0
LINE
  5
1A7
330
1F
100
AcDbEntity
  8
0
  6
Continuous
 62
     7
370
    15
100
AcDbLine
 10
1048.4629537371
 20
850.1293684577
 30
0.0
 11
1048.4629537371
 21
849.9666960043
 31
0.0
  0
LINE
  5
1A8
330
1F
100
AcDbEntity
  8
0
  6
Continuous
 62
     7
370
    15
100
AcDbLine
 10
1049.6629537371
 20
850.1293684577
 30
0.0
 11
1049.6629537371
 21
849.9666960043
 31
0.0
  0
LINE
  5
1A9
330
1F
100
AcDbEntity
  8
0
  6
Continuous
 62
     7
370
    15
100
AcDbLine
 10
888.4629537371
 20
849.4806210178
 30
0.0
 11
888.4629537371
 21
850.1293684577
 31
0.0
  0
LINE
  5
1AA
330
1F
100
AcDbEntity
  8
0
  6
Continuous
 62
     7
370
    15
100
AcDbLine
 10
887.2629537371
 20
849.4806210178
 30
0.0
 11
887.2629537371
 21
850.1293684577
 31
0.0
  0
LINE
  5
1AB
330
1F
100
AcDbEntity
  8
0
  6
Continuous
 62
     7
370
    15
100
AcDbLine
 10
1048.4558826693
 20
849.9666960043
 30
0.0
 11
1048.4558826693
 21
850.1293684577
 31
0.0
  0
LINE
  5
1AC
330
1F
100
AcDbEntity
  8
0
  6
Continuous
 62
     7
370
    15
100
AcDbLine
 10
888.4700248049
 20
849.4139095998
 30
0.0
 11
888.4700248049
 21
850.1293684577
 31
0.0
  0
LINE
  5
1AD
330
1F
100
AcDbEntity
  8
0
  6
Continuous
 62
     7
370
    15
100
AcDbLine
 10
843.5129537367
 20
904.5719504093
 30
0.0
 11
842.3129537367
 21
904.5719504093
 31
0.0
  0
LINE
  5
1AE
330
1F
100
AcDbEntity
  8
0
  6
Continuous
 62
     7
370
    15
100
AcDbLine
 10
843.5129537367
 20
861.5718198512
 30
0.0
 11
842.3129537367
 21
861.5718198512
 31
0.0
  0
LINE
  5
1AF
330
1F
100
AcDbEntity
  8
0
  6
Continuous
 62
     7
370
    15
100
AcDbLine
 10
842.3129537367
 20
861.5718198512
 30
0.0
 11
842.3129537367
 21
904.5719504093
 31
0.0
  0
LINE
  5
1B0
330
1F
100
AcDbEntity
  8
0
  6
Continuous
 62
     7
370
    15
100
AcDbLine
 10
843.5129537367
 20
850.0719504093
 30
0.0
 11
842.3129537367
 21
850.0719504093
 31
0.0
  0
LINE
  5
1B1
330
1F
100
AcDbEntity
  8
0
  6
Continuous
 62
     7
370
    15
100
AcDbLine
 10
843.5129537367
 20
850.0719504093
 30
0.0
 11
843.5129537367
 21
850.1293684577
 31
0.0
  0
LINE
  5
1B2
330
1F
100
AcDbEntity
  8
0
  6
Continuous
 62
     7
370
    15
100
AcDbLine
 10
842.3129537367
 20
850.0719504093
 30
0.0
 11
842.3129537367
 21
861.5718198512
 31
0.0
  0
LINE
  5
1B3
330
1F
100
AcDbEntity
  8
0
  6
Continuous
 62
     7
370
    15
100
AcDbLine
 10
1242.3129537367
 20
904.5719504093
 30
0.0
 11
1241.1129537367
 21
904.5719504093
 31
0.0
  0
LINE
  5
1B4
330
1F
100
AcDbEntity
  8
0
  6
Continuous
 62
     7
370
    15
100
AcDbLine
 10
1242.3129537367
 20
861.5718198512
 30
0.0
 11
1242.3129537367
 21
904.5719504093
 31
0.0
  0
LINE
  5
1B5
330
1F
100
AcDbEntity
  8
0
  6
Continuous
 62
     7
370
    15
100
AcDbLine
 10
1242.3129537367
 20
861.5718198512
 30
0.0
 11
1241.1129537367
 21
861.5718198512
 31
0.0
  0
LINE
  5
1B6
330
1F
100
AcDbEntity
  8
0
  6
Continuous
 62
     7
370
    15
100
AcDbLine
 10
1242.3129537367
 20
850.0719504093
 30
0.0
 11
1241.1129537367
 21
850.0719504093
 31
0.0
  0
LINE
  5
1B7
330
1F
100
AcDbEntity
  8
0
  6
Continuous
 62
     7
370
    15
100
AcDbLine
 10
1241.1129537367
 20
850.0719504093
 30
0.0
 11
1241.1129537367
 21
850.1293684577
 31
0.0
  0
LINE
  5
1B8
330
1F
100
AcDbEntity
  8
0
  6
Continuous
 62
     7
370
    15
100
AcDbLine
 10
1242.3129537367
 20
850.0719504093
 30
0.0
 11
1242.3129537367
 21
861.5718198512
 31
0.0
  0
LINE
  5
1B9
330
1F
100
AcDbEntity
  8
0
  6
Continuous
 62
     7
370
    15
100
AcDbLine
 10
1241.1129537367
 20
904.8719504093
 30
0.0
 11
843.5129537367
 21
904.8719504093
 31
0.0
  0
LINE
  5
1BA
330
1F
100
AcDbEntity
  8
0
  6
Continuous
 62
     7
370
    15
100
AcDbLine
 10
1241.1129537367
 20
860.2044506762
 30
0.0
 11
1241.1129537367
 21
904.8719504093
 31
0.0
  0
LINE
  5
1BB
330
1F
100
AcDbEntity
  8
0
  6
Continuous
 62
     7
370
    15
100
AcDbLine
 10
1241.1129537367
 20
860.2044506762
 30
0.0
 11
843.5129537367
 21
860.2044506762
 31
0.0
  0
LINE
  5
1BC
330
1F
100
AcDbEntity
  8
0
  6
Continuous
 62
     7
370
    15
100
AcDbLine
 10
843.5129537367
 20
860.2044506762
 30
0.0
 11
843.5129537367
 21
904.8719504093
 31
0.0
  0
LINE
  5
1BD
330
1F
100
AcDbEntity
  8
0
  6
Continuous
 62
     7
370
    15
100
AcDbLine
 10
1241.1129537367
 20
850.1293684577
 30
0.0
 11
1241.1129537367
 21
860.2044506762
 31
0.0
  0
LINE
  5
1BE
330
1F
100
AcDbEntity
  8
0
  6
Continuous
 62
     7
370
    15
100
AcDbLine
 10
1241.1129537367
 20
850.1293684577
 30
0.0
 11
1226.8129537371
 21
850.1293684577
 31
0.0
  0
LINE
  5
1BF
330
1F
100
AcDbEntity
  8
0
  6
Continuous
 62
     7
370
    15
100
AcDbLine
 10
1211.8129537371
 20
850.1293684577
 30
0.0
 11
872.8129537371
 21
850.1293684577
 31
0.0
  0
LINE
  5
1C0
330
1F
100
AcDbEntity
  8
0
  6
Continuous
 62
     7
370
    15
100
AcDbLine
 10
857.8129537371
 20
850.1293684577
 30
0.0
 11
843.5129537367
 21
850.1293684577
 31
0.0
  0
LINE
  5
1C1
330
1F
100
AcDbEntity
  8
0
  6
Continuous
 62
     7
370
    15
100
AcDbLine
 10
843.5129537367
 20
850.1293684577
 30
0.0
 11
843.5129537367
 21
860.2044506762
 31
0.0
  0
ARC
  5
1C2
330
1F
100
AcDbEntity
  8
0
  6
Continuous
 62
     7
370
    15
100
AcDbCircle
 10
865.3129537367
 20
857.6207564858
 30
0.0
 40
5.589006585125548
100
AcDbArc
 50
238.7758719081
 51
301.2241280916
  0
ARC
  5
1C3
330
1F
100
AcDbEntity
  8
0
  6
Continuous
 62
     7
370
    15
100
AcDbCircle
 10
1219.3129537365
 20
857.6207564986
 30
0.0
 40
5.589006597293052
100
AcDbArc
 50
238.7758720573
 51
301.2241279517
  0
LINE
  5
1C4
330
1F
100
AcDbEntity
  8
0
  6
Continuous
 62
     7
370
    15
100
AcDbLine
 10
1241.5129537367
 20
1095.9096620281
 30
0.0
 11
843.1129537367
 21
1095.9096620281
 31
0.0
  0
LINE
  5
1C5
330
1F
100
AcDbEntity
  8
0
  6
Continuous
 62
     7
370
    15
100
AcDbLine
 10
1241.5129537367
 20
1095.9096620281
 30
0.0
 11
1241.5129537367
 21
1070.9887757099
 31
0.0
  0
LINE
  5
1C6
330
1F
100
AcDbEntity
  8
0
  6
Continuous
 62
     7
370
    15
100
AcDbLine
 10
843.1129537367
 20
1095.9096620281
 30
0.0
 11
843.1129537367
 21
1070.9887757099
 31
0.0
  0
LINE
  5
1C7
330
1F
100
AcDbEntity
  8
0
  6
Continuous
 62
     7
370
    15
100
AcDbLine
 10
844.3629537367
 20
1070.4887757099
 30
0.0
 11
844.7629537367
 21
1070.4887757099
 31
0.0
  0
LINE
  5
1C8
330
1F
100
AcDbEntity
  8
0
  6
Continuous
 62
     7
370
    15
100
AcDbLine
 10
844.7629537367
 20
1070.4887757099
 30
0.0
 11
844.7629537367
 21
1070.8887757099
 31
0.0
  0
LINE
  5
1C9
330
1F
100
AcDbEntity
  8
0
  6
Continuous
 62
     7
370
    15
100
AcDbLine
 10
844.7629537367
 20
1070.8887757099
 30
0.0
 11
843.1129537367
 21
1070.8887757099
 31
0.0
  0
LINE
  5
1CA
330
1F
100
AcDbEntity
  8
0
  6
Continuous
 62
     7
370
    15
100
AcDbLine
 10
843.1129537367
 20
1070.9887757099
 30
0.0
 11
843.1129537367
 21
1070.8887757099
 31
0.0
  0
LINE
  5
1CB
330
1F
100
AcDbEntity
  8
0
  6
Continuous
 62
     7
370
    15
100
AcDbLine
 10
1241.5129537367
 20
1070.9887757099
 30
0.0
 11
1241.5129537367
 21
1070.8887757099
 31
0.0
  0
LINE
  5
1CC
330
1F
100
AcDbEntity
  8
0
  6
Continuous
 62
     7
370
    15
100
AcDbLine
 10
1241.5129537367
 20
1070.8887757099
 30
0.0
 11
1239.8629537367
 21
1070.8887757099
 31
0.0
  0
LINE
  5
1CD
330
1F
100
AcDbEntity
  8
0
  6
Continuous
 62
     7
370
    15
100
AcDbLine
 10
1239.8629537367
 20
1070.8887757099
 30
0.0
 11
1239.8629537367
 21
1070.4887757099
 31
0.0
  0
LINE
  5
1CE
330
1F
100
AcDbEntity
  8
0
  6
Continuous
 62
     7
370
    15
100
AcDbLine
 10
1239.8629537367
 20
1070.4887757099
 30
0.0
 11
1240.2629537367
 21
1070.4887757099
 31
0.0
  0
LINE
  5
1CF
330
1F
100
AcDbEntity
  8
0
  6
Continuous
 62
     7
370
    15
100
AcDbLine
 10
842.3129537367
 20
1070.4887757099
 30
0.0
 11
842.3129537367
 21
904.5719504093
 31
0.0
  0
LINE
  5
1D0
330
1F
100
AcDbEntity
  8
0
  6
Continuous
 62
     7
370
    15
100
AcDbLine
 10
842.3129537367
 20
1070.4887757099
 30
0.0
 11
844.3629537367
 21
1070.4887757099
 31
0.0
  0
LINE
  5
1D1
330
1F
100
AcDbEntity
  8
0
  6
Continuous
 62
     7
370
    15
100
AcDbLine
 10
1242.3129537367
 20
904.5719504093
 30
0.0
 11
1242.3129537367
 21
1070.4887757099
 31
0.0
  0
LINE
  5
1D2
330
1F
100
AcDbEntity
  8
0
  6
Continuous
 62
     7
370
    15
100
AcDbLine
 10
1240.2629537367
 20
1070.4887757099
 30
0.0
 11
1242.3129537367
 21
1070.4887757099
 31
0.0
  0
LINE
  5
1D3
330
1F
100
AcDbEntity
  8
0
  6
Continuous
 62
     7
370
    15
100
AcDbLine
 10
842.3129537367
 20
1095.0403287845
 30
0.0
 11
842.3129537367
 21
1070.9887757099
 31
0.0
  0
LINE
  5
1D4
330
1F
100
AcDbEntity
  8
0
  6
Continuous
 62
     7
370
    15
100
AcDbLine
 10
842.3129537367
 20
1095.0403287845
 30
0.0
 11
843.1129537367
 21
1095.0403287845
 31
0.0
  0
LINE
  5
1D5
330
1F
100
AcDbEntity
  8
0
  6
Continuous
 62
     7
370
    15
100
AcDbLine
 10
842.3129537367
 20
1070.9887757099
 30
0.0
 11
843.1129537367
 21
1070.9887757099
 31
0.0
  0
LINE
  5
1D6
330
1F
100
AcDbEntity
  8
0
  6
Continuous
 62
     7
370
    15
100
AcDbLine
 10
1242.3129537367
 20
1095.0403287845
 30
0.0
 11
1241.5129537367
 21
1095.0403287845
 31
0.0
  0
LINE
  5
1D7
330
1F
100
AcDbEntity
  8
0
  6
Continuous
 62
     7
370
    15
100
AcDbLine
 10
1242.3129537367
 20
1070.9887757099
 30
0.0
 11
1241.5129537367
 21
1070.9887757099
 31
0.0
  0
LINE
  5
1D8
330
1F
100
AcDbEntity
  8
0
  6
Continuous
 62
     7
370
    15
100
AcDbLine
 10
1242.3129537367
 20
1095.0403287845
 30
0.0
 11
1242.3129537367
 21
1070.9887757099
 31
0.0
  0
LINE
  5
1D9
330
1F
100
AcDbEntity
  8
0
  6
Continuous
 62
     7
370
    15
100
AcDbLine
 10
843.1129537367
 20
1070.8887757099
 30
0.0
 11
843.1129537367
 21
1070.4887757099
 31
0.0
  0
LINE
  5
1DA
330
1F
100
AcDbEntity
  8
0
  6
Continuous
 62
     7
370
    15
100
AcDbLine
 10
842.3129537367
 20
1070.9887757099
 30
0.0
 11
842.3129537367
 21
1070.4887757099
 31
0.0
  0
LINE
  5
1DB
330
1F
100
AcDbEntity
  8
0
  6
Continuous
 62
     7
370
    15
100
AcDbLine
 10
1241.5129537367
 20
1070.8887757099
 30
0.0
 11
1241.5129537367
 21
1070.4887757099
 31
0.0
  0
LINE
  5
1DC
330
1F
100
AcDbEntity
  8
0
  6
Continuous
 62
     7
370
    15
100
AcDbLine
 10
1242.3129537367
 20
1070.9887757099
 30
0.0
 11
1242.3129537367
 21
1070.4887757099
 31
0.0
  0
LINE
  5
1DD
330
1F
100
AcDbEntity
  8
0
  6
Continuous
 62
     7
370
    15
100
AcDbLine
 10
1241.5129537367
 20
1104.831553513
 30
0.0
 11
843.1129537367
 21
1104.831553513
 31
0.0
  0
LINE
  5
1DE
330
1F
100
AcDbEntity
  8
0
  6
Continuous
 62
     7
370
    15
100
AcDbLine
 10
1241.5129537367
 20
1104.831553513
 30
0.0
 11
1241.5129537367
 21
1095.9096620281
 31
0.0
  0
LINE
  5
1DF
330
1F
100
AcDbEntity
  8
0
  6
Continuous
 62
     7
370
    15
100
AcDbLine
 10
843.1129537367
 20
1104.831553513
 30
0.0
 11
843.1129537367
 21
1095.9096620281
 31
0.0
  0
LINE
  5
1E0
330
1F
100
AcDbEntity
  8
0
  6
Continuous
 62
     7
370
    15
100
AcDbLine
 10
1242.3129537367
 20
1103.9622202693
 30
0.0
 11
1241.5129537367
 21
1103.9622202693
 31
0.0
  0
LINE
  5
1E1
330
1F
100
AcDbEntity
  8
0
  6
Continuous
 62
     7
370
    15
100
AcDbLine
 10
1242.3129537367
 20
1103.9622202693
 30
0.0
 11
1242.3129537367
 21
1095.0403287845
 31
0.0
  0
LINE
  5
1E2
330
1F
100
AcDbEntity
  8
0
  6
Continuous
 62
     7
370
    15
100
AcDbLine
 10
842.3129537367
 20
1103.9622202693
 30
0.0
 11
843.1129537367
 21
1103.9622202693
 31
0.0
  0
LINE
  5
1E3
330
1F
100
AcDbEntity
  8
0
  6
Continuous
 62
     7
370
    15
100
AcDbLine
 10
842.3129537367
 20
1103.9622202693
 30
0.0
 11
842.3129537367
 21
1095.0403287845
 31
0.0
  0
LINE
  5
1E4
330
1F
100
AcDbEntity
  8
0
  6
Continuous
 62
     7
370
    15
100
AcDbLine
 10
843.1129537367
 20
1104.9014055691
 30
0.0
 11
843.1129537367
 21
1104.831553513
 31
0.0
  0
LINE
  5
1E5
330
1F
100
AcDbEntity
  8
0
  6
Continuous
 62
     7
370
    15
100
AcDbLine
 10
1241.5129537367
 20
1104.9014055691
 30
0.0
 11
1241.5129537367
 21
1104.831553513
 31
0.0
  0
LINE
  5
1E6
330
1F
100
AcDbEntity
  8
0
  6
Continuous
 62
     7
370
    15
100
AcDbLine
 10
842.3129537367
 20
1104.0014055691
 30
0.0
 11
842.3129537367
 21
1103.9622202693
 31
0.0
  0
LINE
  5
1E7
330
1F
100
AcDbEntity
  8
0
  6
Continuous
 62
     7
370
    15
100
AcDbLine
 10
1242.3129537367
 20
1104.0014055691
 30
0.0
 11
1242.3129537367
 21
1103.9622202693
 31
0.0
  0
LINE
  5
1E8
330
1F
100
AcDbEntity
  8
0
  6
Continuous
 62
     7
370
    15
100
AcDbLine
 10
1233.3129537363
 20
906.0310614009
 30
0.0
 11
1233.3129537363
 21
904.8719504093
 31
0.0
  0
LWPOLYLINE
  5
1E9
330
1F
100
AcDbEntity
  8
0
  6
Continuous
 62
     7
370
    15
100
AcDbPolyline
 90
        9
 70
   128
 43
0.0
 10
1238.3129537363
 20
907.3251566264
 10
1238.2168801383
 20
907.0726911721
 10
1237.9323513988
 20
906.8299278237
 10
1237.4703017978
 20
906.6061958404
 10
1236.8484876422
 20
906.4100931169
 10
1236.0908049014
 20
906.249155771
 10
1235.2263708981
 20
906.1295685344
 10
1234.2884053463
 20
906.0559270778
 10
1233.3129537363
 20
906.0310614009
  0
LINE
  5
1EA
330
1F
100
AcDbEntity
  8
0
  6
Continuous
 62
     7
370
    15
100
AcDbLine
 10
1238.3129537363
 20
907.3251566264
 30
0.0
 11
1238.3129537363
 21
906.1660456349
 31
0.0
  0
LWPOLYLINE
  5
1EB
330
1F
100
AcDbEntity
  8
0
  6
Continuous
 62
     7
370
    15
100
AcDbPolyline
 90
        9
 70
   128
 43
0.0
 10
1238.3129537363
 20
906.1660456349
 10
1238.2168801383
 20
905.9135801806
 10
1237.9323513988
 20
905.6708168321
 10
1237.4703017978
 20
905.4470848489
 10
1236.8484876422
 20
905.2509821254
 10
1236.0908049014
 20
905.0900447794
 10
1235.2263708981
 20
904.9704575429
 10
1234.2884053463
 20
904.8968160862
 10
1233.3129537363
 20
904.8719504093
  0
LINE
  5
1EC
330
1F
100
AcDbEntity
  8
0
  6
Continuous
 62
     7
370
    15
100
AcDbLine
 10
1233.3129537363
 20
906.0310614009
 30
0.0
 11
851.3129537363
 21
906.0310614009
 31
0.0
  0
LWPOLYLINE
  5
1ED
330
1F
100
AcDbEntity
  8
0
  6
Continuous
 62
     7
370
    15
100
AcDbPolyline
 90
        9
 70
   128
 43
0.0
 10
851.3129537363
 20
906.0310614009
 10
850.3375021262
 20
906.0559270778
 10
849.3995365744
 20
906.1295685344
 10
848.5351025712
 20
906.249155771
 10
847.7774198303
 20
906.4100931169
 10
847.1556056747
 20
906.6061958404
 10
846.6935560737
 20
906.8299278237
 10
846.4090273342
 20
907.0726911721
 10
846.3129537363
 20
907.3251566264
  0
LINE
  5
1EE
330
1F
100
AcDbEntity
  8
0
  6
Continuous
 62
     7
370
    15
100
AcDbLine
 10
846.3129537363
 20
907.3251566264
 30
0.0
 11
846.3129537363
 21
908.0590210446
 31
0.0
  0
LINE
  5
1EF
330
1F
100
AcDbEntity
  8
0
  6
Continuous
 62
     7
370
    15
100
AcDbLine
 10
1238.3129537363
 20
908.0590210446
 30
0.0
 11
846.3129537363
 21
908.0590210446
 31
0.0
  0
LINE
  5
1F0
330
1F
100
AcDbEntity
  8
0
  6
Continuous
 62
     7
370
    15
100
AcDbLine
 10
1238.3129537363
 20
908.0590210446
 30
0.0
 11
1238.3129537363
 21
907.3251566264
 31
0.0
  0
LINE
  5
1F1
330
1F
100
AcDbEntity
  8
0
  6
Continuous
 62
     7
370
    15
100
AcDbLine
 10
851.3129537363
 20
906.0310614009
 30
0.0
 11
851.3129537363
 21
904.8719504093
 31
0.0
  0
LINE
  5
1F2
330
1F
100
AcDbEntity
  8
0
  6
Continuous
 62
     7
370
    15
100
AcDbLine
 10
846.3129537363
 20
907.3251566264
 30
0.0
 11
846.3129537363
 21
906.1660456349
 31
0.0
  0
LWPOLYLINE
  5
1F3
330
1F
100
AcDbEntity
  8
0
  6
Continuous
 62
     7
370
    15
100
AcDbPolyline
 90
        9
 70
   128
 43
0.0
 10
851.3129537363
 20
904.8719504093
 10
850.3375021262
 20
904.8968160862
 10
849.3995365744
 20
904.9704575429
 10
848.5351025712
 20
905.0900447794
 10
847.7774198303
 20
905.2509821254
 10
847.1556056747
 20
905.4470848489
 10
846.6935560737
 20
905.6708168321
 10
846.4090273342
 20
905.9135801806
 10
846.3129537363
 20
906.1660456349
  0
LINE
  5
1F4
330
1F
100
AcDbEntity
  8
0
  6
Continuous
 62
     7
370
    15
100
AcDbLine
 10
846.3129537363
 20
908.1425027702
 30
0.0
 11
1238.3129537363
 21
908.1425027702
 31
0.0
  0
LINE
  5
1F5
330
1F
100
AcDbEntity
  8
0
  6
Continuous
 62
     7
370
    15
100
AcDbLine
 10
1238.3129537363
 20
908.1425027702
 30
0.0
 11
1238.3129537363
 21
908.0590210446
 31
0.0
  0
LINE
  5
1F6
330
1F
100
AcDbEntity
  8
0
  6
Continuous
 62
     7
370
    15
100
AcDbLine
 10
846.3129537363
 20
908.0590210446
 30
0.0
 11
846.3129537363
 21
908.1425027702
 31
0.0
  0
LINE
  5
1F7
330
1F
100
AcDbEntity
  8
0
  6
Continuous
 62
     7
370
    15
100
AcDbLine
 10
1238.3129537363
 20
905.6925027702
 30
0.0
 11
1238.3129537363
 21
906.1660456349
 31
0.0
  0
LINE
  5
1F8
330
1F
100
AcDbEntity
  8
0
  6
Continuous
 62
     7
370
    15
100
AcDbLine
 10
846.3129537363
 20
906.1660456349
 30
0.0
 11
846.3129537363
 21
905.6925027702
 31
0.0
  0
LINE
  5
1F9
330
1F
100
AcDbEntity
  8
0
  6
Continuous
 62
     7
370
    15
100
AcDbLine
 10
1238.3129537363
 20
905.6925027702
 30
0.0
 11
1238.3129537363
 21
904.8719504093
 31
0.0
  0
LINE
  5
1FA
330
1F
100
AcDbEntity
  8
0
  6
Continuous
 62
     7
370
    15
100
AcDbLine
 10
846.3129537363
 20
904.8719504093
 30
0.0
 11
846.3129537363
 21
905.6925027702
 31
0.0
  0
LINE
  5
1FB
330
1F
100
AcDbEntity
  8
0
  6
Continuous
 62
     7
370
    15
100
AcDbLine
 10
1240.2629537366
 20
725.1290214772
 30
0.0
 11
844.3629537366
 21
725.1290214772
 31
0.0
  0
LINE
  5
1FC
330
1F
100
AcDbEntity
  8
0
  6
Continuous
 62
     7
370
    15
100
AcDbLine
 10
1240.2629537366
 20
603.9290214772
 30
0.0
 11
1240.2629537366
 21
725.1290214772
 31
0.0
  0
LINE
  5
1FD
330
1F
100
AcDbEntity
  8
0
  6
Continuous
 62
     7
370
    15
100
AcDbLine
 10
844.3629537366
 20
603.9290214772
 30
0.0
 11
1240.2629537366
 21
603.9290214772
 31
0.0
  0
LINE
  5
1FE
330
1F
100
AcDbEntity
  8
0
  6
Continuous
 62
     7
370
    15
100
AcDbLine
 10
844.3629537366
 20
725.1290214772
 30
0.0
 11
844.3629537366
 21
603.9290214772
 31
0.0
  0
LINE
  5
1FF
330
1F
100
AcDbEntity
  8
0
  6
Continuous
 62
     7
370
    15
100
AcDbLine
 10
1242.3129537366
 20
603.9290214772
 30
0.0
 11
1242.3129537366
 21
725.1290214772
 31
0.0
  0
LINE
  5
200
330
1F
100
AcDbEntity
  8
0
  6
Continuous
 62
     7
370
    15
100
AcDbLine
 10
1242.3129537366
 20
603.9290214772
 30
0.0
 11
1240.2629537366
 21
603.9290214772
 31
0.0
  0
LINE
  5
201
330
1F
100
AcDbEntity
  8
0
  6
Continuous
 62
     7
370
    15
100
AcDbLine
 10
1240.2629537366
 20
725.1290214772
 30
0.0
 11
1242.3129537366
 21
725.1290214772
 31
0.0
  0
SPLINE
  5
202
330
1F
100
AcDbEntity
  8
0
  6
Continuous
 62
     7
370
    15
100
AcDbSpline
210
0.0
220
0.0
230
1.0
 70
     8
 71
     3
 72
    12
 73
     8
 74
     0
 42
0.00000001
 43
0.00000001
 12
1.0
 22
0.0
 32
0.0
 13
1.0
 23
0.0
 33
0.0
 40
0.0
 40
0.0
 40
0.0
 40
0.0
 40
0.219613620128044
 40
0.4392502024697327
 40
0.658886835148627
 40
0.8785233275785593
 40
0.9999999999999999
 40
0.9999999999999999
 40
0.9999999999999999
 40
0.9999999999999999
 10
844.3629537366287
 20
725.1290214771525
 30
0.0
 10
844.4136991106984
 20
725.3647786053868
 30
0.0
 10
844.5151951646388
 20
725.8363175119911
 30
0.0
 10
844.667460780856
 20
726.4610506285962
 30
0.0
 10
844.8196567719217
 20
726.9254023191146
 30
0.0
 10
844.9494225340477
 20
727.1507834887841
 30
0.0
 10
845.0279337000143
 20
727.1716061459316
 30
0.0
 10
845.0558929703453
 20
727.1790214771526
 30
0.0
  0
LINE
  5
203
330
1F
100
AcDbEntity
  8
0
  6
Continuous
 62
     7
370
    15
100
AcDbLine
 10
1239.5700145029
 20
727.1790214772
 30
0.0
 11
845.0558929703
 21
727.1790214772
 31
0.0
  0
SPLINE
  5
204
330
1F
100
AcDbEntity
  8
0
  6
Continuous
 62
     7
370
    15
100
AcDbSpline
210
0.0
220
0.0
230
1.0
 70
     8
 71
     3
 72
    12
 73
     8
 74
     0
 42
0.00000001
 43
0.00000001
 12
1.0
 22
0.0
 32
0.0
 13
1.0
 23
0.0
 33
0.0
 40
0.0
 40
0.0
 40
0.0
 40
0.0
 40
0.2196136201280575
 40
0.4392502024697542
 40
0.6588868351486795
 40
0.8785233275786339
 40
1.0
 40
1.0
 40
1.0
 40
1.0
 10
1239.570014502912
 20
727.1790214771524
 30
0.0
 10
1239.620759876982
 20
727.1552989683411
 30
0.0
 10
1239.722255930922
 20
727.1078514703561
 30
0.0
 10
1239.874521547139
 20
726.7384331129792
 30
0.0
 10
1240.026717538205
 20
726.1969061866163
 30
0.0
 10
1240.156483300331
 20
725.623728846808
 30
0.0
 10
1240.234994466298
 20
725.258932253927
 30
0.0
 10
1240.262953736629
 20
725.1290214771525
 30
0.0
  0
SPLINE
  5
205
330
1F
100
AcDbEntity
  8
0
  6
Continuous
 62
     7
370
    15
100
AcDbSpline
210
0.0
220
0.0
230
1.0
 70
     8
 71
     3
 72
    11
 73
     7
 74
     0
 42
0.00000001
 43
0.00000001
 12
1.0
 22
0.0
 32
0.0
 13
1.0
 23
0.0
 33
0.0
 40
0.0
 40
0.0
 40
0.0
 40
0.0
 40
0.2500000000000006
 40
0.4999999999999969
 40
0.7500000000000042
 40
1.0
 40
1.0
 40
1.0
 40
1.0
 10
1240.262953736629
 20
603.9290214771524
 30
0.0
 10
1240.225453736629
 20
603.6603955373496
 30
0.0
 10
1240.150453736629
 20
603.123143657744
 30
0.0
 10
1240.037953736629
 20
602.4455265366954
 30
0.0
 10
1239.925453736629
 20
601.9714656497945
 30
0.0
 10
1239.850453736629
 20
601.9098362013665
 30
0.0
 10
1239.812953736629
 20
601.8790214771525
 30
0.0
  0
LINE
  5
206
330
1F
100
AcDbEntity
  8
0
  6
Continuous
 62
     7
370
    15
100
AcDbLine
 10
1239.8129537366
 20
601.8790214772
 30
0.0
 11
844.8129537366
 21
601.8790214772
 31
0.0
  0
SPLINE
  5
207
330
1F
100
AcDbEntity
  8
0
  6
Continuous
 62
     7
370
    15
100
AcDbSpline
210
0.0
220
0.0
230
1.0
 70
     8
 71
     3
 72
    11
 73
     7
 74
     0
 42
0.00000001
 43
0.00000001
 12
1.0
 22
0.0
 32
0.0
 13
1.0
 23
0.0
 33
0.0
 40
0.0
 40
0.0
 40
0.0
 40
0.0
 40
0.2500000000000097
 40
0.5000000000000047
 40
0.7500000000000002
 40
1.0
 40
1.0
 40
1.0
 40
1.0
 10
844.8129537366286
 20
601.8790214771526
 30
0.0
 10
844.7754537366285
 20
601.9098362013665
 30
0.0
 10
844.7004537366286
 20
601.9714656497946
 30
0.0
 10
844.5879537366285
 20
602.4455265366955
 30
0.0
 10
844.4754537366287
 20
603.1231436577442
 30
0.0
 10
844.4004537366286
 20
603.6603955373498
 30
0.0
 10
844.3629537366286
 20
603.9290214771526
 30
0.0
  0
LINE
  5
208
330
1F
100
AcDbEntity
  8
0
  6
Continuous
 62
     7
370
    15
100
AcDbLine
 10
844.3629537366
 20
603.9290214772
 30
0.0
 11
842.3129537366
 21
603.9290214772
 31
0.0
  0
LINE
  5
209
330
1F
100
AcDbEntity
  8
0
  6
Continuous
 62
     7
370
    15
100
AcDbLine
 10
842.3129537366
 20
725.1290214772
 30
0.0
 11
842.3129537366
 21
603.9290214772
 31
0.0
  0
LINE
  5
20A
330
1F
100
AcDbEntity
  8
0
  6
Continuous
 62
     7
370
    15
100
AcDbLine
 10
842.3129537366
 20
725.1290214772
 30
0.0
 11
844.3629537366
 21
725.1290214772
 31
0.0
  0
LINE
  5
20B
330
1F
100
AcDbEntity
  8
0
  6
Continuous
 62
     7
370
    15
100
AcDbLine
 10
1240.2629537366
 20
602.6790214772
 30
0.0
 11
1240.2629537366
 21
601.8790214772
 31
0.0
  0
SPLINE
  5
20C
330
1F
100
AcDbEntity
  8
0
  6
Continuous
 62
     7
370
    15
100
AcDbSpline
210
0.0
220
0.0
230
1.0
 70
     8
 71
     3
 72
    11
 73
     7
 74
     0
 42
0.00000001
 43
0.00000001
 12
1.0
 22
0.0
 32
0.0
 13
1.0
 23
0.0
 33
0.0
 40
0.0
 40
0.0
 40
0.0
 40
0.0
 40
0.2499999999999861
 40
0.499999999999985
 40
0.7500000000000044
 40
1.0
 40
1.0
 40
1.0
 40
1.0
 10
1240.262953736629
 20
602.6790214771523
 30
0.0
 10
1240.426750041387
 20
602.6978109431365
 30
0.0
 10
1240.754342650902
 20
602.7353898751049
 30
0.0
 10
1241.167523822273
 20
603.0244513915078
 30
0.0
 10
1241.456585338676
 20
603.437632562879
 30
0.0
 10
1241.494164270644
 20
603.7652251723946
 30
0.0
 10
1241.512953736629
 20
603.9290214771523
 30
0.0
  0
SPLINE
  5
20D
330
1F
100
AcDbEntity
  8
0
  6
Continuous
 62
     7
370
    15
100
AcDbSpline
210
0.0
220
0.0
230
1.0
 70
     8
 71
     3
 72
    11
 73
     7
 74
     0
 42
0.00000001
 43
0.00000001
 12
1.0
 22
0.0
 32
0.0
 13
1.0
 23
0.0
 33
0.0
 40
0.0
 40
0.0
 40
0.0
 40
0.0
 40
0.2499999999999863
 40
0.49999999999999
 40
0.7500000000000009
 40
1.0
 40
1.0
 40
1.0
 40
1.0
 10
1240.262953736629
 20
601.8790214771523
 30
0.0
 10
1240.531579676432
 20
601.9098362013664
 30
0.0
 10
1241.068831556037
 20
601.9714656497945
 30
0.0
 10
1241.746448677086
 20
602.4455265366954
 30
0.0
 10
1242.220509563987
 20
603.123143657744
 30
0.0
 10
1242.282139012415
 20
603.6603955373496
 30
0.0
 10
1242.312953736629
 20
603.9290214771523
 30
0.0
  0
SPLINE
  5
20E
330
1F
100
AcDbEntity
  8
0
  6
Continuous
 62
     7
370
    15
100
AcDbSpline
210
0.0
220
0.0
230
1.0
 70
     8
 71
     3
 72
    11
 73
     7
 74
     0
 42
0.00000001
 43
0.00000001
 12
1.0
 22
0.0
 32
0.0
 13
1.0
 23
0.0
 33
0.0
 40
0.0
 40
0.0
 40
0.0
 40
0.0
 40
0.2500000000000033
 40
0.5000000000000037
 40
0.7500000000000093
 40
1.0
 40
1.0
 40
1.0
 40
1.0
 10
843.1129537366286
 20
603.9290214771526
 30
0.0
 10
843.1317432026128
 20
603.7652251723947
 30
0.0
 10
843.1693221345811
 20
603.4376325628791
 30
0.0
 10
843.4583836509842
 20
603.024451391508
 30
0.0
 10
843.8715648223553
 20
602.735389875105
 30
0.0
 10
844.1991574318708
 20
602.6978109431368
 30
0.0
 10
844.3629537366287
 20
602.6790214771526
 30
0.0
  0
LINE
  5
20F
330
1F
100
AcDbEntity
  8
0
  6
Continuous
 62
     7
370
    15
100
AcDbLine
 10
844.3629537366
 20
602.6790214772
 30
0.0
 11
844.3629537366
 21
601.8790214772
 31
0.0
  0
SPLINE
  5
210
330
1F
100
AcDbEntity
  8
0
  6
Continuous
 62
     7
370
    15
100
AcDbSpline
210
0.0
220
0.0
230
1.0
 70
     8
 71
     3
 72
    11
 73
     7
 74
     0
 42
0.00000001
 43
0.00000001
 12
1.0
 22
0.0
 32
0.0
 13
1.0
 23
0.0
 33
0.0
 40
0.0
 40
0.0
 40
0.0
 40
0.0
 40
0.2500000000000003
 40
0.5000000000000032
 40
0.7500000000000036
 40
1.0
 40
1.0
 40
1.0
 40
1.0
 10
842.3129537366286
 20
603.9290214771526
 30
0.0
 10
842.3437684608426
 20
603.6603955373497
 30
0.0
 10
842.4053979092706
 20
603.1231436577442
 30
0.0
 10
842.8794587961715
 20
602.4455265366955
 30
0.0
 10
843.5570759172203
 20
601.9714656497946
 30
0.0
 10
844.0943277968258
 20
601.9098362013665
 30
0.0
 10
844.3629537366287
 20
601.8790214771526
 30
0.0
  0
SPLINE
  5
211
330
1F
100
AcDbEntity
  8
0
  6
Continuous
 62
     7
370
    15
100
AcDbSpline
210
0.0
220
0.0
230
1.0
 70
     8
 71
     3
 72
    11
 73
     7
 74
     0
 42
0.00000001
 43
0.00000001
 12
1.0
 22
0.0
 32
0.0
 13
1.0
 23
0.0
 33
0.0
 40
0.0
 40
0.0
 40
0.0
 40
0.0
 40
0.2499999999999889
 40
0.4999999999999933
 40
0.7499999999999973
 40
1.0
 40
1.0
 40
1.0
 40
1.0
 10
1241.512953736629
 20
725.1290214771525
 30
0.0
 10
1241.494164270645
 20
725.2928177819102
 30
0.0
 10
1241.456585338677
 20
725.6204103914258
 30
0.0
 10
1241.167523822274
 20
726.033591562797
 30
0.0
 10
1240.754342650902
 20
726.3226530792
 30
0.0
 10
1240.426750041387
 20
726.3602320111683
 30
0.0
 10
1240.262953736629
 20
726.3790214771525
 30
0.0
  0
LINE
  5
212
330
1F
100
AcDbEntity
  8
0
  6
Continuous
 62
     7
370
    15
100
AcDbLine
 10
1240.2629537366
 20
726.3790214772
 30
0.0
 11
1240.2629537366
 21
727.1790214772
 31
0.0
  0
SPLINE
  5
213
330
1F
100
AcDbEntity
  8
0
  6
Continuous
 62
     7
370
    15
100
AcDbSpline
210
0.0
220
0.0
230
1.0
 70
     8
 71
     3
 72
    11
 73
     7
 74
     0
 42
0.00000001
 43
0.00000001
 12
1.0
 22
0.0
 32
0.0
 13
1.0
 23
0.0
 33
0.0
 40
0.0
 40
0.0
 40
0.0
 40
0.0
 40
0.2499999999999984
 40
0.4999999999999941
 40
0.7500000000000049
 40
1.0
 40
1.0
 40
1.0
 40
1.0
 10
1242.312953736629
 20
725.1290214771525
 30
0.0
 10
1242.282139012415
 20
725.3976474169554
 30
0.0
 10
1242.220509563987
 20
725.9348992965608
 30
0.0
 10
1241.746448677086
 20
726.6125164176094
 30
0.0
 10
1241.068831556037
 20
727.0865773045105
 30
0.0
 10
1240.531579676432
 20
727.1482067529383
 30
0.0
 10
1240.262953736629
 20
727.1790214771524
 30
0.0
  0
LINE
  5
214
330
1F
100
AcDbEntity
  8
0
  6
Continuous
 62
     7
370
    15
100
AcDbLine
 10
844.3629537366
 20
726.3790214772
 30
0.0
 11
844.3629537366
 21
727.1790214772
 31
0.0
  0
SPLINE
  5
215
330
1F
100
AcDbEntity
  8
0
  6
Continuous
 62
     7
370
    15
100
AcDbSpline
210
0.0
220
0.0
230
1.0
 70
     8
 71
     3
 72
    11
 73
     7
 74
     0
 42
0.00000001
 43
0.00000001
 12
1.0
 22
0.0
 32
0.0
 13
1.0
 23
0.0
 33
0.0
 40
0.0
 40
0.0
 40
0.0
 40
0.0
 40
0.249999999999991
 40
0.4999999999999985
 40
0.7499999999999989
 40
1.0
 40
1.0
 40
1.0
 40
1.0
 10
844.3629537366285
 20
727.1790214771526
 30
0.0
 10
844.0943277968257
 20
727.1482067529386
 30
0.0
 10
843.5570759172202
 20
727.0865773045106
 30
0.0
 10
842.8794587961714
 20
726.6125164176098
 30
0.0
 10
842.4053979092705
 20
725.934899296561
 30
0.0
 10
842.3437684608426
 20
725.3976474169555
 30
0.0
 10
842.3129537366285
 20
725.1290214771526
 30
0.0
  0
SPLINE
  5
216
330
1F
100
AcDbEntity
  8
0
  6
Continuous
 62
     7
370
    15
100
AcDbSpline
210
0.0
220
0.0
230
1.0
 70
     8
 71
     3
 72
    11
 73
     7
 74
     0
 42
0.00000001
 43
0.00000001
 12
1.0
 22
0.0
 32
0.0
 13
1.0
 23
0.0
 33
0.0
 40
0.0
 40
0.0
 40
0.0
 40
0.0
 40
0.2499999999999994
 40
0.4999999999999987
 40
0.7499999999999979
 40
1.0
 40
1.0
 40
1.0
 40
1.0
 10
844.3629537366285
 20
726.3790214771526
 30
0.0
 10
844.1991574318706
 20
726.3602320111685
 30
0.0
 10
843.871564822355
 20
726.3226530792001
 30
0.0
 10
843.458383650984
 20
726.0335915627971
 30
0.0
 10
843.169322134581
 20
725.620410391426
 30
0.0
 10
843.1317432026127
 20
725.2928177819105
 30
0.0
 10
843.1129537366285
 20
725.1290214771526
 30
0.0
  0
LINE
  5
217
330
1F
100
AcDbEntity
  8
0
  6
Continuous
 62
     7
370
    15
100
AcDbLine
 10
844.3629537366
 20
726.3790214772
 30
0.0
 11
844.6536869634
 21
726.3790214772
 31
0.0
  0
LINE
  5
218
330
1F
100
AcDbEntity
  8
0
  6
Continuous
 62
     7
370
    15
100
AcDbLine
 10
844.3629537366
 20
727.1790214772
 30
0.0
 11
845.0558929703
 21
727.1790214772
 31
0.0
  0
LINE
  5
219
330
1F
100
AcDbEntity
  8
0
  6
Continuous
 62
     7
370
    15
100
AcDbLine
 10
1239.9686592896
 20
726.3790214772
 30
0.0
 11
1240.2629537366
 21
726.3790214772
 31
0.0
  0
LINE
  5
21A
330
1F
100
AcDbEntity
  8
0
  6
Continuous
 62
     7
370
    15
100
AcDbLine
 10
1239.5700145029
 20
727.1790214772
 30
0.0
 11
1240.2629537366
 21
727.1790214772
 31
0.0
  0
LINE
  5
21B
330
1F
100
AcDbEntity
  8
0
  6
Continuous
 62
     7
370
    15
100
AcDbLine
 10
844.5541955255
 20
602.6790214772
 30
0.0
 11
844.3629537366
 21
602.6790214772
 31
0.0
  0
LINE
  5
21C
330
1F
100
AcDbEntity
  8
0
  6
Continuous
 62
     7
370
    15
100
AcDbLine
 10
844.8129537366
 20
601.8790214772
 30
0.0
 11
844.3629537366
 21
601.8790214772
 31
0.0
  0
LINE
  5
21D
330
1F
100
AcDbEntity
  8
0
  6
Continuous
 62
     7
370
    15
100
AcDbLine
 10
1240.2629537366
 20
601.8790214772
 30
0.0
 11
1239.8129537366
 21
601.8790214772
 31
0.0
  0
LINE
  5
21E
330
1F
100
AcDbEntity
  8
0
  6
Continuous
 62
     7
370
    15
100
AcDbLine
 10
1240.2629537366
 20
602.6790214772
 30
0.0
 11
1240.0717119478
 21
602.6790214772
 31
0.0
  0
LINE
  5
21F
330
1F
100
AcDbEntity
  8
0
  6
Continuous
 62
     7
370
    15
100
AcDbLine
 10
1240.2629537366
 20
726.3719504093
 30
0.0
 11
1239.9706722448
 21
726.3719504093
 31
0.0
  0
LINE
  5
220
330
1F
100
AcDbEntity
  8
0
  6
Continuous
 62
     7
370
    15
100
AcDbLine
 10
1240.2629537366
 20
602.686092545
 30
0.0
 11
1240.072908059
 21
602.686092545
 31
0.0
  0
LINE
  5
221
330
1F
100
AcDbEntity
  8
0
  6
Continuous
 62
     7
370
    15
100
AcDbLine
 10
844.3629537366
 20
602.686092545
 30
0.0
 11
844.5529994143
 21
602.686092545
 31
0.0
  0
LINE
  5
222
330
1F
100
AcDbEntity
  8
0
  6
Continuous
 62
     7
370
    15
100
AcDbLine
 10
844.3629537366
 20
726.3719504093
 30
0.0
 11
844.6519271879
 21
726.3719504093
 31
0.0
  0
LINE
  5
223
330
1F
100
AcDbEntity
  8
0
  6
Continuous
 62
     7
370
    15
100
AcDbLine
 10
1242.3129537371
 20
760.3021262648
 30
0.0
 11
842.3129537371
 21
760.3021262648
 31
0.0
  0
LINE
  5
224
330
1F
100
AcDbEntity
  8
0
  6
Continuous
 62
     7
370
    15
100
AcDbLine
 10
1242.3129537371
 20
743.2113397757
 30
0.0
 11
1242.3129537371
 21
760.3021262648
 31
0.0
  0
LINE
  5
225
330
1F
100
AcDbEntity
  8
0
  6
Continuous
 62
     7
370
    15
100
AcDbLine
 10
1242.3129537371
 20
743.2113397757
 30
0.0
 11
842.3129537371
 21
743.2113397757
 31
0.0
  0
LINE
  5
226
330
1F
100
AcDbEntity
  8
0
  6
Continuous
 62
     7
370
    15
100
AcDbLine
 10
842.3129537371
 20
743.2113397757
 30
0.0
 11
842.3129537371
 21
760.3021262648
 31
0.0
  0
LINE
  5
227
330
1F
100
AcDbEntity
  8
0
  6
Continuous
 62
     7
370
    15
100
AcDbLine
 10
1242.3129537371
 20
728.4113068773
 30
0.0
 11
1242.3129537371
 21
743.2113397757
 31
0.0
  0
LINE
  5
228
330
1F
100
AcDbEntity
  8
0
  6
Continuous
 62
     7
370
    15
100
AcDbLine
 10
1242.3129537371
 20
728.4113068773
 30
0.0
 11
842.3129537371
 21
728.4113068773
 31
0.0
  0
LINE
  5
229
330
1F
100
AcDbEntity
  8
0
  6
Continuous
 62
     7
370
    15
100
AcDbLine
 10
842.3129537371
 20
728.4113068773
 30
0.0
 11
842.3129537371
 21
743.2113397757
 31
0.0
  0
LINE
  5
22A
330
1F
100
AcDbEntity
  8
0
  6
Continuous
 62
     7
370
    15
100
AcDbLine
 10
1242.3129537371
 20
767.3814902744
 30
0.0
 11
842.3129537371
 21
767.3814902744
 31
0.0
  0
LINE
  5
22B
330
1F
100
AcDbEntity
  8
0
  6
Continuous
 62
     7
370
    15
100
AcDbLine
 10
1242.3129537371
 20
760.3021262648
 30
0.0
 11
1242.3129537371
 21
767.3814902744
 31
0.0
  0
LINE
  5
22C
330
1F
100
AcDbEntity
  8
0
  6
Continuous
 62
     7
370
    15
100
AcDbLine
 10
842.3129537371
 20
760.3021262648
 30
0.0
 11
842.3129537371
 21
767.3814902744
 31
0.0
  0
LINE
  5
22D
330
1F
100
AcDbEntity
  8
0
  6
Continuous
 62
     7
370
    15
100
AcDbLine
 10
1242.3129537371
 20
727.6790214772
 30
0.0
 11
1242.3129537371
 21
728.4113068773
 31
0.0
  0
LINE
  5
22E
330
1F
100
AcDbEntity
  8
0
  6
Continuous
 62
     7
370
    15
100
AcDbLine
 10
1242.3129537371
 20
727.6790214772
 30
0.0
 11
842.3129537371
 21
727.6790214772
 31
0.0
  0
LINE
  5
22F
330
1F
100
AcDbEntity
  8
0
  6
Continuous
 62
     7
370
    15
100
AcDbLine
 10
842.3129537371
 20
727.6790214772
 30
0.0
 11
842.3129537371
 21
728.4113068773
 31
0.0
  0
LINE
  5
230
330
1F
100
AcDbEntity
  8
0
  6
Continuous
 62
     7
370
    15
100
AcDbLine
 10
1242.3129537371
 20
773.6882465385
 30
0.0
 11
842.3129537371
 21
773.6882465385
 31
0.0
  0
LINE
  5
231
330
1F
100
AcDbEntity
  8
0
  6
Continuous
 62
     7
370
    15
100
AcDbLine
 10
1242.3129537371
 20
767.3814902744
 30
0.0
 11
1242.3129537371
 21
773.6882465385
 31
0.0
  0
LINE
  5
232
330
1F
100
AcDbEntity
  8
0
  6
Continuous
 62
     7
370
    15
100
AcDbLine
 10
842.3129537371
 20
767.3814902744
 30
0.0
 11
842.3129537371
 21
773.6882465385
 31
0.0
  0
LINE
  5
233
330
1F
100
AcDbEntity
  8
0
  6
Continuous
 62
     7
370
    15
100
AcDbLine
 10
1242.3129537371
 20
848.5501808428
 30
0.0
 11
1227.3129537371
 21
848.5501808428
 31
0.0
  0
LINE
  5
234
330
1F
100
AcDbEntity
  8
0
  6
Continuous
 62
     7
370
    15
100
AcDbLine
 10
1242.3129537371
 20
773.6882465385
 30
0.0
 11
1242.3129537371
 21
848.5501808428
 31
0.0
  0
LINE
  5
235
330
1F
100
AcDbEntity
  8
0
  6
Continuous
 62
     7
370
    15
100
AcDbLine
 10
842.3129537371
 20
773.6882465385
 30
0.0
 11
842.3129537371
 21
848.5501808428
 31
0.0
  0
LINE
  5
236
330
1F
100
AcDbEntity
  8
0
  6
Continuous
 62
     7
370
    15
100
AcDbLine
 10
857.3129537371
 20
848.5501808428
 30
0.0
 11
842.3129537371
 21
848.5501808428
 31
0.0
  0
LINE
  5
237
330
1F
100
AcDbEntity
  8
0
  6
Continuous
 62
     7
370
    15
100
AcDbLine
 10
857.3129537371
 20
848.5501808428
 30
0.0
 11
857.3129537371
 21
847.5512537131
 31
0.0
  0
LINE
  5
238
330
1F
100
AcDbEntity
  8
0
  6
Continuous
 62
     7
370
    15
100
AcDbLine
 10
857.3129537371
 20
847.5512537131
 30
0.0
 11
857.8129537371
 21
847.5512537131
 31
0.0
  0
LINE
  5
239
330
1F
100
AcDbEntity
  8
0
  6
Continuous
 62
     7
370
    15
100
AcDbLine
 10
857.8129537371
 20
847.5512537131
 30
0.0
 11
872.8129537371
 21
847.5512537131
 31
0.0
  0
LINE
  5
23A
330
1F
100
AcDbEntity
  8
0
  6
Continuous
 62
     7
370
    15
100
AcDbLine
 10
872.8129537371
 20
847.5512537131
 30
0.0
 11
873.3129537371
 21
847.5512537131
 31
0.0
  0
LINE
  5
23B
330
1F
100
AcDbEntity
  8
0
  6
Continuous
 62
     7
370
    15
100
AcDbLine
 10
873.3129537371
 20
847.5512537131
 30
0.0
 11
873.3129537371
 21
849.4139095998
 31
0.0
  0
LINE
  5
23C
330
1F
100
AcDbEntity
  8
0
  6
Continuous
 62
     7
370
    15
100
AcDbLine
 10
892.3129537371
 20
849.4139095998
 30
0.0
 11
873.3129537371
 21
849.4139095998
 31
0.0
  0
LINE
  5
23D
330
1F
100
AcDbEntity
  8
0
  6
Continuous
 62
     7
370
    15
100
AcDbLine
 10
892.3129537371
 20
848.5501808428
 30
0.0
 11
892.3129537371
 21
849.4139095998
 31
0.0
  0
LINE
  5
23E
330
1F
100
AcDbEntity
  8
0
  6
Continuous
 62
     7
370
    15
100
AcDbLine
 10
892.8129537371
 20
848.5501808428
 30
0.0
 11
892.3129537371
 21
848.5501808428
 31
0.0
  0
LINE
  5
23F
330
1F
100
AcDbEntity
  8
0
  6
Continuous
 62
     7
370
    15
100
AcDbLine
 10
1191.8129537371
 20
848.5501808428
 30
0.0
 11
892.8129537371
 21
848.5501808428
 31
0.0
  0
LINE
  5
240
330
1F
100
AcDbEntity
  8
0
  6
Continuous
 62
     7
370
    15
100
AcDbLine
 10
1192.3129537371
 20
848.5501808428
 30
0.0
 11
1191.8129537371
 21
848.5501808428
 31
0.0
  0
LINE
  5
241
330
1F
100
AcDbEntity
  8
0
  6
Continuous
 62
     7
370
    15
100
AcDbLine
 10
1192.3129537371
 20
849.4139095998
 30
0.0
 11
1192.3129537371
 21
848.5501808428
 31
0.0
  0
LINE
  5
242
330
1F
100
AcDbEntity
  8
0
  6
Continuous
 62
     7
370
    15
100
AcDbLine
 10
1211.3129537371
 20
849.4139095998
 30
0.0
 11
1192.3129537371
 21
849.4139095998
 31
0.0
  0
LINE
  5
243
330
1F
100
AcDbEntity
  8
0
  6
Continuous
 62
     7
370
    15
100
AcDbLine
 10
1211.3129537371
 20
849.4139095998
 30
0.0
 11
1211.3129537371
 21
847.5512537131
 31
0.0
  0
LINE
  5
244
330
1F
100
AcDbEntity
  8
0
  6
Continuous
 62
     7
370
    15
100
AcDbLine
 10
1211.3129537371
 20
847.5512537131
 30
0.0
 11
1211.8129537371
 21
847.5512537131
 31
0.0
  0
LINE
  5
245
330
1F
100
AcDbEntity
  8
0
  6
Continuous
 62
     7
370
    15
100
AcDbLine
 10
1211.8129537371
 20
847.5512537131
 30
0.0
 11
1226.8129537371
 21
847.5512537131
 31
0.0
  0
LINE
  5
246
330
1F
100
AcDbEntity
  8
0
  6
Continuous
 62
     7
370
    15
100
AcDbLine
 10
1226.8129537371
 20
847.5512537131
 30
0.0
 11
1227.3129537371
 21
847.5512537131
 31
0.0
  0
LINE
  5
247
330
1F
100
AcDbEntity
  8
0
  6
Continuous
 62
     7
370
    15
100
AcDbLine
 10
1227.3129537371
 20
847.5512537131
 30
0.0
 11
1227.3129537371
 21
848.5501808428
 31
0.0
  0
LINE
  5
248
330
1F
100
AcDbEntity
  8
0
  6
Continuous
 62
     7
370
    15
100
AcDbLine
 10
1155.1620220394
 20
845.8734361253
 30
0.0
 11
1155.1620220394
 21
844.922379609
 31
0.0
  0
ARC
  5
249
330
1F
100
AcDbEntity
  8
0
  6
Continuous
 62
     7
370
    15
100
AcDbCircle
 10
1156.1620220394
 20
844.962779746
 30
0.0
 40
1.000815752807737
100
AcDbArc
 50
182.3134992123
 51
357.6865007877
  0
LINE
  5
24A
330
1F
100
AcDbEntity
  8
0
  6
Continuous
 62
     7
370
    15
100
AcDbLine
 10
1157.1620220394
 20
844.922379609
 30
0.0
 11
1157.1620220394
 21
845.8734361253
 31
0.0
  0
ARC
  5
24B
330
1F
100
AcDbEntity
  8
0
  6
Continuous
 62
     7
370
    15
100
AcDbCircle
 10
1156.1620220394
 20
845.8330359883
 30
0.0
 40
1.000815752807524
100
AcDbArc
 50
2.3134992124
 51
177.6865007876
  0
LINE
  5
24C
330
1F
100
AcDbEntity
  8
0
  6
Continuous
 62
     7
370
    15
100
AcDbLine
 10
872.8129537371
 20
849.0838500491
 30
0.0
 11
857.8129537371
 21
849.0838500491
 31
0.0
  0
LINE
  5
24D
330
1F
100
AcDbEntity
  8
0
  6
Continuous
 62
     7
370
    15
100
AcDbLine
 10
857.8129537371
 20
849.0838500491
 30
0.0
 11
857.8129537371
 21
852.6983428611
 31
0.0
  0
LWPOLYLINE
  5
24E
330
1F
100
AcDbEntity
  8
0
  6
Continuous
 62
     7
370
    15
100
AcDbPolyline
 90
        9
 70
   128
 43
0.0
 10
862.8129537371
 20
854.6920882057
 10
861.837502127
 20
854.653778948
 10
860.8995365753
 20
854.540323378
 10
860.035102572
 20
854.3560815298
 10
859.2774198312
 20
854.1081337142
 10
858.6556056756
 20
853.8060084268
 10
858.1935560745
 20
853.4613161728
 10
857.9090273351
 20
853.0873032824
 10
857.8129537371
 20
852.6983428611
  0
LINE
  5
24F
330
1F
100
AcDbEntity
  8
0
  6
Continuous
 62
     7
370
    15
100
AcDbLine
 10
862.8129537371
 20
854.6920882057
 30
0.0
 11
867.8129537371
 21
854.6920882057
 31
0.0
  0
LWPOLYLINE
  5
250
330
1F
100
AcDbEntity
  8
0
  6
Continuous
 62
     7
370
    15
100
AcDbPolyline
 90
        9
 70
   128
 43
0.0
 10
872.8129537371
 20
852.6983428611
 10
872.7168801391
 20
853.0873032824
 10
872.4323513997
 20
853.4613161728
 10
871.9703017986
 20
853.8060084268
 10
871.348487643
 20
854.1081337142
 10
870.5908049022
 20
854.3560815298
 10
869.7263708989
 20
854.540323378
 10
868.7884053472
 20
854.653778948
 10
867.8129537371
 20
854.6920882057
  0
LINE
  5
251
330
1F
100
AcDbEntity
  8
0
  6
Continuous
 62
     7
370
    15
100
AcDbLine
 10
872.8129537371
 20
852.6983428611
 30
0.0
 11
872.8129537371
 21
849.0838500491
 31
0.0
  0
LWPOLYLINE
  5
252
330
1F
100
AcDbEntity
  8
0
  6
Continuous
 62
     7
370
    15
100
AcDbPolyline
 90
       19
 70
   128
 43
0.0
 10
865.3129537371
 20
851.0235967716
 10
864.2184892785
 20
851.1005488078
 10
863.2560333861
 20
851.3221233651
 10
862.541672445
 20
851.6615952819
 10
862.1615689275
 20
852.0780192349
 10
862.1615689275
 20
852.5211683495
 10
862.541672445
 20
852.9375923025
 10
863.2560333861
 20
853.2770642192
 10
864.2184892785
 20
853.4986387765
 10
865.3129537371
 20
853.5755908127
 10
866.4074181957
 20
853.4986387765
 10
867.3698740881
 20
853.2770642192
 10
868.0842350292
 20
852.9375923025
 10
868.4643385467
 20
852.5211683495
 10
868.4643385467
 20
852.0780192349
 10
868.0842350292
 20
851.6615952819
 10
867.3698740881
 20
851.3221233651
 10
866.4074181957
 20
851.1005488078
 10
865.3129537371
 20
851.0235967716
  0
LINE
  5
253
330
1F
100
AcDbEntity
  8
0
  6
Continuous
 62
     7
370
    15
100
AcDbLine
 10
872.8129537371
 20
853.4319909206
 30
0.0
 11
872.8129537371
 21
852.6983428611
 31
0.0
  0
LINE
  5
254
330
1F
100
AcDbEntity
  8
0
  6
Continuous
 62
     7
370
    15
100
AcDbLine
 10
867.8129537371
 20
854.6920882057
 30
0.0
 11
867.8129537371
 21
855.4257362652
 31
0.0
  0
LWPOLYLINE
  5
255
330
1F
100
AcDbEntity
  8
0
  6
Continuous
 62
     7
370
    15
100
AcDbPolyline
 90
        9
 70
   128
 43
0.0
 10
867.8129537371
 20
855.4257362652
 10
868.7884053472
 20
855.3874270075
 10
869.7263708989
 20
855.2739714376
 10
870.5908049022
 20
855.0897295893
 10
871.348487643
 20
854.8417817738
 10
871.9703017986
 20
854.5396564863
 10
872.4323513997
 20
854.1949642324
 10
872.7168801391
 20
853.8209513419
 10
872.8129537371
 20
853.4319909206
  0
LINE
  5
256
330
1F
100
AcDbEntity
  8
0
  6
Continuous
 62
     7
370
    15
100
AcDbLine
 10
862.8129537371
 20
855.4257362652
 30
0.0
 11
862.8129537371
 21
854.6920882057
 31
0.0
  0
LINE
  5
257
330
1F
100
AcDbEntity
  8
0
  6
Continuous
 62
     7
370
    15
100
AcDbLine
 10
857.8129537371
 20
852.6983428611
 30
0.0
 11
857.8129537371
 21
853.4319909206
 31
0.0
  0
LWPOLYLINE
  5
258
330
1F
100
AcDbEntity
  8
0
  6
Continuous
 62
     7
370
    15
100
AcDbPolyline
 90
        9
 70
   128
 43
0.0
 10
857.8129537371
 20
853.4319909206
 10
857.9090273351
 20
853.8209513419
 10
858.1935560745
 20
854.1949642324
 10
858.6556056756
 20
854.5396564863
 10
859.2774198312
 20
854.8417817738
 10
860.035102572
 20
855.0897295893
 10
860.8995365753
 20
855.2739714376
 10
861.837502127
 20
855.3874270075
 10
862.8129537371
 20
855.4257362652
  0
LINE
  5
259
330
1F
100
AcDbEntity
  8
0
  6
Continuous
 62
     7
370
    15
100
AcDbLine
 10
862.8129537371
 20
855.4257362652
 30
0.0
 11
867.8129537371
 21
855.4257362652
 31
0.0
  0
LINE
  5
25A
330
1F
100
AcDbEntity
  8
0
  6
Continuous
 62
     7
370
    15
100
AcDbLine
 10
1221.8129537371
 20
854.6920882057
 30
0.0
 11
1221.8129537371
 21
855.4257362652
 31
0.0
  0
LINE
  5
25B
330
1F
100
AcDbEntity
  8
0
  6
Continuous
 62
     7
370
    15
100
AcDbLine
 10
1216.8129537371
 20
854.6920882057
 30
0.0
 11
1221.8129537371
 21
854.6920882057
 31
0.0
  0
LINE
  5
25C
330
1F
100
AcDbEntity
  8
0
  6
Continuous
 62
     7
370
    15
100
AcDbLine
 10
1216.8129537371
 20
855.4257362652
 30
0.0
 11
1216.8129537371
 21
854.6920882057
 31
0.0
  0
LINE
  5
25D
330
1F
100
AcDbEntity
  8
0
  6
Continuous
 62
     7
370
    15
100
AcDbLine
 10
1216.8129537371
 20
855.4257362652
 30
0.0
 11
1221.8129537371
 21
855.4257362652
 31
0.0
  0
LINE
  5
25E
330
1F
100
AcDbEntity
  8
0
  6
Continuous
 62
     7
370
    15
100
AcDbLine
 10
1226.8129537371
 20
853.4319909206
 30
0.0
 11
1226.8129537371
 21
852.6983428611
 31
0.0
  0
LWPOLYLINE
  5
25F
330
1F
100
AcDbEntity
  8
0
  6
Continuous
 62
     7
370
    15
100
AcDbPolyline
 90
        9
 70
   128
 43
0.0
 10
1226.8129537371
 20
852.6983428611
 10
1226.7168801391
 20
853.0873032824
 10
1226.4323513997
 20
853.4613161728
 10
1225.9703017986
 20
853.8060084268
 10
1225.348487643
 20
854.1081337142
 10
1224.5908049022
 20
854.3560815298
 10
1223.7263708989
 20
854.540323378
 10
1222.7884053472
 20
854.653778948
 10
1221.8129537371
 20
854.6920882057
  0
LWPOLYLINE
  5
260
330
1F
100
AcDbEntity
  8
0
  6
Continuous
 62
     7
370
    15
100
AcDbPolyline
 90
        9
 70
   128
 43
0.0
 10
1221.8129537371
 20
855.4257362652
 10
1222.7884053472
 20
855.3874270075
 10
1223.7263708989
 20
855.2739714376
 10
1224.5908049022
 20
855.0897295893
 10
1225.348487643
 20
854.8417817738
 10
1225.9703017986
 20
854.5396564863
 10
1226.4323513997
 20
854.1949642324
 10
1226.7168801391
 20
853.8209513419
 10
1226.8129537371
 20
853.4319909206
  0
LINE
  5
261
330
1F
100
AcDbEntity
  8
0
  6
Continuous
 62
     7
370
    15
100
AcDbLine
 10
1226.8129537371
 20
852.6983428611
 30
0.0
 11
1226.8129537371
 21
849.0838500491
 31
0.0
  0
LINE
  5
262
330
1F
100
AcDbEntity
  8
0
  6
Continuous
 62
     7
370
    15
100
AcDbLine
 10
1226.8129537371
 20
849.0838500491
 30
0.0
 11
1211.8129537371
 21
849.0838500491
 31
0.0
  0
LINE
  5
263
330
1F
100
AcDbEntity
  8
0
  6
Continuous
 62
     7
370
    15
100
AcDbLine
 10
1211.8129537371
 20
849.0838500491
 30
0.0
 11
1211.8129537371
 21
852.6983428611
 31
0.0
  0
LWPOLYLINE
  5
264
330
1F
100
AcDbEntity
  8
0
  6
Continuous
 62
     7
370
    15
100
AcDbPolyline
 90
        9
 70
   128
 43
0.0
 10
1216.8129537371
 20
854.6920882057
 10
1215.837502127
 20
854.653778948
 10
1214.8995365753
 20
854.540323378
 10
1214.035102572
 20
854.3560815298
 10
1213.2774198312
 20
854.1081337143
 10
1212.6556056756
 20
853.8060084268
 10
1212.1935560745
 20
853.4613161728
 10
1211.9090273351
 20
853.0873032824
 10
1211.8129537371
 20
852.6983428611
  0
LWPOLYLINE
  5
265
330
1F
100
AcDbEntity
  8
0
  6
Continuous
 62
     7
370
    15
100
AcDbPolyline
 90
       19
 70
   128
 43
0.0
 10
1219.3129537371
 20
851.0235967716
 10
1218.2184892785
 20
851.1005488078
 10
1217.2560333861
 20
851.3221233651
 10
1216.541672445
 20
851.6615952819
 10
1216.1615689275
 20
852.0780192349
 10
1216.1615689275
 20
852.5211683495
 10
1216.541672445
 20
852.9375923025
 10
1217.2560333861
 20
853.2770642192
 10
1218.2184892785
 20
853.4986387765
 10
1219.3129537371
 20
853.5755908127
 10
1220.4074181957
 20
853.4986387765
 10
1221.3698740881
 20
853.2770642192
 10
1222.0842350292
 20
852.9375923025
 10
1222.4643385467
 20
852.5211683495
 10
1222.4643385467
 20
852.0780192349
 10
1222.0842350292
 20
851.6615952819
 10
1221.3698740881
 20
851.3221233651
 10
1220.4074181957
 20
851.1005488078
 10
1219.3129537371
 20
851.0235967716
  0
LINE
  5
266
330
1F
100
AcDbEntity
  8
0
  6
Continuous
 62
     7
370
    15
100
AcDbLine
 10
1211.8129537371
 20
852.6983428611
 30
0.0
 11
1211.8129537371
 21
853.4319909206
 31
0.0
  0
LWPOLYLINE
  5
267
330
1F
100
AcDbEntity
  8
0
  6
Continuous
 62
     7
370
    15
100
AcDbPolyline
 90
        9
 70
   128
 43
0.0
 10
1211.8129537371
 20
853.4319909206
 10
1211.9090273351
 20
853.8209513419
 10
1212.1935560745
 20
854.1949642324
 10
1212.6556056756
 20
854.5396564863
 10
1213.2774198312
 20
854.8417817738
 10
1214.035102572
 20
855.0897295893
 10
1214.8995365753
 20
855.2739714376
 10
1215.837502127
 20
855.3874270075
 10
1216.8129537371
 20
855.4257362652
  0
ARC
  5
268
330
1F
100
AcDbEntity
  8
0
  6
Continuous
 62
     7
370
    15
100
AcDbCircle
 10
1218.8465940345
 20
855.8057614351
 30
0.0
 40
4.075288709414405
100
AcDbArc
 50
230.3841152697
 51
276.5710949598
  0
ARC
  5
269
330
1F
100
AcDbEntity
  8
0
  6
Continuous
 62
     7
370
    15
100
AcDbCircle
 10
1219.7793134397
 20
855.8057614351
 30
0.0
 40
4.075288709416537
100
AcDbArc
 50
263.4289050402
 51
309.6158847302
  0
ARC
  5
26A
330
1F
100
AcDbEntity
  8
0
  6
Continuous
 62
     7
370
    15
100
AcDbCircle
 10
864.8465940345
 20
855.8057614351
 30
0.0
 40
4.075288709410199
100
AcDbArc
 50
230.3841152697
 51
276.5710949598
  0
ARC
  5
26B
330
1F
100
AcDbEntity
  8
0
  6
Continuous
 62
     7
370
    15
100
AcDbCircle
 10
865.7793134397
 20
855.8057614351
 30
0.0
 40
4.075288709410216
100
AcDbArc
 50
263.4289050402
 51
309.6158847303
  0
LINE
  5
26C
330
1F
100
AcDbEntity
  8
0
  6
Continuous
 62
     7
370
    15
100
AcDbLine
 10
872.8129537371
 20
847.5512537131
 30
0.0
 11
872.8129537371
 21
849.0838500491
 31
0.0
  0
LINE
  5
26D
330
1F
100
AcDbEntity
  8
0
  6
Continuous
 62
     7
370
    15
100
AcDbLine
 10
857.8129537371
 20
849.0838500491
 30
0.0
 11
857.8129537371
 21
847.5512537131
 31
0.0
  0
LINE
  5
26E
330
1F
100
AcDbEntity
  8
0
  6
Continuous
 62
     7
370
    15
100
AcDbLine
 10
1226.8129537371
 20
847.5512537131
 30
0.0
 11
1226.8129537371
 21
849.0838500491
 31
0.0
  0
LINE
  5
26F
330
1F
100
AcDbEntity
  8
0
  6
Continuous
 62
     7
370
    15
100
AcDbLine
 10
1211.8129537371
 20
849.0838500491
 30
0.0
 11
1211.8129537371
 21
847.5512537131
 31
0.0
  0
ARC
  5
270
330
1F
100
AcDbEntity
  8
0
  6
Continuous
 62
     7
370
    15
100
AcDbCircle
 10
1156.1620220394
 20
845.5858223928
 30
0.0
 40
1.000815752807524
100
AcDbArc
 50
2.3134992124
 51
177.6865007876
  0
LINE
  5
271
330
1F
100
AcDbEntity
  8
0
  6
Continuous
 62
     7
370
    15
100
AcDbLine
 10
1242.3129537371
 20
849.9666960043
 30
0.0
 11
1227.3129537371
 21
849.9666960043
 31
0.0
  0
LINE
  5
272
330
1F
100
AcDbEntity
  8
0
  6
Continuous
 62
     7
370
    15
100
AcDbLine
 10
1242.3129537371
 20
849.9666960043
 30
0.0
 11
1242.3129537371
 21
848.5501808428
 31
0.0
  0
LINE
  5
273
330
1F
100
AcDbEntity
  8
0
  6
Continuous
 62
     7
370
    15
100
AcDbLine
 10
1227.3129537371
 20
848.5501808428
 30
0.0
 11
1227.3129537371
 21
849.9666960043
 31
0.0
  0
LINE
  5
274
330
1F
100
AcDbEntity
  8
0
  6
Continuous
 62
     7
370
    15
100
AcDbLine
 10
842.3129537371
 20
848.5501808428
 30
0.0
 11
842.3129537371
 21
849.9666960043
 31
0.0
  0
LINE
  5
275
330
1F
100
AcDbEntity
  8
0
  6
Continuous
 62
     7
370
    15
100
AcDbLine
 10
857.3129537371
 20
849.9666960043
 30
0.0
 11
842.3129537371
 21
849.9666960043
 31
0.0
  0
LINE
  5
276
330
1F
100
AcDbEntity
  8
0
  6
Continuous
 62
     7
370
    15
100
AcDbLine
 10
857.3129537371
 20
849.9666960043
 30
0.0
 11
857.3129537371
 21
848.5501808428
 31
0.0
  0
LINE
  5
277
330
1F
100
AcDbEntity
  8
0
  6
Continuous
 62
     7
370
    15
100
AcDbLine
 10
1191.8129537371
 20
849.9666960043
 30
0.0
 11
892.8129537371
 21
849.9666960043
 31
0.0
  0
LINE
  5
278
330
1F
100
AcDbEntity
  8
0
  6
Continuous
 62
     7
370
    15
100
AcDbLine
 10
1191.8129537371
 20
849.9666960043
 30
0.0
 11
1191.8129537371
 21
848.5501808428
 31
0.0
  0
LINE
  5
279
330
1F
100
AcDbEntity
  8
0
  6
Continuous
 62
     7
370
    15
100
AcDbLine
 10
892.8129537371
 20
848.5501808428
 30
0.0
 11
892.8129537371
 21
849.9666960043
 31
0.0
  0
LINE
  5
27A
330
1F
100
AcDbEntity
  8
0
  6
Continuous
 62
     7
370
    15
100
AcDbLine
 10
1242.3129537366
 20
850.0719504093
 30
0.0
 11
1242.3129537366
 21
849.9666960043
 31
0.0
  0
LINE
  5
27B
330
1F
100
AcDbEntity
  8
0
  6
Continuous
 62
     7
370
    15
100
AcDbLine
 10
1242.3129537369
 20
727.6790214772
 30
0.0
 11
1242.3129537366
 21
725.1290214771
 31
0.0
  0
LINE
  5
27C
330
1F
100
AcDbEntity
  8
0
  6
Continuous
 62
     7
370
    15
100
AcDbLine
 10
1242.3129537366
 20
603.9290214772
 30
0.0
 11
1242.3129537366
 21
603.9219504093
 31
0.0
  0
LINE
  5
27D
330
1F
100
AcDbEntity
  8
0
  6
Continuous
 62
     7
370
    15
100
AcDbLine
 10
1231.5129537366
 20
727.1790214772
 30
0.0
 11
1231.5129537366
 21
727.6790214772
 31
0.0
  0
LINE
  5
27E
330
1F
100
AcDbEntity
  8
0
  6
Continuous
 62
     7
370
    15
100
AcDbLine
 10
1231.5129537366
 20
849.9666960043
 30
0.0
 11
1231.5129537366
 21
850.1293684577
 31
0.0
  0
LINE
  5
27F
330
1F
100
AcDbEntity
  8
0
  6
Continuous
 62
     7
370
    15
100
AcDbLine
 10
1240.2629537366
 20
601.8719504093
 30
0.0
 11
1231.5129537366
 21
601.8719504093
 31
0.0
  0
LINE
  5
280
330
1F
100
AcDbEntity
  8
0
  6
Continuous
 62
     7
370
    15
100
AcDbLine
 10
1226.5129537366
 20
601.8719504093
 30
0.0
 11
1226.5129537366
 21
601.8790214772
 31
0.0
  0
LINE
  5
281
330
1F
100
AcDbEntity
  8
0
  6
Continuous
 62
     7
370
    15
100
AcDbLine
 10
1231.5129537366
 20
601.8719504093
 30
0.0
 11
1226.5129537366
 21
601.8719504093
 31
0.0
  0
LINE
  5
282
330
1F
100
AcDbEntity
  8
0
  6
Continuous
 62
     7
370
    15
100
AcDbLine
 10
842.3129537367
 20
603.9219504093
 30
0.0
 11
842.3129537367
 21
603.9290214772
 31
0.0
  0
LINE
  5
283
330
1F
100
AcDbEntity
  8
0
  6
Continuous
 62
     7
370
    15
100
AcDbLine
 10
842.3129537367
 20
725.1290214773
 30
0.0
 11
842.3129537369
 21
727.6790214772
 31
0.0
  0
LINE
  5
284
330
1F
100
AcDbEntity
  8
0
  6
Continuous
 62
     7
370
    15
100
AcDbLine
 10
842.3129537369
 20
849.9666960043
 30
0.0
 11
842.3129537367
 21
850.0719504093
 31
0.0
  0
LINE
  5
285
330
1F
100
AcDbEntity
  8
0
  6
Continuous
 62
     7
370
    15
100
AcDbLine
 10
853.1129537367
 20
849.9666960043
 30
0.0
 11
853.1129537367
 21
850.1293684577
 31
0.0
  0
LINE
  5
286
330
1F
100
AcDbEntity
  8
0
  6
Continuous
 62
     7
370
    15
100
AcDbLine
 10
853.1129537367
 20
727.1790214772
 30
0.0
 11
853.1129537367
 21
727.6790214772
 31
0.0
  0
LINE
  5
287
330
1F
100
AcDbEntity
  8
0
  6
Continuous
 62
     7
370
    15
100
AcDbLine
 10
844.3629537367
 20
601.8719504093
 30
0.0
 11
853.1129537367
 21
601.8719504093
 31
0.0
  0
LINE
  5
288
330
1F
100
AcDbEntity
  8
0
  6
Continuous
 62
     7
370
    15
100
AcDbLine
 10
858.1129537367
 20
601.8790214772
 30
0.0
 11
858.1129537367
 21
601.8719504093
 31
0.0
  0
LINE
  5
289
330
1F
100
AcDbEntity
  8
0
  6
Continuous
 62
     7
370
    15
100
AcDbLine
 10
858.1129537367
 20
601.8719504093
 30
0.0
 11
853.1129537367
 21
601.8719504093
 31
0.0
  0
LINE
  5
28A
330
1F
100
AcDbEntity
  8
0
  6
Continuous
 62
     7
370
    15
100
AcDbLine
 10
1043.4629537371
 20
814.9250397839
 30
0.0
 11
1043.4629537371
 21
815.3885652755
 31
0.0
  0
LINE
  5
28B
330
1F
100
AcDbEntity
  8
0
  6
Continuous
 62
     7
370
    15
100
AcDbLine
 10
1043.4629537371
 20
814.9250397839
 30
0.0
 11
893.4629537371
 21
814.9250397839
 31
0.0
  0
LINE
  5
28C
330
1F
100
AcDbEntity
  8
0
  6
Continuous
 62
     7
370
    15
100
AcDbLine
 10
893.4629537371
 20
815.3885652755
 30
0.0
 11
893.4629537371
 21
814.9250397839
 31
0.0
  0
LINE
  5
28D
330
1F
100
AcDbEntity
  8
0
  6
Continuous
 62
     7
370
    15
100
AcDbLine
 10
1043.4629537371
 20
815.3885652755
 30
0.0
 11
893.4629537371
 21
815.3885652755
 31
0.0
  0
LINE
  5
28E
330
1F
100
AcDbEntity
  8
0
  6
Continuous
 62
     7
370
    15
100
AcDbLine
 10
883.4629537371
 20
824.4356049469
 30
0.0
 11
883.4629537371
 21
824.8991304384
 31
0.0
  0
ARC
  5
28F
330
1F
100
AcDbEntity
  8
0
  6
Continuous
 62
     7
370
    15
100
AcDbCircle
 10
893.2242249801
 20
825.1501447083
 30
0.0
 40
9.764498166443873
100
AcDbArc
 50
181.4730549926
 51
271.4009438083
  0
ARC
  5
290
330
1F
100
AcDbEntity
  8
0
  6
Continuous
 62
     7
370
    15
100
AcDbCircle
 10
893.2242249801
 20
824.6866192167
 30
0.0
 40
9.764498166443875
100
AcDbArc
 50
181.4730549926
 51
271.4009438083
  0
LINE
  5
291
330
1F
100
AcDbEntity
  8
0
  6
Continuous
 62
     7
370
    15
100
AcDbLine
 10
1053.4629537371
 20
831.5565260525
 30
0.0
 11
883.4629537371
 21
831.5565260525
 31
0.0
  0
LINE
  5
292
330
1F
100
AcDbEntity
  8
0
  6
Continuous
 62
     7
370
    15
100
AcDbLine
 10
1053.4629537371
 20
831.5565260525
 30
0.0
 11
1053.4629537371
 21
824.8991304384
 31
0.0
  0
ARC
  5
293
330
1F
100
AcDbEntity
  8
0
  6
Continuous
 62
     7
370
    15
100
AcDbCircle
 10
1043.7016824941
 20
825.1501447083
 30
0.0
 40
9.764498166443966
100
AcDbArc
 50
268.5990561917
 51
358.5269450074
  0
LINE
  5
294
330
1F
100
AcDbEntity
  8
0
  6
Continuous
 62
     7
370
    15
100
AcDbLine
 10
883.4629537371
 20
831.5565260525
 30
0.0
 11
883.4629537371
 21
824.8991304384
 31
0.0
  0
LINE
  5
295
330
1F
100
AcDbEntity
  8
0
  6
Continuous
 62
     7
370
    15
100
AcDbLine
 10
1053.4629537371
 20
824.8991304384
 30
0.0
 11
1053.4629537371
 21
824.4356049469
 31
0.0
  0
ARC
  5
296
330
1F
100
AcDbEntity
  8
0
  6
Continuous
 62
     7
370
    15
100
AcDbCircle
 10
1043.7016824941
 20
824.6866192167
 30
0.0
 40
9.764498166443506
100
AcDbArc
 50
268.5990561917
 51
358.5269450074
  0
LINE
  5
297
330
1F
100
AcDbEntity
  8
0
  6
Continuous
 62
     7
370
    15
100
AcDbLine
 10
1053.4629537371
 20
848.4856096903
 30
0.0
 11
1053.4629537371
 21
831.5565260525
 31
0.0
  0
LINE
  5
298
330
1F
100
AcDbEntity
  8
0
  6
Continuous
 62
     7
370
    15
100
AcDbLine
 10
883.4629537371
 20
848.4856096903
 30
0.0
 11
883.4629537371
 21
831.5565260525
 31
0.0
  0
LINE
  5
299
330
1F
100
AcDbEntity
  8
0
  6
Continuous
 62
     7
370
    15
100
AcDbLine
 10
1048.4629537371
 20
776.9683259666
 30
0.0
 11
1048.4629537371
 21
777.4318514582
 31
0.0
  0
LINE
  5
29A
330
1F
100
AcDbEntity
  8
0
  6
Continuous
 62
     7
370
    15
100
AcDbLine
 10
1048.4629537371
 20
776.9683259666
 30
0.0
 11
888.4629537371
 21
776.9683259666
 31
0.0
  0
LINE
  5
29B
330
1F
100
AcDbEntity
  8
0
  6
Continuous
 62
     7
370
    15
100
AcDbLine
 10
888.4629537371
 20
777.4318514582
 30
0.0
 11
888.4629537371
 21
776.9683259666
 31
0.0
  0
LINE
  5
29C
330
1F
100
AcDbEntity
  8
0
  6
Continuous
 62
     7
370
    15
100
AcDbLine
 10
1048.4629537371
 20
777.4318514582
 30
0.0
 11
888.4629537371
 21
777.4318514582
 31
0.0
  0
LINE
  5
29D
330
1F
100
AcDbEntity
  8
0
  6
Continuous
 62
     7
370
    15
100
AcDbLine
 10
883.4629537371
 20
781.7236085481
 30
0.0
 11
883.4629537371
 21
782.1871340397
 31
0.0
  0
ARC
  5
29E
330
1F
100
AcDbEntity
  8
0
  6
Continuous
 62
     7
370
    15
100
AcDbCircle
 10
888.3435893586
 20
782.3126411746
 30
0.0
 40
4.882249083222099
100
AcDbArc
 50
181.4730549926
 51
271.4009438083
  0
ARC
  5
29F
330
1F
100
AcDbEntity
  8
0
  6
Continuous
 62
     7
370
    15
100
AcDbCircle
 10
888.3435893586
 20
781.849115683
 30
0.0
 40
4.882249083221983
100
AcDbArc
 50
181.4730549926
 51
271.4009438083
  0
LINE
  5
2A0
330
1F
100
AcDbEntity
  8
0
  6
Continuous
 62
     7
370
    15
100
AcDbLine
 10
1053.4629537371
 20
782.1871340397
 30
0.0
 11
1053.4629537371
 21
824.4356049469
 31
0.0
  0
ARC
  5
2A1
330
1F
100
AcDbEntity
  8
0
  6
Continuous
 62
     7
370
    15
100
AcDbCircle
 10
1048.5823181156
 20
782.3126411746
 30
0.0
 40
4.882249083221986
100
AcDbArc
 50
268.5990561917
 51
358.5269450074
  0
LINE
  5
2A2
330
1F
100
AcDbEntity
  8
0
  6
Continuous
 62
     7
370
    15
100
AcDbLine
 10
883.4629537371
 20
782.1871340397
 30
0.0
 11
883.4629537371
 21
824.4356049469
 31
0.0
  0
LINE
  5
2A3
330
1F
100
AcDbEntity
  8
0
  6
Continuous
 62
     7
370
    15
100
AcDbLine
 10
1053.4629537371
 20
782.1871340397
 30
0.0
 11
1053.4629537371
 21
781.7236085481
 31
0.0
  0
ARC
  5
2A4
330
1F
100
AcDbEntity
  8
0
  6
Continuous
 62
     7
370
    15
100
AcDbCircle
 10
1048.5823181156
 20
781.849115683
 30
0.0
 40
4.882249083222049
100
AcDbArc
 50
268.5990561917
 51
358.5269450074
  0
LINE
  5
2A5
330
1F
100
AcDbEntity
  8
0
  6
Continuous
 62
     7
370
    15
100
AcDbLine
 10
876.2248085692
 20
727.6790214772
 30
0.0
 11
876.2248085692
 21
727.1790214772
 31
0.0
  0
LINE
  5
2A6
330
1F
100
AcDbEntity
  8
0
  6
Continuous
 62
     7
370
    15
100
AcDbLine
 10
1207.6248085692
 20
727.1790214772
 30
0.0
 11
1207.6248085692
 21
727.6790214772
 31
0.0
  0
LINE
  5
2A7
330
1F
100
AcDbEntity
  8
0
  6
Continuous
 62
     7
370
    15
100
AcDbLine
 10
1207.6248085692
 20
849.4139095998
 30
0.0
 11
1207.6248085692
 21
850.1293684577
 31
0.0
  0
LINE
  5
2A8
330
1F
100
AcDbEntity
  8
0
  6
Continuous
 62
     7
370
    15
100
AcDbLine
 10
1208.8248085692
 20
727.1790214772
 30
0.0
 11
1208.8248085692
 21
727.6790214772
 31
0.0
  0
LINE
  5
2A9
330
1F
100
AcDbEntity
  8
0
  6
Continuous
 62
     7
370
    15
100
AcDbLine
 10
1208.8248085692
 20
849.4139095998
 30
0.0
 11
1208.8248085692
 21
850.1293684577
 31
0.0
  0
LINE
  5
2AA
330
1F
100
AcDbEntity
  8
0
  6
Continuous
 62
     7
370
    15
100
AcDbLine
 10
874.9129537367
 20
727.1790214772
 30
0.0
 11
874.9129537367
 21
727.6790214772
 31
0.0
  0
LINE
  5
2AB
330
1F
100
AcDbEntity
  8
0
  6
Continuous
 62
     7
370
    15
100
AcDbLine
 10
874.9129537367
 20
849.4139095998
 30
0.0
 11
874.9129537367
 21
850.1293684577
 31
0.0
  0
LINE
  5
2AC
330
1F
100
AcDbEntity
  8
0
  6
Continuous
 62
     7
370
    15
100
AcDbLine
 10
876.1129537367
 20
727.1790214772
 30
0.0
 11
876.1129537367
 21
727.6790214772
 31
0.0
  0
LINE
  5
2AD
330
1F
100
AcDbEntity
  8
0
  6
Continuous
 62
     7
370
    15
100
AcDbLine
 10
876.1129537367
 20
849.4139095998
 30
0.0
 11
876.1129537367
 21
850.1293684577
 31
0.0
  0
LINE
  5
2AE
330
1F
100
AcDbEntity
  8
0
  6
Continuous
 62
     7
370
    15
100
AcDbLine
 10
1137.3129537367
 20
601.4790214772
 30
0.0
 11
1137.3129537367
 21
601.8790214772
 31
0.0
  0
LINE
  5
2AF
330
1F
100
AcDbEntity
  8
0
  6
Continuous
 62
     7
370
    15
100
AcDbLine
 10
1132.3129537367
 20
601.4790214772
 30
0.0
 11
1137.3129537367
 21
601.4790214772
 31
0.0
  0
LINE
  5
2B0
330
1F
100
AcDbEntity
  8
0
  6
Continuous
 62
     7
370
    15
100
AcDbLine
 10
952.3129537367
 20
601.4790214772
 30
0.0
 11
1132.3129537367
 21
601.4790214772
 31
0.0
  0
LINE
  5
2B1
330
1F
100
AcDbEntity
  8
0
  6
Continuous
 62
     7
370
    15
100
AcDbLine
 10
947.3129537367
 20
601.4790214772
 30
0.0
 11
947.3129537367
 21
601.8790214772
 31
0.0
  0
LINE
  5
2B2
330
1F
100
AcDbEntity
  8
0
  6
Continuous
 62
     7
370
    15
100
AcDbLine
 10
947.3129537367
 20
601.4790214772
 30
0.0
 11
952.3129537367
 21
601.4790214772
 31
0.0
  0
LINE
  5
2B3
330
1F
100
AcDbEntity
  8
0
  6
Continuous
 62
     7
370
    15
100
AcDbLine
 10
1137.3129537367
 20
601.4790214772
 30
0.0
 11
1138.8129537367
 21
601.4790214772
 31
0.0
  0
LINE
  5
2B4
330
1F
100
AcDbEntity
  8
0
  6
Continuous
 62
     7
370
    15
100
AcDbLine
 10
945.8129537367
 20
601.4790214772
 30
0.0
 11
947.3129537367
 21
601.4790214772
 31
0.0
  0
LINE
  5
2B5
330
1F
100
AcDbEntity
  8
0
  6
Continuous
 62
     7
370
    15
100
AcDbLine
 10
1154.8670140186
 20
727.1790214772
 30
0.0
 11
1154.6170140186
 21
727.6790214772
 31
0.0
  0
LINE
  5
2B6
330
1F
100
AcDbEntity
  8
0
  6
Continuous
 62
     7
370
    15
100
AcDbLine
 10
1149.8241207998
 20
727.6790214772
 30
0.0
 11
1149.5741207998
 21
727.1790214772
 31
0.0
  0
LINE
  5
2B7
330
1F
100
AcDbEntity
  8
0
  6
Continuous
 62
     7
370
    15
100
AcDbLine
 10
1136.8670140186
 20
727.1790214772
 30
0.0
 11
1136.6170140186
 21
727.6790214772
 31
0.0
  0
LINE
  5
2B8
330
1F
100
AcDbEntity
  8
0
  6
Continuous
 62
     7
370
    15
100
AcDbLine
 10
1131.8241207998
 20
727.6790214772
 30
0.0
 11
1131.5741207998
 21
727.1790214772
 31
0.0
  0
LINE
  5
2B9
330
1F
100
AcDbEntity
  8
0
  6
Continuous
 62
     7
370
    15
100
AcDbLine
 10
1164.8194649153
 20
727.6790214772
 30
0.0
 11
1164.8194649153
 21
727.1790214772
 31
0.0
  0
LINE
  5
2BA
330
1F
100
AcDbEntity
  8
0
  6
Continuous
 62
     7
370
    15
100
AcDbLine
 10
1164.0194649153
 20
727.6790214772
 30
0.0
 11
1164.0194649153
 21
727.1790214772
 31
0.0
  0
LINE
  5
2BB
330
1F
100
AcDbEntity
  8
0
  6
Continuous
 62
     7
370
    15
100
AcDbLine
 10
1158.4216699032
 20
727.6790214772
 30
0.0
 11
1158.4216699032
 21
727.1790214772
 31
0.0
  0
LINE
  5
2BC
330
1F
100
AcDbEntity
  8
0
  6
Continuous
 62
     7
370
    15
100
AcDbLine
 10
1157.6216699032
 20
727.6790214772
 30
0.0
 11
1157.6216699032
 21
727.1790214772
 31
0.0
  0
LINE
  5
2BD
330
1F
100
AcDbEntity
  8
0
  6
Continuous
 62
     7
370
    15
100
AcDbLine
 10
1163.2194649153
 20
727.471914696
 30
0.0
 11
1161.2205674092
 21
727.471914696
 31
0.0
  0
LINE
  5
2BE
330
1F
100
AcDbEntity
  8
0
  6
Continuous
 62
     7
370
    15
100
AcDbLine
 10
1161.2205674092
 20
727.471914696
 30
0.0
 11
1161.2205674092
 21
727.1790214772
 31
0.0
  0
LINE
  5
2BF
330
1F
100
AcDbEntity
  8
0
  6
Continuous
 62
     7
370
    15
100
AcDbLine
 10
1164.0194649153
 20
727.471914696
 30
0.0
 11
1163.2194649153
 21
727.471914696
 31
0.0
  0
LINE
  5
2C0
330
1F
100
AcDbEntity
  8
0
  6
Continuous
 62
     7
370
    15
100
AcDbLine
 10
1164.8194649153
 20
727.471914696
 30
0.0
 11
1165.6194649153
 21
727.471914696
 31
0.0
  0
ARC
  5
2C1
330
1F
100
AcDbEntity
  8
0
  6
Continuous
 62
     7
370
    15
100
AcDbCircle
 10
1183.8012640825
 20
728.771914696
 30
0.0
 40
1.300000000000068
100
AcDbArc
 50
270.0
 51
302.78725395
  0
LINE
  5
2C2
330
1F
100
AcDbEntity
  8
0
  6
Continuous
 62
     7
370
    15
100
AcDbLine
 10
1183.8012640825
 20
727.471914696
 30
0.0
 11
1165.6194649153
 21
727.471914696
 31
0.0
  0
LINE
  5
2C3
330
1F
100
AcDbEntity
  8
0
  6
Continuous
 62
     7
370
    15
100
AcDbLine
 10
1127.9194649153
 20
727.6790214772
 30
0.0
 11
1127.9194649153
 21
727.1790214772
 31
0.0
  0
LINE
  5
2C4
330
1F
100
AcDbEntity
  8
0
  6
Continuous
 62
     7
370
    15
100
AcDbLine
 10
1128.7194649153
 20
727.6790214772
 30
0.0
 11
1128.7194649153
 21
727.1790214772
 31
0.0
  0
LINE
  5
2C5
330
1F
100
AcDbEntity
  8
0
  6
Continuous
 62
     7
370
    15
100
AcDbLine
 10
1122.3216699032
 20
727.6790214772
 30
0.0
 11
1122.3216699032
 21
727.1790214772
 31
0.0
  0
LINE
  5
2C6
330
1F
100
AcDbEntity
  8
0
  6
Continuous
 62
     7
370
    15
100
AcDbLine
 10
1121.5216699032
 20
727.6790214772
 30
0.0
 11
1121.5216699032
 21
727.1790214772
 31
0.0
  0
LINE
  5
2C7
330
1F
100
AcDbEntity
  8
0
  6
Continuous
 62
     7
370
    15
100
AcDbLine
 10
1146.0194649153
 20
727.6790214772
 30
0.0
 11
1146.0194649153
 21
727.1790214772
 31
0.0
  0
LINE
  5
2C8
330
1F
100
AcDbEntity
  8
0
  6
Continuous
 62
     7
370
    15
100
AcDbLine
 10
1146.8194649153
 20
727.6790214772
 30
0.0
 11
1146.8194649153
 21
727.1790214772
 31
0.0
  0
LINE
  5
2C9
330
1F
100
AcDbEntity
  8
0
  6
Continuous
 62
     7
370
    15
100
AcDbLine
 10
1140.4216699032
 20
727.6790214772
 30
0.0
 11
1140.4216699032
 21
727.1790214772
 31
0.0
  0
LINE
  5
2CA
330
1F
100
AcDbEntity
  8
0
  6
Continuous
 62
     7
370
    15
100
AcDbLine
 10
1139.6216699032
 20
727.6790214772
 30
0.0
 11
1139.6216699032
 21
727.1790214772
 31
0.0
  0
SPLINE
  5
2CB
330
1F
100
AcDbEntity
  8
0
  6
Continuous
 62
     7
370
    15
100
AcDbSpline
210
0.0
220
0.0
230
1.0
 70
     8
 71
     3
 72
    11
 73
     7
 74
     0
 42
0.00000001
 43
0.00000001
 12
1.0
 22
0.0
 32
0.0
 13
1.0
 23
0.0
 33
0.0
 40
0.0
 40
0.0
 40
0.0
 40
0.0
 40
0.283322968274295
 40
0.558046278621556
 40
0.7754268978867178
 40
1.0
 40
1.0
 40
1.0
 40
1.0
 10
911.9129537366285
 20
636.4273762253946
 30
0.0
 10
911.8740284752296
 20
636.1302625327414
 30
0.0
 10
911.7973594448281
 20
635.5450533930712
 30
0.0
 10
911.2630004796933
 20
634.8958791978771
 30
0.0
 10
910.6116876180067
 20
634.5007190808276
 30
0.0
 10
910.1494692899021
 20
634.4531785743674
 30
0.0
 10
909.9145989883864
 20
634.4290214771523
 30
0.0
  0
SPLINE
  5
2CC
330
1F
100
AcDbEntity
  8
0
  6
Continuous
 62
     7
370
    15
100
AcDbSpline
210
0.0
220
0.0
230
1.0
 70
     8
 71
     3
 72
    11
 73
     7
 74
     0
 42
0.00000001
 43
0.00000001
 12
1.0
 22
0.0
 32
0.0
 13
1.0
 23
0.0
 33
0.0
 40
0.0
 40
0.0
 40
0.0
 40
0.0
 40
0.2832771686238255
 40
0.5580022489005112
 40
0.7754022428539215
 40
1.0
 40
1.0
 40
1.0
 40
1.0
 10
873.9152775322422
 20
634.4290214771523
 30
0.0
 10
873.618161920244
 20
634.4673053093293
 30
0.0
 10
873.0329005647885
 20
634.5427171914622
 30
0.0
 10
872.3827115788738
 20
635.0756558575829
 30
0.0
 10
871.9861736185228
 20
635.7260802874804
 30
0.0
 10
871.9376239017415
 20
636.1881882172963
 30
0.0
 10
871.9129537366285
 20
636.4230048070593
 30
0.0
  0
LINE
  5
2CD
330
1F
100
AcDbEntity
  8
0
  6
Continuous
 62
     7
370
    15
100
AcDbLine
 10
909.9145989884
 20
634.4290214772
 30
0.0
 11
873.9152775322
 21
634.4290214772
 31
0.0
  0
LINE
  5
2CE
330
1F
100
AcDbEntity
  8
0
  6
Continuous
 62
     7
370
    15
100
AcDbLine
 10
911.9129537366
 20
692.430273042
 30
0.0
 11
911.9129537366
 21
636.4273762254
 31
0.0
  0
SPLINE
  5
2CF
330
1F
100
AcDbEntity
  8
0
  6
Continuous
 62
     7
370
    15
100
AcDbSpline
210
0.0
220
0.0
230
1.0
 70
     8
 71
     3
 72
    11
 73
     7
 74
     0
 42
0.00000001
 43
0.00000001
 12
1.0
 22
0.0
 32
0.0
 13
1.0
 23
0.0
 33
0.0
 40
0.0
 40
0.0
 40
0.0
 40
0.0
 40
0.2833048031626463
 40
0.5580362635661743
 40
0.7754301448953701
 40
1.0
 40
1.0
 40
1.0
 40
1.0
 10
909.9145989883864
 20
694.4290214771524
 30
0.0
 10
910.2117182723455
 20
694.3900746590173
 30
0.0
 10
910.7969654450123
 20
694.3133596276191
 30
0.0
 10
911.4461012803965
 20
693.7788280386416
 30
0.0
 10
911.841246279279
 20
693.1274238322345
 30
0.0
 10
911.8887939140609
 20
692.6651585060445
 30
0.0
 10
911.9129537366285
 20
692.4302730420017
 30
0.0
  0
LINE
  5
2D0
330
1F
100
AcDbEntity
  8
0
  6
Continuous
 62
     7
370
    15
100
AcDbLine
 10
873.9152775322
 20
694.4290214772
 30
0.0
 11
909.9145989884
 21
694.4290214772
 31
0.0
  0
SPLINE
  5
2D1
330
1F
100
AcDbEntity
  8
0
  6
Continuous
 62
     7
370
    15
100
AcDbSpline
210
0.0
220
0.0
230
1.0
 70
     8
 71
     3
 72
    11
 73
     7
 74
     0
 42
0.00000001
 43
0.00000001
 12
1.0
 22
0.0
 32
0.0
 13
1.0
 23
0.0
 33
0.0
 40
0.0
 40
0.0
 40
0.0
 40
0.0
 40
0.2833534124411271
 40
0.558111699096264
 40
0.7754835424211712
 40
1.0
 40
1.0
 40
1.0
 40
1.0
 10
871.9129537366285
 20
692.4346435974259
 30
0.0
 10
871.952531858663
 20
692.7316921722324
 30
0.0
 10
872.0304875562679
 20
693.3167787726413
 30
0.0
 10
872.5661537766392
 20
693.9648885430487
 30
0.0
 10
873.218179752812
 20
694.3587939451609
 30
0.0
 10
873.6804203796911
 20
694.405361326911
 30
0.0
 10
873.9152775322422
 20
694.4290214771524
 30
0.0
  0
LINE
  5
2D2
330
1F
100
AcDbEntity
  8
0
  6
Continuous
 62
     7
370
    15
100
AcDbLine
 10
871.9129537366
 20
636.4230048071
 30
0.0
 11
871.9129537366
 21
692.4346435974
 31
0.0
  0
SPLINE
  5
2D3
330
1F
100
AcDbEntity
  8
0
  6
Continuous
 62
     7
370
    15
100
AcDbSpline
210
0.0
220
0.0
230
1.0
 70
     8
 71
     3
 72
    11
 73
     7
 74
     0
 42
0.00000001
 43
0.00000001
 12
1.0
 22
0.0
 32
0.0
 13
1.0
 23
0.0
 33
0.0
 40
0.0
 40
0.0
 40
0.0
 40
0.0
 40
0.2371516183831873
 40
0.497800201446402
 40
0.7485397230460136
 40
1.0
 40
1.0
 40
1.0
 40
1.0
 10
871.9129537366285
 20
692.4346435974259
 30
0.0
 10
872.0558826573479
 20
692.4039310730748
 30
0.0
 10
872.3559018856018
 20
692.3394630297483
 30
0.0
 10
872.979278210982
 20
692.2064400548439
 30
0.0
 10
873.694968254688
 20
692.0530419140766
 30
0.0
 10
874.1985280123207
 20
691.945269508924
 30
0.0
 10
874.4506692447185
 20
691.8913059690625
 30
0.0
  0
LINE
  5
2D4
330
1F
100
AcDbEntity
  8
0
  6
Continuous
 62
     7
370
    15
100
AcDbLine
 10
874.4506692447
 20
691.8913059691
 30
0.0
 11
874.4506692447
 21
636.9667369852
 31
0.0
  0
SPLINE
  5
2D5
330
1F
100
AcDbEntity
  8
0
  6
Continuous
 62
     7
370
    15
100
AcDbSpline
210
0.0
220
0.0
230
1.0
 70
     8
 71
     3
 72
    11
 73
     7
 74
     0
 42
0.00000001
 43
0.00000001
 12
1.0
 22
0.0
 32
0.0
 13
1.0
 23
0.0
 33
0.0
 40
0.0
 40
0.0
 40
0.0
 40
0.0
 40
0.2371429336589586
 40
0.4977971043283299
 40
0.7485377110304064
 40
1.0
 40
1.0
 40
1.0
 40
1.0
 10
871.9129537366285
 20
636.4230048070593
 30
0.0
 10
872.0558787983759
 20
636.4537392008839
 30
0.0
 10
872.3558990468231
 20
636.5182551112384
 30
0.0
 10
872.9792748172878
 20
636.6513730079297
 30
0.0
 10
873.6949696239196
 20
636.8048839680024
 30
0.0
 10
874.1985281609957
 20
636.912734317982
 30
0.0
 10
874.4506692447185
 20
636.9667369852424
 30
0.0
  0
LINE
  5
2D6
330
1F
100
AcDbEntity
  8
0
  6
Continuous
 62
     7
370
    15
100
AcDbLine
 10
909.3752382285
 20
636.9667369852
 30
0.0
 11
909.3752382285
 21
691.8913059691
 31
0.0
  0
SPLINE
  5
2D7
330
1F
100
AcDbEntity
  8
0
  6
Continuous
 62
     7
370
    15
100
AcDbSpline
210
0.0
220
0.0
230
1.0
 70
     8
 71
     3
 72
    11
 73
     7
 74
     0
 42
0.00000001
 43
0.00000001
 12
1.0
 22
0.0
 32
0.0
 13
1.0
 23
0.0
 33
0.0
 40
0.0
 40
0.0
 40
0.0
 40
0.0
 40
0.2514381262281272
 40
0.502165726161947
 40
0.7628277148386594
 40
0.9999999999999999
 40
0.9999999999999999
 40
0.9999999999999999
 40
0.9999999999999999
 10
909.3752382285386
 20
691.8913059690625
 30
0.0
 10
909.6273811437621
 20
691.9448357640993
 30
0.0
 10
910.1309544562873
 20
692.0517440870299
 30
0.0
 10
910.8466616780813
 20
692.2039123453073
 30
0.0
 10
911.4700348030447
 20
692.3358630824192
 30
0.0
 10
911.7700324329571
 20
692.3998087888845
 30
0.0
 10
911.9129537366285
 20
692.4302730420017
 30
0.0
  0
SPLINE
  5
2D8
330
1F
100
AcDbEntity
  8
0
  6
Continuous
 62
     7
370
    15
100
AcDbSpline
210
0.0
220
0.0
230
1.0
 70
     8
 71
     3
 72
    11
 73
     7
 74
     0
 42
0.00000001
 43
0.00000001
 12
1.0
 22
0.0
 32
0.0
 13
1.0
 23
0.0
 33
0.0
 40
0.0
 40
0.0
 40
0.0
 40
0.0
 40
0.2514401112120331
 40
0.5021687776352163
 40
0.762823882425817
 40
1.0
 40
1.0
 40
1.0
 40
1.0
 10
909.3752382285386
 20
636.9667369852424
 30
0.0
 10
909.6273809895181
 20
636.9131680959522
 30
0.0
 10
910.1309530785546
 20
636.806181889478
 30
0.0
 10
910.8466534798902
 20
636.653904331597
 30
0.0
 10
911.4700276010232
 20
636.5218554577913
 30
0.0
 10
911.7700279513925
 20
636.4578632917321
 30
0.0
 10
911.9129537366285
 20
636.4273762253947
 30
0.0
  0
SPLINE
  5
2D9
330
1F
100
AcDbEntity
  8
0
  6
Continuous
 62
     7
370
    15
100
AcDbSpline
210
0.0
220
0.0
230
1.0
 70
     8
 71
     3
 72
    11
 73
     7
 74
     0
 42
0.00000001
 43
0.00000001
 12
1.0
 22
0.0
 32
0.0
 13
1.0
 23
0.0
 33
0.0
 40
0.0
 40
0.0
 40
0.0
 40
0.0
 40
0.2371761177076038
 40
0.497831222364836
 40
0.7485598887879951
 40
1.0
 40
1.0
 40
1.0
 40
1.0
 10
909.9145989883864
 20
694.4290214771524
 30
0.0
 10
909.8841119220265
 20
694.2860956918286
 30
0.0
 10
909.8201197559561
 20
693.9860953414437
 30
0.0
 10
909.6880708821604
 20
693.3627212202887
 30
0.0
 10
909.5357933243023
 20
692.6470208190785
 30
0.0
 10
909.4288071178285
 20
692.1434487300419
 30
0.0
 10
909.3752382285386
 20
691.8913059690625
 30
0.0
  0
LINE
  5
2DA
330
1F
100
AcDbEntity
  8
0
  6
Continuous
 62
     7
370
    15
100
AcDbLine
 10
909.3752382285
 20
691.8913059691
 30
0.0
 11
874.4506692447
 21
691.8913059691
 31
0.0
  0
SPLINE
  5
2DB
330
1F
100
AcDbEntity
  8
0
  6
Continuous
 62
     7
370
    15
100
AcDbSpline
210
0.0
220
0.0
230
1.0
 70
     8
 71
     3
 72
    11
 73
     7
 74
     0
 42
0.00000001
 43
0.00000001
 12
1.0
 22
0.0
 32
0.0
 13
1.0
 23
0.0
 33
0.0
 40
0.0
 40
0.0
 40
0.0
 40
0.0
 40
0.2371941589275958
 40
0.4978619749471116
 40
0.7485798819786929
 40
1.0
 40
1.0
 40
1.0
 40
1.0
 10
873.9152775322422
 20
694.4290214771524
 30
0.0
 10
873.9455391063804
 20
694.2861029734153
 30
0.0
 10
874.0090570578067
 20
693.9861221945938
 30
0.0
 10
874.1401320576304
 20
693.3627510492688
 30
0.0
 10
874.2912928138744
 20
692.647034577357
 30
0.0
 10
874.3974942622425
 20
692.1434502496808
 30
0.0
 10
874.4506692447185
 20
691.8913059690625
 30
0.0
  0
LINE
  5
2DC
330
1F
100
AcDbEntity
  8
0
  6
Continuous
 62
     7
370
    15
100
AcDbLine
 10
874.4506692447
 20
636.9667369852
 30
0.0
 11
909.3752382285
 21
636.9667369852
 31
0.0
  0
SPLINE
  5
2DD
330
1F
100
AcDbEntity
  8
0
  6
Continuous
 62
     7
370
    15
100
AcDbSpline
210
0.0
220
0.0
230
1.0
 70
     8
 71
     3
 72
    11
 73
     7
 74
     0
 42
0.00000001
 43
0.00000001
 12
1.0
 22
0.0
 32
0.0
 13
1.0
 23
0.0
 33
0.0
 40
0.0
 40
0.0
 40
0.0
 40
0.0
 40
0.2514401155114637
 40
0.5021687862218975
 40
0.762830131072805
 40
1.0
 40
1.0
 40
1.0
 40
1.0
 10
909.3752382285386
 20
636.9667369852424
 30
0.0
 10
909.4288070920453
 20
636.7145942208267
 30
0.0
 10
909.5357932470256
 20
636.2110221249278
 30
0.0
 10
909.6880724401302
 20
635.495315925228
 30
0.0
 10
909.8201196060625
 20
634.8719425819814
 30
0.0
 10
909.8841124173468
 20
634.5719430902619
 30
0.0
 10
909.9145989883864
 20
634.4290214771523
 30
0.0
  0
SPLINE
  5
2DE
330
1F
100
AcDbEntity
  8
0
  6
Continuous
 62
     7
370
    15
100
AcDbSpline
210
0.0
220
0.0
230
1.0
 70
     8
 71
     3
 72
    11
 73
     7
 74
     0
 42
0.00000001
 43
0.00000001
 12
1.0
 22
0.0
 32
0.0
 13
1.0
 23
0.0
 33
0.0
 40
0.0
 40
0.0
 40
0.0
 40
0.0
 40
0.2514201137491431
 40
0.5021380165204805
 40
0.7627995894819172
 40
1.0
 40
1.0
 40
1.0
 40
1.0
 10
874.4506692447185
 20
636.9667369852424
 30
0.0
 10
874.3974942366357
 20
636.7145927080151
 30
0.0
 10
874.2912927371259
 20
636.2110083871115
 30
0.0
 10
874.140133604952
 20
635.4952977173514
 30
0.0
 10
874.0090569086025
 20
634.8719257905283
 30
0.0
 10
873.945539598092
 20
634.5719441539359
 30
0.0
 10
873.9152775322422
 20
634.4290214771523
 30
0.0
  0
SPLINE
  5
2DF
330
1F
100
AcDbEntity
  8
0
  6
Continuous
 62
     7
370
    15
100
AcDbSpline
210
0.0
220
0.0
230
1.0
 70
     8
 71
     3
 72
    13
 73
     9
 74
     0
 42
0.00000001
 43
0.00000001
 12
1.0
 22
0.0
 32
0.0
 13
1.0
 23
0.0
 33
0.0
 40
0.0
 40
0.0
 40
0.0
 40
0.0
 40
0.1275360740474417
 40
0.254588719859237
 40
0.4999418984797916
 40
0.7453299828649785
 40
0.8725055605771168
 40
0.9999999999999999
 40
0.9999999999999999
 40
0.9999999999999999
 40
0.9999999999999999
 10
873.9152775322422
 20
694.4290214771524
 30
0.0
 10
873.782115008833
 20
694.4217542332813
 30
0.0
 10
873.516294717428
 20
694.4072472921833
 30
0.0
 10
873.0159385388025
 20
694.2467561672066
 30
0.0
 10
872.4670186744509
 20
693.8809767618363
 30
0.0
 10
872.0989554439609
 20
693.3334017715966
 30
0.0
 10
871.9365252769226
 20
692.8335547876603
 30
0.0
 10
871.9208174724223
 20
692.5677249389943
 30
0.0
 10
871.9129537366285
 20
692.4346435974259
 30
0.0
  0
SPLINE
  5
2E0
330
1F
100
AcDbEntity
  8
0
  6
Continuous
 62
     7
370
    15
100
AcDbSpline
210
0.0
220
0.0
230
1.0
 70
     8
 71
     3
 72
    13
 73
     9
 74
     0
 42
0.00000001
 43
0.00000001
 12
1.0
 22
0.0
 32
0.0
 13
1.0
 23
0.0
 33
0.0
 40
0.0
 40
0.0
 40
0.0
 40
0.0
 40
0.1275693177285211
 40
0.2546459829165803
 40
0.50001468948103
 40
0.745371761666381
 40
0.872524948513384
 40
1.0
 40
1.0
 40
1.0
 40
1.0
 10
911.9129537366285
 20
692.4302730420017
 30
0.0
 10
911.9053989473872
 20
692.5634684771592
 30
0.0
 10
911.8903185443064
 20
692.8293449677575
 30
0.0
 10
911.7288116837967
 20
693.3295073850103
 30
0.0
 10
911.3620001106559
 20
693.8778304302697
 30
0.0
 10
910.8137052996028
 20
694.2449011512269
 30
0.0
 10
910.3135417252137
 20
694.4063129484484
 30
0.0
 10
910.0476919171105
 20
694.4214455914093
 30
0.0
 10
909.9145989883864
 20
694.4290214771524
 30
0.0
  0
SPLINE
  5
2E1
330
1F
100
AcDbEntity
  8
0
  6
Continuous
 62
     7
370
    15
100
AcDbSpline
210
0.0
220
0.0
230
1.0
 70
     8
 71
     3
 72
    13
 73
     9
 74
     0
 42
0.00000001
 43
0.00000001
 12
1.0
 22
0.0
 32
0.0
 13
1.0
 23
0.0
 33
0.0
 40
0.0
 40
0.0
 40
0.0
 40
0.0
 40
0.1275744813590969
 40
0.2546483440425835
 40
0.5000017710082002
 40
0.7453551979738158
 40
0.8725131741728116
 40
1.0
 40
1.0
 40
1.0
 40
1.0
 10
909.9145989883864
 20
634.4290214771523
 30
0.0
 10
910.0477887363562
 20
634.436575739597
 30
0.0
 10
910.3136455785914
 20
634.4516546205886
 30
0.0
 10
910.8137504064377
 20
634.6131571258599
 30
0.0
 10
911.3619759815106
 20
634.9799880399635
 30
0.0
 10
911.7289136817734
 20
635.5282877881535
 30
0.0
 10
911.890255582487
 20
636.0284377924702
 30
0.0
 10
911.9053811741587
 20
636.2942823100867
 30
0.0
 10
911.9129537366285
 20
636.4273762253946
 30
0.0
  0
SPLINE
  5
2E2
330
1F
100
AcDbEntity
  8
0
  6
Continuous
 62
     7
370
    15
100
AcDbSpline
210
0.0
220
0.0
230
1.0
 70
     8
 71
     3
 72
    13
 73
     9
 74
     0
 42
0.00000001
 43
0.00000001
 12
1.0
 22
0.0
 32
0.0
 13
1.0
 23
0.0
 33
0.0
 40
0.0
 40
0.0
 40
0.0
 40
0.0
 40
0.1275872441294484
 40
0.2546759233236651
 40
0.5000487292309116
 40
0.7453982611490086
 40
0.8725397565424716
 40
1.0
 40
1.0
 40
1.0
 40
1.0
 10
871.9129537366285
 20
636.4230048070593
 30
0.0
 10
871.9207989081119
 20
636.2898333056074
 30
0.0
 10
871.9364585949778
 20
636.0240106889028
 30
0.0
 10
872.0990449401686
 20
635.5242668557636
 30
0.0
 10
872.4670206279131
 20
634.9768634805422
 30
0.0
 10
873.0160196220555
 20
634.6111107043637
 30
0.0
 10
873.5164070055301
 20
634.4508503661826
 30
0.0
 10
873.7822097662855
 20
634.4363038439908
 30
0.0
 10
873.9152775322422
 20
634.4290214771523
 30
0.0
  0
LINE
  5
2E3
330
1F
100
AcDbEntity
  8
0
  6
Continuous
 62
     7
370
    15
100
AcDbLine
 10
1232.3129537366
 20
612.8790214772
 30
0.0
 11
1232.3129537366
 21
620.8790214772
 31
0.0
  0
ARC
  5
2E4
330
1F
100
AcDbEntity
  8
0
  6
Continuous
 62
     7
370
    15
100
AcDbCircle
 10
1193.3129537366
 20
612.8790214772
 30
0.0
 40
1.0
100
AcDbArc
 50
180.0
 51
270.0
  0
LINE
  5
2E5
330
1F
100
AcDbEntity
  8
0
  6
Continuous
 62
     7
370
    15
100
AcDbLine
 10
1192.3129537366
 20
620.8790214772
 30
0.0
 11
1192.3129537366
 21
612.8790214772
 31
0.0
  0
ARC
  5
2E6
330
1F
100
AcDbEntity
  8
0
  6
Continuous
 62
     7
370
    15
100
AcDbCircle
 10
1193.3129537366
 20
620.8790214772
 30
0.0
 40
1.000000000000227
100
AcDbArc
 50
90.0
 51
180.0
  0
ARC
  5
2E7
330
1F
100
AcDbEntity
  8
0
  6
Continuous
 62
     7
370
    15
100
AcDbCircle
 10
1231.3129537366
 20
620.8790214772
 30
0.0
 40
1.0
100
AcDbArc
 50
0.0
 51
90.0
  0
LINE
  5
2E8
330
1F
100
AcDbEntity
  8
0
  6
Continuous
 62
     7
370
    15
100
AcDbLine
 10
1231.3129537366
 20
621.8790214772
 30
0.0
 11
1193.3129537366
 21
621.8790214772
 31
0.0
  0
LINE
  5
2E9
330
1F
100
AcDbEntity
  8
0
  6
Continuous
 62
     7
370
    15
100
AcDbLine
 10
1193.3129537366
 20
611.8790214772
 30
0.0
 11
1231.3129537366
 21
611.8790214772
 31
0.0
  0
ARC
  5
2EA
330
1F
100
AcDbEntity
  8
0
  6
Continuous
 62
     7
370
    15
100
AcDbCircle
 10
1231.3129537366
 20
612.8790214772
 30
0.0
 40
1.0
100
AcDbArc
 50
270.0
 51
0.0
  0
LWPOLYLINE
  5
2EB
330
1F
100
AcDbEntity
  8
0
  6
Continuous
 62
     7
370
    15
100
AcDbPolyline
 90
       28
 70
   128
 43
0.0
 10
1212.8300959167
 20
811.9988889762
 10
1212.6508443061
 20
813.4574250083
 10
1212.1227529749
 20
814.8373309854
 10
1211.2742914635
 20
816.064215819
 10
1210.1512005516
 20
817.0719378303
 10
1208.8140263609
 20
817.8061704648
 10
1207.3348562982
 20
818.227331051
 10
1205.7934328045
 20
818.3127147128
 10
1204.2728544192
 20
818.0577183949
 10
1202.8550959167
 20
817.4760890148
 10
1201.6165890249
 20
816.5991823628
 10
1200.6241019708
 20
815.4742727037
 10
1199.9311399885
 20
814.1620042082
 10
1199.5750608377
 20
812.7331216106
 10
1199.5750608377
 20
811.2646563417
 10
1199.9311399885
 20
809.8357737442
 10
1200.6241019708
 20
808.5235052487
 10
1201.6165890249
 20
807.3985955895
 10
1202.8550959167
 20
806.5216889376
 10
1204.2728544192
 20
805.9400595575
 10
1205.7934328045
 20
805.6850632395
 10
1207.3348562982
 20
805.7704469014
 10
1208.8140263609
 20
806.1916074876
 10
1210.1512005516
 20
806.9258401221
 10
1211.2742914635
 20
807.9335621334
 10
1212.1227529749
 20
809.160446967
 10
1212.6508443061
 20
810.5403529441
 10
1212.8300959167
 20
811.9988889762
  0
LWPOLYLINE
  5
2EC
330
1F
100
AcDbEntity
  8
0
  6
Continuous
 62
     7
370
    15
100
AcDbPolyline
 90
       30
 70
   128
 43
0.0
 10
1213.9800959167
 20
810.9173294959
 10
1213.7977362513
 20
812.5120319921
 10
1213.2591841902
 20
814.0321679719
 10
1212.3896218292
 20
815.4066575665
 10
1211.229708938
 20
816.5712311701
 10
1209.8336817542
 20
817.4714346152
 10
1208.2668169573
 20
818.0651753893
 10
1206.6023794037
 20
818.3246908337
 10
1204.9181963436
 20
818.2378462947
 10
1203.2930183051
 20
817.8087025262
 10
1201.8028368069
 20
817.0573258141
 10
1200.5173310797
 20
816.0188496983
 10
1199.4966099426
 20
814.7418321678
 10
1198.7884011815
 20
813.2859851429
 10
1198.4258198509
 20
811.7193824125
 10
1198.4258198509
 20
810.1152765792
 10
1198.7884011815
 20
808.5486738489
 10
1199.4966099426
 20
807.092826824
 10
1200.5173310797
 20
805.8158092934
 10
1201.8028368069
 20
804.7773331776
 10
1203.2930183051
 20
804.0259564655
 10
1204.9181963436
 20
803.5968126971
 10
1206.6023794037
 20
803.509968158
 10
1208.2668169573
 20
803.7694836024
 10
1209.8336817542
 20
804.3632243765
 10
1211.229708938
 20
805.2634278217
 10
1212.3896218292
 20
806.4280014252
 10
1213.2591841902
 20
807.8024910198
 10
1213.7977362513
 20
809.3226269997
 10
1213.9800959167
 20
810.9173294959
  0
LWPOLYLINE
  5
2ED
330
1F
100
AcDbEntity
  8
0
  6
Continuous
 62
     7
370
    15
100
AcDbPolyline
 90
       28
 70
   128
 43
0.0
 10
1112.8300959167
 20
811.9988889762
 10
1112.6508443061
 20
813.4574250083
 10
1112.1227529749
 20
814.8373309854
 10
1111.2742914635
 20
816.064215819
 10
1110.1512005516
 20
817.0719378303
 10
1108.8140263609
 20
817.8061704648
 10
1107.3348562982
 20
818.227331051
 10
1105.7934328045
 20
818.3127147128
 10
1104.2728544192
 20
818.0577183949
 10
1102.8550959167
 20
817.4760890148
 10
1101.6165890249
 20
816.5991823628
 10
1100.6241019708
 20
815.4742727037
 10
1099.9311399885
 20
814.1620042082
 10
1099.5750608377
 20
812.7331216106
 10
1099.5750608377
 20
811.2646563417
 10
1099.9311399885
 20
809.8357737442
 10
1100.6241019708
 20
808.5235052487
 10
1101.6165890249
 20
807.3985955895
 10
1102.8550959167
 20
806.5216889376
 10
1104.2728544192
 20
805.9400595575
 10
1105.7934328045
 20
805.6850632395
 10
1107.3348562982
 20
805.7704469014
 10
1108.8140263609
 20
806.1916074876
 10
1110.1512005516
 20
806.9258401221
 10
1111.2742914635
 20
807.9335621334
 10
1112.1227529749
 20
809.160446967
 10
1112.6508443061
 20
810.5403529441
 10
1112.8300959167
 20
811.9988889762
  0
LWPOLYLINE
  5
2EE
330
1F
100
AcDbEntity
  8
0
  6
Continuous
 62
     7
370
    15
100
AcDbPolyline
 90
       30
 70
   128
 43
0.0
 10
1113.9800959167
 20
810.9173294959
 10
1113.7977362513
 20
812.5120319921
 10
1113.2591841902
 20
814.0321679719
 10
1112.3896218292
 20
815.4066575665
 10
1111.229708938
 20
816.5712311701
 10
1109.8336817542
 20
817.4714346152
 10
1108.2668169573
 20
818.0651753893
 10
1106.6023794037
 20
818.3246908337
 10
1104.9181963436
 20
818.2378462947
 10
1103.2930183051
 20
817.8087025262
 10
1101.8028368069
 20
817.0573258141
 10
1100.5173310797
 20
816.0188496983
 10
1099.4966099426
 20
814.7418321678
 10
1098.7884011815
 20
813.2859851429
 10
1098.4258198509
 20
811.7193824125
 10
1098.4258198509
 20
810.1152765792
 10
1098.7884011815
 20
808.5486738489
 10
1099.4966099426
 20
807.092826824
 10
1100.5173310797
 20
805.8158092934
 10
1101.8028368069
 20
804.7773331776
 10
1103.2930183051
 20
804.0259564655
 10
1104.9181963436
 20
803.5968126971
 10
1106.6023794037
 20
803.509968158
 10
1108.2668169573
 20
803.7694836024
 10
1109.8336817542
 20
804.3632243765
 10
1111.229708938
 20
805.2634278217
 10
1112.3896218292
 20
806.4280014252
 10
1113.2591841902
 20
807.8024910198
 10
1113.7977362513
 20
809.3226269997
 10
1113.9800959167
 20
810.9173294959
  0
LINE
  5
2EF
330
1F
100
AcDbEntity
  8
0
  6
Continuous
 62
     7
370
    15
100
AcDbLine
 10
1214.1026996988
 20
699.8922389937
 30
0.0
 11
1231.4232077745
 21
699.8922389937
 31
0.0
  0
LINE
  5
2F0
330
1F
100
AcDbEntity
  8
0
  6
Continuous
 62
     7
370
    15
100
AcDbLine
 10
1231.4232077745
 20
699.8922389937
 30
0.0
 11
1222.7629537366
 21
714.8922389937
 31
0.0
  0
LINE
  5
2F1
330
1F
100
AcDbEntity
  8
0
  6
Continuous
 62
     7
370
    15
100
AcDbLine
 10
1222.7629537366
 20
714.8922389937
 30
0.0
 11
1214.1026996988
 21
699.8922389937
 31
0.0
  0
LINE
  5
2F2
330
1F
100
AcDbEntity
  8
0
  6
Continuous
 62
     7
370
    15
100
AcDbLine
 10
1211.5046234874
 20
697.8922389937
 30
0.0
 11
1234.0212839858
 21
697.8922389937
 31
0.0
  0
ARC
  5
2F3
330
1F
100
AcDbEntity
  8
0
  6
Continuous
 62
     7
370
    15
100
AcDbCircle
 10
1211.5046234874
 20
698.3922389937
 30
0.0
 40
0.5000000000001137
100
AcDbArc
 50
150.0
 51
270.0
  0
LINE
  5
2F4
330
1F
100
AcDbEntity
  8
0
  6
Continuous
 62
     7
370
    15
100
AcDbLine
 10
1222.3299410347
 20
718.1422389937
 30
0.0
 11
1211.0716107855
 21
698.6422389937
 31
0.0
  0
ARC
  5
2F5
330
1F
100
AcDbEntity
  8
0
  6
Continuous
 62
     7
370
    15
100
AcDbCircle
 10
1222.7629537366
 20
717.8922389937
 30
0.0
 40
0.4999999999999273
100
AcDbArc
 50
30.0
 51
150.0
  0
LINE
  5
2F6
330
1F
100
AcDbEntity
  8
0
  6
Continuous
 62
     7
370
    15
100
AcDbLine
 10
1234.4542966877
 20
698.6422389937
 30
0.0
 11
1223.1959664385
 21
718.1422389937
 31
0.0
  0
ARC
  5
2F7
330
1F
100
AcDbEntity
  8
0
  6
Continuous
 62
     7
370
    15
100
AcDbCircle
 10
1234.0212839858
 20
698.3922389937
 30
0.0
 40
0.5000000000001137
100
AcDbArc
 50
270.0
 51
30.0
  0
LINE
  5
2F8
330
1F
100
AcDbEntity
  8
0
  6
Continuous
 62
     7
370
    15
100
AcDbLine
 10
1197.7629537366
 20
714.8922389937
 30
0.0
 11
1189.1026996988
 21
699.8922389937
 31
0.0
  0
LINE
  5
2F9
330
1F
100
AcDbEntity
  8
0
  6
Continuous
 62
     7
370
    15
100
AcDbLine
 10
1189.1026996988
 20
699.8922389937
 30
0.0
 11
1206.4232077745
 21
699.8922389937
 31
0.0
  0
LINE
  5
2FA
330
1F
100
AcDbEntity
  8
0
  6
Continuous
 62
     7
370
    15
100
AcDbLine
 10
1206.4232077745
 20
699.8922389937
 30
0.0
 11
1197.7629537366
 21
714.8922389937
 31
0.0
  0
LINE
  5
2FB
330
1F
100
AcDbEntity
  8
0
  6
Continuous
 62
     7
370
    15
100
AcDbLine
 10
1209.4542966877
 20
698.6422389937
 30
0.0
 11
1198.1959664385
 21
718.1422389937
 31
0.0
  0
ARC
  5
2FC
330
1F
100
AcDbEntity
  8
0
  6
Continuous
 62
     7
370
    15
100
AcDbCircle
 10
1209.0212839858
 20
698.3922389937
 30
0.0
 40
0.5000000000001137
100
AcDbArc
 50
270.0
 51
30.0
  0
LINE
  5
2FD
330
1F
100
AcDbEntity
  8
0
  6
Continuous
 62
     7
370
    15
100
AcDbLine
 10
1186.5046234874
 20
697.8922389937
 30
0.0
 11
1209.0212839858
 21
697.8922389937
 31
0.0
  0
ARC
  5
2FE
330
1F
100
AcDbEntity
  8
0
  6
Continuous
 62
     7
370
    15
100
AcDbCircle
 10
1186.5046234874
 20
698.3922389937
 30
0.0
 40
0.5000000000001137
100
AcDbArc
 50
150.0
 51
270.0
  0
LINE
  5
2FF
330
1F
100
AcDbEntity
  8
0
  6
Continuous
 62
     7
370
    15
100
AcDbLine
 10
1197.3299410347
 20
718.1422389937
 30
0.0
 11
1186.0716107855
 21
698.6422389937
 31
0.0
  0
ARC
  5
300
330
1F
100
AcDbEntity
  8
0
  6
Continuous
 62
     7
370
    15
100
AcDbCircle
 10
1197.7629537366
 20
717.8922389937
 30
0.0
 40
0.4999999999999273
100
AcDbArc
 50
30.0
 51
150.0
  0
LINE
  5
301
330
1F
100
AcDbEntity
  8
0
  6
Continuous
 62
     7
370
    15
100
AcDbLine
 10
1196.9967909038
 20
702.1803056037
 30
0.0
 11
1198.2602349832
 21
702.1803056037
 31
0.0
  0
LINE
  5
302
330
1F
100
AcDbEntity
  8
0
  6
Continuous
 62
     7
370
    15
100
AcDbLine
 10
1196.9967909038
 20
703.1278886632
 30
0.0
 11
1196.9967909038
 21
702.1803056037
 31
0.0
  0
LINE
  5
303
330
1F
100
AcDbEntity
  8
0
  6
Continuous
 62
     7
370
    15
100
AcDbLine
 10
1198.2602349832
 20
703.1278886632
 30
0.0
 11
1196.9967909038
 21
703.1278886632
 31
0.0
  0
LINE
  5
304
330
1F
100
AcDbEntity
  8
0
  6
Continuous
 62
     7
370
    15
100
AcDbLine
 10
1198.2602349832
 20
702.1803056037
 30
0.0
 11
1198.2602349832
 21
703.1278886632
 31
0.0
  0
LINE
  5
305
330
1F
100
AcDbEntity
  8
0
  6
Continuous
 62
     7
370
    15
100
AcDbLine
 10
1222.8671794769
 20
711.1746092105
 30
0.0
 11
1221.9294604769
 21
711.7160202105
 31
0.0
  0
LINE
  5
306
330
1F
100
AcDbEntity
  8
0
  6
Continuous
 62
     7
370
    15
100
AcDbLine
 10
1223.9499654769
 20
711.1746092105
 30
0.0
 11
1222.8671794769
 21
711.1746092105
 31
0.0
  0
LINE
  5
307
330
1F
100
AcDbEntity
  8
0
  6
Continuous
 62
     7
370
    15
100
AcDbLine
 10
1225.0327884769
 20
708.1969372105
 30
0.0
 11
1222.1166754769
 21
706.3630852072
 31
0.0
  0
LINE
  5
308
330
1F
100
AcDbEntity
  8
0
  6
Continuous
 62
     7
370
    15
100
AcDbLine
 10
1222.9243374769
 20
702.1352402105
 30
0.0
 11
1225.0327884769
 21
708.1969372105
 31
0.0
  0
LINE
  5
309
330
1F
100
AcDbEntity
  8
0
  6
Continuous
 62
     7
370
    15
100
AcDbLine
 10
1223.6154184769
 20
702.1274242105
 30
0.0
 11
1222.9243374769
 21
702.1352402105
 31
0.0
  0
LINE
  5
30A
330
1F
100
AcDbEntity
  8
0
  6
Continuous
 62
     7
370
    15
100
AcDbLine
 10
1222.1155434769
 20
701.1154372105
 30
0.0
 11
1223.6154184769
 21
702.1274242105
 31
0.0
  0
LINE
  5
30B
330
1F
100
AcDbEntity
  8
0
  6
Continuous
 62
     7
370
    15
100
AcDbLine
 10
1221.5706994769
 20
702.8408202105
 30
0.0
 11
1222.1155434769
 21
701.1154372105
 31
0.0
  0
LINE
  5
30C
330
1F
100
AcDbEntity
  8
0
  6
Continuous
 62
     7
370
    15
100
AcDbLine
 10
1222.1166754769
 20
702.4169942105
 30
0.0
 11
1221.5706994769
 21
702.8408202105
 31
0.0
  0
LINE
  5
30D
330
1F
100
AcDbEntity
  8
0
  6
Continuous
 62
     7
370
    15
100
AcDbLine
 10
1223.1008514769
 20
705.2192472105
 30
0.0
 11
1222.1166754769
 21
702.4169942105
 31
0.0
  0
LINE
  5
30E
330
1F
100
AcDbEntity
  8
0
  6
Continuous
 62
     7
370
    15
100
AcDbLine
 10
1219.0774084769
 20
703.5950492105
 30
0.0
 11
1223.1008514769
 21
705.2192472105
 31
0.0
  0
LINE
  5
30F
330
1F
100
AcDbEntity
  8
0
  6
Continuous
 62
     7
370
    15
100
AcDbLine
 10
1221.9294604769
 20
711.7160202105
 30
0.0
 11
1219.0774084769
 21
703.5950492105
 31
0.0
  0
LINE
  5
310
330
1F
100
AcDbEntity
  8
0
  6
Continuous
 62
     7
370
    15
100
AcDbLine
 10
1222.1166754769
 20
706.3630852072
 30
0.0
 11
1223.9499654769
 21
711.1746092105
 31
0.0
  0
LINE
  5
311
330
1F
100
AcDbEntity
  8
0
  6
Continuous
 62
     7
370
    15
100
AcDbLine
 10
1196.9967909038
 20
704.7071937623
 30
0.0
 11
1198.2602349832
 21
704.7071937623
 31
0.0
  0
LINE
  5
312
330
1F
100
AcDbEntity
  8
0
  6
Continuous
 62
     7
370
    15
100
AcDbLine
 10
1196.9967909038
 20
711.550849192
 30
0.0
 11
1196.9967909038
 21
704.7071937623
 31
0.0
  0
LINE
  5
313
330
1F
100
AcDbEntity
  8
0
  6
Continuous
 62
     7
370
    15
100
AcDbLine
 10
1198.2602349832
 20
711.550849192
 30
0.0
 11
1196.9967909038
 21
711.550849192
 31
0.0
  0
LINE
  5
314
330
1F
100
AcDbEntity
  8
0
  6
Continuous
 62
     7
370
    15
100
AcDbLine
 10
1198.2602349832
 20
704.7071937623
 30
0.0
 11
1198.2602349832
 21
711.550849192
 31
0.0
  0
LINE
  5
315
330
1F
100
AcDbEntity
  8
0
  6
Continuous
 62
     7
370
    15
100
AcDbLine
 10
1185.2629537366
 20
696.1290214772
 30
0.0
 11
1235.2629537366
 21
696.1290214772
 31
0.0
  0
LINE
  5
316
330
1F
100
AcDbEntity
  8
0
  6
Continuous
 62
     7
370
    15
100
AcDbLine
 10
1185.2629537366
 20
720.1290214772
 30
0.0
 11
1185.2629537366
 21
696.1290214772
 31
0.0
  0
LINE
  5
317
330
1F
100
AcDbEntity
  8
0
  6
Continuous
 62
     7
370
    15
100
AcDbLine
 10
1235.2629537366
 20
720.1290214772
 30
0.0
 11
1185.2629537366
 21
720.1290214772
 31
0.0
  0
LINE
  5
318
330
1F
100
AcDbEntity
  8
0
  6
Continuous
 62
     7
370
    15
100
AcDbLine
 10
1235.2629537366
 20
696.1290214772
 30
0.0
 11
1235.2629537366
 21
720.1290214772
 31
0.0
  0
LINE
  5
319
330
1F
100
AcDbEntity
  8
0
  6
Continuous
 62
     7
370
    15
100
AcDbLine
 10
939.3129537367
 20
458.6790214772
 30
0.0
 11
882.3129537367
 21
458.6790214772
 31
0.0
  0
LINE
  5
31A
330
1F
100
AcDbEntity
  8
0
  6
Continuous
 62
     7
370
    15
100
AcDbLine
 10
937.3129537367
 20
452.6790214772
 30
0.0
 11
884.3129537367
 21
452.6790214772
 31
0.0
  0
LINE
  5
31B
330
1F
100
AcDbEntity
  8
0
  6
Continuous
 62
     7
370
    15
100
AcDbLine
 10
1202.3129537367
 20
458.6790214772
 30
0.0
 11
1145.3129537367
 21
458.6790214772
 31
0.0
  0
LINE
  5
31C
330
1F
100
AcDbEntity
  8
0
  6
Continuous
 62
     7
370
    15
100
AcDbLine
 10
1200.3129537367
 20
452.6790214772
 30
0.0
 11
1147.3129537367
 21
452.6790214772
 31
0.0
  0
LINE
  5
31D
330
1F
100
AcDbEntity
  8
0
  6
Continuous
 62
     7
370
    15
100
AcDbLine
 10
875.8129537367
 20
600.6790214772
 30
0.0
 11
945.8129537367
 21
600.6790214772
 31
0.0
  0
LINE
  5
31E
330
1F
100
AcDbEntity
  8
0
  6
Continuous
 62
     7
370
    15
100
AcDbLine
 10
875.8129537367
 20
600.6790214772
 30
0.0
 11
875.8129537367
 21
601.8790214772
 31
0.0
  0
LINE
  5
31F
330
1F
100
AcDbEntity
  8
0
  6
Continuous
 62
     7
370
    15
100
AcDbLine
 10
945.8129537367
 20
600.6790214772
 30
0.0
 11
945.8129537367
 21
601.8790214772
 31
0.0
  0
LINE
  5
320
330
1F
100
AcDbEntity
  8
0
  6
Continuous
 62
     7
370
    15
100
AcDbLine
 10
941.772603957
 20
506.6790214772
 30
0.0
 11
879.8533035163
 21
506.6790214772
 31
0.0
  0
LINE
  5
321
330
1F
100
AcDbEntity
  8
0
  6
Continuous
 62
     7
370
    15
100
AcDbLine
 10
1208.8129537367
 20
600.6790214772
 30
0.0
 11
1208.8129537367
 21
601.8790214772
 31
0.0
  0
LINE
  5
322
330
1F
100
AcDbEntity
  8
0
  6
Continuous
 62
     7
370
    15
100
AcDbLine
 10
1138.8129537367
 20
600.6790214772
 30
0.0
 11
1208.8129537367
 21
600.6790214772
 31
0.0
  0
LINE
  5
323
330
1F
100
AcDbEntity
  8
0
  6
Continuous
 62
     7
370
    15
100
AcDbLine
 10
1138.8129537367
 20
600.6790214772
 30
0.0
 11
1138.8129537367
 21
601.8790214772
 31
0.0
  0
LINE
  5
324
330
1F
100
AcDbEntity
  8
0
  6
Continuous
 62
     7
370
    15
100
AcDbLine
 10
1204.772603957
 20
506.6790214772
 30
0.0
 11
1142.8533035163
 21
506.6790214772
 31
0.0
  0
LINE
  5
325
330
1F
100
AcDbEntity
  8
0
  6
Continuous
 62
     8
370
    15
100
AcDbLine
 10
846.8129537367
 20
910.7719504093
 30
0.0
 11
846.8129537367
 21
1062.1719504093
 31
0.0
  0
LINE
  5
326
330
1F
100
AcDbEntity
  8
0
  6
Continuous
 62
     8
370
    15
100
AcDbLine
 10
1237.8129537367
 20
1062.1719504093
 30
0.0
 11
1237.8129537367
 21
910.7719504093
 31
0.0
  0
LINE
  5
327
330
1F
100
AcDbEntity
  8
0
  6
Continuous
 62
     8
370
    15
100
AcDbLine
 10
1156.8438295944
 20
846.3219504093
 30
0.0
 11
1155.4802144844
 21
846.3219504093
 31
0.0
  0
ARC
  5
328
330
1F
100
AcDbEntity
  8
0
  6
Continuous
 62
     8
370
    15
100
AcDbCircle
 10
1145.6088887361
 20
806.8090976271
 30
0.0
 40
0.761381031955865
100
AcDbArc
 50
175.7618547522
 51
248.7785373521
  0
ARC
  5
329
330
1F
100
AcDbEntity
  8
0
  6
Continuous
 62
     8
370
    15
100
AcDbCircle
 10
1167.331326006
 20
807.1430725956
 30
0.0
 40
0.7563505934705792
100
AcDbArc
 50
293.1500855781
 51
5.6634860528
  0
LWPOLYLINE
  5
32A
330
1F
100
AcDbEntity
  8
0
  6
Continuous
 62
     8
370
    15
100
AcDbPolyline
 90
        3
 70
   128
 43
0.0
 10
1141.7560710764
 20
837.5570065909
 10
1143.4617034668
 20
833.0495771104
 10
1143.7347519733
 20
832.2001709132
  0
LINE
  5
32B
330
1F
100
AcDbEntity
  8
0
  6
Continuous
 62
     8
370
    15
100
AcDbLine
 10
1168.9250721251
 20
835.1547075667
 30
0.0
 11
1169.9420296091
 21
837.997301077
 31
0.0
  0
LINE
  5
32C
330
1F
100
AcDbEntity
  8
0
  6
Continuous
 62
     8
370
    15
100
AcDbLine
 10
1157.4184885167
 20
838.883139303
 30
0.0
 11
1157.9907389152
 21
805.7480369145
 31
0.0
  0
LWPOLYLINE
  5
32D
330
1F
100
AcDbEntity
  8
0
  6
Continuous
 62
     8
370
    15
100
AcDbPolyline
 90
        9
 70
   128
 43
0.0
 10
1157.3863210674
 20
840.2526299532
 10
1157.3879189059
 20
840.2612330428
 10
1157.3904074873
 20
840.2116725942
 10
1157.393714299
 20
840.1053927089
 10
1157.3977429864
 20
839.94549019
 10
1157.4023761609
 20
839.7366243064
 10
1157.4074788202
 20
839.4848810309
 10
1157.4129022821
 20
839.1975957055
 10
1157.413037583
 20
839.1901952758
  0
ARC
  5
32E
330
1F
100
AcDbEntity
  8
0
  6
Continuous
 62
     8
370
    15
100
AcDbCircle
 10
1157.1739225866
 20
806.6044760916
 30
0.0
 40
1.263657576365508
100
AcDbArc
 50
261.7259822986
 51
309.6591018086
  0
ARC
  5
32F
330
1F
100
AcDbEntity
  8
0
  6
Continuous
 62
     8
370
    15
100
AcDbCircle
 10
1155.7778680179
 20
806.6221177521
 30
0.0
 40
1.30153524115806
100
AcDbArc
 50
234.0482347507
 51
279.4787730022
  0
LWPOLYLINE
  5
330
330
1F
100
AcDbEntity
  8
0
  6
Continuous
 62
     8
370
    15
100
AcDbPolyline
 90
        9
 70
   128
 43
0.0
 10
1145.8352483785
 20
807.0056310973
 10
1145.6476096517
 20
807.0425843035
 10
1145.467022926
 20
807.0665349581
 10
1145.3002751682
 20
807.0765829268
 10
1145.1536332367
 20
807.0723505781
 10
1145.0326083558
 20
807.0539969758
 10
1144.9417489873
 20
807.022211901
 10
1144.8844698866
 20
806.9781899277
 10
1144.8655509643
 20
806.9409231793
  0
LWPOLYLINE
  5
331
330
1F
100
AcDbEntity
  8
0
  6
Continuous
 62
     8
370
    15
100
AcDbPolyline
 90
        9
 70
   128
 43
0.0
 10
1168.0627318478
 20
807.3062545641
 10
1168.0447702643
 20
807.3399783174
 10
1167.9879727973
 20
807.382218294
 10
1167.8978774235
 20
807.4111766644
 10
1167.7778701853
 20
807.4257650901
 10
1167.6324612986
 20
807.4254352961
 10
1167.4671156462
 20
807.410199677
 10
1167.2880473914
 20
807.3806308312
 10
1167.1019864326
 20
807.3378400406
  0
ARC
  5
332
330
1F
100
AcDbEntity
  8
0
  6
Continuous
 62
     8
370
    15
100
AcDbCircle
 10
1155.1863812887
 20
839.6625101104
 30
0.0
 40
1.143486232911666
100
AcDbArc
 50
228.0498764424
 51
281.7252006388
  0
ARC
  5
333
330
1F
100
AcDbEntity
  8
0
  6
Continuous
 62
     8
370
    15
100
AcDbCircle
 10
1158.302752991
 20
815.6440581169
 30
0.0
 40
26.63657846780796
100
AcDbArc
 50
307.0755122697
 51
12.6035758588
  0
ARC
  5
334
330
1F
100
AcDbEntity
  8
0
  6
Continuous
 62
     8
370
    15
100
AcDbCircle
 10
1154.2178435889
 20
815.6842369799
 30
0.0
 40
26.73576225031705
100
AcDbArc
 50
171.6571312155
 51
234.8013070694
  0
LINE
  5
335
330
1F
100
AcDbEntity
  8
0
  6
Continuous
 62
     8
370
    15
100
AcDbLine
 10
1241.5129537367
 20
1070.9887757099
 30
0.0
 11
1237.8129537367
 21
1070.9887757099
 31
0.0
  0
LINE
  5
336
330
1F
100
AcDbEntity
  8
0
  6
Continuous
 62
     8
370
    15
100
AcDbLine
 10
846.8129537367
 20
1070.9887757099
 30
0.0
 11
843.1129537367
 21
1070.9887757099
 31
0.0
  0
LINE
  5
337
330
1F
100
AcDbEntity
  8
0
  6
Continuous
 62
     8
370
    15
100
AcDbLine
 10
844.3629537367
 20
1070.4887757099
 30
0.0
 11
844.3629537367
 21
1061.9875343436
 31
0.0
  0
LINE
  5
338
330
1F
100
AcDbEntity
  8
0
  6
Continuous
 62
     8
370
    15
100
AcDbLine
 10
1240.2629537367
 20
1061.9875343436
 30
0.0
 11
1240.2629537367
 21
1070.4887757099
 31
0.0
  0
LINE
  5
339
330
1F
100
AcDbEntity
  8
0
  6
Continuous
 62
     8
370
    15
100
AcDbLine
 10
1240.2629537367
 20
1070.8887757099
 30
0.0
 11
1240.2629537367
 21
1070.4887757099
 31
0.0
  0
LINE
  5
33A
330
1F
100
AcDbEntity
  8
0
  6
Continuous
 62
     8
370
    15
100
AcDbLine
 10
844.3629537367
 20
1070.4887757099
 30
0.0
 11
844.3629537367
 21
1070.8887757099
 31
0.0
  0
LINE
  5
33B
330
1F
100
AcDbEntity
  8
0
  6
Continuous
 62
     8
370
    15
100
AcDbLine
 10
846.3129537363
 20
905.6925027702
 30
0.0
 11
846.6597336425
 21
905.6925027702
 31
0.0
  0
LINE
  5
33C
330
1F
100
AcDbEntity
  8
0
  6
Continuous
 62
     8
370
    15
100
AcDbLine
 10
1237.9661738301
 20
905.6925027702
 30
0.0
 11
1238.3129537363
 21
905.6925027702
 31
0.0
  0
LINE
  5
33D
330
1F
100
AcDbEntity
  8
0
  6
Continuous
 62
     8
370
    15
100
AcDbLine
 10
844.3629537366
 20
602.686092545
 30
0.0
 11
844.3629537366
 21
603.9290214772
 31
0.0
  0
LINE
  5
33E
330
1F
100
AcDbEntity
  8
0
  6
Continuous
 62
     8
370
    15
100
AcDbLine
 10
844.3629537366
 20
725.1290214772
 30
0.0
 11
844.3629537366
 21
726.3719504093
 31
0.0
  0
LINE
  5
33F
330
1F
100
AcDbEntity
  8
0
  6
Continuous
 62
     8
370
    15
100
AcDbLine
 10
1240.2629537366
 20
726.3719504093
 30
0.0
 11
1240.2629537366
 21
725.1290214772
 31
0.0
  0
LINE
  5
340
330
1F
100
AcDbEntity
  8
0
  6
Continuous
 62
     8
370
    15
100
AcDbLine
 10
1240.2629537366
 20
603.9290214772
 30
0.0
 11
1240.2629537366
 21
602.686092545
 31
0.0
  0
LINE
  5
341
330
1F
100
AcDbEntity
  8
0
  6
Continuous
 62
     8
370
    15
100
AcDbLine
 10
1240.2629537366
 20
602.6790214772
 30
0.0
 11
1240.2629537366
 21
602.686092545
 31
0.0
  0
LINE
  5
342
330
1F
100
AcDbEntity
  8
0
  6
Continuous
 62
     8
370
    15
100
AcDbLine
 10
1240.2629537366
 20
726.3719504093
 30
0.0
 11
1240.2629537366
 21
726.3790214772
 31
0.0
  0
LINE
  5
343
330
1F
100
AcDbEntity
  8
0
  6
Continuous
 62
     8
370
    15
100
AcDbLine
 10
1240.2629537366
 20
727.1790214772
 30
0.0
 11
1240.2629537366
 21
727.6790214772
 31
0.0
  0
LINE
  5
344
330
1F
100
AcDbEntity
  8
0
  6
Continuous
 62
     8
370
    15
100
AcDbLine
 10
1240.2629537366
 20
849.9666960043
 30
0.0
 11
1240.2629537366
 21
850.1293684577
 31
0.0
  0
LINE
  5
345
330
1F
100
AcDbEntity
  8
0
  6
Continuous
 62
     8
370
    15
100
AcDbLine
 10
1231.5129537366
 20
601.8790214772
 30
0.0
 11
1231.5129537366
 21
601.8719504093
 31
0.0
  0
LINE
  5
346
330
1F
100
AcDbEntity
  8
0
  6
Continuous
 62
     8
370
    15
100
AcDbLine
 10
844.3629537367
 20
602.6790214772
 30
0.0
 11
844.3629537367
 21
602.686092545
 31
0.0
  0
LINE
  5
347
330
1F
100
AcDbEntity
  8
0
  6
Continuous
 62
     8
370
    15
100
AcDbLine
 10
844.3629537367
 20
726.3719504093
 30
0.0
 11
844.3629537367
 21
726.3790214772
 31
0.0
  0
LINE
  5
348
330
1F
100
AcDbEntity
  8
0
  6
Continuous
 62
     8
370
    15
100
AcDbLine
 10
844.3629537367
 20
727.1790214772
 30
0.0
 11
844.3629537367
 21
727.6790214772
 31
0.0
  0
LINE
  5
349
330
1F
100
AcDbEntity
  8
0
  6
Continuous
 62
     8
370
    15
100
AcDbLine
 10
844.3629537367
 20
849.9666960043
 30
0.0
 11
844.3629537367
 21
850.1293684577
 31
0.0
  0
LINE
  5
34A
330
1F
100
AcDbEntity
  8
0
  6
Continuous
 62
     8
370
    15
100
AcDbLine
 10
853.1129537367
 20
601.8719504093
 30
0.0
 11
853.1129537367
 21
601.8790214772
 31
0.0
  0
LINE
  5
34B
330
1F
100
AcDbEntity
  8
0
  6
Continuous
 62
     8
370
    15
100
AcDbLine
 10
1205.1748085692
 20
727.1790214772
 30
0.0
 11
1205.1748085692
 21
727.6790214772
 31
0.0
  0
LINE
  5
34C
330
1F
100
AcDbEntity
  8
0
  6
Continuous
 62
     8
370
    15
100
AcDbLine
 10
878.6748085692
 20
727.6790214772
 30
0.0
 11
878.6748085692
 21
727.1790214772
 31
0.0
  0
LINE
  5
34D
330
1F
100
AcDbEntity
  8
0
  6
Continuous
 62
     8
370
    15
100
AcDbLine
 10
1210.0748085692
 20
727.1790214772
 30
0.0
 11
1210.0748085692
 21
727.6790214772
 31
0.0
  0
LINE
  5
34E
330
1F
100
AcDbEntity
  8
0
  6
Continuous
 62
     8
370
    15
100
AcDbLine
 10
1210.0748085692
 20
849.4139095998
 30
0.0
 11
1210.0748085692
 21
850.1293684577
 31
0.0
  0
LINE
  5
34F
330
1F
100
AcDbEntity
  8
0
  6
Continuous
 62
     8
370
    15
100
AcDbLine
 10
1222.8748085692
 20
727.1790214772
 30
0.0
 11
1222.8748085692
 21
727.6790214772
 31
0.0
  0
LINE
  5
350
330
1F
100
AcDbEntity
  8
0
  6
Continuous
 62
     8
370
    15
100
AcDbLine
 10
873.6629537367
 20
850.1293684577
 30
0.0
 11
873.6629537367
 21
849.4139095998
 31
0.0
  0
LINE
  5
351
330
1F
100
AcDbEntity
  8
0
  6
Continuous
 62
     8
370
    15
100
AcDbLine
 10
873.6629537367
 20
727.6790214772
 30
0.0
 11
873.6629537367
 21
727.1790214772
 31
0.0
  0
LINE
  5
352
330
1F
100
AcDbEntity
  8
0
  6
Continuous
 62
     8
370
    15
100
AcDbLine
 10
1132.3129537367
 20
601.4790214772
 30
0.0
 11
1132.3129537367
 21
601.8790214772
 31
0.0
  0
LINE
  5
353
330
1F
100
AcDbEntity
  8
0
  6
Continuous
 62
     8
370
    15
100
AcDbLine
 10
952.3129537367
 20
601.4790214772
 30
0.0
 11
952.3129537367
 21
601.8790214772
 31
0.0
  0
LINE
  5
354
330
1F
100
AcDbEntity
  8
0
  6
Continuous
 62
     8
370
    15
100
AcDbLine
 10
1163.2194649153
 20
727.6790214772
 30
0.0
 11
1163.2194649153
 21
727.471914696
 31
0.0
  0
LINE
  5
355
330
1F
100
AcDbEntity
  8
0
  6
Continuous
 62
     8
370
    15
100
AcDbLine
 10
1165.6194649153
 20
727.6790214772
 30
0.0
 11
1165.6194649153
 21
727.471914696
 31
0.0
  0
LINE
  5
356
330
1F
100
AcDbEntity
  8
0
  6
Continuous
 62
     8
370
    15
100
AcDbLine
 10
939.3129537367
 20
454.6790214772
 30
0.0
 11
882.3129537367
 21
454.6790214772
 31
0.0
  0
LINE
  5
357
330
1F
100
AcDbEntity
  8
0
  6
Continuous
 62
     8
370
    15
100
AcDbLine
 10
1202.3129537367
 20
454.6790214772
 30
0.0
 11
1145.3129537367
 21
454.6790214772
 31
0.0
  0
LINE
  5
358
330
1F
100
AcDbEntity
  8
0
  6
Continuous
 62
     8
370
    15
100
AcDbLine
 10
942.7129537367
 20
599.1790214772
 30
0.0
 11
878.9129537367
 21
599.1790214772
 31
0.0
  0
LINE
  5
359
330
1F
100
AcDbEntity
  8
0
  6
Continuous
 62
     8
370
    15
100
AcDbLine
 10
942.7129537367
 20
512.7115874228
 30
0.0
 11
878.9129537367
 21
512.7115874228
 31
0.0
  0
LINE
  5
35A
330
1F
100
AcDbEntity
  8
0
  6
Continuous
 62
     8
370
    15
100
AcDbLine
 10
942.6490405097
 20
511.9391241983
 30
0.0
 11
878.9768669637
 21
511.9391241983
 31
0.0
  0
LINE
  5
35B
330
1F
100
AcDbEntity
  8
0
  6
Continuous
 62
     8
370
    15
100
AcDbLine
 10
1205.7129537367
 20
599.1790214772
 30
0.0
 11
1141.9129537367
 21
599.1790214772
 31
0.0
  0
LINE
  5
35C
330
1F
100
AcDbEntity
  8
0
  6
Continuous
 62
     8
370
    15
100
AcDbLine
 10
1205.6490405097
 20
511.9391241983
 30
0.0
 11
1141.9768669637
 21
511.9391241983
 31
0.0
  0
LINE
  5
35D
330
1F
100
AcDbEntity
  8
0
  6
Continuous
 62
     8
370
    15
100
AcDbLine
 10
1205.7129537367
 20
512.7115874228
 30
0.0
 11
1141.9129537367
 21
512.7115874228
 31
0.0
  0
ENDSEC
  0
SECTION
  2
OBJECTS
  0
DICTIONARY
  5
C
330
0
100
AcDbDictionary
281
     1
  3
ACAD_GROUP
350
D
  3
ACAD_LAYOUT
350
1A
  3
ACAD_MLINESTYLE
350
17
  3
ACAD_PLOTSETTINGS
350
19
  3
ACAD_PLOTSTYLENAME
350
E
  0
DICTIONARY
  5
D
102
{ACAD_REACTORS
330
C
102
}
330
C
100
AcDbDictionary
281
     1
  0
DICTIONARY
  5
1A
102
{ACAD_REACTORS
330
C
102
}
330
C
100
AcDbDictionary
281
     1
  3
Layout1
350
1E
  3
Layout2
350
26
  3
Model
350
22
  0
DICTIONARY
  5
17
102
{ACAD_REACTORS
330
C
102
}
330
C
100
AcDbDictionary
281
     1
  3
Standard
350
18
  0
DICTIONARY
  5
19
102
{ACAD_REACTORS
330
C
102
}
330
C
100
AcDbDictionary
281
     1
  0
ACDBDICTIONARYWDFLT
  5
E
102
{ACAD_REACTORS
330
C
102
}
330
C
100
AcDbDictionary
281
     1
  3
Normal
350
F
100
AcDbDictionaryWithDefault
340
F
  0
LAYOUT
  5
1E
102
{ACAD_REACTORS
330
1A
102
}
330
1A
100
AcDbPlotSettings
  1

  2
none_device
  4

  6

 40
0.0
 41
0.0
 42
0.0
 43
0.0
 44
0.0
 45
0.0
 46
0.0
 47
0.0
 48
0.0
 49
0.0
140
0.0
141
0.0
142
1.0
143
1.0
 70
   688
 72
     0
 73
     0
 74
     5
  7

 75
    16
147
1.0
148
0.0
149
0.0
100
AcDbLayout
  1
Layout1
 70
     1
 71
     1
 10
0.0
 20
0.0
 11
420.0
 21
297.0
 12
0.0
 22
0.0
 32
0.0
 14
1.0000000000E+20
 24
1.0000000000E+20
 34
1.0000000000E+20
 15
-1.0000000000E+20
 25
-1.0000000000E+20
 35
-1.0000000000E+20
146
0.0
 13
0.0
 23
0.0
 33
0.0
 16
1.0
 26
0.0
 36
0.0
 17
0.0
 27
1.0
 37
0.0
 76
     0
330
1B
  0
LAYOUT
  5
26
102
{ACAD_REACTORS
330
1A
102
}
330
1A
100
AcDbPlotSettings
  1

  2
none_device
  4

  6

 40
0.0
 41
0.0
 42
0.0
 43
0.0
 44
0.0
 45
0.0
 46
0.0
 47
0.0
 48
0.0
 49
0.0
140
0.0
141
0.0
142
1.0
143
1.0
 70
   688
 72
     0
 73
     0
 74
     5
  7

 75
    16
147
1.0
148
0.0
149
0.0
100
AcDbLayout
  1
Layout2
 70
     1
 71
     2
 10
0.0
 20
0.0
 11
0.0
 21
0.0
 12
0.0
 22
0.0
 32
0.0
 14
0.0
 24
0.0
 34
0.0
 15
0.0
 25
0.0
 35
0.0
146
0.0
 13
0.0
 23
0.0
 33
0.0
 16
1.0
 26
0.0
 36
0.0
 17
0.0
 27
1.0
 37
0.0
 76
     0
330
23
  0
LAYOUT
  5
22
102
{ACAD_REACTORS
330
1A
102
}
330
1A
100
AcDbPlotSettings
  1

  2
none_device
  4

  6

 40
0.0
 41
0.0
 42
0.0
 43
0.0
 44
0.0
 45
0.0
 46
0.0
 47
0.0
 48
0.0
 49
0.0
140
0.0
141
0.0
142
1.0
143
1.0
 70
  1712
 72
     0
 73
     0
 74
     0
  7

 75
     0
147
1.0
148
0.0
149
0.0
100
AcDbLayout
  1
Model
 70
     1
 71
     0
 10
0.0
 20
0.0
 11
2159.0
 21
1397.0
 12
0.0
 22
0.0
 32
0.0
 14
0.0
 24
0.0
 34
0.0
 15
2159.0
 25
1397.0
 35
0.0
146
0.0
 13
0.0
 23
0.0
 33
0.0
 16
1.0
 26
0.0
 36
0.0
 17
0.0
 27
1.0
 37
0.0
 76
     0
330
1F
331
29
  0
MLINESTYLE
  5
18
102
{ACAD_REACTORS
330
17
102
}
330
17
100
AcDbMlineStyle
  2
Standard
 70
     0
  3

 62
   256
 51
90.0
 52
90.0
 71
     2
 49
0.5
 62
   256
  6
BYLAYER
 49
-0.5
 62
   256
  6
BYLAYER
  0
ACDBPLACEHOLDER
  5
F
102
{ACAD_REACTORS
330
E
102
}
330
E
  0
ENDSEC
  0
EOF
