  0
SECTION
  2
HEADER
  9
$ACADVER
  1
AC1015
  9
$ACADMAINTVER
 70
     6
  9
$DWGCODEPAGE
  3
ANSI_1252
  9
$INSBASE
 10
0.0
 20
0.0
 30
0.0
  9
$EXTMIN
 10
0.0
 20
0.0
 30
0.0
  9
$EXTMAX
 10
2159.0
 20
1397.0
 30
0.0
  9
$LIMMIN
 10
0.0
 20
0.0
  9
$LIMMAX
 10
2159.0
 20
1397.0
  9
$ORTHOMODE
 70
     0
  9
$REGENMODE
 70
     1
  9
$FILLMODE
 70
     1
  9
$QTEXTMODE
 70
     0
  9
$MIRRTEXT
 70
     1
  9
$LTSCALE
 40
5.0
  9
$ATTMODE
 70
     1
  9
$TEXTSIZE
 40
17.5
  9
$TRACEWID
 40
1.0
  9
$TEXTSTYLE
  7
Standard
  9
$CLAYER
  8
0
  9
$CELTYPE
  6
ByLayer
  9
$CECOLOR
 62
   256
  9
$CELTSCALE
 40
1.0
  9
$DISPSILH
 70
     0
  9
$DIMSCALE
 40
1.0
  9
$DIMASZ
 40
16.51
  9
$DIMEXO
 40
5.0
  9
$DIMDLI
 40
3.75
  9
$DIMRND
 40
0.0
  9
$DIMDLE
 40
0.0
  9
$DIMEXE
 40
5.0
  9
$DIMTP
 40
0.0
  9
$DIMTM
 40
0.0
  9
$DIMTXT
 40
17.5
  9
$DIMCEN
 40
2.5
  9
$DIMTSZ
 40
0.0
  9
$DIMTOL
 70
     0
  9
$DIMLIM
 70
     0
  9
$DIMTIH
 70
     1
  9
$DIMTOH
 70
     1
  9
$DIMSE1
 70
     0
  9
$DIMSE2
 70
     0
  9
$DIMTAD
 70
     1
  9
$DIMZIN
 70
     0
  9
$DIMBLK
  1

  9
$DIMASO
 70
     1
  9
$DIMSHO
 70
     1
  9
$DIMPOST
  1

  9
$DIMAPOST
  1

  9
$DIMALT
 70
     0
  9
$DIMALTD
 70
     3
  9
$DIMALTF
 40
0.0393700787
  9
$DIMLFAC
 40
1.0
  9
$DIMTOFL
 70
     1
  9
$DIMTVP
 40
0.0
  9
$DIMTIX
 70
     0
  9
$DIMSOXD
 70
     0
  9
$DIMSAH
 70
     0
  9
$DIMBLK1
  1

  9
$DIMBLK2
  1

  9
$DIMSTYLE
  2
ISO-25
  9
$DIMCLRD
 70
     0
  9
$DIMCLRE
 70
     0
  9
$DIMCLRT
 70
     0
  9
$DIMTFAC
 40
1.0
  9
$DIMGAP
 40
7.62
  9
$DIMJUST
 70
     0
  9
$DIMSD1
 70
     0
  9
$DIMSD2
 70
     0
  9
$DIMTOLJ
 70
     0
  9
$DIMTZIN
 70
     0
  9
$DIMALTZ
 70
     0
  9
$DIMALTTZ
 70
     0
  9
$DIMUPT
 70
     0
  9
$DIMDEC
 70
     3
  9
$DIMTDEC
 70
     3
  9
$DIMALTU
 70
     2
  9
$DIMALTTD
 70
     3
  9
$DIMTXSTY
  7
Standard
  9
$DIMAUNIT
 70
     0
  9
$DIMADEC
 70
     2
  9
$DIMALTRND
 40
0.0
  9
$DIMAZIN
 70
     0
  9
$DIMDSEP
 70
    44
  9
$DIMATFIT
 70
     3
  9
$DIMFRAC
 70
     0
  9
$DIMLDRBLK
  1

  9
$DIMLUNIT
 70
     2
  9
$DIMLWD
 70
    -2
  9
$DIMLWE
 70
    -2
  9
$DIMTMOVE
 70
     0
  9
$LUNITS
 70
     2
  9
$LUPREC
 70
     8
  9
$SKETCHINC
 40
1.0
  9
$FILLETRAD
 40
10.0
  9
$AUNITS
 70
     0
  9
$AUPREC
 70
     8
  9
$MENU
  1
.
  9
$ELEVATION
 40
0.0
  9
$PELEVATION
 40
0.0
  9
$THICKNESS
 40
0.0
  9
$LIMCHECK
 70
     0
  9
$CHAMFERA
 40
10.0
  9
$CHAMFERB
 40
10.0
  9
$CHAMFERC
 40
20.0
  9
$CHAMFERD
 40
0.0
  9
$SKPOLY
 70
     0
  9
$TDCREATE
 40
2456562.336293611
  9
$TDUCREATE
 40
2456562.294626944
  9
$TDUPDATE
 40
2456562.336295243
  9
$TDUUPDATE
 40
2456562.294628576
  9
$TDINDWG
 40
0.0000000116
  9
$TDUSRTIMER
 40
0.0000000116
  9
$USRTIMER
 70
     1
  9
$ANGBASE
 50
0.0
  9
$ANGDIR
 70
     0
  9
$PDMODE
 70
     0
  9
$PDSIZE
 40
-1.0
  9
$PLINEWID
 40
0.0
  9
$SPLFRAME
 70
     0
  9
$SPLINETYPE
 70
     6
  9
$SPLINESEGS
 70
     8
  9
$HANDSEED
  5
3D4
  9
$SURFTAB1
 70
     6
  9
$SURFTAB2
 70
     6
  9
$SURFTYPE
 70
     6
  9
$SURFU
 70
     6
  9
$SURFV
 70
     6
  9
$UCSBASE
  2

  9
$UCSNAME
  2

  9
$UCSORG
 10
0.0
 20
0.0
 30
0.0
  9
$UCSXDIR
 10
1.0
 20
0.0
 30
0.0
  9
$UCSYDIR
 10
0.0
 20
1.0
 30
0.0
  9
$UCSORTHOREF
  2

  9
$UCSORTHOVIEW
 70
     0
  9
$UCSORGTOP
 10
0.0
 20
0.0
 30
0.0
  9
$UCSORGBOTTOM
 10
0.0
 20
0.0
 30
0.0
  9
$UCSORGLEFT
 10
0.0
 20
0.0
 30
0.0
  9
$UCSORGRIGHT
 10
0.0
 20
0.0
 30
0.0
  9
$UCSORGFRONT
 10
0.0
 20
0.0
 30
0.0
  9
$UCSORGBACK
 10
0.0
 20
0.0
 30
0.0
  9
$PUCSBASE
  2

  9
$PUCSNAME
  2

  9
$PUCSORG
 10
0.0
 20
0.0
 30
0.0
  9
$PUCSXDIR
 10
1.0
 20
0.0
 30
0.0
  9
$PUCSYDIR
 10
0.0
 20
1.0
 30
0.0
  9
$PUCSORTHOREF
  2

  9
$PUCSORTHOVIEW
 70
     0
  9
$PUCSORGTOP
 10
0.0
 20
0.0
 30
0.0
  9
$PUCSORGBOTTOM
 10
0.0
 20
0.0
 30
0.0
  9
$PUCSORGLEFT
 10
0.0
 20
0.0
 30
0.0
  9
$PUCSORGRIGHT
 10
0.0
 20
0.0
 30
0.0
  9
$PUCSORGFRONT
 10
0.0
 20
0.0
 30
0.0
  9
$PUCSORGBACK
 10
0.0
 20
0.0
 30
0.0
  9
$USERI1
 70
     0
  9
$USERI2
 70
     0
  9
$USERI3
 70
     0
  9
$USERI4
 70
     0
  9
$USERI5
 70
     0
  9
$USERR1
 40
0.0
  9
$USERR2
 40
0.0
  9
$USERR3
 40
0.0
  9
$USERR4
 40
0.0
  9
$USERR5
 40
0.0
  9
$WORLDVIEW
 70
     1
  9
$SHADEDGE
 70
     3
  9
$SHADEDIF
 70
    70
  9
$TILEMODE
 70
     1
  9
$MAXACTVP
 70
    64
  9
$PINSBASE
 10
0.0
 20
0.0
 30
0.0
  9
$PLIMCHECK
 70
     0
  9
$PEXTMIN
 10
1.0000000000E+20
 20
1.0000000000E+20
 30
1.0000000000E+20
  9
$PEXTMAX
 10
-1.0000000000E+20
 20
-1.0000000000E+20
 30
-1.0000000000E+20
  9
$PLIMMIN
 10
0.0
 20
0.0
  9
$PLIMMAX
 10
420.0
 20
297.0
  9
$UNITMODE
 70
     0
  9
$VISRETAIN
 70
     1
  9
$PLINEGEN
 70
     0
  9
$PSLTSCALE
 70
     1
  9
$TREEDEPTH
 70
  3020
  9
$CMLSTYLE
  2
Standard
  9
$CMLJUST
 70
     0
  9
$CMLSCALE
 40
20.0
  9
$PROXYGRAPHICS
 70
     1
  9
$MEASUREMENT
 70
     1
  9
$CELWEIGHT
370
    -1
  9
$ENDCAPS
280
     0
  9
$JOINSTYLE
280
     0
  9
$LWDISPLAY
290
     1
  9
$INSUNITS
 70
     4
  9
$HYPERLINKBASE
  1

  9
$STYLESHEET
  1

  9
$XEDIT
290
     1
  9
$CEPSNTYPE
380
     0
  9
$PSTYLEMODE
290
     1
  9
$FINGERPRINTGUID
  2
{3CF8A6F3-10A9-4F1A-AB17-DFBF50876169}
  9
$VERSIONGUID
  2
{FAEB1C32-E019-11D5-929B-00C0DF256EC4}
  9
$EXTNAMES
290
     1
  9
$PSVPSCALE
 40
0.0
  9
$OLESTARTUP
290
     0
  0
ENDSEC
  0
SECTION
  2
CLASSES
  0
CLASS
  1
ACDBDICTIONARYWDFLT
  2
AcDbDictionaryWithDefault
  3
ObjectDBX Classes
 90
        0
280
     0
281
     0
  0
CLASS
  1
VISUALSTYLE
  2
AcDbVisualStyle
  3
ObjectDBX Classes
 90
     4095
280
     0
281
     0
  0
CLASS
  1
MATERIAL
  2
AcDbMaterial
  3
ObjectDBX Classes
 90
     1153
280
     0
281
     0
  0
CLASS
  1
ACDBPLACEHOLDER
  2
AcDbPlaceHolder
  3
ObjectDBX Classes
 90
        0
280
     0
281
     0
  0
CLASS
  1
LAYOUT
  2
AcDbLayout
  3
ObjectDBX Classes
 90
        0
280
     0
281
     0
  0
ENDSEC
  0
SECTION
  2
TABLES
  0
TABLE
  2
VPORT
  5
8
330
0
100
AcDbSymbolTable
 70
     1
  0
VPORT
  5
29
330
8
100
AcDbSymbolTableRecord
100
AcDbViewportTableRecord
  2
*Active
 70
     0
 10
0.0
 20
0.0
 11
1.0
 21
1.0
 12
1079.5
 22
698.5
 13
0.0
 23
0.0
 14
10.0
 24
10.0
 15
10.0
 25
10.0
 16
0.0
 26
0.0
 36
1.0
 17
0.0
 27
0.0
 37
0.0
 40
1397.0
 41
1.5454545455
 42
50.0
 43
0.0
 44
0.0
 50
0.0
 51
0.0
 71
     0
 72
  2000
 73
     1
 74
     3
 75
     0
 76
     0
 77
     0
 78
     0
281
     0
 65
     1
110
0.0
120
0.0
130
0.0
111
1.0
121
0.0
131
0.0
112
0.0
122
1.0
132
0.0
 79
     0
146
0.0
  0
ENDTAB
  0
TABLE
  2
LTYPE
  5
5
330
0
100
AcDbSymbolTable
 70
     6
  0
LTYPE
  5
14
330
5
100
AcDbSymbolTableRecord
100
AcDbLinetypeTableRecord
  2
ByBlock
 70
     0
  3

 72
    65
 73
     0
 40
0.0
  0
LTYPE
  5
15
330
5
100
AcDbSymbolTableRecord
100
AcDbLinetypeTableRecord
  2
ByLayer
 70
     0
  3

 72
    65
 73
     0
 40
0.0
  0
LTYPE
  5
16
330
5
100
AcDbSymbolTableRecord
100
AcDbLinetypeTableRecord
  2
Continuous
 70
     0
  3
Solid line
 72
    65
 73
     0
 40
0.0
  0
LTYPE
  5
3F
330
5
100
AcDbSymbolTableRecord
100
AcDbLinetypeTableRecord
  2
HIDDEN
 70
     0
  3
Hidden __ __ __ __ __ __ __ __ __ __ __ __ __ __
 72
    65
 73
     2
 40
1.905
 49
1.27
 74
     0
 49
-0.635
 74
     0
  0
LTYPE
  5
40
330
5
100
AcDbSymbolTableRecord
100
AcDbLinetypeTableRecord
  2
PHANTOM
 70
     0
  3
Phantom ______  __  __  ______  __  __  ______
 72
    65
 73
     6
 40
12.7
 49
6.35
 74
     0
 49
-1.27
 74
     0
 49
1.27
 74
     0
 49
-1.27
 74
     0
 49
1.27
 74
     0
 49
-1.27
 74
     0
  0
LTYPE
  5
41
330
5
100
AcDbSymbolTableRecord
100
AcDbLinetypeTableRecord
  2
CENTER
 70
     0
  3
Center ____ _ ____ _ ____ _ ____ _ ____ _ ____
 72
    65
 73
     4
 40
10.16
 49
6.35
 74
     0
 49
-1.27
 74
     0
 49
1.27
 74
     0
 49
-1.27
 74
     0
  0
LTYPE
  5
42
330
5
100
AcDbSymbolTableRecord
100
AcDbLinetypeTableRecord
  2
CENTERX2
 70
     0
  3
Center (2x) ________  __  ________  __  _____
 72
    65
 73
     4
 40
20.32
 49
12.7
 74
     0
 49
-2.54
 74
     0
 49
2.54
 74
     0
 49
-2.54
 74
     0
  0
LTYPE
  5
43
330
5
100
AcDbSymbolTableRecord
100
AcDbLinetypeTableRecord
  2
DOT2
 70
     0
  3
Dot (.5x) ........................................
 72
    65
 73
     2
 40
0.635
 49
0.0
 74
     0
 49
-0.635
 74
     0
  0
ENDTAB
  0
TABLE
  2
LAYER
  5
2
330
0
100
AcDbSymbolTable
 70
     1
  0
LAYER
  5
10
330
2
100
AcDbSymbolTableRecord
100
AcDbLayerTableRecord
  2
0
 70
     0
 62
     7
  6
Continuous
370
    -3
390
F
  0
ENDTAB
  0
TABLE
  2
STYLE
  5
3
330
0
100
AcDbSymbolTable
 70
     1
  0
STYLE
  5
11
330
3
100
AcDbSymbolTableRecord
100
AcDbTextStyleTableRecord
  2
Standard
 70
     0
 40
0.0
 41
1.0
 50
0.0
 71
     0
 42
17.5
  3
txt
  4

  0
ENDTAB
  0
TABLE
  2
VIEW
  5
6
330
0
100
AcDbSymbolTable
 70
     0
  0
ENDTAB
  0
TABLE
  2
UCS
  5
7
330
0
100
AcDbSymbolTable
 70
     0
  0
ENDTAB
  0
TABLE
  2
APPID
  5
9
330
0
100
AcDbSymbolTable
 70
     1
  0
APPID
  5
12
330
9
100
AcDbSymbolTableRecord
100
AcDbRegAppTableRecord
  2
ACAD
 70
     0
  0
ENDTAB
  0
TABLE
  2
DIMSTYLE
  5
A
330
0
100
AcDbSymbolTable
 70
     1
100
AcDbDimStyleTable
  0
DIMSTYLE
105
27
330
A
100
AcDbSymbolTableRecord
100
AcDbDimStyleTableRecord
  2
ISO-25
 70
     0
 41
2.5
 42
0.625
 43
3.75
 44
1.25
 73
     0
 74
     0
 77
     1
 78
     8
140
2.5
141
2.5
143
0.0393700787
147
0.625
171
     3
172
     1
178
     0
271
     2
272
     2
274
     3
278
    44
283
     0
284
     8
340
11
  0
ENDTAB
  0
TABLE
  2
BLOCK_RECORD
  5
1
330
0
100
AcDbSymbolTable
 70
     1
  0
BLOCK_RECORD
  5
1F
330
1
100
AcDbSymbolTableRecord
100
AcDbBlockTableRecord
  2
*Model_Space
340
22
  0
BLOCK_RECORD
  5
1B
330
1
100
AcDbSymbolTableRecord
100
AcDbBlockTableRecord
  2
*Paper_Space
340
1E
  0
BLOCK_RECORD
  5
23
330
1
100
AcDbSymbolTableRecord
100
AcDbBlockTableRecord
  2
*Paper_Space0
340
26
  0
ENDTAB
  0
ENDSEC
  0
SECTION
  2
BLOCKS
  0
BLOCK
  5
20
330
1F
100
AcDbEntity
  8
0
100
AcDbBlockBegin
  2
*Model_Space
 70
     0
 10
0.0
 20
0.0
 30
0.0
  3
*Model_Space
  1

  0
ENDBLK
  5
21
330
1F
100
AcDbEntity
  8
0
100
AcDbBlockEnd
  0
BLOCK
  5
1C
330
1B
100
AcDbEntity
 67
     1
  8
0
100
AcDbBlockBegin
  2
*Paper_Space
 70
     0
 10
0.0
 20
0.0
 30
0.0
  3
*Paper_Space
  1

  0
ENDBLK
  5
1D
330
1B
100
AcDbEntity
 67
     1
  8
0
100
AcDbBlockEnd
  0
BLOCK
  5
24
330
23
100
AcDbEntity
  8
0
100
AcDbBlockBegin
  2
*Paper_Space0
 70
     0
 10
0.0
 20
0.0
 30
0.0
  3
*Paper_Space0
  1

  0
ENDBLK
  5
25
330
23
100
AcDbEntity
  8
0
100
AcDbBlockEnd
  0
ENDSEC
  0
SECTION
  2
ENTITIES
  0
SPLINE
  5
44
330
1F
100
AcDbEntity
  8
0
  6
Continuous
 62
     7
370
    15
100
AcDbSpline
210
0.0
220
0.0
230
1.0
 70
     8
 71
     3
 72
    13
 73
     9
 74
     0
 42
0.00000001
 43
0.00000001
 12
1.0
 22
0.0
 32
0.0
 13
1.0
 23
0.0
 33
0.0
 40
0.0
 40
0.0
 40
0.0
 40
0.0
 40
0.1537005146053773
 40
0.4677837651253484
 40
0.6522647620216188
 40
0.814255835653194
 40
0.9817880838831083
 40
1.0
 40
1.0
 40
1.0
 40
1.0
 10
647.4623704640048
 20
669.0762580627613
 30
0.0
 10
647.46273440414
 20
669.0691793451348
 30
0.0
 10
647.4638420470588
 20
669.0476354407956
 30
0.0
 10
647.4415749183721
 20
669.0070478126055
 30
0.0
 10
647.3794374747362
 20
668.9589443933128
 30
0.0
 10
647.3079673412868
 20
668.9313328617728
 30
0.0
 10
647.2492560285018
 20
668.920162301217
 30
0.0
 10
647.2181115795963
 20
668.9220411504459
 30
0.0
 10
647.2150579165486
 20
668.9222253685864
 30
0.0
  0
ARC
  5
45
330
1F
100
AcDbEntity
  8
0
  6
Continuous
 62
     7
370
    15
100
AcDbCircle
 10
642.1147564013
 20
668.671586909
 30
0.0
 40
0.2500000000001137
100
AcDbArc
 50
90.0
 51
180.0
  0
LINE
  5
46
330
1F
100
AcDbEntity
  8
0
  6
Continuous
 62
     7
370
    15
100
AcDbLine
 10
647.2147564013
 20
668.921586909
 30
0.0
 11
642.1147564013
 21
668.921586909
 31
0.0
  0
ARC
  5
47
330
1F
100
AcDbEntity
  8
0
  6
Continuous
 62
     7
370
    15
100
AcDbCircle
 10
642.1147564013
 20
664.2337656944
 30
0.0
 40
0.25
100
AcDbArc
 50
180.0
 51
270.0
  0
LINE
  5
48
330
1F
100
AcDbEntity
  8
0
  6
Continuous
 62
     7
370
    15
100
AcDbLine
 10
642.1147564013
 20
663.9837656944
 30
0.0
 11
647.2147564013
 21
663.9837656944
 31
0.0
  0
ARC
  5
49
330
1F
100
AcDbEntity
  8
0
  6
Continuous
 62
     7
370
    15
100
AcDbCircle
 10
648.4147564013
 20
664.9642048044
 30
0.0
 40
0.2500000000000175
100
AcDbArc
 50
301.0756875734
 51
0.0
  0
LINE
  5
4A
330
1F
100
AcDbEntity
  8
0
  6
Continuous
 62
     7
370
    15
100
AcDbLine
 10
647.2147564013
 20
682.8446439145
 30
0.0
 11
642.1147564013
 21
682.8446439145
 31
0.0
  0
ARC
  5
4B
330
1F
100
AcDbEntity
  8
0
  6
Continuous
 62
     7
370
    15
100
AcDbCircle
 10
642.1147564013
 20
682.5946439145
 30
0.0
 40
0.25
100
AcDbArc
 50
90.0
 51
180.0
  0
SPLINE
  5
4C
330
1F
100
AcDbEntity
  8
0
  6
Continuous
 62
     7
370
    15
100
AcDbSpline
210
0.0
220
0.0
230
1.0
 70
     8
 71
     3
 72
    13
 73
     9
 74
     0
 42
0.00000001
 43
0.00000001
 12
1.0
 22
0.0
 32
0.0
 13
1.0
 23
0.0
 33
0.0
 40
0.0
 40
0.0
 40
0.0
 40
0.0
 40
0.1560186113410338
 40
0.4086735129023491
 40
0.5953335874231059
 40
0.7561090603053727
 40
0.9249103809611329
 40
1.0
 40
1.0
 40
1.0
 40
1.0
 10
647.4658024553928
 20
676.9702514609583
 30
0.0
 10
647.465546014574
 20
676.9724697299588
 30
0.0
 10
647.4648742961854
 20
676.9782802404949
 30
0.0
 10
647.475233138792
 20
677.001330752152
 30
0.0
 10
647.5209536159132
 20
677.0410872557169
 30
0.0
 10
647.5887280942799
 20
677.0716248562014
 30
0.0
 10
647.6575834549304
 20
677.0882220051938
 30
0.0
 10
647.7012973765565
 20
677.087075699592
 30
0.0
 10
647.7147561041569
 20
677.0867227727836
 30
0.0
  0
ARC
  5
4D
330
1F
100
AcDbEntity
  8
0
  6
Continuous
 62
     7
370
    15
100
AcDbCircle
 10
652.8147564013
 20
677.3386141404
 30
0.0
 40
0.25
100
AcDbArc
 50
270.0
 51
0.0
  0
LINE
  5
4E
330
1F
100
AcDbEntity
  8
0
  6
Continuous
 62
     7
370
    15
100
AcDbLine
 10
647.7147564013
 20
677.0886141404
 30
0.0
 11
652.8147564013
 21
677.0886141404
 31
0.0
  0
ARC
  5
4F
330
1F
100
AcDbEntity
  8
0
  6
Continuous
 62
     7
370
    15
100
AcDbCircle
 10
652.8147564013
 20
682.1647811125
 30
0.0
 40
0.25
100
AcDbArc
 50
0.0
 51
90.0
  0
LINE
  5
50
330
1F
100
AcDbEntity
  8
0
  6
Continuous
 62
     7
370
    15
100
AcDbLine
 10
652.8147564013
 20
682.4147811125
 30
0.0
 11
647.7147564013
 21
682.4147811125
 31
0.0
  0
ARC
  5
51
330
1F
100
AcDbEntity
  8
0
  6
Continuous
 62
     7
370
    15
100
AcDbCircle
 10
646.5147564013
 20
681.8642048044
 30
0.0
 40
0.2500000000001137
100
AcDbArc
 50
90.0
 51
180.0
  0
LINE
  5
52
330
1F
100
AcDbEntity
  8
0
  6
Continuous
 62
     7
370
    15
100
AcDbLine
 10
646.777976814
 20
682.1142048044
 30
0.0
 11
646.5147564013
 21
682.1142048044
 31
0.0
  0
LINE
  5
53
330
1F
100
AcDbEntity
  8
0
  6
Continuous
 62
     7
370
    15
100
AcDbLine
 10
648.2862774182
 20
664.4136284963
 30
0.0
 11
652.8147564013
 21
664.4136284963
 31
0.0
  0
ARC
  5
54
330
1F
100
AcDbEntity
  8
0
  6
Continuous
 62
     7
370
    15
100
AcDbCircle
 10
652.8147564013
 20
664.6636284963
 30
0.0
 40
0.25
100
AcDbArc
 50
270.0
 51
0.0
  0
LINE
  5
55
330
1F
100
AcDbEntity
  8
0
  6
Continuous
 62
     7
370
    15
100
AcDbLine
 10
653.8647564013
 20
678.4142048044
 30
0.0
 11
653.7765502843
 21
678.5669822806
 31
0.0
  0
LINE
  5
56
330
1F
100
AcDbEntity
  8
0
  6
Continuous
 62
     7
370
    15
100
AcDbLine
 10
653.7765502843
 20
668.2614273283
 30
0.0
 11
653.8647564013
 21
668.4142048044
 31
0.0
  0
LINE
  5
57
330
1F
100
AcDbEntity
  8
0
  6
Continuous
 62
     7
370
    15
100
AcDbLine
 10
648.6647564013
 20
668.4142048044
 30
0.0
 11
648.7529625182
 21
668.2614273283
 31
0.0
  0
LINE
  5
58
330
1F
100
AcDbEntity
  8
0
  6
Continuous
 62
     7
370
    15
100
AcDbLine
 10
659.1183994674
 20
668.0741046185
 30
0.0
 11
659.3147564013
 21
668.4142048044
 31
0.0
  0
LINE
  5
59
330
1F
100
AcDbEntity
  8
0
  6
Continuous
 62
     7
370
    15
100
AcDbLine
 10
654.1147564013
 20
668.4142048044
 30
0.0
 11
654.3111133352
 21
668.0741046185
 31
0.0
  0
LINE
  5
5A
330
1F
100
AcDbEntity
  8
0
  6
Continuous
 62
     7
370
    15
100
AcDbLine
 10
654.3111133352
 20
678.7543049904
 30
0.0
 11
654.1147564013
 21
678.4142048044
 31
0.0
  0
LINE
  5
5B
330
1F
100
AcDbEntity
  8
0
  6
Continuous
 62
     7
370
    15
100
AcDbLine
 10
659.3147564013
 20
678.4142048044
 30
0.0
 11
659.1183994674
 21
678.7543049904
 31
0.0
  0
LINE
  5
5C
330
1F
100
AcDbEntity
  8
0
  6
Continuous
 62
     7
370
    15
100
AcDbLine
 10
659.3147564013
 20
667.3142048044
 30
0.0
 11
659.8647564013
 21
667.3142048044
 31
0.0
  0
LINE
  5
5D
330
1F
100
AcDbEntity
  8
0
  6
Continuous
 62
     7
370
    15
100
AcDbLine
 10
659.8647564013
 20
679.5142048044
 30
0.0
 11
659.3147564013
 21
679.5142048044
 31
0.0
  0
LINE
  5
5E
330
1F
100
AcDbEntity
  8
0
  6
Continuous
 62
     7
370
    15
100
AcDbLine
 10
654.1147564013
 20
676.4142048044
 30
0.0
 11
653.8647564013
 21
676.4142048044
 31
0.0
  0
LINE
  5
5F
330
1F
100
AcDbEntity
  8
0
  6
Continuous
 62
     7
370
    15
100
AcDbLine
 10
653.8647564013
 20
670.4142048044
 30
0.0
 11
654.1147564013
 21
670.4142048044
 31
0.0
  0
LINE
  5
60
330
1F
100
AcDbEntity
  8
0
  6
Continuous
 62
     7
370
    15
100
AcDbLine
 10
641.0647564013
 20
670.2892048044
 30
0.0
 11
640.3647564013
 21
670.2892048044
 31
0.0
  0
LINE
  5
61
330
1F
100
AcDbEntity
  8
0
  6
Continuous
 62
     7
370
    15
100
AcDbLine
 10
640.3647564013
 20
636.5392048044
 30
0.0
 11
646.9647564013
 21
636.5392048044
 31
0.0
  0
LINE
  5
62
330
1F
100
AcDbEntity
  8
0
  6
Continuous
 62
     7
370
    15
100
AcDbLine
 10
634.9647564013
 20
670.2892048044
 30
0.0
 11
633.8210038993
 21
670.2892048044
 31
0.0
  0
LINE
  5
63
330
1F
100
AcDbEntity
  8
0
  6
Continuous
 62
     7
370
    15
100
AcDbLine
 10
633.8210038993
 20
636.5392048044
 30
0.0
 11
634.9647564013
 21
636.5392048044
 31
0.0
  0
ARC
  5
64
330
1F
100
AcDbEntity
  8
0
  6
Continuous
 62
     7
370
    15
100
AcDbCircle
 10
633.8210038993
 20
644.5392048044
 30
0.0
 40
8.000000000000128
100
AcDbArc
 50
192.635625093
 51
270.0
  0
ARC
  5
65
330
1F
100
AcDbEntity
  8
0
  6
Continuous
 62
     7
370
    15
100
AcDbCircle
 10
633.8210038993
 20
662.2892048044
 30
0.0
 40
8.000000000000128
100
AcDbArc
 50
90.0
 51
167.364374907
  0
LINE
  5
66
330
1F
100
AcDbEntity
  8
0
  6
Continuous
 62
     7
370
    15
100
AcDbLine
 10
646.9647564013
 20
637.5642048044
 30
0.0
 11
652.3147564013
 21
637.5642048044
 31
0.0
  0
LINE
  5
67
330
1F
100
AcDbEntity
  8
0
  6
Continuous
 62
     7
370
    15
100
AcDbLine
 10
654.1580576715
 20
668.3392048044
 30
0.0
 11
653.8214551311
 21
668.3392048044
 31
0.0
  0
LINE
  5
68
330
1F
100
AcDbEntity
  8
0
  6
Continuous
 62
     7
370
    15
100
AcDbLine
 10
652.3147564013
 20
638.4892048044
 30
0.0
 11
655.2647564013
 21
638.4892048044
 31
0.0
  0
LINE
  5
69
330
1F
100
AcDbEntity
  8
0
  6
Continuous
 62
     7
370
    15
100
AcDbLine
 10
1427.2647564013
 20
711.627422321
 30
0.0
 11
1427.1647564013
 21
711.627422321
 31
0.0
  0
LINE
  5
6A
330
1F
100
AcDbEntity
  8
0
  6
Continuous
 62
     7
370
    15
100
AcDbLine
 10
659.6522564013
 20
795.686831534
 30
0.0
 11
659.6647564013
 21
795.686831534
 31
0.0
  0
LINE
  5
6B
330
1F
100
AcDbEntity
  8
0
  6
Continuous
 62
     7
370
    15
100
AcDbLine
 10
659.8647564014
 20
723.3020057882
 30
0.0
 11
659.7647564014
 21
723.3020057882
 31
0.0
  0
LINE
  5
6C
330
1F
100
AcDbEntity
  8
0
  6
Continuous
 62
     7
370
    15
100
AcDbLine
 10
659.7647564014
 20
704.3020057882
 30
0.0
 11
659.8647564014
 21
704.3020057882
 31
0.0
  0
LINE
  5
6D
330
1F
100
AcDbEntity
  8
0
  6
Continuous
 62
     7
370
    15
100
AcDbLine
 10
1320.3647564013
 20
900.1847571653
 30
0.0
 11
1320.3647564013
 21
899.1847571653
 31
0.0
  0
LINE
  5
6E
330
1F
100
AcDbEntity
  8
0
  6
Continuous
 62
     7
370
    15
100
AcDbLine
 10
1326.7647564013
 20
899.1847571653
 30
0.0
 11
1326.7647564013
 21
900.1847571653
 31
0.0
  0
LINE
  5
6F
330
1F
100
AcDbEntity
  8
0
  6
Continuous
 62
     7
370
    15
100
AcDbLine
 10
1321.0647564013
 20
899.1847571653
 30
0.0
 11
1321.0647564013
 21
898.1142048045
 31
0.0
  0
LINE
  5
70
330
1F
100
AcDbEntity
  8
0
  6
Continuous
 62
     7
370
    15
100
AcDbLine
 10
1326.0647564013
 20
898.1142048045
 30
0.0
 11
1326.0647564013
 21
899.1847571653
 31
0.0
  0
SPLINE
  5
71
330
1F
100
AcDbEntity
  8
0
  6
Continuous
 62
     7
370
    15
100
AcDbSpline
210
0.0
220
0.0
230
1.0
 70
     8
 71
     3
 72
     9
 73
     5
 74
     0
 42
0.00000001
 43
0.00000001
 12
1.0
 22
0.0
 32
0.0
 13
1.0
 23
0.0
 33
0.0
 40
0.0
 40
0.0
 40
0.0
 40
0.0
 40
0.3562424751204141
 40
1.0
 40
1.0
 40
1.0
 40
1.0
 10
1248.002930930268
 20
877.2142048044587
 30
0.0
 10
1248.029711621249
 20
877.1581935217343
 30
0.0
 10
1248.104887078562
 20
877.0009655474294
 30
0.0
 10
1248.121926132801
 20
876.8265111412105
 30
0.0
 10
1248.132895152184
 20
876.7142048044585
 30
0.0
  0
LINE
  5
72
330
1F
100
AcDbEntity
  8
0
  6
Continuous
 62
     7
370
    15
100
AcDbLine
 10
1403.4972030125
 20
797.9165066962
 30
0.0
 11
1405.1860912704
 21
799.1520902548
 31
0.0
  0
LINE
  5
73
330
1F
100
AcDbEntity
  8
0
  6
Continuous
 62
     7
370
    15
100
AcDbLine
 10
1401.0761652452
 20
811.8011419215
 30
0.0
 11
1398.9789846326
 21
811.8080615309
 31
0.0
  0
LINE
  5
74
330
1F
100
AcDbEntity
  8
0
  6
Continuous
 62
     7
370
    15
100
AcDbLine
 10
1416.502878382
 20
775.6488387889
 30
0.0
 11
1424.7773755674
 21
782.5432347978
 31
0.0
  0
LINE
  5
75
330
1F
100
AcDbEntity
  8
0
  6
Continuous
 62
     7
370
    15
100
AcDbLine
 10
1399.4803688482
 20
837.2639528884
 30
0.0
 11
1396.4167737476
 21
837.4675123481
 31
0.0
  0
LINE
  5
76
330
1F
100
AcDbEntity
  8
0
  6
Continuous
 62
     7
370
    15
100
AcDbLine
 10
1407.1634068881
 20
836.7534562266
 30
0.0
 11
1404.4692149854
 21
836.9324708254
 31
0.0
  0
LINE
  5
77
330
1F
100
AcDbEntity
  8
0
  6
Continuous
 62
     7
370
    15
100
AcDbLine
 10
1424.7773755674
 20
782.5432347978
 30
0.0
 11
1440.5385697289
 21
796.8485265646
 31
0.0
  0
LINE
  5
78
330
1F
100
AcDbEntity
  8
0
  6
Continuous
 62
     7
370
    15
100
AcDbLine
 10
1407.6604561626
 20
836.6992158477
 30
0.0
 11
1407.1634068881
 21
836.7534562266
 31
0.0
  0
ARC
  5
79
330
1F
100
AcDbEntity
  8
0
  6
Continuous
 62
     7
370
    15
100
AcDbCircle
 10
1439.8664904859
 20
797.5890057953
 30
0.0
 40
1.000000000000079
100
AcDbArc
 50
312.227745318
 51
18.0
  0
LINE
  5
7A
330
1F
100
AcDbEntity
  8
0
  6
Continuous
 62
     7
370
    15
100
AcDbLine
 10
1406.7553831141
 20
799.1764085487
 30
0.0
 11
1408.66828397
 21
799.7612410309
 31
0.0
  0
LINE
  5
7B
330
1F
100
AcDbEntity
  8
0
  6
Continuous
 62
     7
370
    15
100
AcDbLine
 10
1404.472706189
 20
836.9422609038
 30
0.0
 11
1399.4782586026
 21
837.274115153
 31
0.0
  0
LINE
  5
7C
330
1F
100
AcDbEntity
  8
0
  6
Continuous
 62
     7
370
    15
100
AcDbLine
 10
1404.0581792409
 20
802.6234465393
 30
0.0
 11
1405.4847640153
 21
803.0869720308
 31
0.0
  0
LINE
  5
7D
330
1F
100
AcDbEntity
  8
0
  6
Continuous
 62
     7
370
    15
100
AcDbLine
 10
1400.9647564013
 20
720.4142048045
 30
0.0
 11
1400.9647564013
 21
720.9142048045
 31
0.0
  0
LINE
  5
7E
330
1F
100
AcDbEntity
  8
0
  6
Continuous
 62
     7
370
    15
100
AcDbLine
 10
1392.9647564013
 20
720.9142048045
 30
0.0
 11
1392.9647564013
 21
720.4142048045
 31
0.0
  0
LINE
  5
7F
330
1F
100
AcDbEntity
  8
0
  6
Continuous
 62
     7
370
    15
100
AcDbLine
 10
1415.4647564013
 20
720.4142048045
 30
0.0
 11
1415.4647564013
 21
720.9142048045
 31
0.0
  0
LINE
  5
80
330
1F
100
AcDbEntity
  8
0
  6
Continuous
 62
     7
370
    15
100
AcDbLine
 10
1407.4647564013
 20
720.9142048045
 30
0.0
 11
1407.4647564013
 21
720.4142048045
 31
0.0
  0
ARC
  5
81
330
1F
100
AcDbEntity
  8
0
  6
Continuous
 62
     7
370
    15
100
AcDbCircle
 10
1338.1647564013
 20
447.9142048045
 30
0.0
 40
2.000000000000057
100
AcDbArc
 50
270.0
 51
0.0
  0
ARC
  5
82
330
1F
100
AcDbEntity
  8
0
  6
Continuous
 62
     7
370
    15
100
AcDbCircle
 10
1285.1647564013
 20
447.9142048045
 30
0.0
 40
2.000000000000057
100
AcDbArc
 50
180.0
 51
270.0
  0
LINE
  5
83
330
1F
100
AcDbEntity
  8
0
  6
Continuous
 62
     7
370
    15
100
AcDbLine
 10
1340.1647564013
 20
447.9142048045
 30
0.0
 11
1340.1647564013
 21
451.9142048045
 31
0.0
  0
LINE
  5
84
330
1F
100
AcDbEntity
  8
0
  6
Continuous
 62
     7
370
    15
100
AcDbLine
 10
1283.1647564013
 20
451.9142048045
 30
0.0
 11
1283.1647564013
 21
447.9142048045
 31
0.0
  0
LINE
  5
85
330
1F
100
AcDbEntity
  8
0
  6
Continuous
 62
     7
370
    15
100
AcDbLine
 10
766.1647564013
 20
447.9142048045
 30
0.0
 11
766.1647564013
 21
451.9142048045
 31
0.0
  0
LINE
  5
86
330
1F
100
AcDbEntity
  8
0
  6
Continuous
 62
     7
370
    15
100
AcDbLine
 10
709.1647564013
 20
451.9142048045
 30
0.0
 11
709.1647564013
 21
447.9142048045
 31
0.0
  0
ARC
  5
87
330
1F
100
AcDbEntity
  8
0
  6
Continuous
 62
     7
370
    15
100
AcDbCircle
 10
764.1647564013
 20
447.9142048045
 30
0.0
 40
2.000000000000114
100
AcDbArc
 50
270.0
 51
0.0
  0
ARC
  5
88
330
1F
100
AcDbEntity
  8
0
  6
Continuous
 62
     7
370
    15
100
AcDbCircle
 10
711.1647564013
 20
447.9142048045
 30
0.0
 40
2.0
100
AcDbArc
 50
180.0
 51
270.0
  0
LINE
  5
89
330
1F
100
AcDbEntity
  8
0
  6
Continuous
 62
     7
370
    15
100
AcDbLine
 10
1339.9647564013
 20
451.9142048045
 30
0.0
 11
1339.9647564013
 21
499.9142048045
 31
0.0
  0
LINE
  5
8A
330
1F
100
AcDbEntity
  8
0
  6
Continuous
 62
     7
370
    15
100
AcDbLine
 10
1283.3647564013
 20
499.9142048045
 30
0.0
 11
1283.3647564013
 21
451.9142048045
 31
0.0
  0
LINE
  5
8B
330
1F
100
AcDbEntity
  8
0
  6
Continuous
 62
     7
370
    15
100
AcDbLine
 10
765.9647564013
 20
451.9142048045
 30
0.0
 11
765.9647564013
 21
499.9142048045
 31
0.0
  0
LINE
  5
8C
330
1F
100
AcDbEntity
  8
0
  6
Continuous
 62
     7
370
    15
100
AcDbLine
 10
709.3647564013
 20
499.9142048045
 30
0.0
 11
709.3647564013
 21
451.9142048045
 31
0.0
  0
ARC
  5
8D
330
1F
100
AcDbEntity
  8
0
  6
Continuous
 62
     7
370
    15
100
AcDbCircle
 10
1345.0647564013
 20
592.4142048045
 30
0.0
 40
1.5
100
AcDbArc
 50
90.0
 51
180.0
  0
ARC
  5
8E
330
1F
100
AcDbEntity
  8
0
  6
Continuous
 62
     7
370
    15
100
AcDbCircle
 10
1278.2647564013
 20
592.4142048045
 30
0.0
 40
1.5
100
AcDbArc
 50
0.0
 51
90.0
  0
LINE
  5
8F
330
1F
100
AcDbEntity
  8
0
  6
Continuous
 62
     7
370
    15
100
AcDbLine
 10
1343.5647564013
 20
505.9467707501
 30
0.0
 11
1343.5647564013
 21
592.4142048045
 31
0.0
  0
LINE
  5
90
330
1F
100
AcDbEntity
  8
0
  6
Continuous
 62
     7
370
    15
100
AcDbLine
 10
1279.7647564013
 20
592.4142048045
 30
0.0
 11
1279.7647564013
 21
505.9467707501
 31
0.0
  0
ARC
  5
91
330
1F
100
AcDbEntity
  8
0
  6
Continuous
 62
     7
370
    15
100
AcDbCircle
 10
1338.8647564013
 20
505.9467707501
 30
0.0
 40
4.700000000000045
100
AcDbArc
 50
350.5402980318
 51
0.0
  0
ARC
  5
92
330
1F
100
AcDbEntity
  8
0
  6
Continuous
 62
     7
370
    15
100
AcDbCircle
 10
1284.4647564013
 20
505.9467707501
 30
0.0
 40
4.700000000000244
100
AcDbArc
 50
180.0
 51
189.4597019682
  0
LINE
  5
93
330
1F
100
AcDbEntity
  8
0
  6
Continuous
 62
     7
370
    15
100
AcDbLine
 10
1279.8286696283
 20
505.1743075256
 30
0.0
 11
1280.7051061809
 21
499.9142048045
 31
0.0
  0
LINE
  5
94
330
1F
100
AcDbEntity
  8
0
  6
Continuous
 62
     7
370
    15
100
AcDbLine
 10
1342.6244066216
 20
499.9142048045
 30
0.0
 11
1343.5008431743
 21
505.1743075256
 31
0.0
  0
ARC
  5
95
330
1F
100
AcDbEntity
  8
0
  6
Continuous
 62
     7
370
    15
100
AcDbCircle
 10
771.0647564013
 20
592.4142048045
 30
0.0
 40
1.5
100
AcDbArc
 50
90.0
 51
180.0
  0
ARC
  5
96
330
1F
100
AcDbEntity
  8
0
  6
Continuous
 62
     7
370
    15
100
AcDbCircle
 10
704.2647564013
 20
592.4142048045
 30
0.0
 40
1.5
100
AcDbArc
 50
0.0
 51
90.0
  0
ARC
  5
97
330
1F
100
AcDbEntity
  8
0
  6
Continuous
 62
     7
370
    15
100
AcDbCircle
 10
764.8647564013
 20
505.9467707501
 30
0.0
 40
4.700000000000159
100
AcDbArc
 50
350.5402980318
 51
0.0
  0
ARC
  5
98
330
1F
100
AcDbEntity
  8
0
  6
Continuous
 62
     7
370
    15
100
AcDbCircle
 10
710.4647564013
 20
505.9467707501
 30
0.0
 40
4.700000000000159
100
AcDbArc
 50
180.0
 51
189.4597019682
  0
LINE
  5
99
330
1F
100
AcDbEntity
  8
0
  6
Continuous
 62
     7
370
    15
100
AcDbLine
 10
769.5647564013
 20
505.9467707501
 30
0.0
 11
769.5647564013
 21
592.4142048045
 31
0.0
  0
LINE
  5
9A
330
1F
100
AcDbEntity
  8
0
  6
Continuous
 62
     7
370
    15
100
AcDbLine
 10
705.7647564013
 20
592.4142048045
 30
0.0
 11
705.7647564013
 21
505.9467707501
 31
0.0
  0
LINE
  5
9B
330
1F
100
AcDbEntity
  8
0
  6
Continuous
 62
     7
370
    15
100
AcDbLine
 10
705.8286696283
 20
505.1743075256
 30
0.0
 11
706.7051061809
 21
499.9142048045
 31
0.0
  0
LINE
  5
9C
330
1F
100
AcDbEntity
  8
0
  6
Continuous
 62
     7
370
    15
100
AcDbLine
 10
768.6244066216
 20
499.9142048045
 30
0.0
 11
769.5008431743
 21
505.1743075256
 31
0.0
  0
LINE
  5
9D
330
1F
100
AcDbEntity
  8
0
  6
Continuous
 62
     7
370
    15
100
AcDbLine
 10
659.8647564013
 20
730.845116343
 30
0.0
 11
659.7647564013
 21
730.845116343
 31
0.0
  0
LINE
  5
9E
330
1F
100
AcDbEntity
  8
0
  6
Continuous
 62
     7
370
    15
100
AcDbLine
 10
659.8647564013
 20
727.845116343
 30
0.0
 11
659.7647564013
 21
727.845116343
 31
0.0
  0
LINE
  5
9F
330
1F
100
AcDbEntity
  8
0
  6
Continuous
 62
     7
370
    15
100
AcDbLine
 10
659.7647564013
 20
727.845116343
 30
0.0
 11
659.7647564013
 21
730.845116343
 31
0.0
  0
LINE
  5
A0
330
1F
100
AcDbEntity
  8
0
  6
Continuous
 62
     7
370
    15
100
AcDbLine
 10
659.8647564013
 20
749.845116343
 30
0.0
 11
659.7647564013
 21
749.845116343
 31
0.0
  0
LINE
  5
A1
330
1F
100
AcDbEntity
  8
0
  6
Continuous
 62
     7
370
    15
100
AcDbLine
 10
659.7647564013
 20
730.845116343
 30
0.0
 11
659.7647564013
 21
749.845116343
 31
0.0
  0
LINE
  5
A2
330
1F
100
AcDbEntity
  8
0
  6
Continuous
 62
     7
370
    15
100
AcDbLine
 10
659.8647564013
 20
752.845116343
 30
0.0
 11
659.7647564013
 21
752.845116343
 31
0.0
  0
LINE
  5
A3
330
1F
100
AcDbEntity
  8
0
  6
Continuous
 62
     7
370
    15
100
AcDbLine
 10
659.7647564013
 20
749.845116343
 30
0.0
 11
659.7647564013
 21
752.845116343
 31
0.0
  0
LINE
  5
A4
330
1F
100
AcDbEntity
  8
0
  6
Continuous
 62
     7
370
    15
100
AcDbLine
 10
659.7547564013
 20
731.0135992047
 30
0.0
 11
659.7647564013
 21
731.0135992047
 31
0.0
  0
LINE
  5
A5
330
1F
100
AcDbEntity
  8
0
  6
Continuous
 62
     7
370
    15
100
AcDbLine
 10
659.7547564013
 20
731.3924772145
 30
0.0
 11
659.7647564013
 21
731.3924772145
 31
0.0
  0
LINE
  5
A6
330
1F
100
AcDbEntity
  8
0
  6
Continuous
 62
     7
370
    15
100
AcDbLine
 10
659.7547564013
 20
731.0135992047
 30
0.0
 11
659.7547564013
 21
731.3924772145
 31
0.0
  0
LINE
  5
A7
330
1F
100
AcDbEntity
  8
0
  6
Continuous
 62
     7
370
    15
100
AcDbLine
 10
659.7547564013
 20
738.1872873515
 30
0.0
 11
659.7647564013
 21
738.1872873515
 31
0.0
  0
LINE
  5
A8
330
1F
100
AcDbEntity
  8
0
  6
Continuous
 62
     7
370
    15
100
AcDbLine
 10
659.7547564013
 20
738.1872873515
 30
0.0
 11
659.7547564013
 21
738.4893696793
 31
0.0
  0
LINE
  5
A9
330
1F
100
AcDbEntity
  8
0
  6
Continuous
 62
     7
370
    15
100
AcDbLine
 10
659.7547564013
 20
738.4893696793
 30
0.0
 11
659.7647564013
 21
738.4893696793
 31
0.0
  0
LINE
  5
AA
330
1F
100
AcDbEntity
  8
0
  6
Continuous
 62
     7
370
    15
100
AcDbLine
 10
659.7547564013
 20
732.8170953704
 30
0.0
 11
659.7647564013
 21
732.8170953704
 31
0.0
  0
LINE
  5
AB
330
1F
100
AcDbEntity
  8
0
  6
Continuous
 62
     7
370
    15
100
AcDbLine
 10
659.7547564013
 20
736.3170953704
 30
0.0
 11
659.7547564013
 21
732.8170953704
 31
0.0
  0
LINE
  5
AC
330
1F
100
AcDbEntity
  8
0
  6
Continuous
 62
     7
370
    15
100
AcDbLine
 10
659.7547564013
 20
736.3170953704
 30
0.0
 11
659.7647564013
 21
736.3170953704
 31
0.0
  0
LINE
  5
AD
330
1F
100
AcDbEntity
  8
0
  6
Continuous
 62
     7
370
    15
100
AcDbLine
 10
659.7547564013
 20
736.4068389601
 30
0.0
 11
659.7647564013
 21
736.4068389601
 31
0.0
  0
LINE
  5
AE
330
1F
100
AcDbEntity
  8
0
  6
Continuous
 62
     7
370
    15
100
AcDbLine
 10
659.7547564013
 20
732.7273517806
 30
0.0
 11
659.7647564013
 21
732.7273517806
 31
0.0
  0
LINE
  5
AF
330
1F
100
AcDbEntity
  8
0
  6
Continuous
 62
     7
370
    15
100
AcDbLine
 10
659.7547564013
 20
745.7415295949
 30
0.0
 11
659.7647564013
 21
745.7415295949
 31
0.0
  0
LINE
  5
B0
330
1F
100
AcDbEntity
  8
0
  6
Continuous
 62
     7
370
    15
100
AcDbLine
 10
659.7547564013
 20
745.9466578
 30
0.0
 11
659.7547564013
 21
745.7415295949
 31
0.0
  0
LINE
  5
B1
330
1F
100
AcDbEntity
  8
0
  6
Continuous
 62
     7
370
    15
100
AcDbLine
 10
659.7547564013
 20
745.9466578
 30
0.0
 11
659.7647564013
 21
745.9466578
 31
0.0
  0
LINE
  5
B2
330
1F
100
AcDbEntity
  8
0
  6
Continuous
 62
     7
370
    15
100
AcDbLine
 10
659.7547564013
 20
746.7671706206
 30
0.0
 11
659.7547564013
 21
746.5620424154
 31
0.0
  0
LINE
  5
B3
330
1F
100
AcDbEntity
  8
0
  6
Continuous
 62
     7
370
    15
100
AcDbLine
 10
659.7547564013
 20
746.7671706206
 30
0.0
 11
659.7647564013
 21
746.7671706206
 31
0.0
  0
LINE
  5
B4
330
1F
100
AcDbEntity
  8
0
  6
Continuous
 62
     7
370
    15
100
AcDbLine
 10
659.7547564013
 20
746.5620424154
 30
0.0
 11
659.7647564013
 21
746.5620424154
 31
0.0
  0
LINE
  5
B5
330
1F
100
AcDbEntity
  8
0
  6
Continuous
 62
     7
370
    15
100
AcDbLine
 10
659.7547564013
 20
744.7671706206
 30
0.0
 11
659.7647564013
 21
744.7671706206
 31
0.0
  0
LINE
  5
B6
330
1F
100
AcDbEntity
  8
0
  6
Continuous
 62
     7
370
    15
100
AcDbLine
 10
659.7547564013
 20
744.9722988257
 30
0.0
 11
659.7647564013
 21
744.9722988257
 31
0.0
  0
LINE
  5
B7
330
1F
100
AcDbEntity
  8
0
  6
Continuous
 62
     7
370
    15
100
AcDbLine
 10
659.7547564013
 20
744.9722988257
 30
0.0
 11
659.7547564013
 21
744.7671706206
 31
0.0
  0
LINE
  5
B8
330
1F
100
AcDbEntity
  8
0
  6
Continuous
 62
     7
370
    15
100
AcDbLine
 10
659.7547564013
 20
746.5620424154
 30
0.0
 11
659.7547564013
 21
745.9466578
 31
0.0
  0
LINE
  5
B9
330
1F
100
AcDbEntity
  8
0
  6
Continuous
 62
     7
370
    15
100
AcDbLine
 10
659.7547564013
 20
745.7415295949
 30
0.0
 11
659.7547564013
 21
744.9722988257
 31
0.0
  0
LINE
  5
BA
330
1F
100
AcDbEntity
  8
0
  6
Continuous
 62
     7
370
    15
100
AcDbLine
 10
659.7547564013
 20
752.0319740766
 30
0.0
 11
659.7647564013
 21
752.0319740766
 31
0.0
  0
LINE
  5
BB
330
1F
100
AcDbEntity
  8
0
  6
Continuous
 62
     7
370
    15
100
AcDbLine
 10
659.7547564013
 20
738.4893696793
 30
0.0
 11
659.7547564013
 21
744.5921606206
 31
0.0
  0
LINE
  5
BC
330
1F
100
AcDbEntity
  8
0
  6
Continuous
 62
     7
370
    15
100
AcDbLine
 10
659.7547564013
 20
746.8111522388
 30
0.0
 11
659.7547564013
 21
752.0319740766
 31
0.0
  0
LINE
  5
BD
330
1F
100
AcDbEntity
  8
0
  6
Continuous
 62
     7
370
    15
100
AcDbLine
 10
659.0647564013
 20
876.7142048045
 30
0.0
 11
659.0647564013
 21
1085.6226916803
 31
0.0
  0
LINE
  5
BE
330
1F
100
AcDbEntity
  8
0
  6
Continuous
 62
     7
370
    15
100
AcDbLine
 10
659.0647564013
 20
1085.6226916803
 30
0.0
 11
661.1147564013
 21
1085.6226916803
 31
0.0
  0
LINE
  5
BF
330
1F
100
AcDbEntity
  8
0
  6
Continuous
 62
     7
370
    15
100
AcDbLine
 10
661.1147564013
 20
1085.6226916803
 30
0.0
 11
661.1147564013
 21
876.7142048045
 31
0.0
  0
LINE
  5
C0
330
1F
100
AcDbEntity
  8
0
  6
Continuous
 62
     7
370
    15
100
AcDbLine
 10
661.1147564013
 20
876.7142048045
 30
0.0
 11
659.0647564013
 21
876.7142048045
 31
0.0
  0
LINE
  5
C1
330
1F
100
AcDbEntity
  8
0
  6
Continuous
 62
     7
370
    15
100
AcDbLine
 10
659.9647564013
 20
1086.0226916803
 30
0.0
 11
659.9647564013
 21
1096.0936599642
 31
0.0
  0
ARC
  5
C2
330
1F
100
AcDbEntity
  8
0
  6
Continuous
 62
     7
370
    15
100
AcDbCircle
 10
661.1147564013
 20
1096.0936599642
 30
0.0
 40
1.150000000000162
100
AcDbArc
 50
75.0
 51
180.0
  0
LINE
  5
C3
330
1F
100
AcDbEntity
  8
0
  6
Continuous
 62
     7
370
    15
100
AcDbLine
 10
661.4123983032
 20
1097.2044746645
 30
0.0
 11
694.7093506243
 21
1088.2825831796
 31
0.0
  0
ARC
  5
C4
330
1F
100
AcDbEntity
  8
0
  6
Continuous
 62
     7
370
    15
100
AcDbCircle
 10
688.2647564013
 20
1064.231030105
 30
0.0
 40
24.89999999999998
100
AcDbArc
 50
0.0
 51
75.0
  0
LINE
  5
C5
330
1F
100
AcDbEntity
  8
0
  6
Continuous
 62
     7
370
    15
100
AcDbLine
 10
713.1647564013
 20
1064.231030105
 30
0.0
 11
711.9647564013
 21
1064.231030105
 31
0.0
  0
LINE
  5
C6
330
1F
100
AcDbEntity
  8
0
  6
Continuous
 62
     7
370
    15
100
AcDbLine
 10
711.9647564013
 20
1064.231030105
 30
0.0
 11
711.9647564013
 21
1063.731030105
 31
0.0
  0
LINE
  5
C7
330
1F
100
AcDbEntity
  8
0
  6
Continuous
 62
     7
370
    15
100
AcDbLine
 10
711.9647564013
 20
1063.731030105
 30
0.0
 11
712.0147564013
 21
1063.731030105
 31
0.0
  0
LINE
  5
C8
330
1F
100
AcDbEntity
  8
0
  6
Continuous
 62
     7
370
    15
100
AcDbLine
 10
712.0147564013
 20
1063.731030105
 30
0.0
 11
712.0147564013
 21
876.7142048045
 31
0.0
  0
ARC
  5
C9
330
1F
100
AcDbEntity
  8
0
  6
Continuous
 62
     7
370
    15
100
AcDbCircle
 10
684.9647564013
 20
1075.3644966261
 30
0.0
 40
2.600000000000152
100
AcDbArc
 50
190.4998591652
 51
349.5001408348
  0
ARC
  5
CA
330
1F
100
AcDbEntity
  8
0
  6
Continuous
 62
     7
370
    15
100
AcDbCircle
 10
682.159315465
 20
1074.8644966261
 30
0.0
 40
0.2503511010931983
100
AcDbArc
 50
6.005776495
 51
190.1054407084
  0
ARC
  5
CB
330
1F
100
AcDbEntity
  8
0
  6
Continuous
 62
     7
370
    15
100
AcDbCircle
 10
684.9647564013
 20
1075.3644966261
 30
0.0
 40
3.10000000000003
100
AcDbArc
 50
190.1054407084
 51
349.8945592916
  0
ARC
  5
CC
330
1F
100
AcDbEntity
  8
0
  6
Continuous
 62
     7
370
    15
100
AcDbCircle
 10
687.7701973376
 20
1074.8644966261
 30
0.0
 40
0.2503511010933072
100
AcDbArc
 50
349.8945592916
 51
173.9942235051
  0
ARC
  5
CD
330
1F
100
AcDbEntity
  8
0
  6
Continuous
 62
     7
370
    15
100
AcDbCircle
 10
687.7630695492
 20
1075.9028093031
 30
0.0
 40
0.250379496815914
100
AcDbArc
 50
186.6269392398
 51
10.8889929002
  0
ARC
  5
CE
330
1F
100
AcDbEntity
  8
0
  6
Continuous
 62
     7
370
    15
100
AcDbCircle
 10
684.9647564013
 20
1075.3644966261
 30
0.0
 40
3.100000000000038
100
AcDbArc
 50
10.8889929003
 51
169.1108926947
  0
ARC
  5
CF
330
1F
100
AcDbEntity
  8
0
  6
Continuous
 62
     7
370
    15
100
AcDbCircle
 10
682.1664733735
 20
1075.9028093031
 30
0.0
 40
0.2504090746769378
100
AcDbArc
 50
169.1108926946
 51
353.5357377927
  0
ARC
  5
D0
330
1F
100
AcDbEntity
  8
0
  6
Continuous
 62
     7
370
    15
100
AcDbCircle
 10
684.9647564013
 20
1075.3644966261
 30
0.0
 40
2.600000000000124
100
AcDbArc
 50
11.299052931
 51
168.6851502045
  0
LINE
  5
D1
330
1F
100
AcDbEntity
  8
0
  6
Continuous
 62
     7
370
    15
100
AcDbLine
 10
712.0147564013
 20
876.7142048045
 30
0.0
 11
661.1147564013
 21
876.7142048045
 31
0.0
  0
LINE
  5
D2
330
1F
100
AcDbEntity
  8
0
  6
Continuous
 62
     7
370
    15
100
AcDbLine
 10
661.5147564013
 20
1085.6226916803
 30
0.0
 11
661.5147564013
 21
1086.0226916803
 31
0.0
  0
LINE
  5
D3
330
1F
100
AcDbEntity
  8
0
  6
Continuous
 62
     7
370
    15
100
AcDbLine
 10
661.1147564013
 20
1085.6226916803
 30
0.0
 11
661.5147564013
 21
1085.6226916803
 31
0.0
  0
LINE
  5
D4
330
1F
100
AcDbEntity
  8
0
  6
Continuous
 62
     7
370
    15
100
AcDbLine
 10
661.5147564013
 20
1086.0226916803
 30
0.0
 11
659.9647564013
 21
1086.0226916803
 31
0.0
  0
LINE
  5
D5
330
1F
100
AcDbEntity
  8
0
  6
Continuous
 62
     7
370
    15
100
AcDbLine
 10
714.0647564013
 20
876.7142048045
 30
0.0
 11
712.0147564013
 21
876.7142048045
 31
0.0
  0
LINE
  5
D6
330
1F
100
AcDbEntity
  8
0
  6
Continuous
 62
     7
370
    15
100
AcDbLine
 10
714.0647564013
 20
1063.731030105
 30
0.0
 11
714.0647564013
 21
876.7142048045
 31
0.0
  0
LINE
  5
D7
330
1F
100
AcDbEntity
  8
0
  6
Continuous
 62
     7
370
    15
100
AcDbLine
 10
712.0147564013
 20
1063.731030105
 30
0.0
 11
714.0647564013
 21
1063.731030105
 31
0.0
  0
LINE
  5
D8
330
1F
100
AcDbEntity
  8
0
  6
Continuous
 62
     7
370
    15
100
AcDbLine
 10
713.2647564013
 20
1064.231030105
 30
0.0
 11
713.2647564013
 21
1064.131030105
 31
0.0
  0
LINE
  5
D9
330
1F
100
AcDbEntity
  8
0
  6
Continuous
 62
     7
370
    15
100
AcDbLine
 10
714.0647564013
 20
1064.231030105
 30
0.0
 11
713.2647564013
 21
1064.231030105
 31
0.0
  0
LINE
  5
DA
330
1F
100
AcDbEntity
  8
0
  6
Continuous
 62
     7
370
    15
100
AcDbLine
 10
714.0647564013
 20
1064.231030105
 30
0.0
 11
714.0647564013
 21
1064.131030105
 31
0.0
  0
LINE
  5
DB
330
1F
100
AcDbEntity
  8
0
  6
Continuous
 62
     7
370
    15
100
AcDbLine
 10
713.2647564013
 20
1064.131030105
 30
0.0
 11
714.0647564013
 21
1064.131030105
 31
0.0
  0
ARC
  5
DC
330
1F
100
AcDbEntity
  8
0
  6
Continuous
 62
     7
370
    15
100
AcDbCircle
 10
688.2647564013
 20
1064.231030105
 30
0.0
 40
25.0
100
AcDbArc
 50
0.0
 51
75.0
  0
LINE
  5
DD
330
1F
100
AcDbEntity
  8
0
  6
Continuous
 62
     7
370
    15
100
AcDbLine
 10
694.7352325289
 20
1088.3791757622
 30
0.0
 11
694.9422877649
 21
1089.1519164232
 31
0.0
  0
ARC
  5
DE
330
1F
100
AcDbEntity
  8
0
  6
Continuous
 62
     7
370
    15
100
AcDbCircle
 10
688.2647564013
 20
1064.231030105
 30
0.0
 40
25.80000000000009
100
AcDbArc
 50
0.0
 51
75.0
  0
LINE
  5
DF
330
1F
100
AcDbEntity
  8
0
  6
Continuous
 62
     7
370
    15
100
AcDbLine
 10
661.6453354437
 20
1098.0738079081
 30
0.0
 11
661.4382802077
 21
1097.3010672471
 31
0.0
  0
LINE
  5
E0
330
1F
100
AcDbEntity
  8
0
  6
Continuous
 62
     7
370
    15
100
AcDbLine
 10
661.6453354437
 20
1098.0738079081
 30
0.0
 11
694.9422877649
 21
1089.1519164232
 31
0.0
  0
LINE
  5
E1
330
1F
100
AcDbEntity
  8
0
  6
Continuous
 62
     7
370
    15
100
AcDbLine
 10
661.4382802077
 20
1097.3010672471
 30
0.0
 11
694.7352325289
 21
1088.3791757622
 31
0.0
  0
ARC
  5
E2
330
1F
100
AcDbEntity
  8
0
  6
Continuous
 62
     7
370
    15
100
AcDbCircle
 10
661.1147564013
 20
1096.0936599642
 30
0.0
 40
2.050000000000075
100
AcDbArc
 50
75.0
 51
180.0
  0
ARC
  5
E3
330
1F
100
AcDbEntity
  8
0
  6
Continuous
 62
     7
370
    15
100
AcDbCircle
 10
661.1147564013
 20
1096.0936599642
 30
0.0
 40
1.250000000000114
100
AcDbArc
 50
75.0
 51
180.0
  0
LINE
  5
E4
330
1F
100
AcDbEntity
  8
0
  6
Continuous
 62
     7
370
    15
100
AcDbLine
 10
659.8647564013
 20
1096.0936599642
 30
0.0
 11
659.0647564013
 21
1096.0936599642
 31
0.0
  0
LINE
  5
E5
330
1F
100
AcDbEntity
  8
0
  6
Continuous
 62
     7
370
    15
100
AcDbLine
 10
659.0647564013
 20
1085.7226916803
 30
0.0
 11
659.0647564013
 21
1096.0936599642
 31
0.0
  0
LINE
  5
E6
330
1F
100
AcDbEntity
  8
0
  6
Continuous
 62
     7
370
    15
100
AcDbLine
 10
659.0647564013
 20
1085.7226916803
 30
0.0
 11
659.8647564013
 21
1085.7226916803
 31
0.0
  0
LINE
  5
E7
330
1F
100
AcDbEntity
  8
0
  6
Continuous
 62
     7
370
    15
100
AcDbLine
 10
659.8647564013
 20
1085.7226916803
 30
0.0
 11
659.8647564013
 21
1096.0936599642
 31
0.0
  0
LINE
  5
E8
330
1F
100
AcDbEntity
  8
0
  6
Continuous
 62
     7
370
    15
100
AcDbLine
 10
714.0647564013
 20
1063.731030105
 30
0.0
 11
714.0647564013
 21
1064.131030105
 31
0.0
  0
LINE
  5
E9
330
1F
100
AcDbEntity
  8
0
  6
Continuous
 62
     7
370
    15
100
AcDbLine
 10
713.2647564013
 20
1064.131030105
 30
0.0
 11
713.2647564013
 21
1063.731030105
 31
0.0
  0
SPLINE
  5
EA
330
1F
100
AcDbEntity
  8
0
  6
Continuous
 62
     7
370
    15
100
AcDbSpline
210
0.0
220
0.0
230
1.0
 70
     8
 71
     3
 72
    13
 73
     9
 74
     0
 42
0.00000001
 43
0.00000001
 12
1.0
 22
0.0
 32
0.0
 13
1.0
 23
0.0
 33
0.0
 40
0.0
 40
0.0
 40
0.0
 40
0.0
 40
0.1695411050602313
 40
0.3386458383075923
 40
0.5184804584263947
 40
0.7277236211482848
 40
0.9924537768848473
 40
1.0
 40
1.0
 40
1.0
 40
1.0
 10
647.714756401287
 20
669.3520776346397
 30
0.0
 10
647.6901452540004
 20
669.3517975343005
 30
0.0
 10
647.6409863046019
 20
669.351238054556
 30
0.0
 10
647.5748505112217
 20
669.3470184062857
 30
0.0
 10
647.5191789081169
 20
669.3407341964212
 30
0.0
 10
647.4764601288454
 20
669.3318649295907
 30
0.0
 10
647.4648744692319
 20
669.324849776532
 30
0.0
 10
647.4647595853296
 20
669.3209909243197
 30
0.0
 10
647.464756401287
 20
669.3208839750506
 30
0.0
  0
LINE
  5
EB
330
1F
100
AcDbEntity
  8
0
  6
Continuous
 62
     7
370
    15
100
AcDbLine
 10
647.4647564013
 20
669.3208839751
 30
0.0
 11
647.4647564013
 21
676.810942823
 31
0.0
  0
SPLINE
  5
EC
330
1F
100
AcDbEntity
  8
0
  6
Continuous
 62
     7
370
    15
100
AcDbSpline
210
0.0
220
0.0
230
1.0
 70
     8
 71
     3
 72
    13
 73
     9
 74
     0
 42
0.00000001
 43
0.00000001
 12
1.0
 22
0.0
 32
0.0
 13
1.0
 23
0.0
 33
0.0
 40
0.0
 40
0.0
 40
0.0
 40
0.0
 40
0.0075462231152891
 40
0.2722763788512879
 40
0.4815195415733458
 40
0.6613541616921914
 40
0.830458894939771
 40
0.9999999999999999
 40
0.9999999999999999
 40
0.9999999999999999
 40
0.9999999999999999
 10
648.664756401287
 20
669.3208839750504
 30
0.0
 10
648.6647532172444
 20
669.3209909243197
 30
0.0
 10
648.6646383333416
 20
669.3248497765322
 30
0.0
 10
648.6530526737289
 20
669.3318649295907
 30
0.0
 10
648.610333894457
 20
669.3407341964212
 30
0.0
 10
648.5546622913524
 20
669.3470184062857
 30
0.0
 10
648.488526497972
 20
669.351238054556
 30
0.0
 10
648.4393675485736
 20
669.3517975343005
 30
0.0
 10
648.4147564012871
 20
669.3520776346397
 30
0.0
  0
LINE
  5
ED
330
1F
100
AcDbEntity
  8
0
  6
Continuous
 62
     7
370
    15
100
AcDbLine
 10
648.6647564013
 20
677.0886141404
 30
0.0
 11
648.6647564013
 21
669.3208839751
 31
0.0
  0
LINE
  5
EE
330
1F
100
AcDbEntity
  8
0
  6
Continuous
 62
     7
370
    15
100
AcDbLine
 10
647.7147564013
 20
669.3520776346
 30
0.0
 11
648.4147564013
 21
669.3520776346
 31
0.0
  0
SPLINE
  5
EF
330
1F
100
AcDbEntity
  8
0
  6
Continuous
 62
     7
370
    15
100
AcDbSpline
210
0.0
220
0.0
230
1.0
 70
     8
 71
     3
 72
    12
 73
     8
 74
     0
 42
0.00000001
 43
0.00000001
 12
1.0
 22
0.0
 32
0.0
 13
1.0
 23
0.0
 33
0.0
 40
0.0
 40
0.0
 40
0.0
 40
0.0
 40
0.2028202020467037
 40
0.4049472449427119
 40
0.6098312030741113
 40
0.822693924182734
 40
1.0
 40
1.0
 40
1.0
 40
1.0
 10
647.2147564012876
 20
664.0031013951498
 30
0.0
 10
647.371897241823
 20
664.0153244143378
 30
0.0
 10
647.6856418777155
 20
664.0397286792736
 30
0.0
 10
648.1060381281844
 20
664.229379885605
 30
0.0
 10
648.4331166636246
 20
664.5115100413747
 30
0.0
 10
648.6313259298904
 20
664.8511555039022
 30
0.0
 10
648.6543111358122
 20
665.0919031515779
 30
0.0
 10
648.6647564012873
 20
665.2013071352072
 30
0.0
  0
LINE
  5
F0
330
1F
100
AcDbEntity
  8
0
  6
Continuous
 62
     7
370
    15
100
AcDbLine
 10
647.2147564013
 20
664.0031013951
 30
0.0
 11
647.2147564013
 21
667.9756514307
 31
0.0
  0
SPLINE
  5
F1
330
1F
100
AcDbEntity
  8
0
  6
Continuous
 62
     7
370
    15
100
AcDbSpline
210
0.0
220
0.0
230
1.0
 70
     8
 71
     3
 72
    12
 73
     8
 74
     0
 42
0.00000001
 43
0.00000001
 12
1.0
 22
0.0
 32
0.0
 13
1.0
 23
0.0
 33
0.0
 40
0.0
 40
0.0
 40
0.0
 40
0.0
 40
0.2289440738515953
 40
0.4594214300241538
 40
0.6825355698157523
 40
0.8947175231628806
 40
1.0
 40
1.0
 40
1.0
 40
1.0
 10
648.6647564012873
 20
669.0764907482715
 30
0.0
 10
648.6474219167096
 20
668.9476111719437
 30
0.0
 10
648.6126368551904
 20
668.688988888076
 30
0.0
 10
648.3387670093782
 20
668.3463780345817
 30
0.0
 10
647.941730474895
 20
668.0993177276381
 30
0.0
 10
647.5408544855425
 20
667.9882333718849
 30
0.0
 10
647.2959690924554
 20
667.9787848845335
 30
0.0
 10
647.2147564012873
 20
667.975651430653
 30
0.0
  0
LINE
  5
F2
330
1F
100
AcDbEntity
  8
0
  6
Continuous
 62
     7
370
    15
100
AcDbLine
 10
648.6647564013
 20
669.0764907483
 30
0.0
 11
648.6647564013
 21
665.2013071352
 31
0.0
  0
LINE
  5
F3
330
1F
100
AcDbEntity
  8
0
  6
Continuous
 62
     7
370
    15
100
AcDbLine
 10
641.8647564013
 20
664.2337656944
 30
0.0
 11
641.8647564013
 21
668.1089493075
 31
0.0
  0
LWPOLYLINE
  5
F4
330
1F
100
AcDbEntity
  8
0
  6
Continuous
 62
     7
370
    15
100
AcDbPolyline
 90
        9
 70
   128
 43
0.0
 10
641.8647564013
 20
668.1089493075
 10
641.8695600812
 20
668.0829441818
 10
641.8837865182
 20
668.0579384184
 10
641.9068889982
 20
668.034892975
 10
641.937979706
 20
668.0146934749
 10
641.975863843
 20
667.9981161735
 10
642.0190855432
 20
667.9857981274
 10
642.0659838208
 20
667.978212712
 10
642.1147564013
 20
667.9756514307
  0
LINE
  5
F5
330
1F
100
AcDbEntity
  8
0
  6
Continuous
 62
     7
370
    15
100
AcDbLine
 10
642.1147564013
 20
667.9756514307
 30
0.0
 11
642.1147564013
 21
664.0031013951
 31
0.0
  0
ARC
  5
F6
330
1F
100
AcDbEntity
  8
0
  6
Continuous
 62
     7
370
    15
100
AcDbCircle
 10
642.1054624202
 20
664.2438387541
 30
0.0
 40
0.2409166953317829
100
AcDbArc
 50
182.3963142131
 51
272.2108806481
  0
LINE
  5
F7
330
1F
100
AcDbEntity
  8
0
  6
Continuous
 62
     7
370
    15
100
AcDbLine
 10
642.1147564013
 20
664.0031013951
 30
0.0
 11
647.2147564013
 21
664.0031013951
 31
0.0
  0
LINE
  5
F8
330
1F
100
AcDbEntity
  8
0
  6
Continuous
 62
     7
370
    15
100
AcDbLine
 10
647.2147564013
 20
667.9756514307
 30
0.0
 11
642.1147564013
 21
667.9756514307
 31
0.0
  0
LINE
  5
F9
330
1F
100
AcDbEntity
  8
0
  6
Continuous
 62
     7
370
    15
100
AcDbLine
 10
647.2147564013
 20
667.9756514307
 30
0.0
 11
647.2147564013
 21
668.2704152913
 31
0.0
  0
SPLINE
  5
FA
330
1F
100
AcDbEntity
  8
0
  6
Continuous
 62
     7
370
    15
100
AcDbSpline
210
0.0
220
0.0
230
1.0
 70
     8
 71
     3
 72
    12
 73
     8
 74
     0
 42
0.00000001
 43
0.00000001
 12
1.0
 22
0.0
 32
0.0
 13
1.0
 23
0.0
 33
0.0
 40
0.0
 40
0.0
 40
0.0
 40
0.0
 40
0.1044203826439037
 40
0.3151731030979913
 40
0.5377472974585931
 40
0.7690283494734502
 40
1.0
 40
1.0
 40
1.0
 40
1.0
 10
647.2147564012873
 20
668.2704152913392
 30
0.0
 10
647.2819759699239
 20
668.2731478554766
 30
0.0
 10
647.4848654776968
 20
668.2813955816086
 30
0.0
 10
647.817222842862
 20
668.3785824802344
 30
0.0
 10
648.1458676311154
 20
668.5950238603571
 30
0.0
 10
648.3719293439914
 20
668.8958865387963
 30
0.0
 10
648.4004870870788
 20
669.1239842255503
 30
0.0
 10
648.4147564012873
 20
669.2379567321495
 30
0.0
  0
LWPOLYLINE
  5
FB
330
1F
100
AcDbEntity
  8
0
  6
Continuous
 62
     7
370
    15
100
AcDbPolyline
 90
        9
 70
   128
 43
0.0
 10
648.6647564013
 20
669.0764907483
 10
648.6599527214
 20
669.1079911991
 10
648.6457262844
 20
669.1382811052
 10
648.6226238044
 20
669.1661964426
 10
648.5915330966
 20
669.1906644404
 10
648.5536489595
 20
669.2107448073
 10
648.5104272594
 20
669.225665866
 10
648.4635289818
 20
669.2348542085
 10
648.4147564013
 20
669.2379567321
  0
LWPOLYLINE
  5
FC
330
1F
100
AcDbEntity
  8
0
  6
Continuous
 62
     7
370
    15
100
AcDbPolyline
 90
        9
 70
   128
 43
0.0
 10
641.8647564013
 20
668.1089493075
 10
641.8695600812
 20
668.1404497583
 10
641.8837865182
 20
668.1707396644
 10
641.9068889982
 20
668.1986550017
 10
641.937979706
 20
668.2231229996
 10
641.975863843
 20
668.2432033665
 10
642.0190855432
 20
668.2581244252
 10
642.0659838208
 20
668.2673127677
 10
642.1147564013
 20
668.2704152913
  0
LINE
  5
FD
330
1F
100
AcDbEntity
  8
0
  6
Continuous
 62
     7
370
    15
100
AcDbLine
 10
642.1147564013
 20
667.9756514307
 30
0.0
 11
642.1147564013
 21
668.2704152913
 31
0.0
  0
LINE
  5
FE
330
1F
100
AcDbEntity
  8
0
  6
Continuous
 62
     7
370
    15
100
AcDbLine
 10
642.1147564013
 20
668.2704152913
 30
0.0
 11
647.2147564013
 21
668.2704152913
 31
0.0
  0
LINE
  5
FF
330
1F
100
AcDbEntity
  8
0
  6
Continuous
 62
     7
370
    15
100
AcDbLine
 10
648.4147564013
 20
669.2379567321
 30
0.0
 11
648.4147564013
 21
669.3520776346
 31
0.0
  0
LINE
  5
100
330
1F
100
AcDbEntity
  8
0
  6
Continuous
 62
     7
370
    15
100
AcDbLine
 10
642.1147564013
 20
668.8330528929
 30
0.0
 11
642.1147564013
 21
668.2704152913
 31
0.0
  0
LINE
  5
101
330
1F
100
AcDbEntity
  8
0
  6
Continuous
 62
     7
370
    15
100
AcDbLine
 10
647.2147564013
 20
668.8330528929
 30
0.0
 11
642.1147564013
 21
668.8330528929
 31
0.0
  0
SPLINE
  5
102
330
1F
100
AcDbEntity
  8
0
  6
Continuous
 62
     7
370
    15
100
AcDbSpline
210
0.0
220
0.0
230
1.0
 70
     8
 71
     3
 72
    12
 73
     8
 74
     0
 42
0.00000001
 43
0.00000001
 12
1.0
 22
0.0
 32
0.0
 13
1.0
 23
0.0
 33
0.0
 40
0.0
 40
0.0
 40
0.0
 40
0.0
 40
0.1009214352040053
 40
0.3119724040343513
 40
0.5359629038279874
 40
0.7681188099356756
 40
1.0
 40
1.0
 40
1.0
 40
1.0
 10
647.2147564012873
 20
668.8330528929245
 30
0.0
 10
647.2418773599595
 20
668.8341309378052
 30
0.0
 10
647.325714759413
 20
668.8374634335473
 30
0.0
 10
647.4641859617979
 20
668.8776593152845
 30
0.0
 10
647.6019074997666
 20
668.9684299072743
 30
0.0
 10
647.696708947078
 20
669.0946020525327
 30
0.0
 10
647.7087429579816
 20
669.1901907021884
 30
0.0
 10
647.7147564012872
 20
669.2379567321495
 30
0.0
  0
LINE
  5
103
330
1F
100
AcDbEntity
  8
0
  6
Continuous
 62
     7
370
    15
100
AcDbLine
 10
647.7147564013
 20
669.3520776346
 30
0.0
 11
647.7147564013
 21
669.2379567321
 31
0.0
  0
LWPOLYLINE
  5
104
330
1F
100
AcDbEntity
  8
0
  6
Continuous
 62
     7
370
    15
100
AcDbPolyline
 90
        9
 70
   128
 43
0.0
 10
641.8647564013
 20
668.671586909
 10
641.8695600812
 20
668.7030873598
 10
641.8837865182
 20
668.733377266
 10
641.9068889982
 20
668.7612926033
 10
641.937979706
 20
668.7857606012
 10
641.975863843
 20
668.8058409681
 10
642.0190855432
 20
668.8207620267
 10
642.0659838208
 20
668.8299503693
 10
642.1147564013
 20
668.8330528929
  0
LINE
  5
105
330
1F
100
AcDbEntity
  8
0
  6
Continuous
 62
     7
370
    15
100
AcDbLine
 10
641.8647564013
 20
668.1089493075
 30
0.0
 11
641.8647564013
 21
668.671586909
 31
0.0
  0
LWPOLYLINE
  5
106
330
1F
100
AcDbEntity
  8
0
  6
Continuous
 62
     7
370
    15
100
AcDbPolyline
 90
        9
 70
   128
 43
0.0
 10
647.4647564013
 20
669.0764907483
 10
647.4695600812
 20
669.1079911991
 10
647.4837865182
 20
669.1382811052
 10
647.5068889982
 20
669.1661964426
 10
647.537979706
 20
669.1906644404
 10
647.575863843
 20
669.2107448073
 10
647.6190855432
 20
669.225665866
 10
647.6659838208
 20
669.2348542085
 10
647.7147564013
 20
669.2379567321
  0
LINE
  5
107
330
1F
100
AcDbEntity
  8
0
  6
Continuous
 62
     7
370
    15
100
AcDbLine
 10
648.6647564013
 20
669.3208839751
 30
0.0
 11
648.6647564013
 21
669.0764907483
 31
0.0
  0
LINE
  5
108
330
1F
100
AcDbEntity
  8
0
  6
Continuous
 62
     7
370
    15
100
AcDbLine
 10
647.4647564013
 20
669.0764907483
 30
0.0
 11
647.4647564013
 21
669.3208839751
 31
0.0
  0
LINE
  5
109
330
1F
100
AcDbEntity
  8
0
  6
Continuous
 62
     7
370
    15
100
AcDbLine
 10
647.2147564013
 20
663.9837656944
 30
0.0
 11
647.2147564013
 21
664.0031013951
 31
0.0
  0
LINE
  5
10A
330
1F
100
AcDbEntity
  8
0
  6
Continuous
 62
     7
370
    15
100
AcDbLine
 10
648.6647564013
 20
665.2013071352
 30
0.0
 11
648.6647564013
 21
664.9642048044
 31
0.0
  0
LINE
  5
10B
330
1F
100
AcDbEntity
  8
0
  6
Continuous
 62
     7
370
    15
100
AcDbLine
 10
642.1147564013
 20
682.7561098984
 30
0.0
 11
642.1147564013
 21
682.1934722968
 31
0.0
  0
LINE
  5
10C
330
1F
100
AcDbEntity
  8
0
  6
Continuous
 62
     7
370
    15
100
AcDbLine
 10
647.2147564013
 20
682.7561098984
 30
0.0
 11
642.1147564013
 21
682.7561098984
 31
0.0
  0
SPLINE
  5
10D
330
1F
100
AcDbEntity
  8
0
  6
Continuous
 62
     7
370
    15
100
AcDbSpline
210
0.0
220
0.0
230
1.0
 70
     8
 71
     3
 72
    10
 73
     6
 74
     0
 42
0.00000001
 43
0.00000001
 12
1.0
 22
0.0
 32
0.0
 13
1.0
 23
0.0
 33
0.0
 40
0.0
 40
0.0
 40
0.0
 40
0.0
 40
0.3816828359346655
 40
0.7620612310505154
 40
1.0
 40
1.0
 40
1.0
 40
1.0
 10
647.214756401287
 20
682.8253082137388
 30
0.0
 10
647.3710073739325
 20
682.8124518334196
 30
0.0
 10
647.6829753152613
 20
682.7867830107989
 30
0.0
 10
648.0609261648987
 20
682.629807976251
 30
0.0
 10
648.2236561880808
 20
682.4745333726639
 30
0.0
 10
648.2862774181508
 20
682.4147811125396
 30
0.0
  0
LINE
  5
10E
330
1F
100
AcDbEntity
  8
0
  6
Continuous
 62
     7
370
    15
100
AcDbLine
 10
642.1147564013
 20
682.1934722968
 30
0.0
 11
642.1147564013
 21
681.7990927586
 31
0.0
  0
ARC
  5
10F
330
1F
100
AcDbEntity
  8
0
  6
Continuous
 62
     7
370
    15
100
AcDbCircle
 10
642.1065051251
 20
682.0408628995
 30
0.0
 40
0.2419109021307294
100
AcDbArc
 50
182.09812148
 51
271.9546660229
  0
LWPOLYLINE
  5
110
330
1F
100
AcDbEntity
  8
0
  6
Continuous
 62
     7
370
    15
100
AcDbPolyline
 90
        9
 70
   128
 43
0.0
 10
642.1147564013
 20
682.1934722968
 10
642.0659838208
 20
682.1903697732
 10
642.0190855432
 20
682.1811814306
 10
641.975863843
 20
682.1662603719
 10
641.937979706
 20
682.146180005
 10
641.9068889982
 20
682.1217120072
 10
641.8837865182
 20
682.0937966698
 10
641.8695600812
 20
682.0635067637
 10
641.8647564013
 20
682.0320063129
  0
LINE
  5
111
330
1F
100
AcDbEntity
  8
0
  6
Continuous
 62
     7
370
    15
100
AcDbLine
 10
641.8647564013
 20
682.0320063129
 30
0.0
 11
641.8647564013
 21
682.5946439145
 31
0.0
  0
LWPOLYLINE
  5
112
330
1F
100
AcDbEntity
  8
0
  6
Continuous
 62
     7
370
    15
100
AcDbPolyline
 90
        9
 70
   128
 43
0.0
 10
642.1147564013
 20
682.7561098984
 10
642.0659838208
 20
682.7530073748
 10
642.0190855432
 20
682.7438190322
 10
641.975863843
 20
682.7288979735
 10
641.937979706
 20
682.7088176066
 10
641.9068889982
 20
682.6843496088
 10
641.8837865182
 20
682.6564342714
 10
641.8695600812
 20
682.6261443653
 10
641.8647564013
 20
682.5946439145
  0
LINE
  5
113
330
1F
100
AcDbEntity
  8
0
  6
Continuous
 62
     7
370
    15
100
AcDbLine
 10
641.8647564013
 20
678.7309107567
 30
0.0
 11
641.8647564013
 21
682.0320063129
 31
0.0
  0
SPLINE
  5
114
330
1F
100
AcDbEntity
  8
0
  6
Continuous
 62
     7
370
    15
100
AcDbSpline
210
0.0
220
0.0
230
1.0
 70
     8
 71
     3
 72
    13
 73
     9
 74
     0
 42
0.00000001
 43
0.00000001
 12
1.0
 22
0.0
 32
0.0
 13
1.0
 23
0.0
 33
0.0
 40
0.0
 40
0.0
 40
0.0
 40
0.0
 40
0.0075462231152776
 40
0.2722763788512366
 40
0.4815195415733553
 40
0.6613541616921911
 40
0.8304588949397784
 40
1.0
 40
1.0
 40
1.0
 40
1.0
 10
646.2647564012874
 20
676.7475204612509
 30
0.0
 10
646.2647595853299
 20
676.7473055262557
 30
0.0
 10
646.2648744692326
 20
676.7395504252888
 30
0.0
 10
646.2764601288457
 20
676.7256007698176
 30
0.0
 10
646.3191789081175
 20
676.7082470425828
 30
0.0
 10
646.3748505112219
 20
676.6960816656956
 30
0.0
 10
646.4409863046022
 20
676.6879737499266
 30
0.0
 10
646.4901452540007
 20
676.6869027577627
 30
0.0
 10
646.5147564012874
 20
676.6863665716518
 30
0.0
  0
LINE
  5
115
330
1F
100
AcDbEntity
  8
0
  6
Continuous
 62
     7
370
    15
100
AcDbLine
 10
646.2647564013
 20
668.921586909
 30
0.0
 11
646.2647564013
 21
676.7475204613
 31
0.0
  0
SPLINE
  5
116
330
1F
100
AcDbEntity
  8
0
  6
Continuous
 62
     7
370
    15
100
AcDbSpline
210
0.0
220
0.0
230
1.0
 70
     8
 71
     3
 72
    13
 73
     9
 74
     0
 42
0.00000001
 43
0.00000001
 12
1.0
 22
0.0
 32
0.0
 13
1.0
 23
0.0
 33
0.0
 40
0.0
 40
0.0
 40
0.0
 40
0.0
 40
0.1695411050602345
 40
0.3386458383075598
 40
0.5184804584263643
 40
0.7277236211483258
 40
0.9924537768848698
 40
1.0
 40
1.0
 40
1.0
 40
1.0
 10
647.2147564012874
 20
676.6863665716515
 30
0.0
 10
647.2393675485741
 20
676.6869027577625
 30
0.0
 10
647.2885264979725
 20
676.6879737499265
 30
0.0
 10
647.3546622913532
 20
676.6960816656956
 30
0.0
 10
647.4103338944572
 20
676.7082470425828
 30
0.0
 10
647.4530526737296
 20
676.7256007698174
 30
0.0
 10
647.4646383333413
 20
676.739550425289
 30
0.0
 10
647.464753217245
 20
676.7473055262557
 30
0.0
 10
647.4647564012874
 20
676.7475204612508
 30
0.0
  0
LINE
  5
117
330
1F
100
AcDbEntity
  8
0
  6
Continuous
 62
     7
370
    15
100
AcDbLine
 10
647.4647564013
 20
676.7475204613
 30
0.0
 11
647.4647564013
 21
669.2642048044
 31
0.0
  0
LINE
  5
118
330
1F
100
AcDbEntity
  8
0
  6
Continuous
 62
     7
370
    15
100
AcDbLine
 10
647.2147564013
 20
676.6863665717
 30
0.0
 11
646.5147564013
 21
676.6863665717
 31
0.0
  0
SPLINE
  5
119
330
1F
100
AcDbEntity
  8
0
  6
Continuous
 62
     7
370
    15
100
AcDbSpline
210
0.0
220
0.0
230
1.0
 70
     8
 71
     3
 72
    12
 73
     8
 74
     0
 42
0.00000001
 43
0.00000001
 12
1.0
 22
0.0
 32
0.0
 13
1.0
 23
0.0
 33
0.0
 40
0.0
 40
0.0
 40
0.0
 40
0.0
 40
0.2028202020467028
 40
0.4049472449427136
 40
0.6098312030741098
 40
0.8226939241827365
 40
1.0
 40
1.0
 40
1.0
 40
1.0
 10
647.714756401287
 20
682.3846448388733
 30
0.0
 10
647.5576155607515
 20
682.3734285963409
 30
0.0
 10
647.2438709248587
 20
682.3510344439524
 30
0.0
 10
646.8234746743898
 20
682.176973776179
 30
0.0
 10
646.4963961389498
 20
681.917929312894
 30
0.0
 10
646.298186872684
 20
681.6059185313386
 30
0.0
 10
646.275201666762
 20
681.3845624641066
 30
0.0
 10
646.2647564012872
 20
681.2839706793497
 30
0.0
  0
LINE
  5
11A
330
1F
100
AcDbEntity
  8
0
  6
Continuous
 62
     7
370
    15
100
AcDbLine
 10
647.7147564013
 20
682.3846448389
 30
0.0
 11
647.7147564013
 21
677.9622892199
 31
0.0
  0
SPLINE
  5
11B
330
1F
100
AcDbEntity
  8
0
  6
Continuous
 62
     7
370
    15
100
AcDbSpline
210
0.0
220
0.0
230
1.0
 70
     8
 71
     3
 72
    12
 73
     8
 74
     0
 42
0.00000001
 43
0.00000001
 12
1.0
 22
0.0
 32
0.0
 13
1.0
 23
0.0
 33
0.0
 40
0.0
 40
0.0
 40
0.0
 40
0.0
 40
0.2289440738515848
 40
0.4594214300241434
 40
0.6825355698157484
 40
0.8947175231628801
 40
0.9999999999999999
 40
0.9999999999999999
 40
0.9999999999999999
 40
0.9999999999999999
 10
646.2647564012872
 20
676.9700061294282
 30
0.0
 10
646.2820908858649
 20
677.0860542881021
 30
0.0
 10
646.316875947384
 20
677.3189278022
 30
0.0
 10
646.590745793196
 20
677.6278159895825
 30
0.0
 10
646.9877823276793
 20
677.8506851113336
 30
0.0
 10
647.388658317032
 20
677.9509343863994
 30
0.0
 10
647.6335437101189
 20
677.9594613695043
 30
0.0
 10
647.7147564012872
 20
677.9622892198582
 30
0.0
  0
LINE
  5
11C
330
1F
100
AcDbEntity
  8
0
  6
Continuous
 62
     7
370
    15
100
AcDbLine
 10
646.2647564013
 20
676.9700061294
 30
0.0
 11
646.2647564013
 21
681.2839706793
 31
0.0
  0
LINE
  5
11D
330
1F
100
AcDbEntity
  8
0
  6
Continuous
 62
     7
370
    15
100
AcDbLine
 10
653.0647564013
 20
682.1647811125
 30
0.0
 11
653.0647564013
 21
677.8508165626
 31
0.0
  0
LWPOLYLINE
  5
11E
330
1F
100
AcDbEntity
  8
0
  6
Continuous
 62
     7
370
    15
100
AcDbPolyline
 90
        9
 70
   128
 43
0.0
 10
653.0647564013
 20
677.8508165626
 10
653.0599527214
 20
677.8725637992
 10
653.0457262844
 20
677.8934753017
 10
653.0226238044
 20
677.9127474528
 10
652.9915330966
 20
677.9296396345
 10
652.9536489595
 20
677.9435026897
 10
652.9104272594
 20
677.9538038691
 10
652.8635289818
 20
677.960147304
 10
652.8147564013
 20
677.9622892199
  0
LINE
  5
11F
330
1F
100
AcDbEntity
  8
0
  6
Continuous
 62
     7
370
    15
100
AcDbLine
 10
652.8147564013
 20
677.9622892199
 30
0.0
 11
652.8147564013
 21
682.3846448389
 31
0.0
  0
ARC
  5
120
330
1F
100
AcDbEntity
  8
0
  6
Continuous
 62
     7
370
    15
100
AcDbCircle
 10
652.8289163431
 20
682.1486802963
 30
0.0
 40
0.2363890211415536
100
AcDbArc
 50
3.9055265258
 51
93.4341310141
  0
LINE
  5
121
330
1F
100
AcDbEntity
  8
0
  6
Continuous
 62
     7
370
    15
100
AcDbLine
 10
652.8147564013
 20
682.3846448389
 30
0.0
 11
647.7147564013
 21
682.3846448389
 31
0.0
  0
LINE
  5
122
330
1F
100
AcDbEntity
  8
0
  6
Continuous
 62
     7
370
    15
100
AcDbLine
 10
647.7147564013
 20
677.9622892199
 30
0.0
 11
652.8147564013
 21
677.9622892199
 31
0.0
  0
LINE
  5
123
330
1F
100
AcDbEntity
  8
0
  6
Continuous
 62
     7
370
    15
100
AcDbLine
 10
647.7147564013
 20
677.9622892199
 30
0.0
 11
647.7147564013
 21
677.6710680397
 31
0.0
  0
SPLINE
  5
124
330
1F
100
AcDbEntity
  8
0
  6
Continuous
 62
     7
370
    15
100
AcDbSpline
210
0.0
220
0.0
230
1.0
 70
     8
 71
     3
 72
    12
 73
     8
 74
     0
 42
0.00000001
 43
0.00000001
 12
1.0
 22
0.0
 32
0.0
 13
1.0
 23
0.0
 33
0.0
 40
0.0
 40
0.0
 40
0.0
 40
0.0
 40
0.1044203826439042
 40
0.3151731030979903
 40
0.537747297458607
 40
0.7690283494734643
 40
1.0
 40
1.0
 40
1.0
 40
1.0
 10
647.7147564012872
 20
677.6710680397042
 30
0.0
 10
647.6475368326506
 20
677.6685804242904
 30
0.0
 10
647.4446473248773
 20
677.6610720293828
 30
0.0
 10
647.1122899597126
 20
677.5725970239018
 30
0.0
 10
646.7836451714589
 20
677.3755575817189
 30
0.0
 10
646.557583458583
 20
677.1016644181302
 30
0.0
 10
646.5290257154954
 20
676.8940135477848
 30
0.0
 10
646.5147564012872
 20
676.7902576065145
 30
0.0
  0
ARC
  5
125
330
1F
100
AcDbEntity
  8
0
  6
Continuous
 62
     7
370
    15
100
AcDbCircle
 10
646.4845659328
 20
677.0119959995
 30
0.0
 40
0.2237842249241925
100
AcDbArc
 50
190.8148280793
 51
277.753348147
  0
ARC
  5
126
330
1F
100
AcDbEntity
  8
0
  6
Continuous
 62
     7
370
    15
100
AcDbCircle
 10
652.8449468698
 20
677.8928064327
 30
0.0
 40
0.2237842249242107
100
AcDbArc
 50
262.2466518529
 51
349.1851719207
  0
LINE
  5
127
330
1F
100
AcDbEntity
  8
0
  6
Continuous
 62
     7
370
    15
100
AcDbLine
 10
652.8147564013
 20
677.9622892199
 30
0.0
 11
652.8147564013
 21
677.6710680397
 31
0.0
  0
LINE
  5
128
330
1F
100
AcDbEntity
  8
0
  6
Continuous
 62
     7
370
    15
100
AcDbLine
 10
652.8147564013
 20
677.6710680397
 30
0.0
 11
647.7147564013
 21
677.6710680397
 31
0.0
  0
LINE
  5
129
330
1F
100
AcDbEntity
  8
0
  6
Continuous
 62
     7
370
    15
100
AcDbLine
 10
646.5147564013
 20
676.7902576065
 30
0.0
 11
646.5147564013
 21
676.6863665717
 31
0.0
  0
LINE
  5
12A
330
1F
100
AcDbEntity
  8
0
  6
Continuous
 62
     7
370
    15
100
AcDbLine
 10
652.8147564013
 20
677.1588656175
 30
0.0
 11
652.8147564013
 21
677.6710680397
 31
0.0
  0
LINE
  5
12B
330
1F
100
AcDbEntity
  8
0
  6
Continuous
 62
     7
370
    15
100
AcDbLine
 10
647.7147564013
 20
677.1588656175
 30
0.0
 11
652.8147564013
 21
677.1588656175
 31
0.0
  0
SPLINE
  5
12C
330
1F
100
AcDbEntity
  8
0
  6
Continuous
 62
     7
370
    15
100
AcDbSpline
210
0.0
220
0.0
230
1.0
 70
     8
 71
     3
 72
    12
 73
     8
 74
     0
 42
0.00000001
 43
0.00000001
 12
1.0
 22
0.0
 32
0.0
 13
1.0
 23
0.0
 33
0.0
 40
0.0
 40
0.0
 40
0.0
 40
0.0
 40
0.100921435204008
 40
0.3119724040343577
 40
0.5359629038279817
 40
0.7681188099357275
 40
1.0
 40
1.0
 40
1.0
 40
1.0
 10
647.7147564012872
 20
677.1588656174845
 30
0.0
 10
647.687635442615
 20
677.1578842092073
 30
0.0
 10
647.6037980431611
 20
677.1548504404255
 30
0.0
 10
647.4653268407765
 20
677.1182577421575
 30
0.0
 10
647.3276053028078
 20
677.0356238816538
 30
0.0
 10
647.2328038554964
 20
676.9207618848092
 30
0.0
 10
647.2207698445928
 20
676.833741860281
 30
0.0
 10
647.2147564012873
 20
676.7902576065145
 30
0.0
  0
LINE
  5
12D
330
1F
100
AcDbEntity
  8
0
  6
Continuous
 62
     7
370
    15
100
AcDbLine
 10
647.2147564013
 20
676.6863665717
 30
0.0
 11
647.2147564013
 21
676.7902576065
 31
0.0
  0
ARC
  5
12E
330
1F
100
AcDbEntity
  8
0
  6
Continuous
 62
     7
370
    15
100
AcDbCircle
 10
652.8449468698
 20
677.3806040105
 30
0.0
 40
0.2237842249232584
100
AcDbArc
 50
262.2466518526
 51
349.1851719209
  0
LINE
  5
12F
330
1F
100
AcDbEntity
  8
0
  6
Continuous
 62
     7
370
    15
100
AcDbLine
 10
653.0647564013
 20
677.8508165626
 30
0.0
 11
653.0647564013
 21
677.3386141404
 31
0.0
  0
ARC
  5
130
330
1F
100
AcDbEntity
  8
0
  6
Continuous
 62
     7
370
    15
100
AcDbCircle
 10
647.2449468698
 20
677.0119959995
 30
0.0
 40
0.2237842249234554
100
AcDbArc
 50
262.2466518529
 51
349.1851719208
  0
LINE
  5
131
330
1F
100
AcDbEntity
  8
0
  6
Continuous
 62
     7
370
    15
100
AcDbLine
 10
646.2647564013
 20
676.7475204613
 30
0.0
 11
646.2647564013
 21
676.9700061294
 31
0.0
  0
LINE
  5
132
330
1F
100
AcDbEntity
  8
0
  6
Continuous
 62
     7
370
    15
100
AcDbLine
 10
647.4647564013
 20
676.9700061294
 30
0.0
 11
647.4647564013
 21
676.7475204613
 31
0.0
  0
LINE
  5
133
330
1F
100
AcDbEntity
  8
0
  6
Continuous
 62
     7
370
    15
100
AcDbLine
 10
647.7147564013
 20
682.4147811125
 30
0.0
 11
647.7147564013
 21
682.3846448389
 31
0.0
  0
LINE
  5
134
330
1F
100
AcDbEntity
  8
0
  6
Continuous
 62
     7
370
    15
100
AcDbLine
 10
646.2647564013
 20
681.2839706793
 30
0.0
 11
646.2647564013
 21
681.8642048044
 31
0.0
  0
LINE
  5
135
330
1F
100
AcDbEntity
  8
0
  6
Continuous
 62
     7
370
    15
100
AcDbLine
 10
652.8147564013
 20
664.4838799734
 30
0.0
 11
652.8147564013
 21
664.9960823957
 31
0.0
  0
LINE
  5
136
330
1F
100
AcDbEntity
  8
0
  6
Continuous
 62
     7
370
    15
100
AcDbLine
 10
652.8147564013
 20
664.9960823957
 30
0.0
 11
652.8147564013
 21
665.3984896722
 31
0.0
  0
ARC
  5
137
330
1F
100
AcDbEntity
  8
0
  6
Continuous
 62
     7
370
    15
100
AcDbCircle
 10
652.8276794807
 20
665.1613209575
 30
0.0
 40
0.2375205364720301
100
AcDbArc
 50
3.5023392347
 51
93.1189038297
  0
ARC
  5
138
330
1F
100
AcDbEntity
  8
0
  6
Continuous
 62
     7
370
    15
100
AcDbCircle
 10
652.8449468698
 20
665.2178207887
 30
0.0
 40
0.2237842249232707
100
AcDbArc
 50
262.2466518528
 51
349.1851719209
  0
LINE
  5
139
330
1F
100
AcDbEntity
  8
0
  6
Continuous
 62
     7
370
    15
100
AcDbLine
 10
653.0647564013
 20
665.1758309186
 30
0.0
 11
653.0647564013
 21
664.6636284963
 31
0.0
  0
ARC
  5
13A
330
1F
100
AcDbEntity
  8
0
  6
Continuous
 62
     7
370
    15
100
AcDbCircle
 10
652.8449468698
 20
664.7056183664
 30
0.0
 40
0.2237842249232797
100
AcDbArc
 50
262.2466518528
 51
349.1851719209
  0
LINE
  5
13B
330
1F
100
AcDbEntity
  8
0
  6
Continuous
 62
     7
370
    15
100
AcDbLine
 10
653.0647564013
 20
667.9128864963
 30
0.0
 11
653.0647564013
 21
665.1758309186
 31
0.0
  0
LINE
  5
13C
330
1F
100
AcDbEntity
  8
0
  6
Continuous
 62
     7
370
    15
100
AcDbLine
 10
645.8181744139
 20
678.0217828478
 30
0.0
 11
646.2647564013
 21
675.3634298717
 31
0.0
  0
SPLINE
  5
13D
330
1F
100
AcDbEntity
  8
0
  6
Continuous
 62
     7
370
    15
100
AcDbSpline
210
0.0
220
0.0
230
1.0
 70
     8
 71
     3
 72
     9
 73
     5
 74
     0
 42
0.00000001
 43
0.00000001
 12
1.0
 22
0.0
 32
0.0
 13
1.0
 23
0.0
 33
0.0
 40
0.0
 40
0.0
 40
0.0
 40
0.0
 40
0.0702005767034291
 40
1.0
 40
1.0
 40
1.0
 40
1.0
 10
646.2647564012872
 20
675.3634298716962
 30
0.0
 10
646.2643102850196
 20
675.3004111768521
 30
0.0
 10
646.2579554046391
 20
674.4027163457922
 30
0.0
 10
646.0300659227437
 20
673.5230189898192
 30
0.0
 10
645.818174413902
 20
672.7050768955598
 30
0.0
  0
LINE
  5
13E
330
1F
100
AcDbEntity
  8
0
  6
Continuous
 62
     7
370
    15
100
AcDbLine
 10
645.8181744139
 20
672.7050768956
 30
0.0
 11
641.5113383887
 21
672.7050768956
 31
0.0
  0
SPLINE
  5
13F
330
1F
100
AcDbEntity
  8
0
  6
Continuous
 62
     7
370
    15
100
AcDbSpline
210
0.0
220
0.0
230
1.0
 70
     8
 71
     3
 72
     9
 73
     5
 74
     0
 42
0.00000001
 43
0.00000001
 12
1.0
 22
0.0
 32
0.0
 13
1.0
 23
0.0
 33
0.0
 40
0.0
 40
0.0
 40
0.0
 40
0.0
 40
0.0702005767034289
 40
0.9999999999999999
 40
0.9999999999999999
 40
0.9999999999999999
 40
0.9999999999999999
 10
641.0647564012872
 20
675.3634298716962
 30
0.0
 10
641.0652025175548
 20
675.3004111768521
 30
0.0
 10
641.0715573979353
 20
674.4027163457921
 30
0.0
 10
641.2994468798308
 20
673.5230189898192
 30
0.0
 10
641.5113383886725
 20
672.7050768955598
 30
0.0
  0
LINE
  5
140
330
1F
100
AcDbEntity
  8
0
  6
Continuous
 62
     7
370
    15
100
AcDbLine
 10
641.5113383887
 20
678.0217828478
 30
0.0
 11
641.0647564013
 21
675.3634298717
 31
0.0
  0
LINE
  5
141
330
1F
100
AcDbEntity
  8
0
  6
Continuous
 62
     7
370
    15
100
AcDbLine
 10
645.8181744139
 20
678.0217828478
 30
0.0
 11
641.5113383887
 21
678.0217828478
 31
0.0
  0
SPLINE
  5
142
330
1F
100
AcDbEntity
  8
0
  6
Continuous
 62
     7
370
    15
100
AcDbSpline
210
0.0
220
0.0
230
1.0
 70
     8
 71
     3
 72
     9
 73
     5
 74
     0
 42
0.00000001
 43
0.00000001
 12
1.0
 22
0.0
 32
0.0
 13
1.0
 23
0.0
 33
0.0
 40
0.0
 40
0.0
 40
0.0
 40
0.0
 40
0.2686336050555775
 40
1.0
 40
1.0
 40
1.0
 40
1.0
 10
641.0647564012872
 20
670.401287873866
 30
0.0
 10
641.0713853538716
 20
670.6107667601926
 30
0.0
 10
641.0960619113079
 20
671.3905608082357
 30
0.0
 10
641.335916674908
 20
672.1497970341221
 30
0.0
 10
641.5113383886724
 20
672.7050768955598
 30
0.0
  0
LINE
  5
143
330
1F
100
AcDbEntity
  8
0
  6
Continuous
 62
     7
370
    15
100
AcDbLine
 10
641.0647564013
 20
670.4012878739
 30
0.0
 11
641.0647564013
 21
675.3634298717
 31
0.0
  0
SPLINE
  5
144
330
1F
100
AcDbEntity
  8
0
  6
Continuous
 62
     7
370
    15
100
AcDbSpline
210
0.0
220
0.0
230
1.0
 70
     8
 71
     3
 72
     9
 73
     5
 74
     0
 42
0.00000001
 43
0.00000001
 12
1.0
 22
0.0
 32
0.0
 13
1.0
 23
0.0
 33
0.0
 40
0.0
 40
0.0
 40
0.0
 40
0.0
 40
0.2686336050555785
 40
1.0
 40
1.0
 40
1.0
 40
1.0
 10
646.2647564012872
 20
670.401287873866
 30
0.0
 10
646.2581274487027
 20
670.6107667601926
 30
0.0
 10
646.2334508912664
 20
671.3905608082357
 30
0.0
 10
645.9935961276664
 20
672.1497970341221
 30
0.0
 10
645.818174413902
 20
672.7050768955598
 30
0.0
  0
LINE
  5
145
330
1F
100
AcDbEntity
  8
0
  6
Continuous
 62
     7
370
    15
100
AcDbLine
 10
646.0436734035
 20
668.921586909
 30
0.0
 11
646.2647564013
 21
670.4012878739
 31
0.0
  0
LINE
  5
146
330
1F
100
AcDbEntity
  8
0
  6
Continuous
 62
     7
370
    15
100
AcDbLine
 10
641.8647564013
 20
668.0974988522
 30
0.0
 11
641.5113383887
 21
668.0974988522
 31
0.0
  0
SPLINE
  5
147
330
1F
100
AcDbEntity
  8
0
  6
Continuous
 62
     7
370
    15
100
AcDbSpline
210
0.0
220
0.0
230
1.0
 70
     8
 71
     3
 72
     9
 73
     5
 74
     0
 42
0.00000001
 43
0.00000001
 12
1.0
 22
0.0
 32
0.0
 13
1.0
 23
0.0
 33
0.0
 40
0.0
 40
0.0
 40
0.0
 40
0.0
 40
0.2575513451037949
 40
1.0
 40
1.0
 40
1.0
 40
1.0
 10
641.5113383886725
 20
668.0974988521718
 30
0.0
 10
641.4439231658974
 20
668.2909059432093
 30
0.0
 10
641.1821686689534
 20
669.0418517049543
 30
0.0
 10
641.1147851811609
 20
669.8220389231496
 30
0.0
 10
641.0647564012872
 20
670.401287873866
 30
0.0
  0
SPLINE
  5
148
330
1F
100
AcDbEntity
  8
0
  6
Continuous
 62
     7
370
    15
100
AcDbSpline
210
0.0
220
0.0
230
1.0
 70
     8
 71
     3
 72
     9
 73
     5
 74
     0
 42
0.00000001
 43
0.00000001
 12
1.0
 22
0.0
 32
0.0
 13
1.0
 23
0.0
 33
0.0
 40
0.0
 40
0.0
 40
0.0
 40
0.0
 40
0.0702005767034423
 40
1.0
 40
1.0
 40
1.0
 40
1.0
 10
646.2647564012872
 20
678.3763468022745
 30
0.0
 10
646.2643102850196
 20
678.3679415386213
 30
0.0
 10
646.2579554046393
 20
678.2482094217651
 30
0.0
 10
646.0300659227439
 20
678.1308777596248
 30
0.0
 10
645.818174413902
 20
678.0217828478325
 30
0.0
  0
SPLINE
  5
149
330
1F
100
AcDbEntity
  8
0
  6
Continuous
 62
     7
370
    15
100
AcDbSpline
210
0.0
220
0.0
230
1.0
 70
     8
 71
     3
 72
     9
 73
     5
 74
     0
 42
0.00000001
 43
0.00000001
 12
1.0
 22
0.0
 32
0.0
 13
1.0
 23
0.0
 33
0.0
 40
0.0
 40
0.0
 40
0.0
 40
0.0
 40
0.0702005767034421
 40
1.0
 40
1.0
 40
1.0
 40
1.0
 10
641.0647564012872
 20
678.3763468022745
 30
0.0
 10
641.0652025175548
 20
678.3679415386213
 30
0.0
 10
641.0715573979356
 20
678.2482094217651
 30
0.0
 10
641.2994468798308
 20
678.1308777596248
 30
0.0
 10
641.5113383886724
 20
678.0217828478325
 30
0.0
  0
LINE
  5
14A
330
1F
100
AcDbEntity
  8
0
  6
Continuous
 62
     7
370
    15
100
AcDbLine
 10
641.0647564013
 20
675.3634298717
 30
0.0
 11
641.0647564013
 21
678.3763468023
 31
0.0
  0
LINE
  5
14B
330
1F
100
AcDbEntity
  8
0
  6
Continuous
 62
     7
370
    15
100
AcDbLine
 10
641.5113383887
 20
668.0974988522
 30
0.0
 11
641.0647564013
 21
668.4520628066
 31
0.0
  0
LINE
  5
14C
330
1F
100
AcDbEntity
  8
0
  6
Continuous
 62
     7
370
    15
100
AcDbLine
 10
641.0647564013
 20
670.4012878739
 30
0.0
 11
641.0647564013
 21
668.4143555108
 31
0.0
  0
LINE
  5
14D
330
1F
100
AcDbEntity
  8
0
  6
Continuous
 62
     7
370
    15
100
AcDbLine
 10
645.8181744139
 20
678.7309107567
 30
0.0
 11
646.2647564013
 21
678.3763468023
 31
0.0
  0
LINE
  5
14E
330
1F
100
AcDbEntity
  8
0
  6
Continuous
 62
     7
370
    15
100
AcDbLine
 10
641.5113383887
 20
678.7309107567
 30
0.0
 11
641.0647564013
 21
678.3763468023
 31
0.0
  0
LINE
  5
14F
330
1F
100
AcDbEntity
  8
0
  6
Continuous
 62
     7
370
    15
100
AcDbLine
 10
645.8181744139
 20
678.7309107567
 30
0.0
 11
641.5113383887
 21
678.7309107567
 31
0.0
  0
LINE
  5
150
330
1F
100
AcDbEntity
  8
0
  6
Continuous
 62
     7
370
    15
100
AcDbLine
 10
653.4181744139
 20
678.9155231126
 30
0.0
 11
653.8647564013
 21
676.7816385517
 31
0.0
  0
SPLINE
  5
151
330
1F
100
AcDbEntity
  8
0
  6
Continuous
 62
     7
370
    15
100
AcDbSpline
210
0.0
220
0.0
230
1.0
 70
     8
 71
     3
 72
     9
 73
     5
 74
     0
 42
0.00000001
 43
0.00000001
 12
1.0
 22
0.0
 32
0.0
 13
1.0
 23
0.0
 33
0.0
 40
0.0
 40
0.0
 40
0.0
 40
0.0
 40
0.0702005767034279
 40
1.0
 40
1.0
 40
1.0
 40
1.0
 10
653.8647564012873
 20
676.7816385517141
 30
0.0
 10
653.8643102850198
 20
676.731052861558
 30
0.0
 10
653.8579554046389
 20
676.0104649044301
 30
0.0
 10
653.6300659227437
 20
675.304323687283
 30
0.0
 10
653.418174413902
 20
674.6477539908136
 30
0.0
  0
LINE
  5
152
330
1F
100
AcDbEntity
  8
0
  6
Continuous
 62
     7
370
    15
100
AcDbLine
 10
653.4181744139
 20
674.6477539908
 30
0.0
 11
649.1113383887
 21
674.6477539908
 31
0.0
  0
SPLINE
  5
153
330
1F
100
AcDbEntity
  8
0
  6
Continuous
 62
     7
370
    15
100
AcDbSpline
210
0.0
220
0.0
230
1.0
 70
     8
 71
     3
 72
     9
 73
     5
 74
     0
 42
0.00000001
 43
0.00000001
 12
1.0
 22
0.0
 32
0.0
 13
1.0
 23
0.0
 33
0.0
 40
0.0
 40
0.0
 40
0.0
 40
0.0
 40
0.0702005767034277
 40
1.0
 40
1.0
 40
1.0
 40
1.0
 10
648.6647564012873
 20
676.7816385517141
 30
0.0
 10
648.6652025175547
 20
676.731052861558
 30
0.0
 10
648.6715573979351
 20
676.0104649044301
 30
0.0
 10
648.8994468798306
 20
675.304323687283
 30
0.0
 10
649.1113383886724
 20
674.6477539908136
 30
0.0
  0
LINE
  5
154
330
1F
100
AcDbEntity
  8
0
  6
Continuous
 62
     7
370
    15
100
AcDbLine
 10
648.7290006303
 20
677.0886141404
 30
0.0
 11
648.6647564013
 21
676.7816385517
 31
0.0
  0
LINE
  5
155
330
1F
100
AcDbEntity
  8
0
  6
Continuous
 62
     7
370
    15
100
AcDbLine
 10
653.4181744139
 20
678.9155231126
 30
0.0
 11
653.0647564013
 21
678.9155231126
 31
0.0
  0
SPLINE
  5
156
330
1F
100
AcDbEntity
  8
0
  6
Continuous
 62
     7
370
    15
100
AcDbSpline
210
0.0
220
0.0
230
1.0
 70
     8
 71
     3
 72
     9
 73
     5
 74
     0
 42
0.00000001
 43
0.00000001
 12
1.0
 22
0.0
 32
0.0
 13
1.0
 23
0.0
 33
0.0
 40
0.0
 40
0.0
 40
0.0
 40
0.0
 40
0.2686336050555797
 40
1.0
 40
1.0
 40
1.0
 40
1.0
 10
648.6647564012873
 20
671.8970948367283
 30
0.0
 10
648.6713853538718
 20
672.1472067223377
 30
0.0
 10
648.6960619113078
 20
673.0782588353362
 30
0.0
 10
648.935916674908
 20
673.9847654881512
 30
0.0
 10
649.1113383886724
 20
674.6477539908136
 30
0.0
  0
SPLINE
  5
157
330
1F
100
AcDbEntity
  8
0
  6
Continuous
 62
     7
370
    15
100
AcDbSpline
210
0.0
220
0.0
230
1.0
 70
     8
 71
     3
 72
     9
 73
     5
 74
     0
 42
0.00000001
 43
0.00000001
 12
1.0
 22
0.0
 32
0.0
 13
1.0
 23
0.0
 33
0.0
 40
0.0
 40
0.0
 40
0.0
 40
0.0
 40
0.2686336050555808
 40
1.0
 40
1.0
 40
1.0
 40
1.0
 10
653.8647564012873
 20
671.8970948367283
 30
0.0
 10
653.8581274487026
 20
672.1472067223377
 30
0.0
 10
653.8334508912664
 20
673.0782588353362
 30
0.0
 10
653.5935961276665
 20
673.9847654881512
 30
0.0
 10
653.418174413902
 20
674.6477539908136
 30
0.0
  0
LINE
  5
158
330
1F
100
AcDbEntity
  8
0
  6
Continuous
 62
     7
370
    15
100
AcDbLine
 10
653.8647564013
 20
671.8970948367
 30
0.0
 11
653.8647564013
 21
676.7816385517
 31
0.0
  0
SPLINE
  5
159
330
1F
100
AcDbEntity
  8
0
  6
Continuous
 62
     7
370
    15
100
AcDbSpline
210
0.0
220
0.0
230
1.0
 70
     8
 71
     3
 72
     9
 73
     5
 74
     0
 42
0.00000001
 43
0.00000001
 12
1.0
 22
0.0
 32
0.0
 13
1.0
 23
0.0
 33
0.0
 40
0.0
 40
0.0
 40
0.0
 40
0.0
 40
0.2575513451037904
 40
0.9999999999999999
 40
0.9999999999999999
 40
0.9999999999999999
 40
0.9999999999999999
 10
653.418174413902
 20
669.1464356826433
 30
0.0
 10
653.4855896366769
 20
669.3773582976994
 30
0.0
 10
653.7473441336208
 20
670.2739663700161
 30
0.0
 10
653.8147276214135
 20
671.2054879170937
 30
0.0
 10
653.8647564012873
 20
671.8970948367283
 30
0.0
  0
LINE
  5
15A
330
1F
100
AcDbEntity
  8
0
  6
Continuous
 62
     7
370
    15
100
AcDbLine
 10
653.4181744139
 20
669.1464356826
 30
0.0
 11
649.1113383887
 21
669.1464356826
 31
0.0
  0
SPLINE
  5
15B
330
1F
100
AcDbEntity
  8
0
  6
Continuous
 62
     7
370
    15
100
AcDbSpline
210
0.0
220
0.0
230
1.0
 70
     8
 71
     3
 72
     9
 73
     5
 74
     0
 42
0.00000001
 43
0.00000001
 12
1.0
 22
0.0
 32
0.0
 13
1.0
 23
0.0
 33
0.0
 40
0.0
 40
0.0
 40
0.0
 40
0.0
 40
0.257551345103794
 40
1.0
 40
1.0
 40
1.0
 40
1.0
 10
649.1113383886724
 20
669.1464356826433
 30
0.0
 10
649.0439231658976
 20
669.3773582976994
 30
0.0
 10
648.7821686689537
 20
670.2739663700161
 30
0.0
 10
648.7147851811609
 20
671.2054879170937
 30
0.0
 10
648.6647564012873
 20
671.8970948367283
 30
0.0
  0
LINE
  5
15C
330
1F
100
AcDbEntity
  8
0
  6
Continuous
 62
     7
370
    15
100
AcDbLine
 10
649.1113383887
 20
669.1464356826
 30
0.0
 11
648.6647564013
 21
668.5296610895
 31
0.0
  0
LINE
  5
15D
330
1F
100
AcDbEntity
  8
0
  6
Continuous
 62
     7
370
    15
100
AcDbLine
 10
653.4181744139
 20
669.1464356826
 30
0.0
 11
653.8647564013
 21
668.5296610895
 31
0.0
  0
LINE
  5
15E
330
1F
100
AcDbEntity
  8
0
  6
Continuous
 62
     7
370
    15
100
AcDbLine
 10
653.8647564013
 20
671.8970948367
 30
0.0
 11
653.8647564013
 21
668.5296610895
 31
0.0
  0
LINE
  5
15F
330
1F
100
AcDbEntity
  8
0
  6
Continuous
 62
     7
370
    15
100
AcDbLine
 10
653.71563632
 20
678.5318135869
 30
0.0
 11
653.4181744139
 21
678.9155231126
 31
0.0
  0
LINE
  5
160
330
1F
100
AcDbEntity
  8
0
  6
Continuous
 62
     7
370
    15
100
AcDbLine
 10
653.8647564013
 20
678.4142048044
 30
0.0
 11
653.8647564013
 21
676.7816385517
 31
0.0
  0
SPLINE
  5
161
330
1F
100
AcDbEntity
  8
0
  6
Continuous
 62
     7
370
    15
100
AcDbSpline
210
0.0
220
0.0
230
1.0
 70
     8
 71
     3
 72
     9
 73
     5
 74
     0
 42
0.00000001
 43
0.00000001
 12
1.0
 22
0.0
 32
0.0
 13
1.0
 23
0.0
 33
0.0
 40
0.0
 40
0.0
 40
0.0
 40
0.0
 40
0.0702005767034406
 40
1.0
 40
1.0
 40
1.0
 40
1.0
 10
653.8647564012871
 20
668.5296610894585
 30
0.0
 10
653.8643102850194
 20
668.515039882183
 30
0.0
 10
653.8579554046393
 20
668.3067622872957
 30
0.0
 10
653.6300659227437
 20
668.102660355112
 30
0.0
 10
653.418174413902
 20
667.9128864962738
 30
0.0
  0
LINE
  5
162
330
1F
100
AcDbEntity
  8
0
  6
Continuous
 62
     7
370
    15
100
AcDbLine
 10
653.4181744139
 20
667.9128864963
 30
0.0
 11
649.1113383887
 21
667.9128864963
 31
0.0
  0
LINE
  5
163
330
1F
100
AcDbEntity
  8
0
  6
Continuous
 62
     7
370
    15
100
AcDbLine
 10
648.8138764826
 20
668.296596022
 30
0.0
 11
649.1113383887
 21
667.9128864963
 31
0.0
  0
LINE
  5
164
330
1F
100
AcDbEntity
  8
0
  6
Continuous
 62
     7
370
    15
100
AcDbLine
 10
653.8647564013
 20
668.5296610895
 30
0.0
 11
653.8647564013
 21
668.4142048044
 31
0.0
  0
LINE
  5
165
330
1F
100
AcDbEntity
  8
0
  6
Continuous
 62
     7
370
    15
100
AcDbLine
 10
658.8681744139
 20
671.5103721156
 30
0.0
 11
659.3147564013
 21
669.6261626126
 31
0.0
  0
SPLINE
  5
166
330
1F
100
AcDbEntity
  8
0
  6
Continuous
 62
     7
370
    15
100
AcDbSpline
210
0.0
220
0.0
230
1.0
 70
     8
 71
     3
 72
     9
 73
     5
 74
     0
 42
0.00000001
 43
0.00000001
 12
1.0
 22
0.0
 32
0.0
 13
1.0
 23
0.0
 33
0.0
 40
0.0
 40
0.0
 40
0.0
 40
0.0
 40
0.0702005767034407
 40
1.0
 40
1.0
 40
1.0
 40
1.0
 10
659.3147564012871
 20
669.6261626126261
 30
0.0
 10
659.3143102850196
 20
669.5814956986554
 30
0.0
 10
659.3079554046391
 20
668.9452200999613
 30
0.0
 10
659.0800659227436
 20
668.3217009011481
 30
0.0
 10
658.8681744139019
 20
667.7419531096773
 30
0.0
  0
LINE
  5
167
330
1F
100
AcDbEntity
  8
0
  6
Continuous
 62
     7
370
    15
100
AcDbLine
 10
658.8681744139
 20
667.7419531097
 30
0.0
 11
654.5613383887
 21
667.7419531097
 31
0.0
  0
SPLINE
  5
168
330
1F
100
AcDbEntity
  8
0
  6
Continuous
 62
     7
370
    15
100
AcDbSpline
210
0.0
220
0.0
230
1.0
 70
     8
 71
     3
 72
     9
 73
     5
 74
     0
 42
0.00000001
 43
0.00000001
 12
1.0
 22
0.0
 32
0.0
 13
1.0
 23
0.0
 33
0.0
 40
0.0
 40
0.0
 40
0.0
 40
0.0
 40
0.0702005767034404
 40
0.9999999999999999
 40
0.9999999999999999
 40
0.9999999999999999
 40
0.9999999999999999
 10
654.1147564012872
 20
669.6261626126261
 30
0.0
 10
654.1152025175547
 20
669.5814956986554
 30
0.0
 10
654.1215573979354
 20
668.9452200999613
 30
0.0
 10
654.3494468798307
 20
668.3217009011481
 30
0.0
 10
654.5613383886725
 20
667.7419531096773
 30
0.0
  0
LINE
  5
169
330
1F
100
AcDbEntity
  8
0
  6
Continuous
 62
     7
370
    15
100
AcDbLine
 10
654.5613383887
 20
671.5103721156
 30
0.0
 11
654.1147564013
 21
669.6261626126
 31
0.0
  0
LINE
  5
16A
330
1F
100
AcDbEntity
  8
0
  6
Continuous
 62
     7
370
    15
100
AcDbLine
 10
658.8681744139
 20
671.5103721156
 30
0.0
 11
654.5613383887
 21
671.5103721156
 31
0.0
  0
SPLINE
  5
16B
330
1F
100
AcDbEntity
  8
0
  6
Continuous
 62
     7
370
    15
100
AcDbSpline
210
0.0
220
0.0
230
1.0
 70
     8
 71
     3
 72
     9
 73
     5
 74
     0
 42
0.00000001
 43
0.00000001
 12
1.0
 22
0.0
 32
0.0
 13
1.0
 23
0.0
 33
0.0
 40
0.0
 40
0.0
 40
0.0
 40
0.0
 40
0.257551345103795
 40
1.0
 40
1.0
 40
1.0
 40
1.0
 10
654.5613383886725
 20
671.5103721155748
 30
0.0
 10
654.4939231658976
 20
671.7484698080253
 30
0.0
 10
654.2321686689536
 20
672.6729367035667
 30
0.0
 10
654.164785181161
 20
673.6334018826633
 30
0.0
 10
654.1147564012872
 20
674.3464979629581
 30
0.0
  0
LINE
  5
16C
330
1F
100
AcDbEntity
  8
0
  6
Continuous
 62
     7
370
    15
100
AcDbLine
 10
654.1147564013
 20
669.6261626126
 30
0.0
 11
654.1147564013
 21
674.346497963
 31
0.0
  0
SPLINE
  5
16D
330
1F
100
AcDbEntity
  8
0
  6
Continuous
 62
     7
370
    15
100
AcDbSpline
210
0.0
220
0.0
230
1.0
 70
     8
 71
     3
 72
     9
 73
     5
 74
     0
 42
0.00000001
 43
0.00000001
 12
1.0
 22
0.0
 32
0.0
 13
1.0
 23
0.0
 33
0.0
 40
0.0
 40
0.0
 40
0.0
 40
0.0
 40
0.2575513451037915
 40
1.0
 40
1.0
 40
1.0
 40
1.0
 10
658.868174413902
 20
671.5103721155748
 30
0.0
 10
658.9355896366769
 20
671.7484698080253
 30
0.0
 10
659.1973441336211
 20
672.6729367035667
 30
0.0
 10
659.2647276214134
 20
673.6334018826633
 30
0.0
 10
659.3147564012871
 20
674.3464979629581
 30
0.0
  0
SPLINE
  5
16E
330
1F
100
AcDbEntity
  8
0
  6
Continuous
 62
     7
370
    15
100
AcDbSpline
210
0.0
220
0.0
230
1.0
 70
     8
 71
     3
 72
     9
 73
     5
 74
     0
 42
0.00000001
 43
0.00000001
 12
1.0
 22
0.0
 32
0.0
 13
1.0
 23
0.0
 33
0.0
 40
0.0
 40
0.0
 40
0.0
 40
0.0
 40
0.2686336050555831
 40
1.0
 40
1.0
 40
1.0
 40
1.0
 10
654.1147564012872
 20
674.3464979629581
 30
0.0
 10
654.1213853538717
 20
674.6043811625035
 30
0.0
 10
654.1460619113079
 20
675.5643623215701
 30
0.0
 10
654.385916674908
 20
676.499035359869
 30
0.0
 10
654.5613383886725
 20
677.1826238103415
 30
0.0
  0
LINE
  5
16F
330
1F
100
AcDbEntity
  8
0
  6
Continuous
 62
     7
370
    15
100
AcDbLine
 10
658.8681744139
 20
677.1826238103
 30
0.0
 11
654.5613383887
 21
677.1826238103
 31
0.0
  0
SPLINE
  5
170
330
1F
100
AcDbEntity
  8
0
  6
Continuous
 62
     7
370
    15
100
AcDbSpline
210
0.0
220
0.0
230
1.0
 70
     8
 71
     3
 72
     9
 73
     5
 74
     0
 42
0.00000001
 43
0.00000001
 12
1.0
 22
0.0
 32
0.0
 13
1.0
 23
0.0
 33
0.0
 40
0.0
 40
0.0
 40
0.0
 40
0.0
 40
0.268633605055584
 40
1.0
 40
1.0
 40
1.0
 40
1.0
 10
659.3147564012871
 20
674.3464979629581
 30
0.0
 10
659.3081274487029
 20
674.6043811625035
 30
0.0
 10
659.2834508912665
 20
675.5643623215701
 30
0.0
 10
659.0435961276664
 20
676.499035359869
 30
0.0
 10
658.868174413902
 20
677.1826238103415
 30
0.0
  0
SPLINE
  5
171
330
1F
100
AcDbEntity
  8
0
  6
Continuous
 62
     7
370
    15
100
AcDbSpline
210
0.0
220
0.0
230
1.0
 70
     8
 71
     3
 72
     9
 73
     5
 74
     0
 42
0.00000001
 43
0.00000001
 12
1.0
 22
0.0
 32
0.0
 13
1.0
 23
0.0
 33
0.0
 40
0.0
 40
0.0
 40
0.0
 40
0.0
 40
0.0702005767034244
 40
1.0
 40
1.0
 40
1.0
 40
1.0
 10
654.1147564012872
 20
678.1345401547761
 30
0.0
 10
654.1152025175547
 20
678.111974104983
 30
0.0
 10
654.1215573979354
 20
677.7905230449954
 30
0.0
 10
654.3494468798308
 20
677.4755166110026
 30
0.0
 10
654.5613383886724
 20
677.1826238103415
 30
0.0
  0
LINE
  5
172
330
1F
100
AcDbEntity
  8
0
  6
Continuous
 62
     7
370
    15
100
AcDbLine
 10
654.1147564013
 20
674.346497963
 30
0.0
 11
654.1147564013
 21
678.1345401548
 31
0.0
  0
SPLINE
  5
173
330
1F
100
AcDbEntity
  8
0
  6
Continuous
 62
     7
370
    15
100
AcDbSpline
210
0.0
220
0.0
230
1.0
 70
     8
 71
     3
 72
     9
 73
     5
 74
     0
 42
0.00000001
 43
0.00000001
 12
1.0
 22
0.0
 32
0.0
 13
1.0
 23
0.0
 33
0.0
 40
0.0
 40
0.0
 40
0.0
 40
0.0
 40
0.0702005767034246
 40
1.0
 40
1.0
 40
1.0
 40
1.0
 10
659.3147564012871
 20
678.1345401547761
 30
0.0
 10
659.3143102850196
 20
678.111974104983
 30
0.0
 10
659.3079554046388
 20
677.7905230449954
 30
0.0
 10
659.0800659227436
 20
677.4755166110027
 30
0.0
 10
658.868174413902
 20
677.1826238103415
 30
0.0
  0
LINE
  5
174
330
1F
100
AcDbEntity
  8
0
  6
Continuous
 62
     7
370
    15
100
AcDbLine
 10
658.8681744139
 20
679.0864564992
 30
0.0
 11
659.0441193313
 21
678.7114193339
 31
0.0
  0
LINE
  5
175
330
1F
100
AcDbEntity
  8
0
  6
Continuous
 62
     7
370
    15
100
AcDbLine
 10
654.5613383887
 20
679.0864564992
 30
0.0
 11
654.1147564013
 21
678.1345401548
 31
0.0
  0
LINE
  5
176
330
1F
100
AcDbEntity
  8
0
  6
Continuous
 62
     7
370
    15
100
AcDbLine
 10
658.8681744139
 20
679.0864564992
 30
0.0
 11
654.5613383887
 21
679.0864564992
 31
0.0
  0
LINE
  5
177
330
1F
100
AcDbEntity
  8
0
  6
Continuous
 62
     7
370
    15
100
AcDbLine
 10
658.8681744139
 20
667.7419531097
 30
0.0
 11
659.0441193313
 21
668.116990275
 31
0.0
  0
LINE
  5
178
330
1F
100
AcDbEntity
  8
0
  6
Continuous
 62
     7
370
    15
100
AcDbLine
 10
654.5613383887
 20
667.7419531097
 30
0.0
 11
654.3853934712
 21
668.116990275
 31
0.0
  0
LINE
  5
179
330
1F
100
AcDbEntity
  8
0
  6
Continuous
 62
     7
370
    15
100
AcDbLine
 10
654.1147564013
 20
668.4142048044
 30
0.0
 11
654.1147564013
 21
669.6261626126
 31
0.0
  0
LINE
  5
17A
330
1F
100
AcDbEntity
  8
0
  6
Continuous
 62
     7
370
    15
100
AcDbLine
 10
654.1147564013
 20
678.1345401548
 30
0.0
 11
654.1147564013
 21
678.4142048044
 31
0.0
  0
LINE
  5
17B
330
1F
100
AcDbEntity
  8
0
  6
Continuous
 62
     7
370
    15
100
AcDbLine
 10
659.3147564013
 20
679.5142048044
 30
0.0
 11
659.3147564013
 21
667.3142048044
 31
0.0
  0
LINE
  5
17C
330
1F
100
AcDbEntity
  8
0
  6
Continuous
 62
     7
370
    15
100
AcDbLine
 10
634.9647564013
 20
652.9936129543
 30
0.0
 11
640.3647564013
 21
652.9936129543
 31
0.0
  0
LINE
  5
17D
330
1F
100
AcDbEntity
  8
0
  6
Continuous
 62
     7
370
    15
100
AcDbLine
 10
634.9647564013
 20
670.2000062806
 30
0.0
 11
640.3647564013
 21
670.2000062806
 31
0.0
  0
LINE
  5
17E
330
1F
100
AcDbEntity
  8
0
  6
Continuous
 62
     7
370
    15
100
AcDbLine
 10
640.3647564013
 20
652.9936129543
 30
0.0
 11
640.3647564013
 21
670.2000062806
 31
0.0
  0
LINE
  5
17F
330
1F
100
AcDbEntity
  8
0
  6
Continuous
 62
     7
370
    15
100
AcDbLine
 10
634.9647564013
 20
652.9936129543
 30
0.0
 11
634.9647564013
 21
670.2000062806
 31
0.0
  0
LINE
  5
180
330
1F
100
AcDbEntity
  8
0
  6
Continuous
 62
     7
370
    15
100
AcDbLine
 10
655.2647564013
 20
653.49240671
 30
0.0
 11
659.8647564013
 21
653.49240671
 31
0.0
  0
LINE
  5
181
330
1F
100
AcDbEntity
  8
0
  6
Continuous
 62
     7
370
    15
100
AcDbLine
 10
655.2647564013
 20
653.49240671
 30
0.0
 11
655.2647564013
 21
667.7419531097
 31
0.0
  0
LINE
  5
182
330
1F
100
AcDbEntity
  8
0
  6
Continuous
 62
     7
370
    15
100
AcDbLine
 10
646.9647564013
 20
636.5392048044
 30
0.0
 11
646.9647564013
 21
663.9837656944
 31
0.0
  0
LINE
  5
183
330
1F
100
AcDbEntity
  8
0
  6
Continuous
 62
     7
370
    15
100
AcDbLine
 10
626.0147564013
 20
662.5035283788
 30
0.0
 11
626.0147564013
 21
664.0392048044
 31
0.0
  0
LINE
  5
184
330
1F
100
AcDbEntity
  8
0
  6
Continuous
 62
     7
370
    15
100
AcDbLine
 10
626.0147564013
 20
642.7892048044
 30
0.0
 11
626.0147564013
 21
662.5035283788
 31
0.0
  0
LINE
  5
185
330
1F
100
AcDbEntity
  8
0
  6
Continuous
 62
     7
370
    15
100
AcDbLine
 10
652.3147564013
 20
637.5642048044
 30
0.0
 11
652.3147564013
 21
664.4136284963
 31
0.0
  0
LINE
  5
186
330
1F
100
AcDbEntity
  8
0
  6
Continuous
 62
     7
370
    15
100
AcDbLine
 10
634.9647564013
 20
636.2078114782
 30
0.0
 11
640.3647564013
 21
636.2078114782
 31
0.0
  0
LINE
  5
187
330
1F
100
AcDbEntity
  8
0
  6
Continuous
 62
     7
370
    15
100
AcDbLine
 10
640.3647564013
 20
636.2078114782
 30
0.0
 11
640.3647564013
 21
652.9936129543
 31
0.0
  0
LINE
  5
188
330
1F
100
AcDbEntity
  8
0
  6
Continuous
 62
     7
370
    15
100
AcDbLine
 10
634.9647564013
 20
636.2078114782
 30
0.0
 11
634.9647564013
 21
652.9936129543
 31
0.0
  0
LINE
  5
189
330
1F
100
AcDbEntity
  8
0
  6
Continuous
 62
     7
370
    15
100
AcDbLine
 10
655.2647564013
 20
652.5507470121
 30
0.0
 11
659.8647564013
 21
652.5507470121
 31
0.0
  0
LINE
  5
18A
330
1F
100
AcDbEntity
  8
0
  6
Continuous
 62
     7
370
    15
100
AcDbLine
 10
655.2647564013
 20
652.5507470121
 30
0.0
 11
655.2647564013
 21
653.49240671
 31
0.0
  0
LINE
  5
18B
330
1F
100
AcDbEntity
  8
0
  6
Continuous
 62
     7
370
    15
100
AcDbLine
 10
655.2647564013
 20
637.05883769
 30
0.0
 11
659.8647564013
 21
637.05883769
 31
0.0
  0
LINE
  5
18C
330
1F
100
AcDbEntity
  8
0
  6
Continuous
 62
     7
370
    15
100
AcDbLine
 10
655.2647564013
 20
637.05883769
 30
0.0
 11
655.2647564013
 21
652.5507470121
 31
0.0
  0
LINE
  5
18D
330
1F
100
AcDbEntity
  8
0
  6
Continuous
 62
     7
370
    15
100
AcDbLine
 10
634.9647564013
 20
670.6205981307
 30
0.0
 11
640.3647564013
 21
670.6205981307
 31
0.0
  0
LINE
  5
18E
330
1F
100
AcDbEntity
  8
0
  6
Continuous
 62
     7
370
    15
100
AcDbLine
 10
640.3647564013
 20
670.2000062806
 30
0.0
 11
640.3647564013
 21
670.6205981307
 31
0.0
  0
LINE
  5
18F
330
1F
100
AcDbEntity
  8
0
  6
Continuous
 62
     7
370
    15
100
AcDbLine
 10
634.9647564013
 20
670.2000062806
 30
0.0
 11
634.9647564013
 21
670.6205981307
 31
0.0
  0
LINE
  5
190
330
1F
100
AcDbEntity
  8
0
  6
Continuous
 62
     7
370
    15
100
AcDbLine
 10
655.2647564013
 20
636.6049302942
 30
0.0
 11
659.8647564013
 21
636.6049302942
 31
0.0
  0
LINE
  5
191
330
1F
100
AcDbEntity
  8
0
  6
Continuous
 62
     7
370
    15
100
AcDbLine
 10
655.2647564013
 20
636.6049302942
 30
0.0
 11
655.2647564013
 21
637.05883769
 31
0.0
  0
LINE
  5
192
330
1F
100
AcDbEntity
  8
0
  6
Continuous
 62
     7
370
    15
100
AcDbLine
 10
659.8647564013
 20
1085.7226916803
 30
0.0
 11
659.8647564013
 21
1085.6226916803
 31
0.0
  0
LINE
  5
193
330
1F
100
AcDbEntity
  8
0
  6
Continuous
 62
     7
370
    15
100
AcDbLine
 10
660.6647564013
 20
1086.0226916803
 30
0.0
 11
660.6647564013
 21
1085.6226916803
 31
0.0
  0
LINE
  5
194
330
1F
100
AcDbEntity
  8
0
  6
Continuous
 62
     7
370
    15
100
AcDbLine
 10
659.906554843
 20
1096.4142048045
 30
0.0
 11
660.0103330199
 21
1096.4142048045
 31
0.0
  0
LINE
  5
195
330
1F
100
AcDbEntity
  8
0
  6
Continuous
 62
     7
370
    15
100
AcDbLine
 10
659.8647564013
 20
860.4142048045
 30
0.0
 11
660.6647564013
 21
860.4142048045
 31
0.0
  0
LINE
  5
196
330
1F
100
AcDbEntity
  8
0
  6
Continuous
 62
     7
370
    15
100
AcDbLine
 10
659.8647564013
 20
860.4142048045
 30
0.0
 11
659.8647564013
 21
859.9071337366
 31
0.0
  0
LINE
  5
197
330
1F
100
AcDbEntity
  8
0
  6
Continuous
 62
     7
370
    15
100
AcDbLine
 10
659.8647564013
 20
876.7142048045
 30
0.0
 11
659.8647564013
 21
875.466753063
 31
0.0
  0
LINE
  5
198
330
1F
100
AcDbEntity
  8
0
  6
Continuous
 62
     7
370
    15
100
AcDbLine
 10
659.8647564013
 20
860.4684493659
 30
0.0
 11
659.8647564013
 21
860.4142048045
 31
0.0
  0
LINE
  5
199
330
1F
100
AcDbEntity
  8
0
  6
Continuous
 62
     7
370
    15
100
AcDbLine
 10
1427.1647564013
 20
713.3642048045
 30
0.0
 11
1427.0647564013
 21
713.3642048045
 31
0.0
  0
LINE
  5
19A
330
1F
100
AcDbEntity
  8
0
  6
Continuous
 62
     7
370
    15
100
AcDbLine
 10
1427.1647564013
 20
689.3642048045
 30
0.0
 11
1427.0647564013
 21
689.3642048045
 31
0.0
  0
LINE
  5
19B
330
1F
100
AcDbEntity
  8
0
  6
Continuous
 62
     7
370
    15
100
AcDbLine
 10
1427.1647564013
 20
713.3642048045
 30
0.0
 11
1427.1647564013
 21
689.3642048045
 31
0.0
  0
LINE
  5
19C
330
1F
100
AcDbEntity
  8
0
  6
Continuous
 62
     7
370
    15
100
AcDbLine
 10
1427.2647564013
 20
691.877422321
 30
0.0
 11
1427.1647564013
 21
691.877422321
 31
0.0
  0
LINE
  5
19D
330
1F
100
AcDbEntity
  8
0
  6
Continuous
 62
     7
370
    15
100
AcDbLine
 10
1427.2647564013
 20
691.127422321
 30
0.0
 11
1427.1647564013
 21
691.127422321
 31
0.0
  0
LINE
  5
19E
330
1F
100
AcDbEntity
  8
0
  6
Continuous
 62
     7
370
    15
100
AcDbLine
 10
1427.2647564013
 20
691.877422321
 30
0.0
 11
1427.2647564013
 21
691.127422321
 31
0.0
  0
LINE
  5
19F
330
1F
100
AcDbEntity
  8
0
  6
Continuous
 62
     7
370
    15
100
AcDbLine
 10
1427.2647564013
 20
711.377422321
 30
0.0
 11
1427.1647564013
 21
711.377422321
 31
0.0
  0
LINE
  5
1A0
330
1F
100
AcDbEntity
  8
0
  6
Continuous
 62
     7
370
    15
100
AcDbLine
 10
1427.2647564013
 20
711.377422321
 30
0.0
 11
1427.2647564013
 21
691.877422321
 31
0.0
  0
LINE
  5
1A1
330
1F
100
AcDbEntity
  8
0
  6
Continuous
 62
     7
370
    15
100
AcDbLine
 10
1427.2647564013
 20
711.627422321
 30
0.0
 11
1427.2647564013
 21
711.377422321
 31
0.0
  0
LINE
  5
1A2
330
1F
100
AcDbEntity
  8
0
  6
Continuous
 62
     7
370
    15
100
AcDbLine
 10
1427.2647564013
 20
603.1642048045
 30
0.0
 11
1427.0647564013
 21
603.1642048045
 31
0.0
  0
LINE
  5
1A3
330
1F
100
AcDbEntity
  8
0
  6
Continuous
 62
     7
370
    15
100
AcDbLine
 10
1427.2647564013
 20
603.1642048045
 30
0.0
 11
1427.2647564013
 21
602.1642048045
 31
0.0
  0
LINE
  5
1A4
330
1F
100
AcDbEntity
  8
0
  6
Continuous
 62
     7
370
    15
100
AcDbLine
 10
1427.2647564013
 20
602.1642048045
 30
0.0
 11
1427.0647564013
 21
602.1642048045
 31
0.0
  0
LINE
  5
1A5
330
1F
100
AcDbEntity
  8
0
  6
Continuous
 62
     7
370
    15
100
AcDbLine
 10
1427.2647564013
 20
611.1642048045
 30
0.0
 11
1427.0647564013
 21
611.1642048045
 31
0.0
  0
LINE
  5
1A6
330
1F
100
AcDbEntity
  8
0
  6
Continuous
 62
     7
370
    15
100
AcDbLine
 10
1427.2647564013
 20
611.1642048045
 30
0.0
 11
1427.2647564013
 21
603.1642048045
 31
0.0
  0
LINE
  5
1A7
330
1F
100
AcDbEntity
  8
0
  6
Continuous
 62
     7
370
    15
100
AcDbLine
 10
1427.2647564013
 20
612.1642048045
 30
0.0
 11
1427.0647564013
 21
612.1642048045
 31
0.0
  0
LINE
  5
1A8
330
1F
100
AcDbEntity
  8
0
  6
Continuous
 62
     7
370
    15
100
AcDbLine
 10
1427.2647564013
 20
612.1642048045
 30
0.0
 11
1427.2647564013
 21
611.1642048045
 31
0.0
  0
LINE
  5
1A9
330
1F
100
AcDbEntity
  8
0
  6
Continuous
 62
     7
370
    15
100
AcDbLine
 10
659.6647564014
 20
861.1385740533
 30
0.0
 11
659.8647564014
 21
861.1385740533
 31
0.0
  0
LINE
  5
1AA
330
1F
100
AcDbEntity
  8
0
  6
Continuous
 62
     7
370
    15
100
AcDbLine
 10
659.6647564014
 20
861.1385740533
 30
0.0
 11
659.6647564014
 21
861.9212758723
 31
0.0
  0
LINE
  5
1AB
330
1F
100
AcDbEntity
  8
0
  6
Continuous
 62
     7
370
    15
100
AcDbLine
 10
659.6647564014
 20
875.5071337366
 30
0.0
 11
659.6647564014
 21
876.7142048045
 31
0.0
  0
LINE
  5
1AC
330
1F
100
AcDbEntity
  8
0
  6
Continuous
 62
     7
370
    15
100
AcDbLine
 10
659.6647564014
 20
860.1385740533
 30
0.0
 11
659.8647564014
 21
860.1385740533
 31
0.0
  0
LINE
  5
1AD
330
1F
100
AcDbEntity
  8
0
  6
Continuous
 62
     7
370
    15
100
AcDbLine
 10
659.6647564014
 20
860.1385740533
 30
0.0
 11
659.6647564014
 21
861.1385740533
 31
0.0
  0
LINE
  5
1AE
330
1F
100
AcDbEntity
  8
0
  6
Continuous
 62
     7
370
    15
100
AcDbLine
 10
659.8647564016
 20
817.6566389026
 30
0.0
 11
659.6647564016
 21
817.6566389026
 31
0.0
  0
LINE
  5
1AF
330
1F
100
AcDbEntity
  8
0
  6
Continuous
 62
     7
370
    15
100
AcDbLine
 10
659.6647564016
 20
855.6566389026
 30
0.0
 11
659.6647564016
 21
817.6566389026
 31
0.0
  0
LINE
  5
1B0
330
1F
100
AcDbEntity
  8
0
  6
Continuous
 62
     7
370
    15
100
AcDbLine
 10
659.8647564016
 20
855.6566389026
 30
0.0
 11
659.6647564016
 21
855.6566389026
 31
0.0
  0
LINE
  5
1B1
330
1F
100
AcDbEntity
  8
0
  6
Continuous
 62
     7
370
    15
100
AcDbLine
 10
659.7647564013
 20
812.8451163429
 30
0.0
 11
659.8647564013
 21
812.8451163429
 31
0.0
  0
LINE
  5
1B2
330
1F
100
AcDbEntity
  8
0
  6
Continuous
 62
     7
370
    15
100
AcDbLine
 10
659.7647564013
 20
762.8451163429
 30
0.0
 11
659.7647564013
 21
812.8451163429
 31
0.0
  0
LINE
  5
1B3
330
1F
100
AcDbEntity
  8
0
  6
Continuous
 62
     7
370
    15
100
AcDbLine
 10
659.7647564013
 20
762.8451163429
 30
0.0
 11
659.8647564013
 21
762.8451163429
 31
0.0
  0
LINE
  5
1B4
330
1F
100
AcDbEntity
  8
0
  6
Continuous
 62
     7
370
    15
100
AcDbLine
 10
659.6647564013
 20
808.5638374067
 30
0.0
 11
659.7647564013
 21
808.5638374067
 31
0.0
  0
LINE
  5
1B5
330
1F
100
AcDbEntity
  8
0
  6
Continuous
 62
     7
370
    15
100
AcDbLine
 10
659.6647564013
 20
809.614318176
 30
0.0
 11
659.7647564013
 21
809.614318176
 31
0.0
  0
LINE
  5
1B6
330
1F
100
AcDbEntity
  8
0
  6
Continuous
 62
     7
370
    15
100
AcDbLine
 10
659.6647564013
 20
807.5117540734
 30
0.0
 11
659.7647564013
 21
807.5117540734
 31
0.0
  0
LINE
  5
1B7
330
1F
100
AcDbEntity
  8
0
  6
Continuous
 62
     7
370
    15
100
AcDbLine
 10
659.6647564013
 20
777.2825800535
 30
0.0
 11
659.7647564013
 21
777.2825800535
 31
0.0
  0
LINE
  5
1B8
330
1F
100
AcDbEntity
  8
0
  6
Continuous
 62
     7
370
    15
100
AcDbLine
 10
659.6647564013
 20
778.3346633868
 30
0.0
 11
659.7647564013
 21
778.3346633868
 31
0.0
  0
LINE
  5
1B9
330
1F
100
AcDbEntity
  8
0
  6
Continuous
 62
     7
370
    15
100
AcDbLine
 10
659.6647564013
 20
779.3851441561
 30
0.0
 11
659.7647564013
 21
779.3851441561
 31
0.0
  0
LINE
  5
1BA
330
1F
100
AcDbEntity
  8
0
  6
Continuous
 62
     7
370
    15
100
AcDbLine
 10
659.6647564013
 20
774.0013300535
 30
0.0
 11
659.7647564013
 21
774.0013300535
 31
0.0
  0
LINE
  5
1BB
330
1F
100
AcDbEntity
  8
0
  6
Continuous
 62
     7
370
    15
100
AcDbLine
 10
659.6647564013
 20
775.0518108227
 30
0.0
 11
659.7647564013
 21
775.0518108227
 31
0.0
  0
LINE
  5
1BC
330
1F
100
AcDbEntity
  8
0
  6
Continuous
 62
     7
370
    15
100
AcDbLine
 10
659.6647564013
 20
772.9492467202
 30
0.0
 11
659.7647564013
 21
772.9492467202
 31
0.0
  0
LINE
  5
1BD
330
1F
100
AcDbEntity
  8
0
  6
Continuous
 62
     7
370
    15
100
AcDbLine
 10
659.6647564013
 20
798.8450874067
 30
0.0
 11
659.7647564013
 21
798.8450874067
 31
0.0
  0
LINE
  5
1BE
330
1F
100
AcDbEntity
  8
0
  6
Continuous
 62
     7
370
    15
100
AcDbLine
 10
659.6647564013
 20
799.8971707401
 30
0.0
 11
659.7647564013
 21
799.8971707401
 31
0.0
  0
LINE
  5
1BF
330
1F
100
AcDbEntity
  8
0
  6
Continuous
 62
     7
370
    15
100
AcDbLine
 10
659.6647564013
 20
800.9476515093
 30
0.0
 11
659.7647564013
 21
800.9476515093
 31
0.0
  0
LINE
  5
1C0
330
1F
100
AcDbEntity
  8
0
  6
Continuous
 62
     7
370
    15
100
AcDbLine
 10
659.6647564013
 20
805.0245745862
 30
0.0
 11
659.7647564013
 21
805.0245745862
 31
0.0
  0
LINE
  5
1C1
330
1F
100
AcDbEntity
  8
0
  6
Continuous
 62
     7
370
    15
100
AcDbLine
 10
659.6647564013
 20
805.2297027913
 30
0.0
 11
659.6647564013
 21
805.0245745862
 31
0.0
  0
LINE
  5
1C2
330
1F
100
AcDbEntity
  8
0
  6
Continuous
 62
     7
370
    15
100
AcDbLine
 10
659.6647564013
 20
805.2297027913
 30
0.0
 11
659.7647564013
 21
805.2297027913
 31
0.0
  0
LINE
  5
1C3
330
1F
100
AcDbEntity
  8
0
  6
Continuous
 62
     7
370
    15
100
AcDbLine
 10
659.6647564013
 20
804.2040617657
 30
0.0
 11
659.7647564013
 21
804.2040617657
 31
0.0
  0
LINE
  5
1C4
330
1F
100
AcDbEntity
  8
0
  6
Continuous
 62
     7
370
    15
100
AcDbLine
 10
659.6647564013
 20
804.4091899708
 30
0.0
 11
659.7647564013
 21
804.4091899708
 31
0.0
  0
LINE
  5
1C5
330
1F
100
AcDbEntity
  8
0
  6
Continuous
 62
     7
370
    15
100
AcDbLine
 10
659.6647564013
 20
804.4091899708
 30
0.0
 11
659.6647564013
 21
804.2040617657
 31
0.0
  0
LINE
  5
1C6
330
1F
100
AcDbEntity
  8
0
  6
Continuous
 62
     7
370
    15
100
AcDbLine
 10
659.6647564013
 20
803.2297027913
 30
0.0
 11
659.7647564013
 21
803.2297027913
 31
0.0
  0
LINE
  5
1C7
330
1F
100
AcDbEntity
  8
0
  6
Continuous
 62
     7
370
    15
100
AcDbLine
 10
659.6647564013
 20
803.4348309965
 30
0.0
 11
659.7647564013
 21
803.4348309965
 31
0.0
  0
LINE
  5
1C8
330
1F
100
AcDbEntity
  8
0
  6
Continuous
 62
     7
370
    15
100
AcDbLine
 10
659.6647564013
 20
803.4348309965
 30
0.0
 11
659.6647564013
 21
803.2297027913
 31
0.0
  0
LINE
  5
1C9
330
1F
100
AcDbEntity
  8
0
  6
Continuous
 62
     7
370
    15
100
AcDbLine
 10
659.6647564013
 20
783.6671954381
 30
0.0
 11
659.6647564013
 21
783.462067233
 31
0.0
  0
LINE
  5
1CA
330
1F
100
AcDbEntity
  8
0
  6
Continuous
 62
     7
370
    15
100
AcDbLine
 10
659.6647564013
 20
783.462067233
 30
0.0
 11
659.7647564013
 21
783.462067233
 31
0.0
  0
LINE
  5
1CB
330
1F
100
AcDbEntity
  8
0
  6
Continuous
 62
     7
370
    15
100
AcDbLine
 10
659.6647564013
 20
783.6671954381
 30
0.0
 11
659.7647564013
 21
783.6671954381
 31
0.0
  0
LINE
  5
1CC
330
1F
100
AcDbEntity
  8
0
  6
Continuous
 62
     7
370
    15
100
AcDbLine
 10
659.6647564013
 20
781.6671954381
 30
0.0
 11
659.7647564013
 21
781.6671954381
 31
0.0
  0
LINE
  5
1CD
330
1F
100
AcDbEntity
  8
0
  6
Continuous
 62
     7
370
    15
100
AcDbLine
 10
659.6647564013
 20
781.8723236433
 30
0.0
 11
659.7647564013
 21
781.8723236433
 31
0.0
  0
LINE
  5
1CE
330
1F
100
AcDbEntity
  8
0
  6
Continuous
 62
     7
370
    15
100
AcDbLine
 10
659.6647564013
 20
781.8723236433
 30
0.0
 11
659.6647564013
 21
781.6671954381
 31
0.0
  0
LINE
  5
1CF
330
1F
100
AcDbEntity
  8
0
  6
Continuous
 62
     7
370
    15
100
AcDbLine
 10
659.6647564013
 20
782.6415544125
 30
0.0
 11
659.7647564013
 21
782.6415544125
 31
0.0
  0
LINE
  5
1D0
330
1F
100
AcDbEntity
  8
0
  6
Continuous
 62
     7
370
    15
100
AcDbLine
 10
659.6647564013
 20
782.8466826176
 30
0.0
 11
659.7647564013
 21
782.8466826176
 31
0.0
  0
LINE
  5
1D1
330
1F
100
AcDbEntity
  8
0
  6
Continuous
 62
     7
370
    15
100
AcDbLine
 10
659.6647564013
 20
782.8466826176
 30
0.0
 11
659.6647564013
 21
782.6415544125
 31
0.0
  0
LINE
  5
1D2
330
1F
100
AcDbEntity
  8
0
  6
Continuous
 62
     7
370
    15
100
AcDbLine
 10
659.6647564013
 20
804.2040617657
 30
0.0
 11
659.6647564013
 21
803.4348309965
 31
0.0
  0
LINE
  5
1D3
330
1F
100
AcDbEntity
  8
0
  6
Continuous
 62
     7
370
    15
100
AcDbLine
 10
659.6647564013
 20
805.0245745862
 30
0.0
 11
659.6647564013
 21
804.4091899708
 31
0.0
  0
LINE
  5
1D4
330
1F
100
AcDbEntity
  8
0
  6
Continuous
 62
     7
370
    15
100
AcDbLine
 10
659.6647564013
 20
783.462067233
 30
0.0
 11
659.6647564013
 21
782.8466826176
 31
0.0
  0
LINE
  5
1D5
330
1F
100
AcDbEntity
  8
0
  6
Continuous
 62
     7
370
    15
100
AcDbLine
 10
659.6647564013
 20
782.6415544125
 30
0.0
 11
659.6647564013
 21
781.8723236433
 31
0.0
  0
LINE
  5
1D6
330
1F
100
AcDbEntity
  8
0
  6
Continuous
 62
     7
370
    15
100
AcDbLine
 10
659.6647564013
 20
768.6415544125
 30
0.0
 11
659.7647564013
 21
768.6415544125
 31
0.0
  0
LINE
  5
1D7
330
1F
100
AcDbEntity
  8
0
  6
Continuous
 62
     7
370
    15
100
AcDbLine
 10
659.6647564013
 20
768.8082210791
 30
0.0
 11
659.7647564013
 21
768.8082210791
 31
0.0
  0
SPLINE
  5
1D8
330
1F
100
AcDbEntity
  8
0
  6
Continuous
 62
     7
370
    15
100
AcDbSpline
210
0.0
220
0.0
230
1.0
 70
    24
 71
     3
 72
    11
 73
     7
 74
     0
 42
0.00000001
 43
0.00000001
 12
1.0
 22
0.0
 32
0.0
 13
1.0
 23
0.0
 33
0.0
 40
0.0
 40
0.0
 40
0.0
 40
0.0
 40
0.1252840259032977
 40
0.2509552383732468
 40
0.5013091169726985
 40
1.0
 40
1.0
 40
1.0
 40
1.0
 10
659.6647564013225
 20
768.8082210791486
 30
0.0
 10
659.6647564013225
 20
768.7936535500647
 30
0.0
 10
659.6647564013225
 20
768.7644734713806
 30
0.0
 10
659.6647564013225
 20
768.7161554301535
 30
0.0
 10
659.6647564013227
 20
768.6562056509362
 30
0.0
 10
659.6647564013226
 20
768.6474101713308
 30
0.0
 10
659.6647564013225
 20
768.6415544124819
 30
0.0
  0
LINE
  5
1D9
330
1F
100
AcDbEntity
  8
0
  6
Continuous
 62
     7
370
    15
100
AcDbLine
 10
659.6647564013
 20
768.9748877458
 30
0.0
 11
659.7647564013
 21
768.9748877458
 31
0.0
  0
SPLINE
  5
1DA
330
1F
100
AcDbEntity
  8
0
  6
Continuous
 62
     7
370
    15
100
AcDbSpline
210
0.0
220
0.0
230
1.0
 70
    24
 71
     3
 72
    11
 73
     7
 74
     0
 42
0.00000001
 43
0.00000001
 12
1.0
 22
0.0
 32
0.0
 13
1.0
 23
0.0
 33
0.0
 40
0.0
 40
0.0
 40
0.0
 40
0.0
 40
0.4986376534005987
 40
0.7489875869522361
 40
0.874692997626253
 40
1.0
 40
1.0
 40
1.0
 40
1.0
 10
659.6647564013225
 20
768.9748877458153
 30
0.0
 10
659.6647564013225
 20
768.9690661748132
 30
0.0
 10
659.6647564013225
 20
768.9603217801864
 30
0.0
 10
659.6647564013225
 20
768.9007449818047
 30
0.0
 10
659.6647564013225
 20
768.8520523966631
 30
0.0
 10
659.6647564013225
 20
768.8228160502894
 30
0.0
 10
659.6647564013225
 20
768.8082210791486
 30
0.0
  0
LINE
  5
1DB
330
1F
100
AcDbEntity
  8
0
  6
Continuous
 62
     7
370
    15
100
AcDbLine
 10
659.6647564013
 20
770.462067233
 30
0.0
 11
659.7647564013
 21
770.462067233
 31
0.0
  0
LINE
  5
1DC
330
1F
100
AcDbEntity
  8
0
  6
Continuous
 62
     7
370
    15
100
AcDbLine
 10
659.6647564013
 20
770.6671954381
 30
0.0
 11
659.6647564013
 21
770.462067233
 31
0.0
  0
LINE
  5
1DD
330
1F
100
AcDbEntity
  8
0
  6
Continuous
 62
     7
370
    15
100
AcDbLine
 10
659.6647564013
 20
770.6671954381
 30
0.0
 11
659.7647564013
 21
770.6671954381
 31
0.0
  0
LINE
  5
1DE
330
1F
100
AcDbEntity
  8
0
  6
Continuous
 62
     7
370
    15
100
AcDbLine
 10
659.6647564013
 20
768.8723236433
 30
0.0
 11
659.6647564013
 21
768.830841167
 31
0.0
  0
LINE
  5
1DF
330
1F
100
AcDbEntity
  8
0
  6
Continuous
 62
     7
370
    15
100
AcDbLine
 10
659.6647564013
 20
769.8466826176
 30
0.0
 11
659.7647564013
 21
769.8466826176
 31
0.0
  0
LINE
  5
1E0
330
1F
100
AcDbEntity
  8
0
  6
Continuous
 62
     7
370
    15
100
AcDbLine
 10
659.6647564013
 20
769.6415544125
 30
0.0
 11
659.7647564013
 21
769.6415544125
 31
0.0
  0
LINE
  5
1E1
330
1F
100
AcDbEntity
  8
0
  6
Continuous
 62
     7
370
    15
100
AcDbLine
 10
659.6647564013
 20
769.8466826176
 30
0.0
 11
659.6647564013
 21
769.6415544125
 31
0.0
  0
LINE
  5
1E2
330
1F
100
AcDbEntity
  8
0
  6
Continuous
 62
     7
370
    15
100
AcDbLine
 10
659.6647564013
 20
802.9732925349
 30
0.0
 11
659.7647564013
 21
802.9732925349
 31
0.0
  0
LINE
  5
1E3
330
1F
100
AcDbEntity
  8
0
  6
Continuous
 62
     7
370
    15
100
AcDbLine
 10
659.6647564013
 20
803.2297027913
 30
0.0
 11
659.6647564013
 21
802.9732925349
 31
0.0
  0
LINE
  5
1E4
330
1F
100
AcDbEntity
  8
0
  6
Continuous
 62
     7
370
    15
100
AcDbLine
 10
659.6647564013
 20
805.2809848426
 30
0.0
 11
659.7647564013
 21
805.2809848426
 31
0.0
  0
LINE
  5
1E5
330
1F
100
AcDbEntity
  8
0
  6
Continuous
 62
     7
370
    15
100
AcDbLine
 10
659.6647564013
 20
805.2809848426
 30
0.0
 11
659.6647564013
 21
805.2709568913
 31
0.0
  0
LINE
  5
1E6
330
1F
100
AcDbEntity
  8
0
  6
Continuous
 62
     7
370
    15
100
AcDbLine
 10
659.6647564013
 20
769.6415544125
 30
0.0
 11
659.6647564013
 21
768.9975322493
 31
0.0
  0
LINE
  5
1E7
330
1F
100
AcDbEntity
  8
0
  6
Continuous
 62
     7
370
    15
100
AcDbLine
 10
659.6647564013
 20
770.462067233
 30
0.0
 11
659.6647564013
 21
769.8466826176
 31
0.0
  0
LINE
  5
1E8
330
1F
100
AcDbEntity
  8
0
  6
Continuous
 62
     7
370
    15
100
AcDbLine
 10
659.6647564013
 20
770.7184774894
 30
0.0
 11
659.7647564013
 21
770.7184774894
 31
0.0
  0
LINE
  5
1E9
330
1F
100
AcDbEntity
  8
0
  6
Continuous
 62
     7
370
    15
100
AcDbLine
 10
659.6647564013
 20
768.6159133868
 30
0.0
 11
659.7647564013
 21
768.6159133868
 31
0.0
  0
LINE
  5
1EA
330
1F
100
AcDbEntity
  8
0
  6
Continuous
 62
     7
370
    15
100
AcDbLine
 10
659.6647564013
 20
777.0774518484
 30
0.0
 11
659.7647564013
 21
777.0774518484
 31
0.0
  0
LINE
  5
1EB
330
1F
100
AcDbEntity
  8
0
  6
Continuous
 62
     7
370
    15
100
AcDbLine
 10
659.6647564013
 20
777.3338621048
 30
0.0
 11
659.6647564013
 21
777.0774518484
 31
0.0
  0
LINE
  5
1EC
330
1F
100
AcDbEntity
  8
0
  6
Continuous
 62
     7
370
    15
100
AcDbLine
 10
659.6647564013
 20
790.3707284324
 30
0.0
 11
659.7647564013
 21
790.3707284324
 31
0.0
  0
SPLINE
  5
1ED
330
1F
100
AcDbEntity
  8
0
  6
Continuous
 62
     7
370
    15
100
AcDbSpline
210
0.0
220
0.0
230
1.0
 70
    24
 71
     3
 72
    11
 73
     7
 74
     0
 42
0.00000001
 43
0.00000001
 12
1.0
 22
0.0
 32
0.0
 13
1.0
 23
0.0
 33
0.0
 40
0.0
 40
0.0
 40
0.0
 40
0.0
 40
0.4986376534006337
 40
0.7489875869522715
 40
0.8746929976262294
 40
1.0
 40
1.0
 40
1.0
 40
1.0
 10
659.6647564013219
 20
790.5373950990291
 30
0.0
 10
659.6647564013219
 20
790.531573528027
 30
0.0
 10
659.6647564013219
 20
790.5228291334003
 30
0.0
 10
659.6647564013217
 20
790.4632523350188
 30
0.0
 10
659.6647564013219
 20
790.414559749877
 30
0.0
 10
659.6647564013218
 20
790.3853234035034
 30
0.0
 10
659.6647564013219
 20
790.3707284323624
 30
0.0
  0
LINE
  5
1EE
330
1F
100
AcDbEntity
  8
0
  6
Continuous
 62
     7
370
    15
100
AcDbLine
 10
659.6647564013
 20
790.537395099
 30
0.0
 11
659.7647564013
 21
790.537395099
 31
0.0
  0
LINE
  5
1EF
330
1F
100
AcDbEntity
  8
0
  6
Continuous
 62
     7
370
    15
100
AcDbLine
 10
659.6647564013
 20
790.2040617657
 30
0.0
 11
659.7647564013
 21
790.2040617657
 31
0.0
  0
SPLINE
  5
1F0
330
1F
100
AcDbEntity
  8
0
  6
Continuous
 62
     7
370
    15
100
AcDbSpline
210
0.0
220
0.0
230
1.0
 70
    24
 71
     3
 72
    11
 73
     7
 74
     0
 42
0.00000001
 43
0.00000001
 12
1.0
 22
0.0
 32
0.0
 13
1.0
 23
0.0
 33
0.0
 40
0.0
 40
0.0
 40
0.0
 40
0.0
 40
0.1252840259032967
 40
0.2509552383732884
 40
0.5013091169726325
 40
1.0
 40
1.0
 40
1.0
 40
1.0
 10
659.6647564013219
 20
790.3707284323624
 30
0.0
 10
659.6647564013218
 20
790.3561609032787
 30
0.0
 10
659.6647564013219
 20
790.3269808245944
 30
0.0
 10
659.6647564013219
 20
790.2786627833676
 30
0.0
 10
659.6647564013219
 20
790.21871300415
 30
0.0
 10
659.6647564013219
 20
790.2099175245446
 30
0.0
 10
659.6647564013219
 20
790.2040617656958
 30
0.0
  0
LINE
  5
1F1
330
1F
100
AcDbEntity
  8
0
  6
Continuous
 62
     7
370
    15
100
AcDbLine
 10
659.6647564013
 20
794.537395099
 30
0.0
 11
659.7647564013
 21
794.537395099
 31
0.0
  0
LINE
  5
1F2
330
1F
100
AcDbEntity
  8
0
  6
Continuous
 62
     7
370
    15
100
AcDbLine
 10
659.6647564013
 20
794.7040617657
 30
0.0
 11
659.7647564013
 21
794.7040617657
 31
0.0
  0
SPLINE
  5
1F3
330
1F
100
AcDbEntity
  8
0
  6
Continuous
 62
     7
370
    15
100
AcDbSpline
210
0.0
220
0.0
230
1.0
 70
    24
 71
     3
 72
    11
 73
     7
 74
     0
 42
0.00000001
 43
0.00000001
 12
1.0
 22
0.0
 32
0.0
 13
1.0
 23
0.0
 33
0.0
 40
0.0
 40
0.0
 40
0.0
 40
0.0
 40
0.1252840259032254
 40
0.250955238373225
 40
0.5013091169725846
 40
1.0
 40
1.0
 40
1.0
 40
1.0
 10
659.6647564013219
 20
794.7040617656958
 30
0.0
 10
659.6647564013219
 20
794.689494236612
 30
0.0
 10
659.6647564013219
 20
794.6603141579278
 30
0.0
 10
659.6647564013219
 20
794.6119961167009
 30
0.0
 10
659.6647564013219
 20
794.5520463374835
 30
0.0
 10
659.6647564013219
 20
794.543250857878
 30
0.0
 10
659.6647564013219
 20
794.537395099029
 30
0.0
  0
LINE
  5
1F4
330
1F
100
AcDbEntity
  8
0
  6
Continuous
 62
     7
370
    15
100
AcDbLine
 10
659.6647564013
 20
794.8707284324
 30
0.0
 11
659.7647564013
 21
794.8707284324
 31
0.0
  0
SPLINE
  5
1F5
330
1F
100
AcDbEntity
  8
0
  6
Continuous
 62
     7
370
    15
100
AcDbSpline
210
0.0
220
0.0
230
1.0
 70
    24
 71
     3
 72
    11
 73
     7
 74
     0
 42
0.00000001
 43
0.00000001
 12
1.0
 22
0.0
 32
0.0
 13
1.0
 23
0.0
 33
0.0
 40
0.0
 40
0.0
 40
0.0
 40
0.0
 40
0.4986376534005355
 40
0.7489875869521887
 40
0.8746929976261896
 40
0.9999999999999999
 40
0.9999999999999999
 40
0.9999999999999999
 40
0.9999999999999999
 10
659.6647564013219
 20
794.8707284323625
 30
0.0
 10
659.6647564013219
 20
794.8649068613604
 30
0.0
 10
659.6647564013219
 20
794.8561624667337
 30
0.0
 10
659.664756401322
 20
794.796585668352
 30
0.0
 10
659.6647564013219
 20
794.7478930832104
 30
0.0
 10
659.664756401322
 20
794.7186567368367
 30
0.0
 10
659.6647564013219
 20
794.7040617656958
 30
0.0
  0
LINE
  5
1F6
330
1F
100
AcDbEntity
  8
0
  6
Continuous
 62
     7
370
    15
100
AcDbLine
 10
659.6647564013
 20
789.6656002272
 30
0.0
 11
659.7647564013
 21
789.6656002272
 31
0.0
  0
LINE
  5
1F7
330
1F
100
AcDbEntity
  8
0
  6
Continuous
 62
     7
370
    15
100
AcDbLine
 10
659.6647564013
 20
791.0654399708
 30
0.0
 11
659.7647564013
 21
791.0654399708
 31
0.0
  0
LINE
  5
1F8
330
1F
100
AcDbEntity
  8
0
  6
Continuous
 62
     7
370
    15
100
AcDbLine
 10
659.6647564013
 20
792.3066258683
 30
0.0
 11
659.7647564013
 21
792.3066258683
 31
0.0
  0
LINE
  5
1F9
330
1F
100
AcDbEntity
  8
0
  6
Continuous
 62
     7
370
    15
100
AcDbLine
 10
659.6647564013
 20
794.7681643298
 30
0.0
 11
659.6647564013
 21
794.7266818536
 31
0.0
  0
LINE
  5
1FA
330
1F
100
AcDbEntity
  8
0
  6
Continuous
 62
     7
370
    15
100
AcDbLine
 10
659.6647564013
 20
796.5630361247
 30
0.0
 11
659.7647564013
 21
796.5630361247
 31
0.0
  0
LINE
  5
1FB
330
1F
100
AcDbEntity
  8
0
  6
Continuous
 62
     7
370
    15
100
AcDbLine
 10
659.6647564013
 20
796.5630361247
 30
0.0
 11
659.6647564013
 21
794.8933729358
 31
0.0
  0
LINE
  5
1FC
330
1F
100
AcDbEntity
  8
0
  6
Continuous
 62
     7
370
    15
100
AcDbLine
 10
659.6647564013
 20
781.6159133868
 30
0.0
 11
659.7647564013
 21
781.6159133868
 31
0.0
  0
LINE
  5
1FD
330
1F
100
AcDbEntity
  8
0
  6
Continuous
 62
     7
370
    15
100
AcDbLine
 10
659.6647564013
 20
783.7184774894
 30
0.0
 11
659.7647564013
 21
783.7184774894
 31
0.0
  0
LINE
  5
1FE
330
1F
100
AcDbEntity
  8
0
  6
Continuous
 62
     7
370
    15
100
AcDbLine
 10
659.6647564013
 20
794.5117540734
 30
0.0
 11
659.7647564013
 21
794.5117540734
 31
0.0
  0
LINE
  5
1FF
330
1F
100
AcDbEntity
  8
0
  6
Continuous
 62
     7
370
    15
100
AcDbLine
 10
659.6647564013
 20
796.614318176
 30
0.0
 11
659.7647564013
 21
796.614318176
 31
0.0
  0
LINE
  5
200
330
1F
100
AcDbEntity
  8
0
  6
Continuous
 62
     7
370
    15
100
AcDbLine
 10
659.6647564013
 20
781.4107851817
 30
0.0
 11
659.7647564013
 21
781.4107851817
 31
0.0
  0
LINE
  5
201
330
1F
100
AcDbEntity
  8
0
  6
Continuous
 62
     7
370
    15
100
AcDbLine
 10
659.6647564013
 20
781.4409033868
 30
0.0
 11
659.6647564013
 21
781.4107851817
 31
0.0
  0
LINE
  5
202
330
1F
100
AcDbEntity
  8
0
  6
Continuous
 62
     7
370
    15
100
AcDbLine
 10
659.6647564013
 20
768.5133492843
 30
0.0
 11
659.7647564013
 21
768.5133492843
 31
0.0
  0
LINE
  5
203
330
1F
100
AcDbEntity
  8
0
  6
Continuous
 62
     7
370
    15
100
AcDbLine
 10
659.7647564014
 20
713.8020057882
 30
0.0
 11
659.7647564014
 21
723.3020057882
 31
0.0
  0
LINE
  5
204
330
1F
100
AcDbEntity
  8
0
  6
Continuous
 62
     7
370
    15
100
AcDbLine
 10
659.7647564014
 20
704.3020057882
 30
0.0
 11
659.7647564014
 21
713.8020057882
 31
0.0
  0
LINE
  5
205
330
1F
100
AcDbEntity
  8
0
  6
Continuous
 62
     7
370
    15
100
AcDbLine
 10
659.6647564014
 20
710.0700929351
 30
0.0
 11
659.7647564014
 21
710.0700929351
 31
0.0
  0
LINE
  5
206
330
1F
100
AcDbEntity
  8
0
  6
Continuous
 62
     7
370
    15
100
AcDbLine
 10
659.6647564014
 20
711.5322323581
 30
0.0
 11
659.7647564014
 21
711.5322323581
 31
0.0
  0
LINE
  5
207
330
1F
100
AcDbEntity
  8
0
  6
Continuous
 62
     7
370
    15
100
AcDbLine
 10
659.6647564014
 20
712.9619198581
 30
0.0
 11
659.7647564014
 21
712.9619198581
 31
0.0
  0
LINE
  5
208
330
1F
100
AcDbEntity
  8
0
  6
Continuous
 62
     7
370
    15
100
AcDbLine
 10
659.6647564014
 20
713.0700929351
 30
0.0
 11
659.7647564014
 21
713.0700929351
 31
0.0
  0
LINE
  5
209
330
1F
100
AcDbEntity
  8
0
  6
Continuous
 62
     7
370
    15
100
AcDbLine
 10
659.6647564014
 20
716.6223765889
 30
0.0
 11
659.7647564014
 21
716.6223765889
 31
0.0
  0
LINE
  5
20A
330
1F
100
AcDbEntity
  8
0
  6
Continuous
 62
     7
370
    15
100
AcDbLine
 10
659.6647564014
 20
716.8008621658
 30
0.0
 11
659.6647564014
 21
716.6223765889
 31
0.0
  0
LINE
  5
20B
330
1F
100
AcDbEntity
  8
0
  6
Continuous
 62
     7
370
    15
100
AcDbLine
 10
659.6647564014
 20
716.8008621658
 30
0.0
 11
659.7647564014
 21
716.8008621658
 31
0.0
  0
LINE
  5
20C
330
1F
100
AcDbEntity
  8
0
  6
Continuous
 62
     7
370
    15
100
AcDbLine
 10
659.6647564014
 20
718.5196121658
 30
0.0
 11
659.7647564014
 21
718.5196121658
 31
0.0
  0
LINE
  5
20D
330
1F
100
AcDbEntity
  8
0
  6
Continuous
 62
     7
370
    15
100
AcDbLine
 10
659.6647564014
 20
719.147016012
 30
0.0
 11
659.7647564014
 21
719.147016012
 31
0.0
  0
LINE
  5
20E
330
1F
100
AcDbEntity
  8
0
  6
Continuous
 62
     7
370
    15
100
AcDbLine
 10
659.6647564014
 20
715.9931698581
 30
0.0
 11
659.7647564014
 21
715.9931698581
 31
0.0
  0
LINE
  5
20F
330
1F
100
AcDbEntity
  8
0
  6
Continuous
 62
     7
370
    15
100
AcDbLine
 10
659.6647564014
 20
718.3393237043
 30
0.0
 11
659.7647564014
 21
718.3393237043
 31
0.0
  0
LINE
  5
210
330
1F
100
AcDbEntity
  8
0
  6
Continuous
 62
     7
370
    15
100
AcDbLine
 10
659.6647564014
 20
718.5196121658
 30
0.0
 11
659.6647564014
 21
718.3393237043
 31
0.0
  0
LINE
  5
211
330
1F
100
AcDbEntity
  8
0
  6
Continuous
 62
     7
370
    15
100
AcDbLine
 10
659.6647564014
 20
717.5670881274
 30
0.0
 11
659.7647564014
 21
717.5670881274
 31
0.0
  0
LINE
  5
212
330
1F
100
AcDbEntity
  8
0
  6
Continuous
 62
     7
370
    15
100
AcDbLine
 10
659.6647564014
 20
709.9931698581
 30
0.0
 11
659.7647564014
 21
709.9931698581
 31
0.0
  0
LINE
  5
213
330
1F
100
AcDbEntity
  8
0
  6
Continuous
 62
     7
370
    15
100
AcDbLine
 10
659.6647564014
 20
713.147016012
 30
0.0
 11
659.7647564014
 21
713.147016012
 31
0.0
  0
LINE
  5
214
330
1F
100
AcDbEntity
  8
0
  6
Continuous
 62
     7
370
    15
100
AcDbLine
 10
1320.3647564013
 20
899.1847571653
 30
0.0
 11
1326.7647564013
 21
899.1847571653
 31
0.0
  0
LINE
  5
215
330
1F
100
AcDbEntity
  8
0
  6
Continuous
 62
     7
370
    15
100
AcDbLine
 10
1304.3147564013
 20
898.3767048044
 30
0.0
 11
1304.3147564013
 21
898.9347571653
 31
0.0
  0
LINE
  5
216
330
1F
100
AcDbEntity
  8
0
  6
Continuous
 62
     7
370
    15
100
AcDbLine
 10
1305.5647564013
 20
901.3847571653
 30
0.0
 11
1329.1501907793
 21
901.3847571653
 31
0.0
  0
LINE
  5
217
330
1F
100
AcDbEntity
  8
0
  6
Continuous
 62
     7
370
    15
100
AcDbLine
 10
1329.1501907793
 20
900.1847571653
 30
0.0
 11
1329.1501907793
 21
901.3847571653
 31
0.0
  0
LINE
  5
218
330
1F
100
AcDbEntity
  8
0
  6
Continuous
 62
     7
370
    15
100
AcDbLine
 10
1305.5647564013
 20
900.1847571653
 30
0.0
 11
1305.5647564013
 21
901.3847571653
 31
0.0
  0
LINE
  5
219
330
1F
100
AcDbEntity
  8
0
  6
Continuous
 62
     7
370
    15
100
AcDbLine
 10
1305.5647564013
 20
900.1847571653
 30
0.0
 11
1329.1501907793
 21
900.1847571653
 31
0.0
  0
ARC
  5
21A
330
1F
100
AcDbEntity
  8
0
  6
Continuous
 62
     7
370
    15
100
AcDbCircle
 10
1305.5647564013
 20
898.9347571653
 30
0.0
 40
2.450000000000045
100
AcDbArc
 50
90.0
 51
149.9498025618
  0
ARC
  5
21B
330
1F
100
AcDbEntity
  8
0
  6
Continuous
 62
     7
370
    15
100
AcDbCircle
 10
1305.5647564013
 20
898.9347571653
 30
0.0
 40
1.25
100
AcDbArc
 50
90.0
 51
180.0
  0
LINE
  5
21C
330
1F
100
AcDbEntity
  8
0
  6
Continuous
 62
     7
370
    15
100
AcDbLine
 10
1332.5231167343
 20
900.5674110215
 30
0.0
 11
1332.2125338802
 21
899.40830003
 31
0.0
  0
LINE
  5
21D
330
1F
100
AcDbEntity
  8
0
  6
Continuous
 62
     7
370
    15
100
AcDbLine
 10
1337.3527458657
 20
899.273315796
 30
0.0
 11
1332.5231167343
 21
900.5674110215
 31
0.0
  0
LINE
  5
21E
330
1F
100
AcDbEntity
  8
0
  6
Continuous
 62
     7
370
    15
100
AcDbLine
 10
1337.3527458657
 20
899.273315796
 30
0.0
 11
1337.0421630116
 21
898.1142048045
 31
0.0
  0
LINE
  5
21F
330
1F
100
AcDbEntity
  8
0
  6
Continuous
 62
     7
370
    15
100
AcDbLine
 10
1337.0421630116
 20
898.1142048045
 30
0.0
 11
1332.2125338802
 21
899.40830003
 31
0.0
  0
ARC
  5
220
330
1F
100
AcDbEntity
  8
0
  6
Continuous
 62
     7
370
    15
100
AcDbCircle
 10
1329.1501907793
 20
898.9347571653
 30
0.0
 40
2.450000000000045
100
AcDbArc
 50
75.0
 51
90.0
  0
LINE
  5
221
330
1F
100
AcDbEntity
  8
0
  6
Continuous
 62
     7
370
    15
100
AcDbLine
 10
1329.4737145857
 20
900.1421644481
 30
0.0
 11
1329.7842974398
 21
901.3012754397
 31
0.0
  0
ARC
  5
222
330
1F
100
AcDbEntity
  8
0
  6
Continuous
 62
     7
370
    15
100
AcDbCircle
 10
1329.1501907793
 20
898.9347571653
 30
0.0
 40
1.250000000000001
100
AcDbArc
 50
75.0
 51
90.0
  0
LINE
  5
223
330
1F
100
AcDbEntity
  8
0
  6
Continuous
 62
     7
370
    15
100
AcDbLine
 10
1332.2125338802
 20
899.40830003
 30
0.0
 11
1329.4737145857
 21
900.1421644481
 31
0.0
  0
LINE
  5
224
330
1F
100
AcDbEntity
  8
0
  6
Continuous
 62
     7
370
    15
100
AcDbLine
 10
1332.5231167343
 20
900.5674110215
 30
0.0
 11
1329.7842974398
 21
901.3012754397
 31
0.0
  0
LINE
  5
225
330
1F
100
AcDbEntity
  8
0
  6
Continuous
 62
     7
370
    15
100
AcDbLine
 10
1307.5647564013
 20
891.8142048045
 30
0.0
 11
1307.2702584389
 21
891.8142048045
 31
0.0
  0
LINE
  5
226
330
1F
100
AcDbEntity
  8
0
  6
Continuous
 62
     7
370
    15
100
AcDbLine
 10
1288.9453516678
 20
877.2142048045
 30
0.0
 11
1288.805302061
 21
876.7142048045
 31
0.0
  0
SPLINE
  5
227
330
1F
100
AcDbEntity
  8
0
  6
Continuous
 62
     7
370
    15
100
AcDbSpline
210
0.0
220
0.0
230
1.0
 70
     8
 71
     3
 72
    11
 73
     7
 74
     0
 42
0.00000001
 43
0.00000001
 12
1.0
 22
0.0
 32
0.0
 13
1.0
 23
0.0
 33
0.0
 40
0.0
 40
0.0
 40
0.0
 40
0.0
 40
0.2500000000000002
 40
0.4999999999999929
 40
0.7499999999999997
 40
0.9999999999999999
 40
0.9999999999999999
 40
0.9999999999999999
 40
0.9999999999999999
 10
719.5647564012842
 20
1055.414204804459
 30
0.0
 10
719.6173669060397
 20
1055.38312841557
 30
0.0
 10
719.7225879155511
 20
1055.320975637792
 30
0.0
 10
720.5319601614793
 20
1055.227746471125
 30
0.0
 10
721.6888674413185
 20
1055.134517304459
 30
0.0
 10
722.6061267479622
 20
1055.072364526681
 30
0.0
 10
723.0647564012842
 20
1055.041288137792
 30
0.0
  0
LINE
  5
228
330
1F
100
AcDbEntity
  8
0
  6
Continuous
 62
     7
370
    15
100
AcDbLine
 10
723.0647564013
 20
877.2142048045
 30
0.0
 11
723.0647564013
 21
1055.0412881378
 31
0.0
  0
LINE
  5
229
330
1F
100
AcDbEntity
  8
0
  6
Continuous
 62
     7
370
    15
100
AcDbLine
 10
719.5647564013
 20
877.2142048045
 30
0.0
 11
719.5647564013
 21
1055.4142048045
 31
0.0
  0
LINE
  5
22A
330
1F
100
AcDbEntity
  8
0
  6
Continuous
 62
     7
370
    15
100
AcDbLine
 10
723.0647564013
 20
877.2142048045
 30
0.0
 11
719.5647564013
 21
877.2142048045
 31
0.0
  0
LINE
  5
22B
330
1F
100
AcDbEntity
  8
0
  6
Continuous
 62
     7
370
    15
100
AcDbLine
 10
1293.0357893019
 20
913.3401563472
 30
0.0
 11
723.0647564013
 21
1055.0412881378
 31
0.0
  0
ARC
  5
22C
330
1F
100
AcDbEntity
  8
0
  6
Continuous
 62
     7
370
    15
100
AcDbCircle
 10
1290.6231208612
 20
903.6355682058
 30
0.0
 40
10.00000000000003
100
AcDbArc
 50
26.0033458445
 51
76.0386774171
  0
CIRCLE
  5
22D
330
1F
100
AcDbEntity
  8
0
  6
Continuous
 62
     7
370
    15
100
AcDbCircle
 10
1189.0647564013
 20
918.2142048045
 30
0.0
 40
7.0
  0
CIRCLE
  5
22E
330
1F
100
AcDbEntity
  8
0
  6
Continuous
 62
     7
370
    15
100
AcDbCircle
 10
769.0647564013
 20
1003.2142048045
 30
0.0
 40
6.999999999999886
  0
LINE
  5
22F
330
1F
100
AcDbEntity
  8
0
  6
Continuous
 62
     7
370
    15
100
AcDbLine
 10
1307.5647564013
 20
877.2142048045
 30
0.0
 11
1307.5647564013
 21
889.4052153485
 31
0.0
  0
LINE
  5
230
330
1F
100
AcDbEntity
  8
0
  6
Continuous
 62
     7
370
    15
100
AcDbLine
 10
1306.5524408577
 20
893.7894516688
 30
0.0
 11
1299.6108053176
 21
908.019804526
 31
0.0
  0
LINE
  5
231
330
1F
100
AcDbEntity
  8
0
  6
Continuous
 62
     7
370
    15
100
AcDbLine
 10
723.0647564013
 20
877.2142048045
 30
0.0
 11
1307.5647564013
 21
877.2142048045
 31
0.0
  0
ARC
  5
232
330
1F
100
AcDbEntity
  8
0
  6
Continuous
 62
     7
370
    15
100
AcDbCircle
 10
1297.5647564013
 20
889.4052153485
 30
0.0
 40
10.00000000000045
100
AcDbArc
 50
0.0
 51
26.0033458445
  0
LINE
  5
233
330
1F
100
AcDbEntity
  8
0
  6
Continuous
 62
     7
370
    15
100
AcDbLine
 10
721.5647564013
 20
1055.4142048045
 30
0.0
 11
719.5647564013
 21
1055.4142048045
 31
0.0
  0
SPLINE
  5
234
330
1F
100
AcDbEntity
  8
0
  6
Continuous
 62
     7
370
    15
100
AcDbSpline
210
0.0
220
0.0
230
1.0
 70
     8
 71
     3
 72
    11
 73
     7
 74
     0
 42
0.00000001
 43
0.00000001
 12
1.0
 22
0.0
 32
0.0
 13
1.0
 23
0.0
 33
0.0
 40
0.0
 40
0.0
 40
0.0
 40
0.0
 40
0.2500000000000126
 40
0.5
 40
0.7499999999999875
 40
1.0
 40
1.0
 40
1.0
 40
1.0
 10
721.5647564012842
 20
1055.414204804459
 30
0.0
 10
721.587303760465
 20
1055.38312841557
 30
0.0
 10
721.632398478827
 20
1055.320975637792
 30
0.0
 10
721.9792722985108
 20
1055.227746471125
 30
0.0
 10
722.475089704156
 20
1055.134517304459
 30
0.0
 10
722.8682008355747
 20
1055.072364526681
 30
0.0
 10
723.0647564012842
 20
1055.041288137792
 30
0.0
  0
LINE
  5
235
330
1F
100
AcDbEntity
  8
0
  6
Continuous
 62
     7
370
    15
100
AcDbLine
 10
717.151189358
 20
1065.6550611923
 30
0.0
 11
715.3385737839
 21
1064.8098246688
 31
0.0
  0
LINE
  5
236
330
1F
100
AcDbEntity
  8
0
  6
Continuous
 62
     7
370
    15
100
AcDbLine
 10
717.151189358
 20
1065.6550611923
 30
0.0
 11
721.2368336559
 21
1056.8933687206
 31
0.0
  0
LINE
  5
237
330
1F
100
AcDbEntity
  8
0
  6
Continuous
 62
     7
370
    15
100
AcDbLine
 10
719.4242180818
 20
1056.0481321971
 30
0.0
 11
721.2368336559
 21
1056.8933687206
 31
0.0
  0
LINE
  5
238
330
1F
100
AcDbEntity
  8
0
  6
Continuous
 62
     7
370
    15
100
AcDbLine
 10
715.3385737839
 20
1064.8098246688
 30
0.0
 11
719.4242180818
 21
1056.0481321971
 31
0.0
  0
ARC
  5
239
330
1F
100
AcDbEntity
  8
0
  6
Continuous
 62
     7
370
    15
100
AcDbCircle
 10
718.0647564013
 20
1055.4142048045
 30
0.0
 40
1.5
100
AcDbArc
 50
0.0
 51
25.0
  0
ARC
  5
23A
330
1F
100
AcDbEntity
  8
0
  6
Continuous
 62
     7
370
    15
100
AcDbCircle
 10
718.0647564013
 20
1055.4142048045
 30
0.0
 40
3.500000000000119
100
AcDbArc
 50
0.0
 51
25.0
  0
LINE
  5
23B
330
1F
100
AcDbEntity
  8
0
  6
Continuous
 62
     7
370
    15
100
AcDbLine
 10
715.0380980492
 20
1070.1866001275
 30
0.0
 11
713.5249564171
 21
1069.4810105965
 31
0.0
  0
LINE
  5
23C
330
1F
100
AcDbEntity
  8
0
  6
Continuous
 62
     7
370
    15
100
AcDbLine
 10
715.0380980492
 20
1070.1866001275
 30
0.0
 11
717.151189358
 21
1065.6550611923
 31
0.0
  0
LINE
  5
23D
330
1F
100
AcDbEntity
  8
0
  6
Continuous
 62
     7
370
    15
100
AcDbLine
 10
713.7576102047
 20
1068.2002120055
 30
0.0
 11
715.3385737839
 21
1064.8098246688
 31
0.0
  0
LINE
  5
23E
330
1F
100
AcDbEntity
  8
0
  6
Continuous
 62
     7
370
    15
100
AcDbLine
 10
1427.0647564013
 20
687.6642048045
 30
0.0
 11
1428.6647564013
 21
687.6642048045
 31
0.0
  0
SPLINE
  5
23F
330
1F
100
AcDbEntity
  8
0
  6
Continuous
 62
     7
370
    15
100
AcDbSpline
210
0.0
220
0.0
230
1.0
 70
    24
 71
     3
 72
    11
 73
     7
 74
     0
 42
0.00000001
 43
0.00000001
 12
1.0
 22
0.0
 32
0.0
 13
1.0
 23
0.0
 33
0.0
 40
0.0
 40
0.0
 40
0.0
 40
0.0
 40
0.2833534124411341
 40
0.5581116990962758
 40
0.7754835424211847
 40
0.9999999999999999
 40
0.9999999999999999
 40
0.9999999999999999
 40
0.9999999999999999
 10
1428.664756401292
 20
685.6698269247361
 30
0.0
 10
1428.664756401292
 20
685.9668754995427
 30
0.0
 10
1428.664756401292
 20
686.5519620999514
 30
0.0
 10
1428.664756401292
 20
687.2000718703589
 30
0.0
 10
1428.664756401293
 20
687.5939772724711
 30
0.0
 10
1428.664756401292
 20
687.6405446542212
 30
0.0
 10
1428.664756401292
 20
687.6642048044627
 30
0.0
  0
LINE
  5
240
330
1F
100
AcDbEntity
  8
0
  6
Continuous
 62
     7
370
    15
100
AcDbLine
 10
1427.0647564013
 20
685.6698269247
 30
0.0
 11
1428.6647564013
 21
685.6698269247
 31
0.0
  0
LINE
  5
241
330
1F
100
AcDbEntity
  8
0
  6
Continuous
 62
     7
370
    15
100
AcDbLine
 10
1427.0647564013
 20
629.6581881344
 30
0.0
 11
1428.6647564013
 21
629.6581881344
 31
0.0
  0
LINE
  5
242
330
1F
100
AcDbEntity
  8
0
  6
Continuous
 62
     7
370
    15
100
AcDbLine
 10
1427.0647564013
 20
627.6642048045
 30
0.0
 11
1428.6647564013
 21
627.6642048045
 31
0.0
  0
SPLINE
  5
243
330
1F
100
AcDbEntity
  8
0
  6
Continuous
 62
     7
370
    15
100
AcDbSpline
210
0.0
220
0.0
230
1.0
 70
    24
 71
     3
 72
    11
 73
     7
 74
     0
 42
0.00000001
 43
0.00000001
 12
1.0
 22
0.0
 32
0.0
 13
1.0
 23
0.0
 33
0.0
 40
0.0
 40
0.0
 40
0.0
 40
0.0
 40
0.2832771686238255
 40
0.55800224890051
 40
0.7754022428539225
 40
1.0
 40
1.0
 40
1.0
 40
1.0
 10
1428.664756401292
 20
627.6642048044625
 30
0.0
 10
1428.664756401292
 20
627.7024886366395
 30
0.0
 10
1428.664756401292
 20
627.7779005187724
 30
0.0
 10
1428.664756401292
 20
628.3108391848932
 30
0.0
 10
1428.664756401292
 20
628.9612636147905
 30
0.0
 10
1428.664756401292
 20
629.4233715446065
 30
0.0
 10
1428.664756401292
 20
629.6581881343695
 30
0.0
  0
LINE
  5
244
330
1F
100
AcDbEntity
  8
0
  6
Continuous
 62
     7
370
    15
100
AcDbLine
 10
1428.6647564013
 20
629.6581881344
 30
0.0
 11
1428.6647564013
 21
685.6698269247
 31
0.0
  0
SPLINE
  5
245
330
1F
100
AcDbEntity
  8
0
  6
Continuous
 62
     7
370
    15
100
AcDbSpline
210
0.0
220
0.0
230
1.0
 70
     8
 71
     3
 72
    11
 73
     7
 74
     0
 42
0.00000001
 43
0.00000001
 12
1.0
 22
0.0
 32
0.0
 13
1.0
 23
0.0
 33
0.0
 40
0.0
 40
0.0
 40
0.0
 40
0.0
 40
0.2371516183831997
 40
0.4978002014463943
 40
0.7485397230460092
 40
1.0
 40
1.0
 40
1.0
 40
1.0
 10
1428.664756401292
 20
685.6698269247361
 30
0.0
 10
1428.859745244599
 20
685.639114400385
 30
0.0
 10
1429.269042411279
 20
685.5746463570584
 30
0.0
 10
1429.71263138188
 20
685.441623382154
 30
0.0
 10
1430.009878389306
 20
685.2882252413868
 30
0.0
 10
1430.046446236616
 20
685.1804528362342
 30
0.0
 10
1430.064756401292
 20
685.1264892963727
 30
0.0
  0
LINE
  5
246
330
1F
100
AcDbEntity
  8
0
  6
Continuous
 62
     7
370
    15
100
AcDbLine
 10
1430.0647564013
 20
685.1264892964
 30
0.0
 11
1430.0647564013
 21
630.2019203126
 31
0.0
  0
SPLINE
  5
247
330
1F
100
AcDbEntity
  8
0
  6
Continuous
 62
     7
370
    15
100
AcDbSpline
210
0.0
220
0.0
230
1.0
 70
     8
 71
     3
 72
    11
 73
     7
 74
     0
 42
0.00000001
 43
0.00000001
 12
1.0
 22
0.0
 32
0.0
 13
1.0
 23
0.0
 33
0.0
 40
0.0
 40
0.0
 40
0.0
 40
0.0
 40
0.2371429336589571
 40
0.4977971043283203
 40
0.7485377110304099
 40
1.0
 40
1.0
 40
1.0
 40
1.0
 10
1428.664756401293
 20
629.6581881343695
 30
0.0
 10
1428.85974048293
 20
629.688922528194
 30
0.0
 10
1429.269040097015
 20
629.7534384385486
 30
0.0
 10
1429.71263026787
 20
629.8865563352399
 30
0.0
 10
1430.009878609071
 20
630.0400672953124
 30
0.0
 10
1430.046446287562
 20
630.1479176452922
 30
0.0
 10
1430.064756401292
 20
630.2019203125525
 30
0.0
  0
SPLINE
  5
248
330
1F
100
AcDbEntity
  8
0
  6
Continuous
 62
     7
370
    15
100
AcDbSpline
210
0.0
220
0.0
230
1.0
 70
     8
 71
     3
 72
    11
 73
     7
 74
     0
 42
0.00000001
 43
0.00000001
 12
1.0
 22
0.0
 32
0.0
 13
1.0
 23
0.0
 33
0.0
 40
0.0
 40
0.0
 40
0.0
 40
0.0
 40
0.2371941589275944
 40
0.4978619749471086
 40
0.7485798819786966
 40
0.9999999999999999
 40
0.9999999999999999
 40
0.9999999999999999
 40
0.9999999999999999
 10
1428.664756401292
 20
687.6642048044627
 30
0.0
 10
1428.859735642347
 20
687.5212863007255
 30
0.0
 10
1429.26899002898
 20
687.2213055219038
 30
0.0
 10
1429.712605042025
 20
686.5979343765789
 30
0.0
 10
1430.009873401762
 20
685.8822179046671
 30
0.0
 10
1430.046445020351
 20
685.378633576991
 30
0.0
 10
1430.064756401292
 20
685.1264892963727
 30
0.0
  0
SPLINE
  5
249
330
1F
100
AcDbEntity
  8
0
  6
Continuous
 62
     7
370
    15
100
AcDbSpline
210
0.0
220
0.0
230
1.0
 70
    24
 71
     3
 72
    13
 73
     9
 74
     0
 42
0.00000001
 43
0.00000001
 12
1.0
 22
0.0
 32
0.0
 13
1.0
 23
0.0
 33
0.0
 40
0.0
 40
0.0
 40
0.0
 40
0.0
 40
0.1275360740474425
 40
0.254588719859232
 40
0.4999418984797867
 40
0.7453299828649761
 40
0.8725055605771156
 40
1.0
 40
1.0
 40
1.0
 40
1.0
 10
1428.664756401292
 20
687.6642048044627
 30
0.0
 10
1428.664756401292
 20
687.6569375605914
 30
0.0
 10
1428.664756401292
 20
687.6424306194936
 30
0.0
 10
1428.664756401293
 20
687.4819394945168
 30
0.0
 10
1428.664756401292
 20
687.1161600891465
 30
0.0
 10
1428.664756401293
 20
686.5685850989069
 30
0.0
 10
1428.664756401292
 20
686.0687381149705
 30
0.0
 10
1428.664756401293
 20
685.8029082663044
 30
0.0
 10
1428.664756401292
 20
685.6698269247361
 30
0.0
  0
SPLINE
  5
24A
330
1F
100
AcDbEntity
  8
0
  6
Continuous
 62
     7
370
    15
100
AcDbSpline
210
0.0
220
0.0
230
1.0
 70
     8
 71
     3
 72
    11
 73
     7
 74
     0
 42
0.00000001
 43
0.00000001
 12
1.0
 22
0.0
 32
0.0
 13
1.0
 23
0.0
 33
0.0
 40
0.0
 40
0.0
 40
0.0
 40
0.0
 40
0.2514201137491391
 40
0.50213801652048
 40
0.7627995894819195
 40
1.0
 40
1.0
 40
1.0
 40
1.0
 10
1430.064756401292
 20
630.2019203125525
 30
0.0
 10
1430.04644502964
 20
629.9497760353253
 30
0.0
 10
1430.009873429603
 20
629.4461917144217
 30
0.0
 10
1429.712607360404
 20
628.7304810446616
 30
0.0
 10
1429.26899472822
 20
628.1071091178385
 30
0.0
 10
1428.859740637146
 20
627.8071274812461
 30
0.0
 10
1428.664756401292
 20
627.6642048044625
 30
0.0
  0
SPLINE
  5
24B
330
1F
100
AcDbEntity
  8
0
  6
Continuous
 62
     7
370
    15
100
AcDbSpline
210
0.0
220
0.0
230
1.0
 70
    24
 71
     3
 72
    13
 73
     9
 74
     0
 42
0.00000001
 43
0.00000001
 12
1.0
 22
0.0
 32
0.0
 13
1.0
 23
0.0
 33
0.0
 40
0.0
 40
0.0
 40
0.0
 40
0.0
 40
0.1275872441294508
 40
0.2546759233236628
 40
0.5000487292309103
 40
0.7453982611490159
 40
0.872539756542471
 40
0.9999999999999999
 40
0.9999999999999999
 40
0.9999999999999999
 40
0.9999999999999999
 10
1428.664756401292
 20
629.6581881343695
 30
0.0
 10
1428.664756401292
 20
629.5250166329176
 30
0.0
 10
1428.664756401292
 20
629.2591940162129
 30
0.0
 10
1428.664756401293
 20
628.7594501830737
 30
0.0
 10
1428.664756401292
 20
628.2120468078523
 30
0.0
 10
1428.664756401292
 20
627.8462940316738
 30
0.0
 10
1428.664756401293
 20
627.6860336934928
 30
0.0
 10
1428.664756401292
 20
627.671487171301
 30
0.0
 10
1428.664756401292
 20
627.6642048044625
 30
0.0
  0
LINE
  5
24C
330
1F
100
AcDbEntity
  8
0
  6
Continuous
 62
     7
370
    15
100
AcDbLine
 10
1401.0761652452
 20
811.8011419215
 30
0.0
 11
1405.1860912704
 21
799.1520902548
 31
0.0
  0
LINE
  5
24D
330
1F
100
AcDbEntity
  8
0
  6
Continuous
 62
     7
370
    15
100
AcDbLine
 10
1408.6467569656
 20
832.1881741131
 30
0.0
 11
1407.1634068881
 21
836.7534562266
 31
0.0
  0
SPLINE
  5
24E
330
1F
100
AcDbEntity
  8
0
  6
Continuous
 62
     7
370
    15
100
AcDbSpline
210
0.0
220
0.0
230
1.0
 70
     8
 71
     3
 72
     9
 73
     5
 74
     0
 42
0.00000001
 43
0.00000001
 12
1.0
 22
0.0
 32
0.0
 13
1.0
 23
0.0
 33
0.0
 40
0.0
 40
0.0
 40
0.0
 40
0.0
 40
0.5209744652335343
 40
1.0
 40
1.0
 40
1.0
 40
1.0
 10
1408.390288632886
 20
830.9432799758993
 30
0.0
 10
1408.341678923453
 20
831.1837929985112
 30
0.0
 10
1408.248373564597
 20
831.645452904442
 30
0.0
 10
1408.517728887852
 20
832.0123980286863
 30
0.0
 10
1408.646756965616
 20
832.1881741130572
 30
0.0
  0
LINE
  5
24F
330
1F
100
AcDbEntity
  8
0
  6
Continuous
 62
     7
370
    15
100
AcDbLine
 10
1422.3548078357
 20
787.9649091209
 30
0.0
 11
1408.3902886329
 21
830.9432799759
 31
0.0
  0
SPLINE
  5
250
330
1F
100
AcDbEntity
  8
0
  6
Continuous
 62
     7
370
    15
100
AcDbSpline
210
0.0
220
0.0
230
1.0
 70
     8
 71
     3
 72
     9
 73
     5
 74
     0
 42
0.00000001
 43
0.00000001
 12
1.0
 22
0.0
 32
0.0
 13
1.0
 23
0.0
 33
0.0
 40
0.0
 40
0.0
 40
0.0
 40
0.0
 40
0.479025534766477
 40
1.0
 40
1.0
 40
1.0
 40
1.0
 10
1423.294025489876
 20
787.1085169113593
 30
0.0
 10
1423.086320992114
 20
787.1748819495785
 30
0.0
 10
1422.652723025644
 20
787.3134237044596
 30
0.0
 10
1422.456851762344
 20
787.7417579278745
 30
0.0
 10
1422.354807835691
 20
787.9649091208591
 30
0.0
  0
LINE
  5
251
330
1F
100
AcDbEntity
  8
0
  6
Continuous
 62
     7
370
    15
100
AcDbLine
 10
1424.7773755674
 20
782.5432347978
 30
0.0
 11
1423.2940254899
 21
787.1085169114
 31
0.0
  0
LINE
  5
252
330
1F
100
AcDbEntity
  8
0
  6
Continuous
 62
     7
370
    15
100
AcDbLine
 10
1410.6689267991
 20
803.6555636473
 30
0.0
 11
1410.2750027201
 21
804.865061725
 31
0.0
  0
LINE
  5
253
330
1F
100
AcDbEntity
  8
0
  6
Continuous
 62
     7
370
    15
100
AcDbLine
 10
1411.5156340115
 20
803.4496599288
 30
0.0
 11
1410.6689267991
 21
803.6555636473
 31
0.0
  0
LINE
  5
254
330
1F
100
AcDbEntity
  8
0
  6
Continuous
 62
     7
370
    15
100
AcDbLine
 10
1410.2750027201
 20
804.865061725
 30
0.0
 11
1414.185615258
 21
806.3316858157
 31
0.0
  0
SPLINE
  5
255
330
1F
100
AcDbEntity
  8
0
  6
Continuous
 62
     7
370
    15
100
AcDbSpline
210
0.0
220
0.0
230
1.0
 70
     8
 71
     3
 72
    14
 73
    10
 74
     0
 42
0.00000001
 43
0.00000001
 12
1.0
 22
0.0
 32
0.0
 13
1.0
 23
0.0
 33
0.0
 40
0.0
 40
0.0
 40
0.0
 40
0.0
 40
0.0626671213113206
 40
0.1253039859748199
 40
0.2504042914232626
 40
0.374257065209544
 40
0.5007037762443487
 40
0.7499194059241059
 40
1.0
 40
1.0
 40
1.0
 40
1.0
 10
1418.518246158014
 20
782.3835959675067
 30
0.0
 10
1418.522234832522
 20
782.3728387771255
 30
0.0
 10
1418.530210255745
 20
782.3513295900998
 30
0.0
 10
1418.55666361311
 20
782.317303408736
 30
0.0
 10
1418.602005283631
 20
782.2866947110456
 30
0.0
 10
1418.680237187232
 20
782.2776650246217
 30
0.0
 10
1418.80397509248
 20
782.2967016344649
 30
0.0
 10
1418.986194821413
 20
782.3723205101844
 30
0.0
 10
1419.13332161829
 20
782.4742444590628
 30
0.0
 10
1419.207012455547
 20
782.5252947183546
 30
0.0
  0
LINE
  5
256
330
1F
100
AcDbEntity
  8
0
  6
Continuous
 62
     7
370
    15
100
AcDbLine
 10
1420.6116391546
 20
784.8932542406
 30
0.0
 11
1421.2267495692
 21
785.3589825254
 31
0.0
  0
LINE
  5
257
330
1F
100
AcDbEntity
  8
0
  6
Continuous
 62
     7
370
    15
100
AcDbLine
 10
1420.8801836041
 20
784.1124477666
 30
0.0
 11
1420.6116391546
 21
784.8932542406
 31
0.0
  0
LINE
  5
258
330
1F
100
AcDbEntity
  8
0
  6
Continuous
 62
     7
370
    15
100
AcDbLine
 10
1420.3869961293
 20
784.0399689571
 30
0.0
 11
1420.8801836041
 21
784.1124477666
 31
0.0
  0
SPLINE
  5
259
330
1F
100
AcDbEntity
  8
0
  6
Continuous
 62
     7
370
    15
100
AcDbSpline
210
0.0
220
0.0
230
1.0
 70
     8
 71
     3
 72
    10
 73
     6
 74
     0
 42
0.00000001
 43
0.00000001
 12
1.0
 22
0.0
 32
0.0
 13
1.0
 23
0.0
 33
0.0
 40
0.0
 40
0.0
 40
0.0
 40
0.0
 40
0.2486925727988451
 40
0.4996084044951555
 40
1.0
 40
1.0
 40
1.0
 40
1.0
 10
1418.685235768964
 20
783.4116099944313
 30
0.0
 10
1418.835743598988
 20
783.5113444206584
 30
0.0
 10
1419.13810476714
 20
783.7117048777471
 30
0.0
 10
1419.734424136701
 20
783.9395267320589
 30
0.0
 10
1420.126117487855
 20
783.9998151786727
 30
0.0
 10
1420.386996129321
 20
784.0399689571386
 30
0.0
  0
SPLINE
  5
25A
330
1F
100
AcDbEntity
  8
0
  6
Continuous
 62
     7
370
    15
100
AcDbSpline
210
0.0
220
0.0
230
1.0
 70
     8
 71
     3
 72
    12
 73
     8
 74
     0
 42
0.00000001
 43
0.00000001
 12
1.0
 22
0.0
 32
0.0
 13
1.0
 23
0.0
 33
0.0
 40
0.0
 40
0.0
 40
0.0
 40
0.0
 40
0.2500727945869598
 40
0.375478614143689
 40
0.5008585083359255
 40
0.7506250877524447
 40
1.0
 40
1.0
 40
1.0
 40
1.0
 10
1417.886701976321
 20
781.9382675726397
 30
0.0
 10
1417.869128593323
 20
782.0331320700371
 30
0.0
 10
1417.842742558389
 20
782.175568955557
 30
0.0
 10
1417.912058330606
 20
782.4290902025635
 30
0.0
 10
1418.033181273301
 20
782.6982042996534
 30
0.0
 10
1418.280808221137
 20
783.0574033484406
 30
0.0
 10
1418.550497126333
 20
783.2936028929172
 30
0.0
 10
1418.685235768964
 20
783.4116099944313
 30
0.0
  0
LINE
  5
25B
330
1F
100
AcDbEntity
  8
0
  6
Continuous
 62
     7
370
    15
100
AcDbLine
 10
1417.9918047329
 20
781.8028683726
 30
0.0
 11
1417.8867019763
 21
781.9382675726
 31
0.0
  0
SPLINE
  5
25C
330
1F
100
AcDbEntity
  8
0
  6
Continuous
 62
     7
370
    15
100
AcDbSpline
210
0.0
220
0.0
230
1.0
 70
     8
 71
     3
 72
    16
 73
    12
 74
     0
 42
0.00000001
 43
0.00000001
 12
1.0
 22
0.0
 32
0.0
 13
1.0
 23
0.0
 33
0.0
 40
0.0
 40
0.0
 40
0.0
 40
0.0
 40
0.0000534215512882
 40
0.1251139040812096
 40
0.2500827967041486
 40
0.3750495808472306
 40
0.5000146504932257
 40
0.6249778682420708
 40
0.7499409102203782
 40
0.8749031911239077
 40
1.0
 40
1.0
 40
1.0
 40
1.0
 10
1399.480368463363
 20
837.263947095881
 30
0.0
 10
1399.480341533227
 20
837.2639508245625
 30
0.0
 10
1399.417270838956
 20
837.2726834403951
 30
0.0
 10
1399.63899797482
 20
837.2412799213631
 30
0.0
 10
1400.154528024259
 20
837.1730817830044
 30
0.0
 10
1400.992253823041
 20
837.079308879627
 30
0.0
 10
1401.967204303305
 20
836.9980957261879
 30
0.0
 10
1402.949459083857
 20
836.9472470507882
 30
0.0
 10
1403.776246301643
 20
836.9291342372079
 30
0.0
 10
1404.355350893854
 20
836.9307731108745
 30
0.0
 10
1404.431246677991
 20
836.93190471766
 30
0.0
 10
1404.469214985446
 20
836.9324708254463
 30
0.0
  0
LINE
  5
25D
330
1F
100
AcDbEntity
  8
0
  6
Continuous
 62
     7
370
    15
100
AcDbLine
 10
1416.502878382
 20
775.6488387889
 30
0.0
 11
1396.4167737476
 21
837.4675123481
 31
0.0
  0
LINE
  5
25E
330
1F
100
AcDbEntity
  8
0
  6
Continuous
 62
     7
370
    15
100
AcDbLine
 10
1410.6728317175
 20
803.6555639991
 30
0.0
 11
1410.2787908751
 21
804.8654214376
 31
0.0
  0
LINE
  5
25F
330
1F
100
AcDbEntity
  8
0
  6
Continuous
 62
     7
370
    15
100
AcDbLine
 10
1410.2787908751
 20
804.8654214376
 30
0.0
 11
1414.1893997795
 21
806.3320567111
 31
0.0
  0
LINE
  5
260
330
1F
100
AcDbEntity
  8
0
  6
Continuous
 62
     7
370
    15
100
AcDbLine
 10
1414.1893997795
 20
806.3320567111
 30
0.0
 11
1414.4536808938
 21
805.5295414463
 31
0.0
  0
LINE
  5
261
330
1F
100
AcDbEntity
  8
0
  6
Continuous
 62
     7
370
    15
100
AcDbLine
 10
1414.4536808938
 20
805.5295414463
 30
0.0
 11
1411.2420263793
 21
804.3254313551
 31
0.0
  0
LINE
  5
262
330
1F
100
AcDbEntity
  8
0
  6
Continuous
 62
     7
370
    15
100
AcDbLine
 10
1411.2420263793
 20
804.3254313551
 30
0.0
 11
1411.5195848958
 21
803.4495188119
 31
0.0
  0
LINE
  5
263
330
1F
100
AcDbEntity
  8
0
  6
Continuous
 62
     7
370
    15
100
AcDbLine
 10
1411.5195848958
 20
803.4495188119
 30
0.0
 11
1410.6728317175
 21
803.6555639991
 31
0.0
  0
LINE
  5
264
330
1F
100
AcDbEntity
  8
0
  6
Continuous
 62
     7
370
    15
100
AcDbLine
 10
1414.1893997795
 20
806.3320567111
 30
0.0
 11
1414.185615258
 21
806.3316858157
 31
0.0
  0
LINE
  5
265
330
1F
100
AcDbEntity
  8
0
  6
Continuous
 62
     7
370
    15
100
AcDbLine
 10
1410.2787908751
 20
804.8654214376
 30
0.0
 11
1410.2750027201
 21
804.865061725
 31
0.0
  0
LINE
  5
266
330
1F
100
AcDbEntity
  8
0
  6
Continuous
 62
     7
370
    15
100
AcDbLine
 10
1410.6728317175
 20
803.6555639991
 30
0.0
 11
1410.6689267991
 21
803.6555636473
 31
0.0
  0
LINE
  5
267
330
1F
100
AcDbEntity
  8
0
  6
Continuous
 62
     7
370
    15
100
AcDbLine
 10
1411.5195848958
 20
803.4495188119
 30
0.0
 11
1411.5156340115
 21
803.4496599288
 31
0.0
  0
LINE
  5
268
330
1F
100
AcDbEntity
  8
0
  6
Continuous
 62
     7
370
    15
100
AcDbLine
 10
1409.2136112701
 20
830.4435759522
 30
0.0
 11
1422.7271711854
 21
788.8531150722
 31
0.0
  0
ARC
  5
269
330
1F
100
AcDbEntity
  8
0
  6
Continuous
 62
     7
370
    15
100
AcDbCircle
 10
1421.9353797321
 20
788.6629024081
 30
0.0
 40
0.8143184653792922
100
AcDbArc
 50
301.001895257
 51
13.5082342231
  0
ARC
  5
26A
330
1F
100
AcDbEntity
  8
0
  6
Continuous
 62
     7
370
    15
100
AcDbCircle
 10
1408.4612343296
 20
830.1320578909
 30
0.0
 40
0.8143184653800736
100
AcDbArc
 50
22.491765777
 51
94.998104743
  0
SPLINE
  5
26B
330
1F
100
AcDbEntity
  8
0
  6
Continuous
 62
     7
370
    15
100
AcDbSpline
210
0.0
220
0.0
230
1.0
 70
     8
 71
     3
 72
     9
 73
     5
 74
     0
 42
0.00000001
 43
0.00000001
 12
1.0
 22
0.0
 32
0.0
 13
1.0
 23
0.0
 33
0.0
 40
0.0
 40
0.0
 40
0.0
 40
0.0
 40
0.531558942674802
 40
1.0
 40
1.0
 40
1.0
 40
1.0
 10
1422.727171185392
 20
788.8531150722467
 30
0.0
 10
1422.808153317885
 20
788.6707959269934
 30
0.0
 10
1422.960501676632
 20
788.3278064095265
 30
0.0
 10
1423.276427719543
 20
788.2306568295259
 30
0.0
 10
1423.424420449121
 20
788.1851479775517
 30
0.0
  0
SPLINE
  5
26C
330
1F
100
AcDbEntity
  8
0
  6
Continuous
 62
     7
370
    15
100
AcDbSpline
210
0.0
220
0.0
230
1.0
 70
     8
 71
     3
 72
    12
 73
     8
 74
     0
 42
0.00000001
 43
0.00000001
 12
1.0
 22
0.0
 32
0.0
 13
1.0
 23
0.0
 33
0.0
 40
0.0
 40
0.0
 40
0.0
 40
0.0
 40
0.0304717459459957
 40
0.0888135668586825
 40
0.3925556175487705
 40
0.6962774394174505
 40
1.0
 40
1.0
 40
1.0
 40
1.0
 10
1423.424420449121
 20
788.1851479775517
 30
0.0
 10
1423.427929555172
 20
788.1751397140087
 30
0.0
 10
1423.438157266621
 20
788.1459694267243
 30
0.0
 10
1423.477131575908
 20
788.0134873744918
 30
0.0
 10
1423.50477413506
 20
787.7701582404693
 30
0.0
 10
1423.45421132018
 20
787.4285913303795
 30
0.0
 10
1423.349981830321
 20
787.2354979070678
 30
0.0
 10
1423.297867022015
 20
787.1389510780014
 30
0.0
  0
SPLINE
  5
26D
330
1F
100
AcDbEntity
  8
0
  6
Continuous
 62
     7
370
    15
100
AcDbSpline
210
0.0
220
0.0
230
1.0
 70
     8
 71
     3
 72
    10
 73
     6
 74
     0
 42
0.00000001
 43
0.00000001
 12
1.0
 22
0.0
 32
0.0
 13
1.0
 23
0.0
 33
0.0
 40
0.0
 40
0.0
 40
0.0
 40
0.0
 40
0.2117958997103744
 40
0.4880069094704258
 40
1.0
 40
1.0
 40
1.0
 40
1.0
 10
1423.297867022015
 20
787.1389510780014
 30
0.0
 10
1423.296426380552
 20
787.1363671692204
 30
0.0
 10
1423.2931069443
 20
787.1304134876793
 30
0.0
 10
1423.291345115035
 20
787.1193793960499
 30
0.0
 10
1423.292970008901
 20
787.1127943526171
 30
0.0
 10
1423.294025489875
 20
787.108516911359
 30
0.0
  0
SPLINE
  5
26E
330
1F
100
AcDbEntity
  8
0
  6
Continuous
 62
     7
370
    15
100
AcDbSpline
210
0.0
220
0.0
230
1.0
 70
     8
 71
     3
 72
    12
 73
     8
 74
     0
 42
0.00000001
 43
0.00000001
 12
1.0
 22
0.0
 32
0.0
 13
1.0
 23
0.0
 33
0.0
 40
0.0
 40
0.0
 40
0.0
 40
0.0
 40
0.0304717459516164
 40
0.0888135668586599
 40
0.3925556175487946
 40
0.6962774394175119
 40
1.0
 40
1.0
 40
1.0
 40
1.0
 10
1409.385076566494
 20
831.3938055178534
 30
0.0
 10
1409.382032783211
 20
831.4039649739304
 30
0.0
 10
1409.373161310914
 20
831.4335759300268
 30
0.0
 10
1409.326821192984
 20
831.5636646859584
 30
0.0
 10
1409.206159216667
 20
831.7767699792039
 30
0.0
 10
1408.964485047727
 20
832.0233833372852
 30
0.0
 10
1408.766664152579
 20
832.1183346412527
 30
0.0
 10
1408.667753584719
 20
832.1658103509716
 30
0.0
  0
SPLINE
  5
26F
330
1F
100
AcDbEntity
  8
0
  6
Continuous
 62
     7
370
    15
100
AcDbSpline
210
0.0
220
0.0
230
1.0
 70
     8
 71
     3
 72
     9
 73
     5
 74
     0
 42
0.00000001
 43
0.00000001
 12
1.0
 22
0.0
 32
0.0
 13
1.0
 23
0.0
 33
0.0
 40
0.0
 40
0.0
 40
0.0
 40
0.0
 40
0.4684410573251863
 40
1.0
 40
1.0
 40
1.0
 40
1.0
 10
1409.385076566494
 20
831.3938055178534
 30
0.0
 10
1409.292097365261
 20
831.2700001393194
 30
0.0
 10
1409.093610917971
 20
831.0057078092644
 30
0.0
 10
1409.171962686738
 20
830.6386753422587
 30
0.0
 10
1409.2136112701
 20
830.4435759521699
 30
0.0
  0
SPLINE
  5
270
330
1F
100
AcDbEntity
  8
0
  6
Continuous
 62
     7
370
    15
100
AcDbSpline
210
0.0
220
0.0
230
1.0
 70
     8
 71
     3
 72
    11
 73
     7
 74
     0
 42
0.00000001
 43
0.00000001
 12
1.0
 22
0.0
 32
0.0
 13
1.0
 23
0.0
 33
0.0
 40
0.0
 40
0.0
 40
0.0
 40
0.0
 40
0.3704320937877892
 40
0.744249846928178
 40
0.9442480537671132
 40
1.0
 40
1.0
 40
1.0
 40
1.0
 10
1408.646756965616
 20
832.1881741130572
 30
0.0
 10
1408.64789577117
 20
832.1852262913994
 30
0.0
 10
1408.650183790684
 20
832.1793037057095
 30
0.0
 10
1408.656580047422
 20
832.1717661225529
 30
0.0
 10
1408.663630875423
 20
832.1674598495125
 30
0.0
 10
1408.667015711467
 20
832.1661055745163
 30
0.0
 10
1408.667753584719
 20
832.1658103509716
 30
0.0
  0
SPLINE
  5
271
330
1F
100
AcDbEntity
  8
0
  6
Continuous
 62
     7
370
    15
100
AcDbSpline
210
0.0
220
0.0
230
1.0
 70
     8
 71
     3
 72
    14
 73
    10
 74
     0
 42
0.00000001
 43
0.00000001
 12
1.0
 22
0.0
 32
0.0
 13
1.0
 23
0.0
 33
0.0
 40
0.0
 40
0.0
 40
0.0
 40
0.0
 40
0.1805556527229663
 40
0.365684834450674
 40
0.5424915814836472
 40
0.7254035586394653
 40
0.8521325786747721
 40
0.9821329472812832
 40
1.0
 40
1.0
 40
1.0
 40
1.0
 10
1411.926409719555
 20
831.6332132363016
 30
0.0
 10
1411.739933272934
 20
831.6644001887789
 30
0.0
 10
1411.362256875197
 20
831.7275640686222
 30
0.0
 10
1410.824605010119
 20
831.7608918844921
 30
0.0
 10
1410.321547439146
 20
831.7430290244846
 30
0.0
 10
1409.92219023071
 20
831.6712941968676
 30
0.0
 10
1409.618086551058
 20
831.5583847153514
 30
0.0
 10
1409.462861382694
 20
831.4618002422701
 30
0.0
 10
1409.393462181012
 20
831.4011357087069
 30
0.0
 10
1409.385076566494
 20
831.3938055178534
 30
0.0
  0
LINE
  5
272
330
1F
100
AcDbEntity
  8
0
  6
Continuous
 62
     7
370
    15
100
AcDbLine
 10
1411.9264097196
 20
831.6332132363
 30
0.0
 11
1425.6211224845
 21
789.4852212133
 31
0.0
  0
SPLINE
  5
273
330
1F
100
AcDbEntity
  8
0
  6
Continuous
 62
     7
370
    15
100
AcDbSpline
210
0.0
220
0.0
230
1.0
 70
     8
 71
     3
 72
    14
 73
    10
 74
     0
 42
0.00000001
 43
0.00000001
 12
1.0
 22
0.0
 32
0.0
 13
1.0
 23
0.0
 33
0.0
 40
0.0
 40
0.0
 40
0.0
 40
0.0
 40
0.1164606927081275
 40
0.2356603014098501
 40
0.2746343585298315
 40
0.4511971195085041
 40
0.6343356161456902
 40
0.8147750385603695
 40
1.0
 40
1.0
 40
1.0
 40
1.0
 10
1423.424420449121
 20
788.1851479775517
 30
0.0
 10
1423.498573754333
 20
788.1828997550446
 30
0.0
 10
1423.648624298
 20
788.1783504364604
 30
0.0
 10
1423.841899780252
 20
788.2246917285847
 30
0.0
 10
1424.083201586739
 20
788.3065563321509
 30
0.0
 10
1424.382419132264
 20
788.4501862001383
 30
0.0
 10
1424.796362452492
 20
788.7278914429444
 30
0.0
 10
1425.216565471293
 20
789.0740160105113
 30
0.0
 10
1425.485098693498
 20
789.3469621082897
 30
0.0
 10
1425.621122484505
 20
789.4852212132736
 30
0.0
  0
LINE
  5
274
330
1F
100
AcDbEntity
  8
0
  6
Continuous
 62
     7
370
    15
100
AcDbLine
 10
1419.2130552925
 20
782.5187152332
 30
0.0
 11
1419.326485276
 21
782.1414846478
 31
0.0
  0
SPLINE
  5
275
330
1F
100
AcDbEntity
  8
0
  6
Continuous
 62
     7
370
    15
100
AcDbSpline
210
0.0
220
0.0
230
1.0
 70
     8
 71
     3
 72
    13
 73
     9
 74
     0
 42
0.00000001
 43
0.00000001
 12
1.0
 22
0.0
 32
0.0
 13
1.0
 23
0.0
 33
0.0
 40
0.0
 40
0.0
 40
0.0
 40
0.0
 40
0.2498790256955525
 40
0.3750615538374697
 40
0.5002110427404015
 40
0.626453264875663
 40
0.7505701734183698
 40
1.0
 40
1.0
 40
1.0
 40
1.0
 10
1419.326485275986
 20
782.1414846478143
 30
0.0
 10
1419.16430438049
 20
782.0306598764662
 30
0.0
 10
1418.920875311172
 20
781.8643149388317
 30
0.0
 10
1418.608470635533
 20
781.7266259904608
 30
0.0
 10
1418.392702669943
 20
781.6680136652116
 30
0.0
 10
1418.206073964925
 20
781.6593613745822
 30
0.0
 10
1418.004579341693
 20
781.7147559956164
 30
0.0
 10
1417.93750211352
 20
781.844891822681
 30
0.0
 10
1417.89271237286
 20
781.9317879289098
 30
0.0
  0
SPLINE
  5
276
330
1F
100
AcDbEntity
  8
0
  6
Continuous
 62
     7
370
    15
100
AcDbSpline
210
0.0
220
0.0
230
1.0
 70
     8
 71
     3
 72
    12
 73
     8
 74
     0
 42
0.00000001
 43
0.00000001
 12
1.0
 22
0.0
 32
0.0
 13
1.0
 23
0.0
 33
0.0
 40
0.0
 40
0.0
 40
0.0
 40
0.0
 40
0.2501061972290925
 40
0.3755230328052068
 40
0.5009072626973042
 40
0.7506600700595121
 40
1.0
 40
1.0
 40
1.0
 40
1.0
 10
1417.89271237286
 20
781.9317879289098
 30
0.0
 10
1417.875130201565
 20
782.0266767063357
 30
0.0
 10
1417.848731374344
 20
782.1691478720762
 30
0.0
 10
1417.91803009256
 20
782.4227182362831
 30
0.0
 10
1418.039133495037
 20
782.6918655885945
 30
0.0
 10
1418.286737328327
 20
783.051104586803
 30
0.0
 10
1418.556438492188
 20
783.2873277515707
 30
0.0
 10
1418.691177518176
 20
783.4053416254488
 30
0.0
  0
SPLINE
  5
277
330
1F
100
AcDbEntity
  8
0
  6
Continuous
 62
     7
370
    15
100
AcDbSpline
210
0.0
220
0.0
230
1.0
 70
     8
 71
     3
 72
    10
 73
     6
 74
     0
 42
0.00000001
 43
0.00000001
 12
1.0
 22
0.0
 32
0.0
 13
1.0
 23
0.0
 33
0.0
 40
0.0
 40
0.0
 40
0.0
 40
0.0
 40
0.248675874103244
 40
0.4995861836788271
 40
1.0
 40
1.0
 40
1.0
 40
1.0
 10
1418.691177518176
 20
783.4053416254488
 30
0.0
 10
1418.841687667587
 20
783.5050737176931
 30
0.0
 10
1419.144060350181
 20
783.7054340282145
 30
0.0
 10
1419.740408969274
 20
783.933202733937
 30
0.0
 10
1420.132103840378
 20
783.9934290809575
 30
0.0
 10
1420.392989280532
 20
784.0335423890715
 30
0.0
  0
LINE
  5
278
330
1F
100
AcDbEntity
  8
0
  6
Continuous
 62
     7
370
    15
100
AcDbLine
 10
1420.3929892805
 20
784.0335423891
 30
0.0
 11
1420.8862010356
 21
784.1059464715
 31
0.0
  0
LINE
  5
279
330
1F
100
AcDbEntity
  8
0
  6
Continuous
 62
     7
370
    15
100
AcDbLine
 10
1420.8862010356
 20
784.1059464715
 30
0.0
 11
1420.6175766131
 21
784.8869990771
 31
0.0
  0
LINE
  5
27A
330
1F
100
AcDbEntity
  8
0
  6
Continuous
 62
     7
370
    15
100
AcDbLine
 10
1420.6175766131
 20
784.8869990771
 30
0.0
 11
1421.232685787
 21
785.3527295629
 31
0.0
  0
LINE
  5
27B
330
1F
100
AcDbEntity
  8
0
  6
Continuous
 62
     7
370
    15
100
AcDbLine
 10
1421.2326862088
 20
785.3527298822
 30
0.0
 11
1421.7113746647
 21
783.8801233651
 31
0.0
  0
LINE
  5
27C
330
1F
100
AcDbEntity
  8
0
  6
Continuous
 62
     7
370
    15
100
AcDbLine
 10
1421.7113746647
 20
783.8801233651
 30
0.0
 11
1421.3928854654
 21
783.6388441563
 31
0.0
  0
LINE
  5
27D
330
1F
100
AcDbEntity
  8
0
  6
Continuous
 62
     7
370
    15
100
AcDbLine
 10
1421.3928854654
 20
783.6388441563
 30
0.0
 11
1420.0981988947
 21
783.4387202667
 31
0.0
  0
SPLINE
  5
27E
330
1F
100
AcDbEntity
  8
0
  6
Continuous
 62
     7
370
    15
100
AcDbSpline
210
0.0
220
0.0
230
1.0
 70
     8
 71
     3
 72
    10
 73
     6
 74
     0
 42
0.00000001
 43
0.00000001
 12
1.0
 22
0.0
 32
0.0
 13
1.0
 23
0.0
 33
0.0
 40
0.0
 40
0.0
 40
0.0
 40
0.0
 40
0.5008876629942249
 40
0.7509169745814291
 40
1.0
 40
1.0
 40
1.0
 40
1.0
 10
1420.098198894727
 20
783.4387202667207
 30
0.0
 10
1419.914528012428
 20
783.4121702551308
 30
0.0
 10
1419.639173689603
 20
783.3723672097553
 30
0.0
 10
1419.221292028455
 20
783.2365621408452
 30
0.0
 10
1419.001281309061
 20
783.0962389933327
 30
0.0
 10
1418.891484512732
 20
783.0262104415876
 30
0.0
  0
SPLINE
  5
27F
330
1F
100
AcDbEntity
  8
0
  6
Continuous
 62
     7
370
    15
100
AcDbSpline
210
0.0
220
0.0
230
1.0
 70
     8
 71
     3
 72
    14
 73
    10
 74
     0
 42
0.00000001
 43
0.00000001
 12
1.0
 22
0.0
 32
0.0
 13
1.0
 23
0.0
 33
0.0
 40
0.0
 40
0.0
 40
0.0
 40
0.0
 40
0.2490868988085835
 40
0.3741794871895051
 40
0.4992917032929083
 40
0.6244113570057231
 40
0.7495453482101198
 40
0.8746918795484367
 40
0.9999999999999999
 40
0.9999999999999999
 40
0.9999999999999999
 40
0.9999999999999999
 10
1418.891484512732
 20
783.0262104415876
 30
0.0
 10
1418.829964341082
 20
782.9751060566962
 30
0.0
 10
1418.737548455742
 20
782.898336814222
 30
0.0
 10
1418.63839232417
 20
782.7768241236932
 30
0.0
 10
1418.58031028294
 20
782.6846667255116
 30
0.0
 10
1418.536874199385
 20
782.594412580855
 30
0.0
 10
1418.51435272761
 20
782.5113735488961
 30
0.0
 10
1418.509536945694
 20
782.4374749446281
 30
0.0
 10
1418.519349560288
 20
782.397239431795
 30
0.0
 10
1418.524259033052
 20
782.3771086957418
 30
0.0
  0
SPLINE
  5
280
330
1F
100
AcDbEntity
  8
0
  6
Continuous
 62
     7
370
    15
100
AcDbSpline
210
0.0
220
0.0
230
1.0
 70
     8
 71
     3
 72
    13
 73
     9
 74
     0
 42
0.00000001
 43
0.00000001
 12
1.0
 22
0.0
 32
0.0
 13
1.0
 23
0.0
 33
0.0
 40
0.0
 40
0.0
 40
0.0
 40
0.0
 40
0.1251374877485275
 40
0.2502886618085303
 40
0.3755814388158509
 40
0.5006173070819693
 40
0.7498831316007113
 40
1.0
 40
1.0
 40
1.0
 40
1.0
 10
1418.524260438214
 20
782.3771049201483
 30
0.0
 10
1418.533566719737
 20
782.3566561068815
 30
0.0
 10
1418.552180300611
 20
782.3157562438568
 30
0.0
 10
1418.608554769683
 20
782.2802710359798
 30
0.0
 10
1418.686716496599
 20
782.2713646493379
 30
0.0
 10
1418.810368382883
 20
782.2901854724788
 30
0.0
 10
1418.992248589125
 20
782.3657814982479
 30
0.0
 10
1419.139369483981
 20
782.4676794370318
 30
0.0
 10
1419.213055292518
 20
782.5187152332386
 30
0.0
  0
LINE
  5
281
330
1F
100
AcDbEntity
  8
0
  6
Continuous
 62
     7
370
    15
100
AcDbLine
 10
1418.6911775182
 20
783.4053416254
 30
0.0
 11
1418.685235769
 21
783.4116099944
 31
0.0
  0
LINE
  5
282
330
1F
100
AcDbEntity
  8
0
  6
Continuous
 62
     7
370
    15
100
AcDbLine
 10
1417.8927123729
 20
781.9317879289
 30
0.0
 11
1417.8867019763
 21
781.9382675726
 31
0.0
  0
LINE
  5
283
330
1F
100
AcDbEntity
  8
0
  6
Continuous
 62
     7
370
    15
100
AcDbLine
 10
1420.3929892805
 20
784.0335423891
 30
0.0
 11
1420.3869961293
 21
784.0399689571
 31
0.0
  0
LINE
  5
284
330
1F
100
AcDbEntity
  8
0
  6
Continuous
 62
     7
370
    15
100
AcDbLine
 10
1421.2326862088
 20
785.3527298822
 30
0.0
 11
1421.2267495692
 21
785.3589825254
 31
0.0
  0
LINE
  5
285
330
1F
100
AcDbEntity
  8
0
  6
Continuous
 62
     7
370
    15
100
AcDbLine
 10
1420.6175766131
 20
784.8869990771
 30
0.0
 11
1420.6116391546
 21
784.8932542406
 31
0.0
  0
LINE
  5
286
330
1F
100
AcDbEntity
  8
0
  6
Continuous
 62
     7
370
    15
100
AcDbLine
 10
1420.8862010356
 20
784.1059464715
 30
0.0
 11
1420.8801836041
 21
784.1124477666
 31
0.0
  0
SPLINE
  5
287
330
1F
100
AcDbEntity
  8
0
  6
Continuous
 62
     7
370
    15
100
AcDbSpline
210
0.0
220
0.0
230
1.0
 70
     8
 71
     3
 72
    10
 73
     6
 74
     0
 42
0.00000001
 43
0.00000001
 12
1.0
 22
0.0
 32
0.0
 13
1.0
 23
0.0
 33
0.0
 40
0.0
 40
0.0
 40
0.0
 40
0.0
 40
0.3554439450437222
 40
0.7142330220663418
 40
1.0
 40
1.0
 40
1.0
 40
1.0
 10
1426.349868257455
 20
788.5138631628776
 30
0.0
 10
1425.967737238951
 20
788.215971670537
 30
0.0
 10
1425.199878914238
 20
787.6173851879452
 30
0.0
 10
1424.10719924931
 20
787.1279012164948
 30
0.0
 10
1423.546469299462
 20
787.1355568961767
 30
0.0
 10
1423.297867022015
 20
787.1389510780014
 30
0.0
  0
ARC
  5
288
330
1F
100
AcDbEntity
  8
0
  6
Continuous
 62
     7
370
    15
100
AcDbCircle
 10
1422.6673948824
 20
786.5101906001
 30
0.0
 40
4.192292200773302
100
AcDbArc
 50
28.5510775205
 51
45.205872348
  0
LINE
  5
289
330
1F
100
AcDbEntity
  8
0
  6
Continuous
 62
     7
370
    15
100
AcDbLine
 10
1439.4741057122
 20
800.1246099447
 30
0.0
 11
1426.3498682575
 21
788.5138631629
 31
0.0
  0
SPLINE
  5
28A
330
1F
100
AcDbEntity
  8
0
  6
Continuous
 62
     7
370
    15
100
AcDbSpline
210
0.0
220
0.0
230
1.0
 70
     8
 71
     3
 72
    10
 73
     6
 74
     0
 42
0.00000001
 43
0.00000001
 12
1.0
 22
0.0
 32
0.0
 13
1.0
 23
0.0
 33
0.0
 40
0.0
 40
0.0
 40
0.0
 40
0.0
 40
0.2857669779336509
 40
0.6445560549562698
 40
1.0
 40
1.0
 40
1.0
 40
1.0
 10
1408.667753584719
 20
832.1658103509716
 30
0.0
 10
1408.866882001995
 20
832.3146810541199
 30
0.0
 10
1409.316022165063
 20
832.6504634241251
 30
0.0
 10
1410.487730043049
 20
832.896723565272
 30
0.0
 10
1411.460780783704
 20
832.863792727369
 30
0.0
 10
1411.945027497732
 20
832.8474044247055
 30
0.0
  0
ARC
  5
28B
330
1F
100
AcDbEntity
  8
0
  6
Continuous
 62
     7
370
    15
100
AcDbCircle
 10
1407.7881147731
 20
832.3039060374
 30
0.0
 40
4.192292200804598
100
AcDbArc
 50
350.7941276521
 51
7.4489224795
  0
SPLINE
  5
28C
330
1F
100
AcDbEntity
  8
0
  6
Continuous
 62
     7
370
    15
100
AcDbSpline
210
0.0
220
0.0
230
1.0
 70
     8
 71
     3
 72
    12
 73
     8
 74
     0
 42
0.00000001
 43
0.00000001
 12
1.0
 22
0.0
 32
0.0
 13
1.0
 23
0.0
 33
0.0
 40
0.0
 40
0.0
 40
0.0
 40
0.0
 40
0.2238925571850968
 40
0.4477848984198075
 40
0.6716824862030707
 40
0.8955821585468613
 40
1.0
 40
1.0
 40
1.0
 40
1.0
 10
1407.892819634586
 20
836.6727159170283
 30
0.0
 10
1407.865118709117
 20
836.6757791497461
 30
0.0
 10
1407.809716884898
 20
836.6819056122267
 30
0.0
 10
1407.738218271255
 20
836.6900765941967
 30
0.0
 10
1407.686176271801
 20
836.6961353890334
 30
0.0
 10
1407.663003386987
 20
836.6988857656993
 30
0.0
 10
1407.661070476145
 20
836.6991332250975
 30
0.0
 10
1407.660455734715
 20
836.6992119268882
 30
0.0
  0
LINE
  5
28D
330
1F
100
AcDbEntity
  8
0
  6
Continuous
 62
     7
370
    15
100
AcDbLine
 10
1407.8928196346
 20
836.672715917
 30
0.0
 11
1417.1730041475
 21
835.6357716262
 31
0.0
  0
LINE
  5
28E
330
1F
100
AcDbEntity
  8
0
  6
Continuous
 62
     7
370
    15
100
AcDbLine
 10
1419.7755804969
 20
835.3449663429
 30
0.0
 11
1426.8706796814
 21
834.5521779471
 31
0.0
  0
LINE
  5
28F
330
1F
100
AcDbEntity
  8
0
  6
Continuous
 62
     7
370
    15
100
AcDbLine
 10
1426.8706796814
 20
834.5521779471
 30
0.0
 11
1428.3405343209
 21
834.3902193259
 31
0.0
  0
LINE
  5
290
330
1F
100
AcDbEntity
  8
0
  6
Continuous
 62
     7
370
    15
100
AcDbLine
 10
1429.3873843633
 20
831.1683461844
 30
0.0
 11
1428.3405343209
 21
834.3902193259
 31
0.0
  0
LINE
  5
291
330
1F
100
AcDbEntity
  8
0
  6
Continuous
 62
     7
370
    15
100
AcDbLine
 10
1419.2130552925
 20
782.5187152332
 30
0.0
 11
1419.2070124555
 21
782.5252947184
 31
0.0
  0
ARC
  5
292
330
1F
100
AcDbEntity
  8
0
  6
Continuous
 62
     7
370
    15
100
AcDbCircle
 10
1423.7395221954
 20
830.966147256
 30
0.0
 40
5.651480467486757
100
AcDbArc
 50
351.1230991872
 51
2.0503686318
  0
LINE
  5
293
330
1F
100
AcDbEntity
  8
0
  6
Continuous
 62
     7
370
    15
100
AcDbLine
 10
1425.6211224845
 20
789.4852212133
 30
0.0
 11
1438.7908164015
 21
800.9560673898
 31
0.0
  0
ARC
  5
294
330
1F
100
AcDbEntity
  8
0
  6
Continuous
 62
     7
370
    15
100
AcDbCircle
 10
1434.7860396883
 20
796.9684622247
 30
0.0
 40
5.651480467585021
100
AcDbArc
 50
33.9496313683
 51
44.8769008127
  0
LINE
  5
295
330
1F
100
AcDbEntity
  8
0
  6
Continuous
 62
     7
370
    15
100
AcDbLine
 10
1438.7908164015
 20
800.9560673898
 30
0.0
 11
1429.323310123
 21
830.0940556012
 31
0.0
  0
ARC
  5
296
330
1F
100
AcDbEntity
  8
0
  6
Continuous
 62
     7
370
    15
100
AcDbCircle
 10
1439.3676028785
 20
799.9144980482
 30
0.0
 40
1.190608807908257
100
AcDbArc
 50
68.5914088265
 51
118.9762263586
  0
ARC
  5
297
330
1F
100
AcDbEntity
  8
0
  6
Continuous
 62
     7
370
    15
100
AcDbCircle
 10
1438.9943123311
 20
800.8089218366
 30
0.0
 40
0.8357538238389096
100
AcDbArc
 50
305.0355498024
 51
14.8386162464
  0
ARC
  5
298
330
1F
100
AcDbEntity
  8
0
  6
Continuous
 62
     7
370
    15
100
AcDbCircle
 10
1429.1777210868
 20
831.2757294843
 30
0.0
 40
1.19060880790728
100
AcDbArc
 50
277.0237736414
 51
327.4085911735
  0
ARC
  5
299
330
1F
100
AcDbEntity
  8
0
  6
Continuous
 62
     7
370
    15
100
AcDbCircle
 10
1429.4014518022
 20
830.3327107607
 30
0.0
 40
0.8357538238406672
100
AcDbArc
 50
21.1613837536
 51
90.9644501975
  0
LINE
  5
29A
330
1F
100
AcDbEntity
  8
0
  6
Continuous
 62
     7
370
    15
100
AcDbLine
 10
1430.1808485037
 20
830.6344146482
 30
0.0
 11
1439.8021946036
 21
801.0229561512
 31
0.0
  0
LINE
  5
29B
330
1F
100
AcDbEntity
  8
0
  6
Continuous
 62
     7
370
    15
100
AcDbLine
 10
1429.1839646968
 20
833.7025075292
 30
0.0
 11
1430.1808485037
 21
830.6344146482
 31
0.0
  0
SPLINE
  5
29C
330
1F
100
AcDbEntity
  8
0
  6
Continuous
 62
     7
370
    15
100
AcDbSpline
210
0.0
220
0.0
230
1.0
 70
     8
 71
     3
 72
    11
 73
     7
 74
     0
 42
0.00000001
 43
0.00000001
 12
1.0
 22
0.0
 32
0.0
 13
1.0
 23
0.0
 33
0.0
 40
0.0
 40
0.0
 40
0.0
 40
0.0
 40
0.2933118760926339
 40
0.586599120141888
 40
0.8805021461501902
 40
1.0
 40
1.0
 40
1.0
 40
1.0
 10
1428.340534320867
 20
834.3902193259023
 30
0.0
 10
1428.4512166061
 20
834.3668862025489
 30
0.0
 10
1428.672571881576
 20
834.3202219153353
 30
0.0
 10
1428.950465742272
 20
834.1156257715439
 30
0.0
 10
1429.113062090179
 20
833.8935544986963
 30
0.0
 10
1429.168065410909
 20
833.7453481317287
 30
0.0
 10
1429.183964696814
 20
833.7025075291989
 30
0.0
  0
LINE
  5
29D
330
1F
100
AcDbEntity
  8
0
  6
Continuous
 62
     7
370
    15
100
AcDbLine
 10
1439.8021946036
 20
801.0229561512
 30
0.0
 11
1440.8175470022
 21
797.8980227897
 31
0.0
  0
LINE
  5
29E
330
1F
100
AcDbEntity
  8
0
  6
Continuous
 62
     7
370
    15
100
AcDbLine
 10
1404.1714417892
 20
807.1289622251
 30
0.0
 11
1404.2931923012
 21
806.7542526789
 31
0.0
  0
SPLINE
  5
29F
330
1F
100
AcDbEntity
  8
0
  6
Continuous
 62
     7
370
    15
100
AcDbSpline
210
0.0
220
0.0
230
1.0
 70
    24
 71
     3
 72
    15
 73
    11
 74
     0
 42
0.00000001
 43
0.00000001
 12
1.0
 22
0.0
 32
0.0
 13
1.0
 23
0.0
 33
0.0
 40
0.0
 40
0.0
 40
0.0
 40
0.0
 40
0.0013085590450115
 40
0.0031123972377673
 40
0.0059032470887367
 40
0.0102791707597449
 40
0.0184846044874965
 40
0.0492181494334802
 40
0.1106093070874369
 40
1.0
 40
1.0
 40
1.0
 40
1.0
 10
1404.171441789235
 20
807.1289622250777
 30
0.0
 10
1404.171519489626
 20
807.1289874714652
 30
0.0
 10
1404.171704299386
 20
807.1290475197964
 30
0.0
 10
1404.173536262723
 20
807.1296427607671
 30
0.0
 10
1404.177542089044
 20
807.1309443326384
 30
0.0
 10
1404.18581071348
 20
807.1336309715784
 30
0.0
 10
1404.211224063374
 20
807.1418882695066
 30
0.0
 10
1404.27379638372
 20
807.1622192488255
 30
0.0
 10
1404.893236566869
 20
807.36348756497
 30
0.0
 10
1405.50308436548
 20
807.5616391264424
 30
0.0
 10
1406.073554821826
 20
807.7469962138275
 30
0.0
  0
LINE
  5
2A0
330
1F
100
AcDbEntity
  8
0
  6
Continuous
 62
     7
370
    15
100
AcDbLine
 10
1404.2931923012
 20
806.7542526789
 30
0.0
 11
1404.789475778
 21
805.2268491925
 31
0.0
  0
LINE
  5
2A1
330
1F
100
AcDbEntity
  8
0
  6
Continuous
 62
     7
370
    15
100
AcDbLine
 10
1404.789475778
 20
805.2268491925
 30
0.0
 11
1404.9439842752
 21
804.7513209343
 31
0.0
  0
LINE
  5
2A2
330
1F
100
AcDbEntity
  8
0
  6
Continuous
 62
     7
370
    15
100
AcDbLine
 10
1406.8568851312
 20
805.3361534166
 30
0.0
 11
1404.9439842752
 21
804.7513209343
 31
0.0
  0
LINE
  5
2A3
330
1F
100
AcDbEntity
  8
0
  6
Continuous
 62
     7
370
    15
100
AcDbLine
 10
1407.7765607336
 20
802.5056829554
 30
0.0
 11
1405.8733058718
 21
801.8911631556
 31
0.0
  0
LINE
  5
2A4
330
1F
100
AcDbEntity
  8
0
  6
Continuous
 62
     7
370
    15
100
AcDbLine
 10
1404.9439842752
 20
804.7513209343
 30
0.0
 11
1405.8733058718
 21
801.8911631556
 31
0.0
  0
LINE
  5
2A5
330
1F
100
AcDbEntity
  8
0
  6
Continuous
 62
     7
370
    15
100
AcDbLine
 10
1406.2193654952
 20
800.8261011499
 30
0.0
 11
1406.4031316848
 21
800.2605269734
 31
0.0
  0
LINE
  5
2A6
330
1F
100
AcDbEntity
  8
0
  6
Continuous
 62
     7
370
    15
100
AcDbLine
 10
1405.8733058718
 20
801.8911631556
 30
0.0
 11
1406.2193654952
 21
800.8261011499
 31
0.0
  0
LINE
  5
2A7
330
1F
100
AcDbEntity
  8
0
  6
Continuous
 62
     7
370
    15
100
AcDbLine
 10
1406.4031316848
 20
800.2605269734
 30
0.0
 11
1406.7288886691
 21
799.2579500658
 31
0.0
  0
LINE
  5
2A8
330
1F
100
AcDbEntity
  8
0
  6
Continuous
 62
     7
370
    15
100
AcDbLine
 10
1406.7288886691
 20
799.2579500658
 30
0.0
 11
1406.7553831141
 21
799.1764085487
 31
0.0
  0
SPLINE
  5
2A9
330
1F
100
AcDbEntity
  8
0
  6
Continuous
 62
     7
370
    15
100
AcDbSpline
210
0.0
220
0.0
230
1.0
 70
     8
 71
     3
 72
    16
 73
    12
 74
     0
 42
0.00000001
 43
0.00000001
 12
1.0
 22
0.0
 32
0.0
 13
1.0
 23
0.0
 33
0.0
 40
0.0
 40
0.0
 40
0.0
 40
0.0
 40
0.0001752633037819
 40
0.1252145467434842
 40
0.2502437604272975
 40
0.375258171309347
 40
0.5002621279327796
 40
0.625264506115884
 40
0.7502652504798116
 40
0.8753600769388434
 40
0.9999999999999999
 40
0.9999999999999999
 40
0.9999999999999999
 40
0.9999999999999999
 10
1399.481214737882
 20
837.2738996700587
 30
0.0
 10
1399.481126541353
 20
837.2739118843078
 30
0.0
 10
1399.418115698528
 20
837.2826381929027
 30
0.0
 10
1399.639920619428
 20
837.2512177243893
 30
0.0
 10
1400.155897803013
 20
837.1829560859691
 30
0.0
 10
1400.994276811411
 20
837.0891232759773
 30
0.0
 10
1401.969875293207
 20
837.0079015068814
 30
0.0
 10
1402.952446548097
 20
836.9571108207067
 30
0.0
 10
1403.779197006683
 20
836.9390754348291
 30
0.0
 10
1404.356704907065
 20
836.9407613607757
 30
0.0
 10
1404.432199454591
 20
836.9418870196187
 30
0.0
 10
1404.469877969948
 20
836.9424488238203
 30
0.0
  0
LINE
  5
2AA
330
1F
100
AcDbEntity
  8
0
  6
Continuous
 62
     7
370
    15
100
AcDbLine
 10
1405.9653988738
 20
808.0798659945
 30
0.0
 11
1402.6367010668
 21
806.9983065142
 31
0.0
  0
ARC
  5
2AB
330
1F
100
AcDbEntity
  8
0
  6
Continuous
 62
     7
370
    15
100
AcDbCircle
 10
1405.6648019325
 20
779.7745716001
 30
0.0
 40
2.049999999999937
100
AcDbArc
 50
10.5515047517
 51
18.0170795066
  0
LINE
  5
2AC
330
1F
100
AcDbEntity
  8
0
  6
Continuous
 62
     7
370
    15
100
AcDbLine
 10
1389.9529139377
 20
834.7096471359
 30
0.0
 11
1389.9526507216
 21
834.7095615251
 31
0.0
  0
ARC
  5
2AD
330
1F
100
AcDbEntity
  8
0
  6
Continuous
 62
     7
370
    15
100
AcDbCircle
 10
1403.5252376335
 20
817.2289241463
 30
0.0
 40
24.50000000000012
100
AcDbArc
 50
18.0170795066
 51
108.0170795066
  0
LINE
  5
2AE
330
1F
100
AcDbEntity
  8
0
  6
Continuous
 62
     7
370
    15
100
AcDbLine
 10
1426.8238644056
 20
824.8067860171
 30
0.0
 11
1425.3974178685
 21
824.3428352903
 31
0.0
  0
ARC
  5
2AF
330
1F
100
AcDbEntity
  8
0
  6
Continuous
 62
     7
370
    15
100
AcDbCircle
 10
1403.5252376335
 20
817.2289241463
 30
0.0
 40
23.00000000000021
100
AcDbArc
 50
18.0170795066
 51
108.0170795066
  0
LINE
  5
2B0
330
1F
100
AcDbEntity
  8
0
  6
Continuous
 62
     7
370
    15
100
AcDbLine
 10
1396.4113264894
 20
839.1011043813
 30
0.0
 11
1395.9473757626
 21
840.5275509184
 31
0.0
  0
LINE
  5
2B1
330
1F
100
AcDbEntity
  8
0
  6
Continuous
 62
     7
370
    15
100
AcDbLine
 10
1409.3836252982
 20
774.9686674744
 30
0.0
 11
1410.8100718353
 21
775.4326182012
 31
0.0
  0
LINE
  5
2B2
330
1F
100
AcDbEntity
  8
0
  6
Continuous
 62
     7
370
    15
100
AcDbLine
 10
1410.8100718353
 20
775.4326182012
 30
0.0
 11
1412.3565742579
 21
770.677796411
 31
0.0
  0
LINE
  5
2B3
330
1F
100
AcDbEntity
  8
0
  6
Continuous
 62
     7
370
    15
100
AcDbLine
 10
1412.3565742579
 20
770.677796411
 30
0.0
 11
1410.9301277209
 21
770.2138456842
 31
0.0
  0
LINE
  5
2B4
330
1F
100
AcDbEntity
  8
0
  6
Continuous
 62
     7
370
    15
100
AcDbLine
 10
1410.9301277209
 20
770.2138456842
 30
0.0
 11
1409.3836252982
 21
774.9686674744
 31
0.0
  0
LINE
  5
2B5
330
1F
100
AcDbEntity
  8
0
  6
Continuous
 62
     7
370
    15
100
AcDbLine
 10
1391.0921659468
 20
836.0565960266
 30
0.0
 11
1389.6657194097
 21
835.5926452998
 31
0.0
  0
LINE
  5
2B6
330
1F
100
AcDbEntity
  8
0
  6
Continuous
 62
     7
370
    15
100
AcDbLine
 10
1410.8100718353
 20
775.4326182012
 30
0.0
 11
1391.0921659468
 21
836.0565960266
 31
0.0
  0
LINE
  5
2B7
330
1F
100
AcDbEntity
  8
0
  6
Continuous
 62
     7
370
    15
100
AcDbLine
 10
1409.3836252982
 20
774.9686674744
 30
0.0
 11
1389.6657194097
 21
835.5926452998
 31
0.0
  0
LINE
  5
2B8
330
1F
100
AcDbEntity
  8
0
  6
Continuous
 62
     7
370
    15
100
AcDbLine
 10
1391.4302950619
 20
839.0583736169
 30
0.0
 11
1391.8942457887
 21
837.6319270798
 31
0.0
  0
LINE
  5
2B9
330
1F
100
AcDbEntity
  8
0
  6
Continuous
 62
     7
370
    15
100
AcDbLine
 10
1391.4302950619
 20
839.0583736169
 30
0.0
 11
1395.9473757626
 21
840.5275509184
 31
0.0
  0
LINE
  5
2BA
330
1F
100
AcDbEntity
  8
0
  6
Continuous
 62
     7
370
    15
100
AcDbLine
 10
1391.8942457887
 20
837.6319270798
 30
0.0
 11
1396.4113264894
 21
839.1011043813
 31
0.0
  0
LINE
  5
2BB
330
1F
100
AcDbEntity
  8
0
  6
Continuous
 62
     7
370
    15
100
AcDbLine
 10
1426.8238644056
 20
824.8067860171
 30
0.0
 11
1428.9889677973
 21
818.1500355108
 31
0.0
  0
LINE
  5
2BC
330
1F
100
AcDbEntity
  8
0
  6
Continuous
 62
     7
370
    15
100
AcDbLine
 10
1427.5625212602
 20
817.686084784
 30
0.0
 11
1428.9889677973
 21
818.1500355108
 31
0.0
  0
LINE
  5
2BD
330
1F
100
AcDbEntity
  8
0
  6
Continuous
 62
     7
370
    15
100
AcDbLine
 10
1425.3974178685
 20
824.3428352903
 30
0.0
 11
1427.5625212602
 21
817.686084784
 31
0.0
  0
LINE
  5
2BE
330
1F
100
AcDbEntity
  8
0
  6
Continuous
 62
     7
370
    15
100
AcDbLine
 10
1432.0819726425
 20
808.6403919304
 30
0.0
 11
1430.6555261055
 21
808.1764412036
 31
0.0
  0
LINE
  5
2BF
330
1F
100
AcDbEntity
  8
0
  6
Continuous
 62
     7
370
    15
100
AcDbLine
 10
1430.6555261055
 20
808.1764412036
 30
0.0
 11
1427.5625212602
 21
817.686084784
 31
0.0
  0
LINE
  5
2C0
330
1F
100
AcDbEntity
  8
0
  6
Continuous
 62
     7
370
    15
100
AcDbLine
 10
1428.9889677973
 20
818.1500355108
 30
0.0
 11
1432.0819726425
 21
808.6403919304
 31
0.0
  0
ARC
  5
2C1
330
1F
100
AcDbEntity
  8
0
  6
Continuous
 62
     7
370
    15
100
AcDbCircle
 10
1392.2808713944
 20
836.4432216322
 30
0.0
 40
1.250000000000216
100
AcDbArc
 50
108.0170795066
 51
198.0170795066
  0
ARC
  5
2C2
330
1F
100
AcDbEntity
  8
0
  6
Continuous
 62
     7
370
    15
100
AcDbCircle
 10
1392.2808713944
 20
836.4432216322
 30
0.0
 40
2.750000000000241
100
AcDbArc
 50
108.0170795066
 51
198.0170795066
  0
LINE
  5
2C3
330
1F
100
AcDbEntity
  8
0
  6
Continuous
 62
     7
370
    15
100
AcDbLine
 10
1375.0554157041
 20
843.2018793316
 30
0.0
 11
1375.0553822206
 21
843.3142048045
 31
0.0
  0
ARC
  5
2C4
330
1F
100
AcDbEntity
  8
0
  6
Continuous
 62
     7
370
    15
100
AcDbCircle
 10
1385.8855528491
 20
841.4018793316
 30
0.0
 40
0.5000000000001137
100
AcDbArc
 50
18.0
 51
90.0
  0
LINE
  5
2C5
330
1F
100
AcDbEntity
  8
0
  6
Continuous
 62
     7
370
    15
100
AcDbLine
 10
1368.4647564013
 20
722.2142048045
 30
0.0
 11
1428.1088257021
 21
722.2142048045
 31
0.0
  0
LINE
  5
2C6
330
1F
100
AcDbEntity
  8
0
  6
Continuous
 62
     7
370
    15
100
AcDbLine
 10
1428.1088257021
 20
722.2142048045
 30
0.0
 11
1428.1088257021
 21
721.7142048045
 31
0.0
  0
LINE
  5
2C7
330
1F
100
AcDbEntity
  8
0
  6
Continuous
 62
     7
370
    15
100
AcDbLine
 10
1368.4647564013
 20
722.2142048045
 30
0.0
 11
1368.4647564013
 21
721.7142048045
 31
0.0
  0
LINE
  5
2C8
330
1F
100
AcDbEntity
  8
0
  6
Continuous
 62
     7
370
    15
100
AcDbLine
 10
1428.6833590344
 20
722.4821140972
 30
0.0
 11
1441.1020611809
 21
737.2821469956
 31
0.0
  0
LINE
  5
2C9
330
1F
100
AcDbEntity
  8
0
  6
Continuous
 62
     7
370
    15
100
AcDbLine
 10
1441.1020611809
 20
737.2821469956
 30
0.0
 11
1441.4850834025
 21
736.9607531908
 31
0.0
  0
LINE
  5
2CA
330
1F
100
AcDbEntity
  8
0
  6
Continuous
 62
     7
370
    15
100
AcDbLine
 10
1428.6833590344
 20
722.4821140972
 30
0.0
 11
1429.066381256
 21
722.1607202923
 31
0.0
  0
ARC
  5
2CB
330
1F
100
AcDbEntity
  8
0
  6
Continuous
 62
     7
370
    15
100
AcDbCircle
 10
1428.1088257021
 20
722.9642048045
 30
0.0
 40
0.7500000000001137
100
AcDbArc
 50
270.0
 51
320.0
  0
ARC
  5
2CC
330
1F
100
AcDbEntity
  8
0
  6
Continuous
 62
     7
370
    15
100
AcDbCircle
 10
1368.4647564013
 20
722.7142048045
 30
0.0
 40
0.5000000000001137
100
AcDbArc
 50
180.0
 51
270.0
  0
LINE
  5
2CD
330
1F
100
AcDbEntity
  8
0
  6
Continuous
 62
     7
370
    15
100
AcDbLine
 10
1367.9647564013
 20
841.4018793316
 30
0.0
 11
1367.9647564013
 21
722.7142048045
 31
0.0
  0
ARC
  5
2CE
330
1F
100
AcDbEntity
  8
0
  6
Continuous
 62
     7
370
    15
100
AcDbCircle
 10
1368.4647564013
 20
841.4018793316
 30
0.0
 40
0.5000000000001137
100
AcDbArc
 50
90.0
 51
180.0
  0
LINE
  5
2CF
330
1F
100
AcDbEntity
  8
0
  6
Continuous
 62
     7
370
    15
100
AcDbLine
 10
1385.8855528491
 20
841.9018793316
 30
0.0
 11
1368.4647564013
 21
841.9018793316
 31
0.0
  0
LINE
  5
2D0
330
1F
100
AcDbEntity
  8
0
  6
Continuous
 62
     7
370
    15
100
AcDbLine
 10
1410.7413265579
 20
766.5217077731
 30
0.0
 11
1386.3610811073
 21
841.5563878288
 31
0.0
  0
ARC
  5
2D1
330
1F
100
AcDbEntity
  8
0
  6
Continuous
 62
     7
370
    15
100
AcDbCircle
 10
1421.4882651921
 20
770.0135998096
 30
0.0
 40
11.30000000000018
100
AcDbArc
 50
198.0
 51
250.0
  0
LINE
  5
2D2
330
1F
100
AcDbEntity
  8
0
  6
Continuous
 62
     7
370
    15
100
AcDbLine
 10
1437.0738303329
 20
752.3157091851
 30
0.0
 11
1417.6234375725
 21
759.3950731947
 31
0.0
  0
ARC
  5
2D3
330
1F
100
AcDbEntity
  8
0
  6
Continuous
 62
     7
370
    15
100
AcDbCircle
 10
1433.8246389713
 20
743.3886292876
 30
0.0
 40
9.50000000000009
100
AcDbArc
 50
320.0
 51
70.0
  0
LINE
  5
2D4
330
1F
100
AcDbEntity
  8
0
  6
Continuous
 62
     7
370
    15
100
AcDbLine
 10
1411.2168548161
 20
766.6762162703
 30
0.0
 11
1410.7413265579
 21
766.5217077731
 31
0.0
  0
LINE
  5
2D5
330
1F
100
AcDbEntity
  8
0
  6
Continuous
 62
     7
370
    15
100
AcDbLine
 10
1417.7944476441
 20
759.8649195051
 30
0.0
 11
1417.6234375725
 21
759.3950731947
 31
0.0
  0
LINE
  5
2D6
330
1F
100
AcDbEntity
  8
0
  6
Continuous
 62
     7
370
    15
100
AcDbLine
 10
1437.0738303329
 20
752.3157091851
 30
0.0
 11
1437.2448404045
 21
752.7855554955
 31
0.0
  0
ARC
  5
2D7
330
1F
100
AcDbEntity
  8
0
  6
Continuous
 62
     7
370
    15
100
AcDbCircle
 10
1368.4647564013
 20
722.7142048045
 30
0.0
 40
1.0
100
AcDbArc
 50
180.0
 51
270.0
  0
LINE
  5
2D8
330
1F
100
AcDbEntity
  8
0
  6
Continuous
 62
     7
370
    15
100
AcDbLine
 10
1367.9647564013
 20
722.7142048045
 30
0.0
 11
1367.4647564013
 21
722.7142048045
 31
0.0
  0
LINE
  5
2D9
330
1F
100
AcDbEntity
  8
0
  6
Continuous
 62
     7
370
    15
100
AcDbLine
 10
1367.4647564013
 20
722.7142048045
 30
0.0
 11
1367.4647564013
 21
841.4018793316
 31
0.0
  0
LINE
  5
2DA
330
1F
100
AcDbEntity
  8
0
  6
Continuous
 62
     7
370
    15
100
AcDbLine
 10
1367.4647564013
 20
841.4018793316
 30
0.0
 11
1367.9647564013
 21
841.4018793316
 31
0.0
  0
ARC
  5
2DB
330
1F
100
AcDbEntity
  8
0
  6
Continuous
 62
     7
370
    15
100
AcDbCircle
 10
1368.4647564013
 20
841.4018793316
 30
0.0
 40
1.000000000000114
100
AcDbArc
 50
90.0
 51
180.0
  0
LINE
  5
2DC
330
1F
100
AcDbEntity
  8
0
  6
Continuous
 62
     7
370
    15
100
AcDbLine
 10
1368.4647564013
 20
842.4018793316
 30
0.0
 11
1368.4647564013
 21
841.9018793316
 31
0.0
  0
LINE
  5
2DD
330
1F
100
AcDbEntity
  8
0
  6
Continuous
 62
     7
370
    15
100
AcDbLine
 10
1437.2448404045
 20
752.7855554955
 30
0.0
 11
1437.5184565192
 21
753.5373095921
 31
0.0
  0
LINE
  5
2DE
330
1F
100
AcDbEntity
  8
0
  6
Continuous
 62
     7
370
    15
100
AcDbLine
 10
1437.2448404045
 20
752.7855554955
 30
0.0
 11
1417.7944476441
 21
759.8649195051
 31
0.0
  0
LINE
  5
2DF
330
1F
100
AcDbEntity
  8
0
  6
Continuous
 62
     7
370
    15
100
AcDbLine
 10
1418.0680637588
 20
760.6166736017
 30
0.0
 11
1417.7944476441
 21
759.8649195051
 31
0.0
  0
LINE
  5
2E0
330
1F
100
AcDbEntity
  8
0
  6
Continuous
 62
     7
370
    15
100
AcDbLine
 10
1437.5184565192
 20
753.5373095921
 30
0.0
 11
1418.0680637588
 21
760.6166736017
 31
0.0
  0
LINE
  5
2E1
330
1F
100
AcDbEntity
  8
0
  6
Continuous
 62
     7
370
    15
100
AcDbLine
 10
1429.066381256
 20
722.1607202923
 30
0.0
 11
1429.6792168105
 21
721.6464902046
 31
0.0
  0
LINE
  5
2E2
330
1F
100
AcDbEntity
  8
0
  6
Continuous
 62
     7
370
    15
100
AcDbLine
 10
1429.066381256
 20
722.1607202923
 30
0.0
 11
1441.4850834025
 21
736.9607531908
 31
0.0
  0
LINE
  5
2E3
330
1F
100
AcDbEntity
  8
0
  6
Continuous
 62
     7
370
    15
100
AcDbLine
 10
1442.0979189569
 20
736.446523103
 30
0.0
 11
1441.4850834025
 21
736.9607531908
 31
0.0
  0
LINE
  5
2E4
330
1F
100
AcDbEntity
  8
0
  6
Continuous
 62
     7
370
    15
100
AcDbLine
 10
1429.6792168105
 20
721.6464902046
 30
0.0
 11
1442.0979189569
 21
736.446523103
 31
0.0
  0
LINE
  5
2E5
330
1F
100
AcDbEntity
  8
0
  6
Continuous
 62
     7
370
    15
100
AcDbLine
 10
1428.1088257021
 20
720.9142048045
 30
0.0
 11
1428.1088257021
 21
721.7142048045
 31
0.0
  0
ARC
  5
2E6
330
1F
100
AcDbEntity
  8
0
  6
Continuous
 62
     7
370
    15
100
AcDbCircle
 10
1428.1088257021
 20
722.9642048045
 30
0.0
 40
1.250000000000087
100
AcDbArc
 50
270.0
 51
320.0
  0
ARC
  5
2E7
330
1F
100
AcDbEntity
  8
0
  6
Continuous
 62
     7
370
    15
100
AcDbCircle
 10
1428.1088257021
 20
722.9642048045
 30
0.0
 40
2.050000000000126
100
AcDbArc
 50
270.0
 51
320.0
  0
LINE
  5
2E8
330
1F
100
AcDbEntity
  8
0
  6
Continuous
 62
     7
370
    15
100
AcDbLine
 10
1411.9777000291
 20
766.9234298658
 30
0.0
 11
1387.6535830756
 21
841.7853641701
 31
0.0
  0
LINE
  5
2E9
330
1F
100
AcDbEntity
  8
0
  6
Continuous
 62
     7
370
    15
100
AcDbLine
 10
1411.2168548161
 20
766.6762162703
 30
0.0
 11
1411.9777000291
 21
766.9234298658
 31
0.0
  0
LINE
  5
2EA
330
1F
100
AcDbEntity
  8
0
  6
Continuous
 62
     7
370
    15
100
AcDbLine
 10
1411.2168548161
 20
766.6762162703
 30
0.0
 11
1386.8927378625
 21
841.5381505746
 31
0.0
  0
LINE
  5
2EB
330
1F
100
AcDbEntity
  8
0
  6
Continuous
 62
     7
370
    15
100
AcDbLine
 10
1386.8927378625
 20
841.5381505746
 30
0.0
 11
1387.6535830756
 21
841.7853641701
 31
0.0
  0
LINE
  5
2EC
330
1F
100
AcDbEntity
  8
0
  6
Continuous
 62
     7
370
    15
100
AcDbLine
 10
1367.4647564013
 20
721.7142048045
 30
0.0
 11
1367.4647564013
 21
720.9142048045
 31
0.0
  0
LINE
  5
2ED
330
1F
100
AcDbEntity
  8
0
  6
Continuous
 62
     7
370
    15
100
AcDbLine
 10
1367.4647564013
 20
720.9142048045
 30
0.0
 11
1428.1088257021
 21
720.9142048045
 31
0.0
  0
LINE
  5
2EE
330
1F
100
AcDbEntity
  8
0
  6
Continuous
 62
     7
370
    15
100
AcDbLine
 10
1367.4647564013
 20
721.7142048045
 30
0.0
 11
1428.1088257021
 21
721.7142048045
 31
0.0
  0
LINE
  5
2EF
330
1F
100
AcDbEntity
  8
0
  6
Continuous
 62
     7
370
    15
100
AcDbLine
 10
1367.4647564013
 20
843.2018793316
 30
0.0
 11
1367.4647564013
 21
842.4018793316
 31
0.0
  0
LINE
  5
2F0
330
1F
100
AcDbEntity
  8
0
  6
Continuous
 62
     7
370
    15
100
AcDbLine
 10
1385.7039172171
 20
842.4018793316
 30
0.0
 11
1385.7039172171
 21
843.2018793316
 31
0.0
  0
LINE
  5
2F1
330
1F
100
AcDbEntity
  8
0
  6
Continuous
 62
     7
370
    15
100
AcDbLine
 10
1367.4647564013
 20
843.2018793316
 30
0.0
 11
1385.7039172171
 21
843.2018793316
 31
0.0
  0
LINE
  5
2F2
330
1F
100
AcDbEntity
  8
0
  6
Continuous
 62
     7
370
    15
100
AcDbLine
 10
1367.4647564013
 20
842.4018793316
 30
0.0
 11
1385.7039172171
 21
842.4018793316
 31
0.0
  0
ARC
  5
2F3
330
1F
100
AcDbEntity
  8
0
  6
Continuous
 62
     7
370
    15
100
AcDbCircle
 10
1421.4882651921
 20
770.0135998096
 30
0.0
 40
10.00000000000039
100
AcDbArc
 50
198.0
 51
250.0
  0
ARC
  5
2F4
330
1F
100
AcDbEntity
  8
0
  6
Continuous
 62
     7
370
    15
100
AcDbCircle
 10
1421.4882651921
 20
770.0135998096
 30
0.0
 40
10.80000000000007
100
AcDbArc
 50
198.0
 51
250.0
  0
ARC
  5
2F5
330
1F
100
AcDbEntity
  8
0
  6
Continuous
 62
     7
370
    15
100
AcDbCircle
 10
1433.8246389713
 20
743.3886292876
 30
0.0
 40
10.8000000000001
100
AcDbArc
 50
320.0
 51
70.0
  0
ARC
  5
2F6
330
1F
100
AcDbEntity
  8
0
  6
Continuous
 62
     7
370
    15
100
AcDbCircle
 10
1433.8246389713
 20
743.3886292876
 30
0.0
 40
10.00000000000003
100
AcDbArc
 50
320.0
 51
70.0
  0
ARC
  5
2F7
330
1F
100
AcDbEntity
  8
0
  6
Continuous
 62
     7
370
    15
100
AcDbCircle
 10
1385.7039172171
 20
841.1518793316
 30
0.0
 40
1.249999999999886
100
AcDbArc
 50
18.0
 51
90.0
  0
ARC
  5
2F8
330
1F
100
AcDbEntity
  8
0
  6
Continuous
 62
     7
370
    15
100
AcDbCircle
 10
1385.7039172171
 20
841.1518793316
 30
0.0
 40
2.049999999999984
100
AcDbArc
 50
18.0
 51
90.0
  0
ARC
  5
2F9
330
1F
100
AcDbEntity
  8
0
  6
Continuous
 62
     7
370
    15
100
AcDbCircle
 10
1389.1669748204
 20
841.1727082834
 30
0.0
 40
2.050000000000018
100
AcDbArc
 50
113.5
 51
147.9805046326
  0
LINE
  5
2FA
330
1F
100
AcDbEntity
  8
0
  6
Continuous
 62
     7
370
    15
100
AcDbLine
 10
1388.6685384843
 20
842.3190333764
 30
0.0
 11
1388.3495392291
 21
843.0526814359
 31
0.0
  0
ARC
  5
2FB
330
1F
100
AcDbEntity
  8
0
  6
Continuous
 62
     7
370
    15
100
AcDbCircle
 10
1389.1669748204
 20
841.1727082834
 30
0.0
 40
1.250000000000175
100
AcDbArc
 50
113.5
 51
198.0
  0
LINE
  5
2FC
330
1F
100
AcDbEntity
  8
0
  6
Continuous
 62
     7
370
    15
100
AcDbLine
 10
1396.9813028401
 20
845.9335261884
 30
0.0
 11
1396.662303585
 21
846.6671742479
 31
0.0
  0
LINE
  5
2FD
330
1F
100
AcDbEntity
  8
0
  6
Continuous
 62
     7
370
    15
100
AcDbLine
 10
1388.6685384843
 20
842.3190333764
 30
0.0
 11
1396.9813028401
 21
845.9335261884
 31
0.0
  0
LINE
  5
2FE
330
1F
100
AcDbEntity
  8
0
  6
Continuous
 62
     7
370
    15
100
AcDbLine
 10
1388.3495392291
 20
843.0526814359
 30
0.0
 11
1396.662303585
 21
846.6671742479
 31
0.0
  0
LINE
  5
2FF
330
1F
100
AcDbEntity
  8
0
  6
Continuous
 62
     7
370
    15
100
AcDbLine
 10
1401.2476039569
 20
848.6609195925
 30
0.0
 11
1401.566603212
 21
847.927271533
 31
0.0
  0
LINE
  5
300
330
1F
100
AcDbEntity
  8
0
  6
Continuous
 62
     7
370
    15
100
AcDbLine
 10
1401.566603212
 20
847.927271533
 30
0.0
 11
1396.9813028401
 21
845.9335261884
 31
0.0
  0
LINE
  5
301
330
1F
100
AcDbEntity
  8
0
  6
Continuous
 62
     7
370
    15
100
AcDbLine
 10
1396.662303585
 20
846.6671742479
 30
0.0
 11
1401.2476039569
 21
848.6609195925
 31
0.0
  0
LINE
  5
302
330
1F
100
AcDbEntity
  8
0
  6
Continuous
 62
     7
370
    15
100
AcDbLine
 10
1387.3729405902
 20
842.6490929271
 30
0.0
 11
1387.1711790752
 21
842.5835366369
 31
0.0
  0
LINE
  5
303
330
1F
100
AcDbEntity
  8
0
  6
Continuous
 62
     7
370
    15
100
AcDbLine
 10
1387.4760609891
 20
842.3317209731
 30
0.0
 11
1387.3729405902
 21
842.6490929271
 31
0.0
  0
SPLINE
  5
304
330
1F
100
AcDbEntity
  8
0
  6
Continuous
 62
     7
370
    15
100
AcDbSpline
210
0.0
220
0.0
230
1.0
 70
     8
 71
     3
 72
    11
 73
     7
 74
     0
 42
0.00000001
 43
0.00000001
 12
1.0
 22
0.0
 32
0.0
 13
1.0
 23
0.0
 33
0.0
 40
0.0
 40
0.0
 40
0.0
 40
0.0
 40
0.250000000000009
 40
0.5000000000000019
 40
0.7499999999999994
 40
1.0
 40
1.0
 40
1.0
 40
1.0
 10
1424.722522984354
 20
720.4142048044628
 30
0.0
 10
1424.746875769098
 20
720.3833900802488
 30
0.0
 10
1424.795581338588
 20
720.3217606318208
 30
0.0
 10
1424.868639692823
 20
719.8476997449197
 30
0.0
 10
1424.941698047058
 20
719.1700826238712
 30
0.0
 10
1424.990403616547
 20
718.6328307442654
 30
0.0
 10
1425.014756401293
 20
718.3642048044628
 30
0.0
  0
LINE
  5
305
330
1F
100
AcDbEntity
  8
0
  6
Continuous
 62
     7
370
    15
100
AcDbLine
 10
1425.0147564013
 20
718.3642048045
 30
0.0
 11
1369.5147564013
 21
718.3642048045
 31
0.0
  0
SPLINE
  5
306
330
1F
100
AcDbEntity
  8
0
  6
Continuous
 62
     7
370
    15
100
AcDbSpline
210
0.0
220
0.0
230
1.0
 70
     8
 71
     3
 72
    12
 73
     8
 74
     0
 42
0.00000001
 43
0.00000001
 12
1.0
 22
0.0
 32
0.0
 13
1.0
 23
0.0
 33
0.0
 40
0.0
 40
0.0
 40
0.0
 40
0.0
 40
0.2301693782020124
 40
0.460422164295695
 40
0.6906753391241612
 40
0.9209283614222534
 40
0.9999999999999999
 40
0.9999999999999999
 40
0.9999999999999999
 40
0.9999999999999999
 10
1369.514756401293
 20
718.3642048044628
 30
0.0
 10
1369.419366836539
 20
718.611283493524
 30
0.0
 10
1369.228553140128
 20
719.1055304070688
 30
0.0
 10
1368.94226139753
 20
719.7516575781713
 30
0.0
 10
1368.656146267494
 20
720.2156038743587
 30
0.0
 10
1368.432031460085
 20
720.3984135551169
 30
0.0
 10
1368.304442589514
 20
720.410989943861
 30
0.0
 10
1368.271827469104
 20
720.4142048044628
 30
0.0
  0
LINE
  5
307
330
1F
100
AcDbEntity
  8
0
  6
Continuous
 62
     7
370
    15
100
AcDbLine
 10
1368.2718274691
 20
720.4142048045
 30
0.0
 11
1424.7225229844
 21
720.4142048045
 31
0.0
  0
LINE
  5
308
330
1F
100
AcDbEntity
  8
0
  6
Continuous
 62
     7
370
    15
100
AcDbLine
 10
1368.2718274691
 20
595.1142048045
 30
0.0
 11
1424.5647564013
 21
595.1142048045
 31
0.0
  0
SPLINE
  5
309
330
1F
100
AcDbEntity
  8
0
  6
Continuous
 62
     7
370
    15
100
AcDbSpline
210
0.0
220
0.0
230
1.0
 70
     8
 71
     3
 72
    11
 73
     7
 74
     0
 42
0.00000001
 43
0.00000001
 12
1.0
 22
0.0
 32
0.0
 13
1.0
 23
0.0
 33
0.0
 40
0.0
 40
0.0
 40
0.0
 40
0.0
 40
0.2499999999999853
 40
0.4999999999999895
 40
0.7500000000000022
 40
1.0
 40
1.0
 40
1.0
 40
1.0
 10
1368.271827469104
 20
595.1142048044627
 30
0.0
 10
1368.37540488012
 20
595.1450195286767
 30
0.0
 10
1368.582559702151
 20
595.2066489771048
 30
0.0
 10
1368.893291935199
 20
595.6807098640056
 30
0.0
 10
1369.204024168245
 20
596.3583269850543
 30
0.0
 10
1369.411178990277
 20
596.8955788646599
 30
0.0
 10
1369.514756401293
 20
597.1642048044628
 30
0.0
  0
LINE
  5
30A
330
1F
100
AcDbEntity
  8
0
  6
Continuous
 62
     7
370
    15
100
AcDbLine
 10
1369.5147564013
 20
597.1642048045
 30
0.0
 11
1425.0147564013
 21
597.1642048045
 31
0.0
  0
SPLINE
  5
30B
330
1F
100
AcDbEntity
  8
0
  6
Continuous
 62
     7
370
    15
100
AcDbSpline
210
0.0
220
0.0
230
1.0
 70
     8
 71
     3
 72
    11
 73
     7
 74
     0
 42
0.00000001
 43
0.00000001
 12
1.0
 22
0.0
 32
0.0
 13
1.0
 23
0.0
 33
0.0
 40
0.0
 40
0.0
 40
0.0
 40
0.0
 40
0.2500000000000009
 40
0.499999999999999
 40
0.7500000000000006
 40
1.0
 40
1.0
 40
1.0
 40
1.0
 10
1425.014756401293
 20
597.1642048044628
 30
0.0
 10
1424.977256401292
 20
596.8955788646599
 30
0.0
 10
1424.902256401292
 20
596.3583269850543
 30
0.0
 10
1424.789756401292
 20
595.6807098640057
 30
0.0
 10
1424.677256401292
 20
595.2066489771048
 30
0.0
 10
1424.602256401293
 20
595.1450195286767
 30
0.0
 10
1424.564756401292
 20
595.1142048044627
 30
0.0
  0
SPLINE
  5
30C
330
1F
100
AcDbEntity
  8
0
  6
Continuous
 62
     7
370
    15
100
AcDbSpline
210
0.0
220
0.0
230
1.0
 70
     8
 71
     3
 72
    12
 73
     8
 74
     0
 42
0.00000001
 43
0.00000001
 12
1.0
 22
0.0
 32
0.0
 13
1.0
 23
0.0
 33
0.0
 40
0.0
 40
0.0
 40
0.0
 40
0.0
 40
0.2354069832806918
 40
0.503624682153848
 40
0.7396663457477611
 40
0.942421308623464
 40
1.0
 40
1.0
 40
1.0
 40
1.0
 10
1369.514756401293
 20
597.1642048044628
 30
0.0
 10
1369.281040270521
 20
597.0225030095406
 30
0.0
 10
1368.781032962184
 20
596.7193492099644
 30
0.0
 10
1368.111534825563
 20
596.3088408679314
 30
0.0
 10
1367.635336815123
 20
596.053984715797
 30
0.0
 10
1367.475860724406
 20
595.9522975212686
 30
0.0
 10
1367.466767560665
 20
595.9268943579294
 30
0.0
 10
1367.464756401292
 20
595.9212758722747
 30
0.0
  0
LINE
  5
30D
330
1F
100
AcDbEntity
  8
0
  6
Continuous
 62
     7
370
    15
100
AcDbLine
 10
1367.4647564013
 20
719.6071337367
 30
0.0
 11
1367.4647564013
 21
595.9212758723
 31
0.0
  0
SPLINE
  5
30E
330
1F
100
AcDbEntity
  8
0
  6
Continuous
 62
     7
370
    15
100
AcDbSpline
210
0.0
220
0.0
230
1.0
 70
     8
 71
     3
 72
    12
 73
     8
 74
     0
 42
0.00000001
 43
0.00000001
 12
1.0
 22
0.0
 32
0.0
 13
1.0
 23
0.0
 33
0.0
 40
0.0
 40
0.0
 40
0.0
 40
0.0
 40
0.1538940727937363
 40
0.2930211690434831
 40
0.5279230560873384
 40
0.7279788378256594
 40
1.0
 40
1.0
 40
1.0
 40
1.0
 10
1367.464756401292
 20
719.6071337366508
 30
0.0
 10
1367.478109544614
 20
719.5811116430673
 30
0.0
 10
1367.503534524247
 20
719.5315644178597
 30
0.0
 10
1367.731867191428
 20
719.4044052139509
 30
0.0
 10
1368.145259167875
 20
719.2027042729185
 30
0.0
 10
1368.776472544621
 20
718.8169516712566
 30
0.0
 10
1369.24486076379
 20
718.5297162173646
 30
0.0
 10
1369.514756401293
 20
718.3642048044626
 30
0.0
  0
LINE
  5
30F
330
1F
100
AcDbEntity
  8
0
  6
Continuous
 62
     7
370
    15
100
AcDbLine
 10
1369.5147564013
 20
718.3642048045
 30
0.0
 11
1369.5147564013
 21
597.1642048045
 31
0.0
  0
SPLINE
  5
310
330
1F
100
AcDbEntity
  8
0
  6
Continuous
 62
     7
370
    15
100
AcDbSpline
210
0.0
220
0.0
230
1.0
 70
     8
 71
     3
 72
    11
 73
     7
 74
     0
 42
0.00000001
 43
0.00000001
 12
1.0
 22
0.0
 32
0.0
 13
1.0
 23
0.0
 33
0.0
 40
0.0
 40
0.0
 40
0.0
 40
0.0
 40
0.2499999999999888
 40
0.4999999999999976
 40
0.7500000000000077
 40
1.0
 40
1.0
 40
1.0
 40
1.0
 10
1368.271827469104
 20
595.9142048044628
 30
0.0
 10
1368.37540488012
 20
595.9329942704469
 30
0.0
 10
1368.582559702151
 20
595.9705732024153
 30
0.0
 10
1368.893291935198
 20
596.2596347188181
 30
0.0
 10
1369.204024168245
 20
596.6728158901893
 30
0.0
 10
1369.411178990277
 20
597.0004084997049
 30
0.0
 10
1369.514756401293
 20
597.1642048044628
 30
0.0
  0
LINE
  5
311
330
1F
100
AcDbEntity
  8
0
  6
Continuous
 62
     7
370
    15
100
AcDbLine
 10
1368.2718274691
 20
595.9142048045
 30
0.0
 11
1368.2718274691
 21
595.1142048045
 31
0.0
  0
SPLINE
  5
312
330
1F
100
AcDbEntity
  8
0
  6
Continuous
 62
     7
370
    15
100
AcDbSpline
210
0.0
220
0.0
230
1.0
 70
     8
 71
     3
 72
    12
 73
     8
 74
     0
 42
0.00000001
 43
0.00000001
 12
1.0
 22
0.0
 32
0.0
 13
1.0
 23
0.0
 33
0.0
 40
0.0
 40
0.0
 40
0.0
 40
0.0
 40
0.34866726079813
 40
0.5713345519749733
 40
0.757560208774421
 40
0.9447309204777576
 40
1.0
 40
1.0
 40
1.0
 40
1.0
 10
1369.514756401293
 20
597.1642048044628
 30
0.0
 10
1369.319687542032
 20
596.9682408960098
 30
0.0
 10
1369.000043021769
 20
596.6471297266302
 30
0.0
 10
1368.61405759751
 20
596.2707087897331
 30
0.0
 10
1368.368513836716
 20
596.0524985995338
 30
0.0
 10
1368.272223009249
 20
595.9537542902777
 30
0.0
 10
1368.266142562705
 20
595.9273054281387
 30
0.0
 10
1368.264756401293
 20
595.9212758722747
 30
0.0
  0
LINE
  5
313
330
1F
100
AcDbEntity
  8
0
  6
Continuous
 62
     7
370
    15
100
AcDbLine
 10
1367.4647564013
 20
595.9212758723
 30
0.0
 11
1368.2647564013
 21
595.9212758723
 31
0.0
  0
SPLINE
  5
314
330
1F
100
AcDbEntity
  8
0
  6
Continuous
 62
     7
370
    15
100
AcDbSpline
210
0.0
220
0.0
230
1.0
 70
     8
 71
     3
 72
    13
 73
     9
 74
     0
 42
0.00000001
 43
0.00000001
 12
1.0
 22
0.0
 32
0.0
 13
1.0
 23
0.0
 33
0.0
 40
0.0
 40
0.0
 40
0.0
 40
0.0
 40
0.1407614627152945
 40
0.2700129926947276
 40
0.3888157383414429
 40
0.4985455701442607
 40
0.7066269783983458
 40
1.0
 40
1.0
 40
1.0
 40
1.0
 10
1368.264756401292
 20
719.6071337366508
 30
0.0
 10
1368.272955117693
 20
719.5810657752193
 30
0.0
 10
1368.288682149147
 20
719.531061405104
 30
0.0
 10
1368.400714799827
 20
719.4290461097343
 30
0.0
 10
1368.544816388999
 20
719.3110132716573
 30
0.0
 10
1368.753908577169
 20
719.1286989949601
 30
0.0
 10
1369.071624835809
 20
718.8097090745669
 30
0.0
 10
1369.351195308763
 20
718.5286416688629
 30
0.0
 10
1369.514756401293
 20
718.3642048044626
 30
0.0
  0
LWPOLYLINE
  5
315
330
1F
100
AcDbEntity
  8
0
  6
Continuous
 62
     7
370
    15
100
AcDbPolyline
 90
        2
 70
   128
 43
0.0
 10
1369.5147564013
 20
718.3642048045
 10
1369.5147564013
 20
718.3642048045
  0
LINE
  5
316
330
1F
100
AcDbEntity
  8
0
  6
Continuous
 62
     7
370
    15
100
AcDbLine
 10
1367.4647564013
 20
719.6071337367
 30
0.0
 11
1368.2647564013
 21
719.6071337367
 31
0.0
  0
LINE
  5
317
330
1F
100
AcDbEntity
  8
0
  6
Continuous
 62
     7
370
    15
100
AcDbLine
 10
1425.0147564013
 20
718.3642048045
 30
0.0
 11
1425.0147564013
 21
597.1642048045
 31
0.0
  0
SPLINE
  5
318
330
1F
100
AcDbEntity
  8
0
  6
Continuous
 62
     7
370
    15
100
AcDbSpline
210
0.0
220
0.0
230
1.0
 70
     8
 71
     3
 72
    11
 73
     7
 74
     0
 42
0.00000001
 43
0.00000001
 12
1.0
 22
0.0
 32
0.0
 13
1.0
 23
0.0
 33
0.0
 40
0.0
 40
0.0
 40
0.0
 40
0.0
 40
0.2543030279684496
 40
0.5087793961833489
 40
0.7632567853904865
 40
1.0
 40
1.0
 40
1.0
 40
1.0
 10
1369.514756401293
 20
718.3642048044628
 30
0.0
 10
1369.409379572752
 20
718.5308389921231
 30
0.0
 10
1369.198554087798
 20
718.8642209500912
 30
0.0
 10
1368.882298852106
 20
719.2821726607121
 30
0.0
 10
1368.573231612701
 20
719.5623135431109
 30
0.0
 10
1368.369847980626
 20
719.5973290975778
 30
0.0
 10
1368.271827469104
 20
719.6142048044628
 30
0.0
  0
LINE
  5
319
330
1F
100
AcDbEntity
  8
0
  6
Continuous
 62
     7
370
    15
100
AcDbLine
 10
1368.2718274691
 20
719.6142048045
 30
0.0
 11
1368.2718274691
 21
720.4142048045
 31
0.0
  0
LINE
  5
31A
330
1F
100
AcDbEntity
  8
0
  6
Continuous
 62
     7
370
    15
100
AcDbLine
 10
1427.0647564013
 20
718.3642048045
 30
0.0
 11
1427.0647564013
 21
597.1642048045
 31
0.0
  0
LINE
  5
31B
330
1F
100
AcDbEntity
  8
0
  6
Continuous
 62
     7
370
    15
100
AcDbLine
 10
1427.0647564013
 20
597.1642048045
 30
0.0
 11
1425.0147564013
 21
597.1642048045
 31
0.0
  0
LINE
  5
31C
330
1F
100
AcDbEntity
  8
0
  6
Continuous
 62
     7
370
    15
100
AcDbLine
 10
1425.0147564013
 20
718.3642048045
 30
0.0
 11
1427.0647564013
 21
718.3642048045
 31
0.0
  0
SPLINE
  5
31D
330
1F
100
AcDbEntity
  8
0
  6
Continuous
 62
     7
370
    15
100
AcDbSpline
210
0.0
220
0.0
230
1.0
 70
     8
 71
     3
 72
    12
 73
     8
 74
     0
 42
0.00000001
 43
0.00000001
 12
1.0
 22
0.0
 32
0.0
 13
1.0
 23
0.0
 33
0.0
 40
0.0
 40
0.0
 40
0.0
 40
0.0
 40
0.2196136201280722
 40
0.4392502024697528
 40
0.6588868351486892
 40
0.878523327578629
 40
1.0
 40
1.0
 40
1.0
 40
1.0
 10
1427.064756401292
 20
718.3642048044628
 30
0.0
 10
1427.041033892481
 20
718.599961932697
 30
0.0
 10
1426.993586394496
 20
719.0715008393014
 30
0.0
 10
1426.624168037119
 20
719.6962339559065
 30
0.0
 10
1426.082641110756
 20
720.1605856464249
 30
0.0
 10
1425.509463770948
 20
720.3859668160943
 30
0.0
 10
1425.144667178067
 20
720.4067894732417
 30
0.0
 10
1425.014756401293
 20
720.4142048044629
 30
0.0
  0
SPLINE
  5
31E
330
1F
100
AcDbEntity
  8
0
  6
Continuous
 62
     7
370
    15
100
AcDbSpline
210
0.0
220
0.0
230
1.0
 70
     8
 71
     3
 72
    12
 73
     8
 74
     0
 42
0.00000001
 43
0.00000001
 12
1.0
 22
0.0
 32
0.0
 13
1.0
 23
0.0
 33
0.0
 40
0.0
 40
0.0
 40
0.0
 40
0.0
 40
0.1986312370049041
 40
0.4263119925236868
 40
0.6540152424178298
 40
0.8817181517860038
 40
1.0
 40
1.0
 40
1.0
 40
1.0
 10
1426.264756401293
 20
718.3642048044628
 30
0.0
 10
1426.252877418403
 20
718.4940829200106
 30
0.0
 10
1426.227382169311
 20
718.772833629412
 30
0.0
 10
1426.014043809368
 20
719.1573120647183
 30
0.0
 10
1425.675408100203
 20
719.4560521383042
 30
0.0
 10
1425.317524214025
 20
719.5973204307185
 30
0.0
 10
1425.09189297761
 20
719.6099031491048
 30
0.0
 10
1425.014756401293
 20
719.6142048044629
 30
0.0
  0
LINE
  5
31F
330
1F
100
AcDbEntity
  8
0
  6
Continuous
 62
     7
370
    15
100
AcDbLine
 10
1425.0147564013
 20
719.6142048045
 30
0.0
 11
1425.0147564013
 21
720.4142048045
 31
0.0
  0
SPLINE
  5
320
330
1F
100
AcDbEntity
  8
0
  6
Continuous
 62
     7
370
    15
100
AcDbSpline
210
0.0
220
0.0
230
1.0
 70
     8
 71
     3
 72
    11
 73
     7
 74
     0
 42
0.00000001
 43
0.00000001
 12
1.0
 22
0.0
 32
0.0
 13
1.0
 23
0.0
 33
0.0
 40
0.0
 40
0.0
 40
0.0
 40
0.0
 40
0.2500000000000076
 40
0.4999999999999983
 40
0.7500000000000003
 40
1.0
 40
1.0
 40
1.0
 40
1.0
 10
1425.014756401293
 20
595.1142048044627
 30
0.0
 10
1425.283382341095
 20
595.1450195286767
 30
0.0
 10
1425.820634220701
 20
595.2066489771048
 30
0.0
 10
1426.498251341749
 20
595.6807098640057
 30
0.0
 10
1426.97231222865
 20
596.3583269850543
 30
0.0
 10
1427.033941677078
 20
596.8955788646599
 30
0.0
 10
1427.064756401292
 20
597.1642048044628
 30
0.0
  0
LINE
  5
321
330
1F
100
AcDbEntity
  8
0
  6
Continuous
 62
     7
370
    15
100
AcDbLine
 10
1425.0147564013
 20
595.9142048045
 30
0.0
 11
1425.0147564013
 21
595.1142048045
 31
0.0
  0
SPLINE
  5
322
330
1F
100
AcDbEntity
  8
0
  6
Continuous
 62
     7
370
    15
100
AcDbSpline
210
0.0
220
0.0
230
1.0
 70
     8
 71
     3
 72
    11
 73
     7
 74
     0
 42
0.00000001
 43
0.00000001
 12
1.0
 22
0.0
 32
0.0
 13
1.0
 23
0.0
 33
0.0
 40
0.0
 40
0.0
 40
0.0
 40
0.0
 40
0.2499999999999908
 40
0.4999999999999905
 40
0.7499999999999966
 40
1.0
 40
1.0
 40
1.0
 40
1.0
 10
1425.014756401293
 20
595.9142048044628
 30
0.0
 10
1425.17855270605
 20
595.9329942704469
 30
0.0
 10
1425.506145315566
 20
595.9705732024153
 30
0.0
 10
1425.919326486937
 20
596.2596347188181
 30
0.0
 10
1426.20838800334
 20
596.6728158901893
 30
0.0
 10
1426.245966935308
 20
597.0004084997049
 30
0.0
 10
1426.264756401292
 20
597.1642048044628
 30
0.0
  0
LINE
  5
323
330
1F
100
AcDbEntity
  8
0
  6
Continuous
 62
     7
370
    15
100
AcDbLine
 10
1425.0147564013
 20
595.1142048045
 30
0.0
 11
1424.5647564013
 21
595.1142048045
 31
0.0
  0
LINE
  5
324
330
1F
100
AcDbEntity
  8
0
  6
Continuous
 62
     7
370
    15
100
AcDbLine
 10
1424.7225229844
 20
720.4142048045
 30
0.0
 11
1425.0147564013
 21
720.4142048045
 31
0.0
  0
SPLINE
  5
325
330
1F
100
AcDbEntity
  8
0
  6
Continuous
 62
     7
370
    15
100
AcDbSpline
210
0.0
220
0.0
230
1.0
 70
     8
 71
     3
 72
    12
 73
     8
 74
     0
 42
0.00000001
 43
0.00000001
 12
1.0
 22
0.0
 32
0.0
 13
1.0
 23
0.0
 33
0.0
 40
0.0
 40
0.0
 40
0.0
 40
0.0
 40
0.1873991528562132
 40
0.3754402903190392
 40
0.570445265062462
 40
0.7798271660883134
 40
1.0
 40
1.0
 40
1.0
 40
1.0
 10
1366.657685333474
 20
860.7142048044554
 30
0.0
 10
1366.634718515065
 20
860.6938730247197
 30
0.0
 10
1366.588706199427
 20
860.653139813441
 30
0.0
 10
1366.417180857142
 20
860.3419005968728
 30
0.0
 10
1366.162075952893
 20
859.8838639080634
 30
0.0
 10
1365.805341548268
 20
859.3107783270563
 30
0.0
 10
1365.547113781237
 20
858.883308828401
 30
0.0
 10
1365.414756401286
 20
858.6642048044554
 30
0.0
  0
LINE
  5
326
330
1F
100
AcDbEntity
  8
0
  6
Continuous
 62
     7
370
    15
100
AcDbLine
 10
1365.4147564013
 20
858.6642048045
 30
0.0
 11
661.9147564013
 21
858.6642048045
 31
0.0
  0
SPLINE
  5
327
330
1F
100
AcDbEntity
  8
0
  6
Continuous
 62
     7
370
    15
100
AcDbSpline
210
0.0
220
0.0
230
1.0
 70
     8
 71
     3
 72
    11
 73
     7
 74
     0
 42
0.00000001
 43
0.00000001
 12
1.0
 22
0.0
 32
0.0
 13
1.0
 23
0.0
 33
0.0
 40
0.0
 40
0.0
 40
0.0
 40
0.0
 40
0.249999999999988
 40
0.5000000000000048
 40
0.750000000000009
 40
1.0
 40
1.0
 40
1.0
 40
1.0
 10
661.9147564012867
 20
858.6642048044553
 30
0.0
 10
661.8111789902712
 20
858.9328307442581
 30
0.0
 10
661.6040241682399
 20
859.4700826238638
 30
0.0
 10
661.2932919351929
 20
860.1476997449124
 30
0.0
 10
660.9825597021457
 20
860.6217606318132
 30
0.0
 10
660.7754048801143
 20
860.6833900802415
 30
0.0
 10
660.6718274690987
 20
860.7142048044554
 30
0.0
  0
LINE
  5
328
330
1F
100
AcDbEntity
  8
0
  6
Continuous
 62
     7
370
    15
100
AcDbLine
 10
660.6718274691
 20
860.7142048045
 30
0.0
 11
1366.6576853335
 21
860.7142048045
 31
0.0
  0
SPLINE
  5
329
330
1F
100
AcDbEntity
  8
0
  6
Continuous
 62
     7
370
    15
100
AcDbSpline
210
0.0
220
0.0
230
1.0
 70
     8
 71
     3
 72
    12
 73
     8
 74
     0
 42
0.00000001
 43
0.00000001
 12
1.0
 22
0.0
 32
0.0
 13
1.0
 23
0.0
 33
0.0
 40
0.0
 40
0.0
 40
0.0
 40
0.0
 40
0.3486243090424566
 40
0.5715639950853637
 40
0.7575575393399947
 40
0.9445154455258892
 40
1.0
 40
1.0
 40
1.0
 40
1.0
 10
1365.414756401285
 20
597.1642048044554
 30
0.0
 10
1365.610687732132
 20
596.9691181357374
 30
0.0
 10
1365.931914024494
 20
596.6492766534652
 30
0.0
 10
1366.308617053968
 20
596.263465194988
 30
0.0
 10
1366.527195779041
 20
596.018124659411
 30
0.0
 10
1366.62584775856
 20
595.9217115764931
 30
0.0
 10
1366.651756050227
 20
595.915602831089
 30
0.0
 10
1366.657685333473
 20
595.9142048044553
 30
0.0
  0
LINE
  5
32A
330
1F
100
AcDbEntity
  8
0
  6
Continuous
 62
     7
370
    15
100
AcDbLine
 10
1366.6576853335
 20
595.1142048045
 30
0.0
 11
1366.6576853335
 21
595.9142048045
 31
0.0
  0
SPLINE
  5
32B
330
1F
100
AcDbEntity
  8
0
  6
Continuous
 62
     7
370
    15
100
AcDbSpline
210
0.0
220
0.0
230
1.0
 70
     8
 71
     3
 72
    12
 73
     8
 74
     0
 42
0.00000001
 43
0.00000001
 12
1.0
 22
0.0
 32
0.0
 13
1.0
 23
0.0
 33
0.0
 40
0.0
 40
0.0
 40
0.0
 40
0.0
 40
0.2353743462262824
 40
0.5035736495639758
 40
0.7398139493597119
 40
0.9425302092432886
 40
1.0
 40
1.0
 40
1.0
 40
1.0
 10
1365.414756401285
 20
597.1642048044554
 30
0.0
 10
1365.556434354919
 20
596.9305012719498
 30
0.0
 10
1365.859548459401
 20
596.4305022590297
 30
0.0
 10
1366.270323361762
 20
595.7609574637135
 30
0.0
 10
1366.525908097145
 20
595.2847327520827
 30
0.0
 10
1366.627366060139
 20
595.1252835976816
 30
0.0
 10
1366.652200018654
 20
595.1162091621455
 30
0.0
 10
1366.657685333473
 20
595.1142048044553
 30
0.0
  0
SPLINE
  5
32C
330
1F
100
AcDbEntity
  8
0
  6
Continuous
 62
     7
370
    15
100
AcDbSpline
210
0.0
220
0.0
230
1.0
 70
     8
 71
     3
 72
    11
 73
     7
 74
     0
 42
0.00000001
 43
0.00000001
 12
1.0
 22
0.0
 32
0.0
 13
1.0
 23
0.0
 33
0.0
 40
0.0
 40
0.0
 40
0.0
 40
0.0
 40
0.2499999999999836
 40
0.5000000000000079
 40
0.7499999999999989
 40
1.0
 40
1.0
 40
1.0
 40
1.0
 10
1367.464756401286
 20
595.9212758722672
 30
0.0
 10
1367.433941677072
 20
596.0248532832828
 30
0.0
 10
1367.372312228644
 20
596.2320081053141
 30
0.0
 10
1366.898251341743
 20
596.5427403383612
 30
0.0
 10
1366.220634220695
 20
596.8534725714082
 30
0.0
 10
1365.683382341089
 20
597.0606273934396
 30
0.0
 10
1365.414756401286
 20
597.1642048044553
 30
0.0
  0
LINE
  5
32D
330
1F
100
AcDbEntity
  8
0
  6
Continuous
 62
     7
370
    15
100
AcDbLine
 10
1365.4147564013
 20
597.1642048045
 30
0.0
 11
1365.4147564013
 21
858.6642048045
 31
0.0
  0
SPLINE
  5
32E
330
1F
100
AcDbEntity
  8
0
  6
Continuous
 62
     7
370
    15
100
AcDbSpline
210
0.0
220
0.0
230
1.0
 70
     8
 71
     3
 72
    11
 73
     7
 74
     0
 42
0.00000001
 43
0.00000001
 12
1.0
 22
0.0
 32
0.0
 13
1.0
 23
0.0
 33
0.0
 40
0.0
 40
0.0
 40
0.0
 40
0.0
 40
0.2499999999999951
 40
0.4999999999999932
 40
0.749999999999993
 40
0.9999999999999999
 40
0.9999999999999999
 40
0.9999999999999999
 40
0.9999999999999999
 10
1365.414756401286
 20
858.6642048044556
 30
0.0
 10
1365.683382341089
 20
858.7677822154711
 30
0.0
 10
1366.220634220694
 20
858.9749370375024
 30
0.0
 10
1366.898251341743
 20
859.2856692705494
 30
0.0
 10
1367.372312228644
 20
859.5964015035964
 30
0.0
 10
1367.433941677072
 20
859.8035563256279
 30
0.0
 10
1367.464756401286
 20
859.9071337366435
 30
0.0
  0
LINE
  5
32F
330
1F
100
AcDbEntity
  8
0
  6
Continuous
 62
     7
370
    15
100
AcDbLine
 10
1367.4647564013
 20
595.9212758723
 30
0.0
 11
1367.4647564013
 21
720.9142048045
 31
0.0
  0
LINE
  5
330
330
1F
100
AcDbEntity
  8
0
  6
Continuous
 62
     7
370
    15
100
AcDbLine
 10
1367.4647564013
 20
721.7142048045
 30
0.0
 11
1367.4647564013
 21
722.7142048045
 31
0.0
  0
LINE
  5
331
330
1F
100
AcDbEntity
  8
0
  6
Continuous
 62
     7
370
    15
100
AcDbLine
 10
1367.4647564013
 20
841.4018793316
 30
0.0
 11
1367.4647564013
 21
842.4018793316
 31
0.0
  0
LINE
  5
332
330
1F
100
AcDbEntity
  8
0
  6
Continuous
 62
     7
370
    15
100
AcDbLine
 10
1367.4647564013
 20
843.2018793316
 30
0.0
 11
1367.4647564013
 21
859.9071337366
 31
0.0
  0
LINE
  5
333
330
1F
100
AcDbEntity
  8
0
  6
Continuous
 62
     7
370
    15
100
AcDbLine
 10
1366.6576853335
 20
595.1142048045
 30
0.0
 11
660.6718274691
 21
595.1142048045
 31
0.0
  0
SPLINE
  5
334
330
1F
100
AcDbEntity
  8
0
  6
Continuous
 62
     7
370
    15
100
AcDbSpline
210
0.0
220
0.0
230
1.0
 70
     8
 71
     3
 72
    12
 73
     8
 74
     0
 42
0.00000001
 43
0.00000001
 12
1.0
 22
0.0
 32
0.0
 13
1.0
 23
0.0
 33
0.0
 40
0.0
 40
0.0
 40
0.0
 40
0.0
 40
0.2301699461467538
 40
0.4604227344550699
 40
0.6906759109412294
 40
0.9209289349060119
 40
0.9999999999999999
 40
0.9999999999999999
 40
0.9999999999999999
 40
0.9999999999999999
 10
660.6718274690976
 20
595.1142048044552
 30
0.0
 10
660.7672172713853
 20
595.1402822402678
 30
0.0
 10
660.9580312084076
 20
595.192446497615
 30
0.0
 10
661.2443231838394
 20
595.5971574152178
 30
0.0
 10
661.5304383140598
 20
596.1851856832847
 30
0.0
 10
661.7545528847987
 20
596.7492098946475
 30
0.0
 10
661.8821415178481
 20
597.0797184529232
 30
0.0
 10
661.9147564012858
 20
597.1642048044553
 30
0.0
  0
LINE
  5
335
330
1F
100
AcDbEntity
  8
0
  6
Continuous
 62
     7
370
    15
100
AcDbLine
 10
661.9147564013
 20
597.1642048045
 30
0.0
 11
1365.4147564013
 21
597.1642048045
 31
0.0
  0
SPLINE
  5
336
330
1F
100
AcDbEntity
  8
0
  6
Continuous
 62
     7
370
    15
100
AcDbSpline
210
0.0
220
0.0
230
1.0
 70
     8
 71
     3
 72
    11
 73
     7
 74
     0
 42
0.00000001
 43
0.00000001
 12
1.0
 22
0.0
 32
0.0
 13
1.0
 23
0.0
 33
0.0
 40
0.0
 40
0.0
 40
0.0
 40
0.0
 40
0.2500000000000134
 40
0.4999999999999758
 40
0.7499999999999905
 40
1.0
 40
1.0
 40
1.0
 40
1.0
 10
1365.414756401286
 20
858.6642048044556
 30
0.0
 10
1365.578552706044
 20
858.7677822154711
 30
0.0
 10
1365.906145315559
 20
858.9749370375024
 30
0.0
 10
1366.319326486931
 20
859.2856692705494
 30
0.0
 10
1366.608388003334
 20
859.5964015035964
 30
0.0
 10
1366.645966935302
 20
859.8035563256277
 30
0.0
 10
1366.664756401286
 20
859.9071337366435
 30
0.0
  0
LINE
  5
337
330
1F
100
AcDbEntity
  8
0
  6
Continuous
 62
     7
370
    15
100
AcDbLine
 10
1366.6647564013
 20
859.9071337366
 30
0.0
 11
1367.4647564013
 21
859.9071337366
 31
0.0
  0
LWPOLYLINE
  5
338
330
1F
100
AcDbEntity
  8
0
  6
Continuous
 62
     7
370
    15
100
AcDbPolyline
 90
        2
 70
   128
 43
0.0
 10
1365.4147564013
 20
858.6642048045
 10
1365.4147564013
 20
858.6642048045
  0
LINE
  5
339
330
1F
100
AcDbEntity
  8
0
  6
Continuous
 62
     7
370
    15
100
AcDbLine
 10
661.9147564013
 20
858.6642048045
 30
0.0
 11
661.9147564013
 21
597.1642048045
 31
0.0
  0
LINE
  5
33A
330
1F
100
AcDbEntity
  8
0
  6
Continuous
 62
     7
370
    15
100
AcDbLine
 10
1367.4647564013
 20
595.9212758723
 30
0.0
 11
1366.6647564013
 21
595.9212758723
 31
0.0
  0
SPLINE
  5
33B
330
1F
100
AcDbEntity
  8
0
  6
Continuous
 62
     7
370
    15
100
AcDbSpline
210
0.0
220
0.0
230
1.0
 70
     8
 71
     3
 72
    11
 73
     7
 74
     0
 42
0.00000001
 43
0.00000001
 12
1.0
 22
0.0
 32
0.0
 13
1.0
 23
0.0
 33
0.0
 40
0.0
 40
0.0
 40
0.0
 40
0.0
 40
0.2499999999999953
 40
0.5000000000000117
 40
0.7500000000000168
 40
1.0
 40
1.0
 40
1.0
 40
1.0
 10
1366.664756401286
 20
595.9212758722672
 30
0.0
 10
1366.645966935302
 20
596.0248532832828
 30
0.0
 10
1366.608388003334
 20
596.2320081053141
 30
0.0
 10
1366.319326486931
 20
596.5427403383612
 30
0.0
 10
1365.906145315559
 20
596.8534725714082
 30
0.0
 10
1365.578552706044
 20
597.0606273934396
 30
0.0
 10
1365.414756401286
 20
597.1642048044553
 30
0.0
  0
LINE
  5
33C
330
1F
100
AcDbEntity
  8
0
  6
Continuous
 62
     7
370
    15
100
AcDbLine
 10
1366.6576853335
 20
860.7142048045
 30
0.0
 11
1366.6576853335
 21
859.9142048045
 31
0.0
  0
SPLINE
  5
33D
330
1F
100
AcDbEntity
  8
0
  6
Continuous
 62
     7
370
    15
100
AcDbSpline
210
0.0
220
0.0
230
1.0
 70
     8
 71
     3
 72
    12
 73
     8
 74
     0
 42
0.00000001
 43
0.00000001
 12
1.0
 22
0.0
 32
0.0
 13
1.0
 23
0.0
 33
0.0
 40
0.0
 40
0.0
 40
0.0
 40
0.0
 40
0.1739905952421845
 40
0.3320996464844982
 40
0.5068893926396727
 40
0.7762296054371371
 40
1.0
 40
1.0
 40
1.0
 40
1.0
 10
1366.657685333474
 20
859.9142048044554
 30
0.0
 10
1366.633756386154
 20
859.9009448665612
 30
0.0
 10
1366.588082682156
 20
859.8756353337042
 30
0.0
 10
1366.427246862549
 20
859.6985088454576
 30
0.0
 10
1366.174218811424
 20
859.4202085577091
 30
0.0
 10
1365.812828838941
 20
859.0658829917447
 30
0.0
 10
1365.539012485908
 20
858.7895864036551
 30
0.0
 10
1365.414756401286
 20
858.6642048044554
 30
0.0
  0
SPLINE
  5
33E
330
1F
100
AcDbEntity
  8
0
  6
Continuous
 62
     7
370
    15
100
AcDbSpline
210
0.0
220
0.0
230
1.0
 70
     8
 71
     3
 72
    12
 73
     8
 74
     0
 42
0.00000001
 43
0.00000001
 12
1.0
 22
0.0
 32
0.0
 13
1.0
 23
0.0
 33
0.0
 40
0.0
 40
0.0
 40
0.0
 40
0.0
 40
0.1739905893024125
 40
0.3320996353216989
 40
0.5068893755756448
 40
0.7762307951122669
 40
1.0
 40
1.0
 40
1.0
 40
1.0
 10
660.664756401286
 20
859.9071337366435
 30
0.0
 10
660.6780163333118
 20
859.8832047825114
 30
0.0
 10
660.7033258549802
 20
859.8375310654862
 30
0.0
 10
660.880452424128
 20
859.6766953388831
 30
0.0
 10
661.1587528804006
 20
859.4236663234593
 30
0.0
 10
661.5130807559949
 20
859.0622786067628
 30
0.0
 10
661.7893760570576
 20
858.7884608576833
 30
0.0
 10
661.9147564012859
 20
858.6642048044554
 30
0.0
  0
LWPOLYLINE
  5
33F
330
1F
100
AcDbEntity
  8
0
  6
Continuous
 62
     7
370
    15
100
AcDbPolyline
 90
        2
 70
   128
 43
0.0
 10
661.9147564013
 20
858.6642048045
 10
661.9147564013
 20
858.6642048045
  0
SPLINE
  5
340
330
1F
100
AcDbEntity
  8
0
  6
Continuous
 62
     7
370
    15
100
AcDbSpline
210
0.0
220
0.0
230
1.0
 70
     8
 71
     3
 72
    12
 73
     8
 74
     0
 42
0.00000001
 43
0.00000001
 12
1.0
 22
0.0
 32
0.0
 13
1.0
 23
0.0
 33
0.0
 40
0.0
 40
0.0
 40
0.0
 40
0.0
 40
0.1873991481989458
 40
0.375440280982867
 40
0.5704452508145202
 40
0.7798271242634683
 40
0.9999999999999999
 40
0.9999999999999999
 40
0.9999999999999999
 40
0.9999999999999999
 10
659.8647564012861
 20
859.9071337366435
 30
0.0
 10
659.8850881736851
 20
859.884166904239
 30
0.0
 10
659.9258213702644
 20
859.8381545605646
 30
0.0
 10
660.2370606993021
 20
859.6666294305587
 30
0.0
 10
660.6950969182342
 20
859.411523678781
 30
0.0
 10
661.268184376742
 20
859.0547927826991
 30
0.0
 10
661.6956528622733
 20
858.796563157555
 30
0.0
 10
661.9147564012859
 20
858.6642048044554
 30
0.0
  0
LINE
  5
341
330
1F
100
AcDbEntity
  8
0
  6
Continuous
 62
     7
370
    15
100
AcDbLine
 10
659.8647564013
 20
859.9071337366
 30
0.0
 11
660.6647564013
 21
859.9071337366
 31
0.0
  0
SPLINE
  5
342
330
1F
100
AcDbEntity
  8
0
  6
Continuous
 62
     7
370
    15
100
AcDbSpline
210
0.0
220
0.0
230
1.0
 70
     8
 71
     3
 72
    13
 73
     9
 74
     0
 42
0.00000001
 43
0.00000001
 12
1.0
 22
0.0
 32
0.0
 13
1.0
 23
0.0
 33
0.0
 40
0.0
 40
0.0
 40
0.0
 40
0.0
 40
0.3066612244258046
 40
0.4984645921086703
 40
0.6088147146823728
 40
0.7281608254035433
 40
0.8581368182538622
 40
0.9999999999999999
 40
0.9999999999999999
 40
0.9999999999999999
 40
0.9999999999999999
 10
661.9147564012859
 20
597.1642048044554
 30
0.0
 10
661.7405593704565
 20
596.9954787439024
 30
0.0
 10
661.4574096110384
 20
596.721221810672
 30
0.0
 10
661.1496666402635
 20
596.3973895072985
 30
0.0
 10
660.9487657418234
 20
596.2165024934872
 30
0.0
 10
660.8031520225431
 20
596.0964025699126
 30
0.0
 10
660.6891908310117
 20
595.9944647364234
 30
0.0
 10
660.6731352415121
 20
595.946373155322
 30
0.0
 10
660.664756401286
 20
595.9212758722672
 30
0.0
  0
LINE
  5
343
330
1F
100
AcDbEntity
  8
0
  6
Continuous
 62
     7
370
    15
100
AcDbLine
 10
659.8647564013
 20
595.9212758723
 30
0.0
 11
660.6647564013
 21
595.9212758723
 31
0.0
  0
SPLINE
  5
344
330
1F
100
AcDbEntity
  8
0
  6
Continuous
 62
     7
370
    15
100
AcDbSpline
210
0.0
220
0.0
230
1.0
 70
     8
 71
     3
 72
    13
 73
     9
 74
     0
 42
0.00000001
 43
0.00000001
 12
1.0
 22
0.0
 32
0.0
 13
1.0
 23
0.0
 33
0.0
 40
0.0
 40
0.0
 40
0.0
 40
0.0
 40
0.285573661276557
 40
0.4687816519735082
 40
0.5799019873038427
 40
0.7049799530122167
 40
0.8448237717733167
 40
1.0
 40
1.0
 40
1.0
 40
1.0
 10
661.9147564012859
 20
597.1642048044554
 30
0.0
 10
661.6281119905776
 20
596.994754142443
 30
0.0
 10
661.1575726565922
 20
596.7165934713533
 30
0.0
 10
660.649637296685
 20
596.391250488554
 30
0.0
 10
660.3254914475879
 20
596.2139401681688
 30
0.0
 10
660.0889957582685
 20
596.0950366047356
 30
0.0
 10
659.9040239160663
 20
595.993757399769
 30
0.0
 10
659.8782913529747
 20
595.9462592199159
 30
0.0
 10
659.8647564012861
 20
595.9212758722672
 30
0.0
  0
SPLINE
  5
345
330
1F
100
AcDbEntity
  8
0
  6
Continuous
 62
     7
370
    15
100
AcDbSpline
210
0.0
220
0.0
230
1.0
 70
     8
 71
     3
 72
    11
 73
     7
 74
     0
 42
0.00000001
 43
0.00000001
 12
1.0
 22
0.0
 32
0.0
 13
1.0
 23
0.0
 33
0.0
 40
0.0
 40
0.0
 40
0.0
 40
0.0
 40
0.254299731778493
 40
0.5087760894400081
 40
0.7632534766320224
 40
1.0
 40
1.0
 40
1.0
 40
1.0
 10
660.6718274690977
 20
595.9142048044553
 30
0.0
 10
660.7772029156337
 20
595.9336629731935
 30
0.0
 10
660.9880269980523
 20
595.9725928254943
 30
0.0
 10
661.3042808814009
 20
596.2715605853684
 30
0.0
 10
661.6133494723616
 20
596.6875323079989
 30
0.0
 10
661.816734504769
 20
597.0091840081953
 30
0.0
 10
661.9147564012858
 20
597.1642048044553
 30
0.0
  0
LINE
  5
346
330
1F
100
AcDbEntity
  8
0
  6
Continuous
 62
     7
370
    15
100
AcDbLine
 10
660.6718274691
 20
595.1142048045
 30
0.0
 11
660.6718274691
 21
595.9142048045
 31
0.0
  0
SPLINE
  5
347
330
1F
100
AcDbEntity
  8
0
  6
Continuous
 62
     7
370
    15
100
AcDbSpline
210
0.0
220
0.0
230
1.0
 70
     8
 71
     3
 72
    11
 73
     7
 74
     0
 42
0.00000001
 43
0.00000001
 12
1.0
 22
0.0
 32
0.0
 13
1.0
 23
0.0
 33
0.0
 40
0.0
 40
0.0
 40
0.0
 40
0.0
 40
0.2499999999999792
 40
0.5
 40
0.7500000000000208
 40
1.0
 40
1.0
 40
1.0
 40
1.0
 10
661.9147564012867
 20
858.6642048044553
 30
0.0
 10
661.8111789902712
 20
858.8280011092132
 30
0.0
 10
661.60402416824
 20
859.1555937187288
 30
0.0
 10
661.2932919351927
 20
859.5687748900999
 30
0.0
 10
660.9825597021457
 20
859.8578364065029
 30
0.0
 10
660.7754048801144
 20
859.8954153384713
 30
0.0
 10
660.6718274690987
 20
859.9142048044554
 30
0.0
  0
LINE
  5
348
330
1F
100
AcDbEntity
  8
0
  6
Continuous
 62
     7
370
    15
100
AcDbLine
 10
660.6718274691
 20
860.7142048045
 30
0.0
 11
660.6718274691
 21
859.9142048045
 31
0.0
  0
LINE
  5
349
330
1F
100
AcDbEntity
  8
0
  6
Continuous
 62
     7
370
    15
100
AcDbLine
 10
659.8647564013
 20
859.9071337366
 30
0.0
 11
659.8647564013
 21
595.9212758723
 31
0.0
  0
ARC
  5
34A
330
1F
100
AcDbEntity
  8
0
  6
Continuous
 62
     7
370
    15
100
AcDbCircle
 10
738.0147564013
 20
878.7642048045
 30
0.0
 40
2.049999999999991
100
AcDbArc
 50
270.0
 51
310.8786351465
  0
ARC
  5
34B
330
1F
100
AcDbEntity
  8
0
  6
Continuous
 62
     7
370
    15
100
AcDbCircle
 10
730.5147564013
 20
878.7642048045
 30
0.0
 40
2.050000000000066
100
AcDbArc
 50
229.1213648535
 51
270.0
  0
ARC
  5
34C
330
1F
100
AcDbEntity
  8
0
  6
Continuous
 62
     7
370
    15
100
AcDbCircle
 10
1183.1147564013
 20
878.7642048045
 30
0.0
 40
2.050000000000182
100
AcDbArc
 50
229.1213648535
 51
270.0
  0
ARC
  5
34D
330
1F
100
AcDbEntity
  8
0
  6
Continuous
 62
     7
370
    15
100
AcDbCircle
 10
1190.6147564013
 20
878.7642048045
 30
0.0
 40
2.050000000000182
100
AcDbArc
 50
270.0
 51
310.8786351465
  0
LINE
  5
34E
330
1F
100
AcDbEntity
  8
0
  6
Continuous
 62
     7
370
    15
100
AcDbLine
 10
1181.0647564013
 20
877.2142048045
 30
0.0
 11
1181.0647564013
 21
876.7142048045
 31
0.0
  0
LINE
  5
34F
330
1F
100
AcDbEntity
  8
0
  6
Continuous
 62
     7
370
    15
100
AcDbLine
 10
740.0647564013
 20
877.2142048045
 30
0.0
 11
740.0647564013
 21
876.7142048045
 31
0.0
  0
LINE
  5
350
330
1F
100
AcDbEntity
  8
0
  6
Continuous
 62
     7
370
    15
100
AcDbLine
 10
1308.8147564013
 20
895.8142048045
 30
0.0
 11
1308.8147564013
 21
863.1642048045
 31
0.0
  0
ARC
  5
351
330
1F
100
AcDbEntity
  8
0
  6
Continuous
 62
     7
370
    15
100
AcDbCircle
 10
1310.8147564013
 20
895.8142048045
 30
0.0
 40
2.0
100
AcDbArc
 50
90.0
 51
180.0
  0
LINE
  5
352
330
1F
100
AcDbEntity
  8
0
  6
Continuous
 62
     7
370
    15
100
AcDbLine
 10
1401.8147564013
 20
897.8142048045
 30
0.0
 11
1310.8147564013
 21
897.8142048045
 31
0.0
  0
ARC
  5
353
330
1F
100
AcDbEntity
  8
0
  6
Continuous
 62
     7
370
    15
100
AcDbCircle
 10
1401.8147564013
 20
874.8142048045
 30
0.0
 40
23.0000000000001
100
AcDbArc
 50
299.5911871723
 51
90.0
  0
LINE
  5
354
330
1F
100
AcDbEntity
  8
0
  6
Continuous
 62
     7
370
    15
100
AcDbLine
 10
1386.1147564013
 20
843.3142048045
 30
0.0
 11
1413.1723431898
 21
854.8140742464
 31
0.0
  0
LINE
  5
355
330
1F
100
AcDbEntity
  8
0
  6
Continuous
 62
     7
370
    15
100
AcDbLine
 10
1369.8147564013
 20
843.3142048045
 30
0.0
 11
1386.1147564013
 21
843.3142048045
 31
0.0
  0
ARC
  5
356
330
1F
100
AcDbEntity
  8
0
  6
Continuous
 62
     7
370
    15
100
AcDbCircle
 10
1369.8147564013
 20
845.3142048045
 30
0.0
 40
2.000000000000227
100
AcDbArc
 50
180.0
 51
270.0
  0
LINE
  5
357
330
1F
100
AcDbEntity
  8
0
  6
Continuous
 62
     7
370
    15
100
AcDbLine
 10
1367.8147564013
 20
861.9142048045
 30
0.0
 11
1367.8147564013
 21
845.3142048045
 31
0.0
  0
LINE
  5
358
330
1F
100
AcDbEntity
  8
0
  6
Continuous
 62
     7
370
    15
100
AcDbLine
 10
1367.8147564013
 20
861.9142048045
 30
0.0
 11
1367.9147564013
 21
861.9142048045
 31
0.0
  0
LINE
  5
359
330
1F
100
AcDbEntity
  8
0
  6
Continuous
 62
     7
370
    15
100
AcDbLine
 10
1367.9147564013
 20
861.9142048045
 30
0.0
 11
1367.9147564013
 21
863.6642048045
 31
0.0
  0
LINE
  5
35A
330
1F
100
AcDbEntity
  8
0
  6
Continuous
 62
     7
370
    15
100
AcDbLine
 10
1367.9147564013
 20
863.6642048045
 30
0.0
 11
1366.3147564013
 21
863.6642048045
 31
0.0
  0
LINE
  5
35B
330
1F
100
AcDbEntity
  8
0
  6
Continuous
 62
     7
370
    15
100
AcDbLine
 10
1366.3147564013
 20
863.6642048045
 30
0.0
 11
1366.3147564013
 21
863.1642048045
 31
0.0
  0
LINE
  5
35C
330
1F
100
AcDbEntity
  8
0
  6
Continuous
 62
     7
370
    15
100
AcDbLine
 10
1308.8147564013
 20
863.1642048045
 30
0.0
 11
1366.3147564013
 21
863.1642048045
 31
0.0
  0
ARC
  5
35D
330
1F
100
AcDbEntity
  8
0
  6
Continuous
 62
     7
370
    15
100
AcDbCircle
 10
1388.7764437243
 20
859.5158916565
 30
0.0
 40
0.2503794968157884
100
AcDbArc
 50
259.1110070998
 51
83.3730607602
  0
ARC
  5
35E
330
1F
100
AcDbEntity
  8
0
  6
Continuous
 62
     7
370
    15
100
AcDbCircle
 10
1389.3147564013
 20
862.3142048045
 30
0.0
 40
2.60000000000003
100
AcDbArc
 50
101.3148497955
 51
258.700947069
  0
ARC
  5
35F
330
1F
100
AcDbEntity
  8
0
  6
Continuous
 62
     7
370
    15
100
AcDbCircle
 10
1388.7764437243
 20
865.1124878322
 30
0.0
 40
0.2504090746769058
100
AcDbArc
 50
276.4642622073
 51
100.8891073053
  0
ARC
  5
360
330
1F
100
AcDbEntity
  8
0
  6
Continuous
 62
     7
370
    15
100
AcDbCircle
 10
1389.3147564013
 20
862.3142048045
 30
0.0
 40
3.10000000000009
100
AcDbArc
 50
100.8891073053
 51
259.1110070998
  0
ARC
  5
361
330
1F
100
AcDbEntity
  8
0
  6
Continuous
 62
     7
370
    15
100
AcDbCircle
 10
1389.3147564013
 20
862.3142048045
 30
0.0
 40
2.600000000000094
100
AcDbArc
 50
280.4998591652
 51
79.5001408348
  0
ARC
  5
362
330
1F
100
AcDbEntity
  8
0
  6
Continuous
 62
     7
370
    15
100
AcDbCircle
 10
1389.8147564013
 20
859.5087638682
 30
0.0
 40
0.2503511010933102
100
AcDbArc
 50
96.005776495
 51
280.1054407084
  0
ARC
  5
363
330
1F
100
AcDbEntity
  8
0
  6
Continuous
 62
     7
370
    15
100
AcDbCircle
 10
1389.3147564013
 20
862.3142048045
 30
0.0
 40
3.100000000000037
100
AcDbArc
 50
280.1054407084
 51
79.8945592916
  0
ARC
  5
364
330
1F
100
AcDbEntity
  8
0
  6
Continuous
 62
     7
370
    15
100
AcDbCircle
 10
1389.8147564013
 20
865.1196457408
 30
0.0
 40
0.250351101093331
100
AcDbArc
 50
79.8945592916
 51
263.9942235051
  0
LINE
  5
365
330
1F
100
AcDbEntity
  8
0
  6
Continuous
 62
     7
370
    15
100
AcDbLine
 10
1366.3147564013
 20
863.1642048045
 30
0.0
 11
1366.3147564013
 21
860.7142048045
 31
0.0
  0
LINE
  5
366
330
1F
100
AcDbEntity
  8
0
  6
Continuous
 62
     7
370
    15
100
AcDbLine
 10
1308.8147564013
 20
860.7142048045
 30
0.0
 11
1308.8147564013
 21
863.1642048045
 31
0.0
  0
LINE
  5
367
330
1F
100
AcDbEntity
  8
0
  6
Continuous
 62
     7
370
    15
100
AcDbLine
 10
660.6718274691
 20
860.7142048045
 30
0.0
 11
659.8718274691
 21
860.7142048045
 31
0.0
  0
SPLINE
  5
368
330
1F
100
AcDbEntity
  8
0
  6
Continuous
 62
     7
370
    15
100
AcDbSpline
210
0.0
220
0.0
230
1.0
 70
     8
 71
     3
 72
    12
 73
     8
 74
     0
 42
0.00000001
 43
0.00000001
 12
1.0
 22
0.0
 32
0.0
 13
1.0
 23
0.0
 33
0.0
 40
0.0
 40
0.0
 40
0.0
 40
0.0
 40
0.2256471098599692
 40
0.4513366839867569
 40
0.6770264566945853
 40
0.9027160158546458
 40
1.0
 40
1.0
 40
1.0
 40
1.0
 10
661.1147564012896
 20
863.1642048044584
 30
0.0
 10
661.021236293674
 20
862.8747082093873
 30
0.0
 10
660.8341784790025
 20
862.2956605392185
 30
0.0
 10
660.5535381229186
 20
861.5342543769265
 30
0.0
 10
660.2730581673985
 20
860.9791924928327
 30
0.0
 10
660.0452270049118
 20
860.7390580026846
 30
0.0
 10
659.9119671372589
 20
860.7199579866963
 30
0.0
 10
659.8718274691013
 20
860.7142048044586
 30
0.0
  0
LINE
  5
369
330
1F
100
AcDbEntity
  8
0
  6
Continuous
 62
     7
370
    15
100
AcDbLine
 10
661.1147564013
 20
863.1642048045
 30
0.0
 11
1308.8147564013
 21
863.1642048045
 31
0.0
  0
SPLINE
  5
36A
330
1F
100
AcDbEntity
  8
0
  6
Continuous
 62
     7
370
    15
100
AcDbSpline
210
0.0
220
0.0
230
1.0
 70
     8
 71
     3
 72
    12
 73
     8
 74
     0
 42
0.00000001
 43
0.00000001
 12
1.0
 22
0.0
 32
0.0
 13
1.0
 23
0.0
 33
0.0
 40
0.0
 40
0.0
 40
0.0
 40
0.0
 40
0.1459841429705094
 40
0.2775400550086876
 40
0.4978905226551354
 40
0.7102490411598859
 40
1.0
 40
1.0
 40
1.0
 40
1.0
 10
658.6647564012892
 20
861.9212758722705
 30
0.0
 10
658.6785704650578
 20
861.9426825202194
 30
0.0
 10
658.7048332901851
 20
861.9833801064666
 30
0.0
 10
658.9418450419313
 20
862.092397914985
 30
0.0
 10
659.3934283169696
 20
862.2797627081123
 30
0.0
 10
660.1532213984887
 20
862.6749644001131
 30
0.0
 10
660.7629195418015
 20
862.9851860408172
 30
0.0
 10
661.114756401289
 20
863.1642048044587
 30
0.0
  0
LINE
  5
36B
330
1F
100
AcDbEntity
  8
0
  6
Continuous
 62
     7
370
    15
100
AcDbLine
 10
658.6647564013
 20
874.2642048045
 30
0.0
 11
658.6647564013
 21
861.9212758723
 31
0.0
  0
LINE
  5
36C
330
1F
100
AcDbEntity
  8
0
  6
Continuous
 62
     7
370
    15
100
AcDbLine
 10
661.1147564013
 20
874.2642048045
 30
0.0
 11
658.6647564013
 21
874.2642048045
 31
0.0
  0
LINE
  5
36D
330
1F
100
AcDbEntity
  8
0
  6
Continuous
 62
     7
370
    15
100
AcDbLine
 10
661.1147564013
 20
874.2642048045
 30
0.0
 11
661.1147564013
 21
863.1642048045
 31
0.0
  0
SPLINE
  5
36E
330
1F
100
AcDbEntity
  8
0
  6
Continuous
 62
     7
370
    15
100
AcDbSpline
210
0.0
220
0.0
230
1.0
 70
     8
 71
     3
 72
    12
 73
     8
 74
     0
 42
0.00000001
 43
0.00000001
 12
1.0
 22
0.0
 32
0.0
 13
1.0
 23
0.0
 33
0.0
 40
0.0
 40
0.0
 40
0.0
 40
0.0
 40
0.1304380183080349
 40
0.2500476903743633
 40
0.4602318963867966
 40
0.6821959358095132
 40
1.0
 40
1.0
 40
1.0
 40
1.0
 10
659.8647564012891
 20
861.9212758722705
 30
0.0
 10
659.8719108412163
 20
861.9427975739407
 30
0.0
 10
659.8856257933667
 20
861.984054347582
 30
0.0
 10
660.0097756399115
 20
862.0952181784105
 30
0.0
 10
660.2521808648523
 20
862.2943299530609
 30
0.0
 10
660.6343067656347
 20
862.6857117980979
 30
0.0
 10
660.936708590758
 20
862.9868820929512
 30
0.0
 10
661.1147564012891
 20
863.1642048044586
 30
0.0
  0
LINE
  5
36F
330
1F
100
AcDbEntity
  8
0
  6
Continuous
 62
     7
370
    15
100
AcDbLine
 10
658.6647564013
 20
861.9212758723
 30
0.0
 11
659.8647564013
 21
861.9212758723
 31
0.0
  0
LINE
  5
370
330
1F
100
AcDbEntity
  8
0
  6
Continuous
 62
     7
370
    15
100
AcDbLine
 10
1307.3147564013
 20
874.2142048045
 30
0.0
 11
1307.3147564013
 21
874.2642048045
 31
0.0
  0
LINE
  5
371
330
1F
100
AcDbEntity
  8
0
  6
Continuous
 62
     7
370
    15
100
AcDbLine
 10
1308.8147564013
 20
874.2142048045
 30
0.0
 11
1307.3147564013
 21
874.2142048045
 31
0.0
  0
LINE
  5
372
330
1F
100
AcDbEntity
  8
0
  6
Continuous
 62
     7
370
    15
100
AcDbLine
 10
1308.8147564013
 20
863.1642048045
 30
0.0
 11
1308.8147564013
 21
874.2142048045
 31
0.0
  0
LINE
  5
373
330
1F
100
AcDbEntity
  8
0
  6
Continuous
 62
     7
370
    15
100
AcDbLine
 10
1307.3147564013
 20
874.2642048045
 30
0.0
 11
661.1147564013
 21
874.2642048045
 31
0.0
  0
LINE
  5
374
330
1F
100
AcDbEntity
  8
0
  6
Continuous
 62
     7
370
    15
100
AcDbLine
 10
659.8718274691
 20
861.9142048045
 30
0.0
 11
659.8718274691
 21
860.7142048045
 31
0.0
  0
SPLINE
  5
375
330
1F
100
AcDbEntity
  8
0
  6
Continuous
 62
     7
370
    15
100
AcDbSpline
210
0.0
220
0.0
230
1.0
 70
     8
 71
     3
 72
    11
 73
     7
 74
     0
 42
0.00000001
 43
0.00000001
 12
1.0
 22
0.0
 32
0.0
 13
1.0
 23
0.0
 33
0.0
 40
0.0
 40
0.0
 40
0.0
 40
0.0
 40
0.265721044734245
 40
0.5202381807569875
 40
0.7747258001506667
 40
0.9999999999999999
 40
0.9999999999999999
 40
0.9999999999999999
 40
0.9999999999999999
 10
661.1147564012896
 20
863.1642048044586
 30
0.0
 10
661.0045896504291
 20
862.9900121331725
 30
0.0
 10
660.7889012389043
 20
862.648971480929
 30
0.0
 10
660.4679639758884
 20
862.230100691718
 30
0.0
 10
660.1635835487122
 20
861.9620616752297
 30
0.0
 10
659.9650498231451
 20
861.9294961058649
 30
0.0
 10
659.8718274691013
 20
861.9142048044587
 30
0.0
  0
LINE
  5
376
330
1F
100
AcDbEntity
  8
0
  6
Continuous
 62
     7
370
    15
100
AcDbLine
 10
714.0647564013
 20
876.7142048045
 30
0.0
 11
1307.3147564013
 21
876.7142048045
 31
0.0
  0
LINE
  5
377
330
1F
100
AcDbEntity
  8
0
  6
Continuous
 62
     7
370
    15
100
AcDbLine
 10
661.1147564013
 20
876.7142048045
 30
0.0
 11
661.1147564013
 21
874.2642048045
 31
0.0
  0
LINE
  5
378
330
1F
100
AcDbEntity
  8
0
  6
Continuous
 62
     7
370
    15
100
AcDbLine
 10
1307.3147564013
 20
876.7142048045
 30
0.0
 11
1307.3147564013
 21
874.2642048045
 31
0.0
  0
ARC
  5
379
330
1F
100
AcDbEntity
  8
0
  6
Continuous
 62
     7
370
    15
100
AcDbCircle
 10
1311.0147564013
 20
895.6642048045
 30
0.0
 40
2.450000000000045
100
AcDbArc
 50
90.0
 51
180.0
  0
LINE
  5
37A
330
1F
100
AcDbEntity
  8
0
  6
Continuous
 62
     7
370
    15
100
AcDbLine
 10
1308.5647564013
 20
895.6642048045
 30
0.0
 11
1308.5647564013
 21
877.9642048045
 31
0.0
  0
LINE
  5
37B
330
1F
100
AcDbEntity
  8
0
  6
Continuous
 62
     7
370
    15
100
AcDbLine
 10
1308.5647564013
 20
877.9642048045
 30
0.0
 11
1308.8147564013
 21
877.9642048045
 31
0.0
  0
LINE
  5
37C
330
1F
100
AcDbEntity
  8
0
  6
Continuous
 62
     7
370
    15
100
AcDbLine
 10
1388.1079383093
 20
844.161336217
 30
0.0
 11
1388.4513154527
 21
843.3716228528
 31
0.0
  0
LINE
  5
37D
330
1F
100
AcDbEntity
  8
0
  6
Continuous
 62
     7
370
    15
100
AcDbLine
 10
1388.4513154527
 20
843.3716228528
 30
0.0
 11
1411.6224182057
 21
853.4467050713
 31
0.0
  0
LINE
  5
37E
330
1F
100
AcDbEntity
  8
0
  6
Continuous
 62
     7
370
    15
100
AcDbLine
 10
1402.3315648998
 20
898.1142048045
 30
0.0
 11
1311.0147564013
 21
898.1142048045
 31
0.0
  0
ARC
  5
37F
330
1F
100
AcDbEntity
  8
0
  6
Continuous
 62
     7
370
    15
100
AcDbCircle
 10
1402.3315648998
 20
874.8142048045
 30
0.0
 40
23.30000000000007
100
AcDbArc
 50
293.5
 51
90.0
  0
LINE
  5
380
330
1F
100
AcDbEntity
  8
0
  6
Continuous
 62
     7
370
    15
100
AcDbLine
 10
658.6647564013
 20
875.5071337366
 30
0.0
 11
659.8647564013
 21
875.5071337366
 31
0.0
  0
LINE
  5
381
330
1F
100
AcDbEntity
  8
0
  6
Continuous
 62
     7
370
    15
100
AcDbLine
 10
658.6647564013
 20
874.2642048045
 30
0.0
 11
658.6647564013
 21
875.5071337366
 31
0.0
  0
LINE
  5
382
330
1F
100
AcDbEntity
  8
0
  6
Continuous
 62
     7
370
    15
100
AcDbLine
 10
659.8647564013
 20
874.2642048045
 30
0.0
 11
659.8647564013
 21
875.5071337366
 31
0.0
  0
LINE
  5
383
330
1F
100
AcDbEntity
  8
0
  6
Continuous
 62
     7
370
    15
100
AcDbLine
 10
659.8718274691
 20
876.7142048045
 30
0.0
 11
659.8718274691
 21
875.5142048045
 31
0.0
  0
LINE
  5
384
330
1F
100
AcDbEntity
  8
0
  6
Continuous
 62
     7
370
    15
100
AcDbLine
 10
659.8718274691
 20
875.5142048045
 30
0.0
 11
661.1147564013
 21
875.5142048045
 31
0.0
  0
ARC
  5
385
330
1F
100
AcDbEntity
  8
0
  6
Continuous
 62
     7
370
    15
100
AcDbCircle
 10
1307.3147564013
 20
877.9642048045
 30
0.0
 40
1.250000000000227
100
AcDbArc
 50
270.0
 51
0.0000000001
  0
ARC
  5
386
330
1F
100
AcDbEntity
  8
0
  6
Continuous
 62
     7
370
    15
100
AcDbCircle
 10
1307.3147564013
 20
877.9642048045
 30
0.0
 40
2.449999999999932
100
AcDbArc
 50
270.0
 51
307.7520013062
  0
LINE
  5
387
330
1F
100
AcDbEntity
  8
0
  6
Continuous
 62
     7
370
    15
100
AcDbLine
 10
660.6647564013
 20
862.5042721345
 30
0.0
 11
660.6647564013
 21
862.7137236104
 31
0.0
  0
LINE
  5
388
330
1F
100
AcDbEntity
  8
0
  6
Continuous
 62
     7
370
    15
100
AcDbLine
 10
660.6647564013
 20
874.2642048045
 30
0.0
 11
660.6647564013
 21
875.5142048045
 31
0.0
  0
LINE
  5
389
330
1F
100
AcDbEntity
  8
0
  6
Continuous
 62
     7
370
    15
100
AcDbLine
 10
1307.3147564013
 20
874.4142048045
 30
0.0
 11
1308.6647564013
 21
874.4142048045
 31
0.0
  0
LINE
  5
38A
330
1F
100
AcDbEntity
  8
0
  6
Continuous
 62
     7
370
    15
100
AcDbLine
 10
1308.6647564013
 20
874.4142048045
 30
0.0
 11
1308.6647564013
 21
874.2142048045
 31
0.0
  0
LINE
  5
38B
330
1F
100
AcDbEntity
  8
0
  6
Continuous
 62
     7
370
    15
100
AcDbLine
 10
1366.1585402109
 20
596.4142048045
 30
0.0
 11
1366.4107259376
 21
596.4142048045
 31
0.0
  0
LINE
  5
38C
330
1F
100
AcDbEntity
  8
0
  6
Continuous
 62
     7
370
    15
100
AcDbLine
 10
1368.7581128691
 20
596.4142048045
 30
0.0
 11
1368.9958786615
 21
596.4142048045
 31
0.0
  0
LINE
  5
38D
330
1F
100
AcDbEntity
  8
0
  6
Continuous
 62
     7
370
    15
100
AcDbLine
 10
1338.1647564013
 20
445.9142048045
 30
0.0
 11
1285.1647564013
 21
445.9142048045
 31
0.0
  0
LINE
  5
38E
330
1F
100
AcDbEntity
  8
0
  6
Continuous
 62
     7
370
    15
100
AcDbLine
 10
1340.1647564013
 20
451.9142048045
 30
0.0
 11
1283.1647564013
 21
451.9142048045
 31
0.0
  0
LINE
  5
38F
330
1F
100
AcDbEntity
  8
0
  6
Continuous
 62
     7
370
    15
100
AcDbLine
 10
766.1647564013
 20
451.9142048045
 30
0.0
 11
709.1647564013
 21
451.9142048045
 31
0.0
  0
LINE
  5
390
330
1F
100
AcDbEntity
  8
0
  6
Continuous
 62
     7
370
    15
100
AcDbLine
 10
764.1647564013
 20
445.9142048045
 30
0.0
 11
711.1647564013
 21
445.9142048045
 31
0.0
  0
LINE
  5
391
330
1F
100
AcDbEntity
  8
0
  6
Continuous
 62
     7
370
    15
100
AcDbLine
 10
1266.6647564013
 20
593.9142048045
 30
0.0
 11
1356.6647564013
 21
593.9142048045
 31
0.0
  0
LINE
  5
392
330
1F
100
AcDbEntity
  8
0
  6
Continuous
 62
     7
370
    15
100
AcDbLine
 10
1266.6647564013
 20
593.9142048045
 30
0.0
 11
1266.6647564013
 21
595.1142048045
 31
0.0
  0
LINE
  5
393
330
1F
100
AcDbEntity
  8
0
  6
Continuous
 62
     7
370
    15
100
AcDbLine
 10
1356.6647564013
 20
593.9142048045
 30
0.0
 11
1356.6647564013
 21
595.1142048045
 31
0.0
  0
LINE
  5
394
330
1F
100
AcDbEntity
  8
0
  6
Continuous
 62
     7
370
    15
100
AcDbLine
 10
1342.6244066216
 20
499.9142048045
 30
0.0
 11
1280.7051061809
 21
499.9142048045
 31
0.0
  0
LINE
  5
395
330
1F
100
AcDbEntity
  8
0
  6
Continuous
 62
     7
370
    15
100
AcDbLine
 10
782.6647564013
 20
593.9142048045
 30
0.0
 11
782.6647564013
 21
595.1142048045
 31
0.0
  0
LINE
  5
396
330
1F
100
AcDbEntity
  8
0
  6
Continuous
 62
     7
370
    15
100
AcDbLine
 10
692.6647564013
 20
593.9142048045
 30
0.0
 11
782.6647564013
 21
593.9142048045
 31
0.0
  0
LINE
  5
397
330
1F
100
AcDbEntity
  8
0
  6
Continuous
 62
     7
370
    15
100
AcDbLine
 10
692.6647564013
 20
593.9142048045
 30
0.0
 11
692.6647564013
 21
595.1142048045
 31
0.0
  0
LINE
  5
398
330
1F
100
AcDbEntity
  8
0
  6
Continuous
 62
     7
370
    15
100
AcDbLine
 10
768.6244066216
 20
499.9142048045
 30
0.0
 11
706.7051061809
 21
499.9142048045
 31
0.0
  0
LINE
  5
399
330
1F
100
AcDbEntity
  8
0
  6
Continuous
 62
     8
370
    15
100
AcDbLine
 10
647.7147564013
 20
677.0886141404
 30
0.0
 11
647.7147564013
 21
669.3520776346
 31
0.0
  0
LINE
  5
39A
330
1F
100
AcDbEntity
  8
0
  6
Continuous
 62
     8
370
    15
100
AcDbLine
 10
648.4147564013
 20
669.3520776346
 30
0.0
 11
648.4147564013
 21
677.0886141404
 31
0.0
  0
LINE
  5
39B
330
1F
100
AcDbEntity
  8
0
  6
Continuous
 62
     8
370
    15
100
AcDbLine
 10
647.2147564013
 20
668.9215855574
 30
0.0
 11
647.2147564013
 21
668.8330528929
 31
0.0
  0
LINE
  5
39C
330
1F
100
AcDbEntity
  8
0
  6
Continuous
 62
     8
370
    15
100
AcDbLine
 10
642.1147564013
 20
668.921586909
 30
0.0
 11
642.1147564013
 21
668.8330528929
 31
0.0
  0
LINE
  5
39D
330
1F
100
AcDbEntity
  8
0
  6
Continuous
 62
     8
370
    15
100
AcDbLine
 10
642.1147564013
 20
663.9837656944
 30
0.0
 11
642.1147564013
 21
664.0031013951
 31
0.0
  0
LINE
  5
39E
330
1F
100
AcDbEntity
  8
0
  6
Continuous
 62
     8
370
    15
100
AcDbLine
 10
642.1147564013
 20
682.1934722968
 30
0.0
 11
646.9145774542
 21
682.1934722968
 31
0.0
  0
SPLINE
  5
39F
330
1F
100
AcDbEntity
  8
0
  6
Continuous
 62
     8
370
    15
100
AcDbSpline
210
0.0
220
0.0
230
1.0
 70
     8
 71
     3
 72
    10
 73
     6
 74
     0
 42
0.00000001
 43
0.00000001
 12
1.0
 22
0.0
 32
0.0
 13
1.0
 23
0.0
 33
0.0
 40
0.0
 40
0.0
 40
0.0
 40
0.0
 40
0.2513409248164565
 40
0.625548681259202
 40
1.0
 40
1.0
 40
1.0
 40
1.0
 10
648.1128056999008
 20
682.4147811125396
 30
0.0
 10
648.0576142254596
 20
682.4664381077702
 30
0.0
 10
647.9202511832946
 20
682.5950043779382
 30
0.0
 10
647.6029377119274
 20
682.7250237623128
 30
0.0
 10
647.3441782323608
 20
682.7457456058615
 30
0.0
 10
647.214756401287
 20
682.7561098983689
 30
0.0
  0
LINE
  5
3A0
330
1F
100
AcDbEntity
  8
0
  6
Continuous
 62
     8
370
    15
100
AcDbLine
 10
647.2147564013
 20
682.7561098984
 30
0.0
 11
647.2147564013
 21
682.8446439145
 31
0.0
  0
LINE
  5
3A1
330
1F
100
AcDbEntity
  8
0
  6
Continuous
 62
     8
370
    15
100
AcDbLine
 10
646.2647564013
 20
681.7990927586
 30
0.0
 11
642.1147564013
 21
681.7990927586
 31
0.0
  0
LINE
  5
3A2
330
1F
100
AcDbEntity
  8
0
  6
Continuous
 62
     8
370
    15
100
AcDbLine
 10
642.1147564013
 20
681.7990927586
 30
0.0
 11
642.1147564013
 21
678.7309107567
 31
0.0
  0
LINE
  5
3A3
330
1F
100
AcDbEntity
  8
0
  6
Continuous
 62
     8
370
    15
100
AcDbLine
 10
642.1147564013
 20
682.7561098984
 30
0.0
 11
642.1147564013
 21
682.8446439145
 31
0.0
  0
LINE
  5
3A4
330
1F
100
AcDbEntity
  8
0
  6
Continuous
 62
     8
370
    15
100
AcDbLine
 10
646.5147564013
 20
676.6863665717
 30
0.0
 11
646.5147564013
 21
668.921586909
 31
0.0
  0
LINE
  5
3A5
330
1F
100
AcDbEntity
  8
0
  6
Continuous
 62
     8
370
    15
100
AcDbLine
 10
647.2147564013
 20
668.829871514
 30
0.0
 11
647.2147564013
 21
676.6863665717
 31
0.0
  0
LINE
  5
3A6
330
1F
100
AcDbEntity
  8
0
  6
Continuous
 62
     8
370
    15
100
AcDbLine
 10
647.7147564013
 20
677.0886286811
 30
0.0
 11
647.7147564013
 21
677.1588656175
 31
0.0
  0
LINE
  5
3A7
330
1F
100
AcDbEntity
  8
0
  6
Continuous
 62
     8
370
    15
100
AcDbLine
 10
652.8147564013
 20
677.0886141404
 30
0.0
 11
652.8147564013
 21
677.1588656175
 31
0.0
  0
LINE
  5
3A8
330
1F
100
AcDbEntity
  8
0
  6
Continuous
 62
     8
370
    15
100
AcDbLine
 10
652.8147564013
 20
682.4147811125
 30
0.0
 11
652.8147564013
 21
682.3846448389
 31
0.0
  0
LINE
  5
3A9
330
1F
100
AcDbEntity
  8
0
  6
Continuous
 62
     8
370
    15
100
AcDbLine
 10
652.8147564013
 20
664.9960823957
 30
0.0
 11
648.6647564013
 21
664.9960823957
 31
0.0
  0
LINE
  5
3AA
330
1F
100
AcDbEntity
  8
0
  6
Continuous
 62
     8
370
    15
100
AcDbLine
 10
648.3679479174
 20
664.4838799734
 30
0.0
 11
652.8147564013
 21
664.4838799734
 31
0.0
  0
LINE
  5
3AB
330
1F
100
AcDbEntity
  8
0
  6
Continuous
 62
     8
370
    15
100
AcDbLine
 10
648.6647564013
 20
665.3984896722
 30
0.0
 11
652.8147564013
 21
665.3984896722
 31
0.0
  0
LINE
  5
3AC
330
1F
100
AcDbEntity
  8
0
  6
Continuous
 62
     8
370
    15
100
AcDbLine
 10
652.8147564013
 20
665.3984896722
 30
0.0
 11
652.8147564013
 21
667.9128864963
 31
0.0
  0
LINE
  5
3AD
330
1F
100
AcDbEntity
  8
0
  6
Continuous
 62
     8
370
    15
100
AcDbLine
 10
652.8147564013
 20
664.4838799734
 30
0.0
 11
652.8147564013
 21
664.4136284963
 31
0.0
  0
LINE
  5
3AE
330
1F
100
AcDbEntity
  8
0
  6
Continuous
 62
     8
370
    15
100
AcDbLine
 10
633.8210038993
 20
667.8501893048
 30
0.0
 11
633.8210038993
 21
636.5392048044
 31
0.0
  0
LINE
  5
3AF
330
1F
100
AcDbEntity
  8
0
  6
Continuous
 62
     8
370
    15
100
AcDbLine
 10
633.8210038993
 20
670.2892048044
 30
0.0
 11
633.8210038993
 21
667.8501893048
 31
0.0
  0
LINE
  5
3B0
330
1F
100
AcDbEntity
  8
0
  6
Continuous
 62
     8
370
    15
100
AcDbLine
 10
659.8647564013
 20
1091.4142048045
 30
0.0
 11
659.9647564013
 21
1091.4142048045
 31
0.0
  0
LINE
  5
3B1
330
1F
100
AcDbEntity
  8
0
  6
Continuous
 62
     8
370
    15
100
AcDbLine
 10
660.3629719284
 20
862.4142048045
 30
0.0
 11
660.6647564013
 21
862.4142048045
 31
0.0
  0
LINE
  5
3B2
330
1F
100
AcDbEntity
  8
0
  6
Continuous
 62
     8
370
    15
100
AcDbLine
 10
1304.3147564013
 20
898.9347571653
 30
0.0
 11
1304.0425357375
 21
898.9347571653
 31
0.0
  0
LINE
  5
3B3
330
1F
100
AcDbEntity
  8
0
  6
Continuous
 62
     8
370
    15
100
AcDbLine
 10
1259.4835279895
 20
877.2142048045
 30
0.0
 11
1259.4835279895
 21
876.7142048045
 31
0.0
  0
LINE
  5
3B4
330
1F
100
AcDbEntity
  8
0
  6
Continuous
 62
     8
370
    15
100
AcDbLine
 10
1248.1621331381
 20
877.2142048045
 30
0.0
 11
1248.3008113074
 21
876.7142048045
 31
0.0
  0
LINE
  5
3B5
330
1F
100
AcDbEntity
  8
0
  6
Continuous
 62
     8
370
    15
100
AcDbLine
 10
1288.804922841
 20
877.2142048045
 30
0.0
 11
1288.6662446717
 21
876.7142048045
 31
0.0
  0
LINE
  5
3B6
330
1F
100
AcDbEntity
  8
0
  6
Continuous
 62
     8
370
    15
100
AcDbLine
 10
1277.4835279895
 20
877.2142048045
 30
0.0
 11
1277.4835279895
 21
876.7142048045
 31
0.0
  0
LINE
  5
3B7
330
1F
100
AcDbEntity
  8
0
  6
Continuous
 62
     8
370
    15
100
AcDbLine
 10
1440.5385697289
 20
796.8485265646
 30
0.0
 11
1439.4741057122
 21
800.1246099447
 31
0.0
  0
LINE
  5
3B8
330
1F
100
AcDbEntity
  8
0
  6
Continuous
 62
     8
370
    15
100
AcDbLine
 10
1411.9450274977
 20
832.8474044247
 30
0.0
 11
1421.032319393
 21
831.9726320269
 31
0.0
  0
LINE
  5
3B9
330
1F
100
AcDbEntity
  8
0
  6
Continuous
 62
     8
370
    15
100
AcDbLine
 10
1423.095817309
 20
831.7739929779
 30
0.0
 11
1429.3873843633
 21
831.1683461844
 31
0.0
  0
LINE
  5
3BA
330
1F
100
AcDbEntity
  8
0
  6
Continuous
 62
     8
370
    15
100
AcDbLine
 10
1429.323310123
 20
830.0940556012
 30
0.0
 11
1423.8624519612
 21
830.5771946282
 31
0.0
  0
LINE
  5
3BB
330
1F
100
AcDbEntity
  8
0
  6
Continuous
 62
     8
370
    15
100
AcDbLine
 10
1422.0726591291
 20
830.7355431408
 30
0.0
 11
1411.9264097196
 21
831.6332132363
 31
0.0
  0
LINE
  5
3BC
330
1F
100
AcDbEntity
  8
0
  6
Continuous
 62
     8
370
    15
100
AcDbLine
 10
1406.1930181627
 20
807.3793258563
 30
0.0
 11
1404.2931923012
 21
806.7542526789
 31
0.0
  0
LINE
  5
3BD
330
1F
100
AcDbEntity
  8
0
  6
Continuous
 62
     8
370
    15
100
AcDbLine
 10
1406.6915888106
 20
805.8448831812
 30
0.0
 11
1404.789475778
 21
805.2268491925
 31
0.0
  0
LINE
  5
3BE
330
1F
100
AcDbEntity
  8
0
  6
Continuous
 62
     8
370
    15
100
AcDbLine
 10
1408.3126814088
 20
800.8556731795
 30
0.0
 11
1406.4031316848
 21
800.2605269734
 31
0.0
  0
LINE
  5
3BF
330
1F
100
AcDbEntity
  8
0
  6
Continuous
 62
     8
370
    15
100
AcDbLine
 10
1408.1160846161
 20
801.4607358919
 30
0.0
 11
1406.2193654952
 21
800.8261011499
 31
0.0
  0
LINE
  5
3C0
330
1F
100
AcDbEntity
  8
0
  6
Continuous
 62
     8
370
    15
100
AcDbLine
 10
1408.639939676
 20
799.8484757979
 30
0.0
 11
1406.7288886691
 21
799.2579500658
 31
0.0
  0
LINE
  5
3C1
330
1F
100
AcDbEntity
  8
0
  6
Continuous
 62
     8
370
    15
100
AcDbLine
 10
1407.6142788665
 20
780.4086375934
 30
0.0
 11
1407.5978288651
 21
780.4032872421
 31
0.0
  0
LINE
  5
3C2
330
1F
100
AcDbEntity
  8
0
  6
Continuous
 62
     8
370
    15
100
AcDbLine
 10
1386.8239916925
 20
841.7067965955
 30
0.0
 11
1386.3610811073
 21
841.5563878288
 31
0.0
  0
LINE
  5
3C3
330
1F
100
AcDbEntity
  8
0
  6
Continuous
 62
     8
370
    15
100
AcDbLine
 10
1385.8855528491
 20
842.3886123251
 30
0.0
 11
1385.8855528491
 21
841.9018793316
 31
0.0
  0
LINE
  5
3C4
330
1F
100
AcDbEntity
  8
0
  6
Continuous
 62
     8
370
    15
100
AcDbLine
 10
738.0147564013
 20
876.7142048045
 30
0.0
 11
738.0147564013
 21
877.2142048045
 31
0.0
  0
LINE
  5
3C5
330
1F
100
AcDbEntity
  8
0
  6
Continuous
 62
     8
370
    15
100
AcDbLine
 10
730.5147564013
 20
877.2142048045
 30
0.0
 11
730.5147564013
 21
876.7142048045
 31
0.0
  0
LINE
  5
3C6
330
1F
100
AcDbEntity
  8
0
  6
Continuous
 62
     8
370
    15
100
AcDbLine
 10
1190.6147564013
 20
876.7142048045
 30
0.0
 11
1190.6147564013
 21
877.2142048045
 31
0.0
  0
LINE
  5
3C7
330
1F
100
AcDbEntity
  8
0
  6
Continuous
 62
     8
370
    15
100
AcDbLine
 10
1183.1147564013
 20
877.2142048045
 30
0.0
 11
1183.1147564013
 21
876.7142048045
 31
0.0
  0
LINE
  5
3C8
330
1F
100
AcDbEntity
  8
0
  6
Continuous
 62
     8
370
    15
100
AcDbLine
 10
1308.8147564013
 20
895.6642048045
 30
0.0
 11
1308.5647564013
 21
895.6642048045
 31
0.0
  0
LINE
  5
3C9
330
1F
100
AcDbEntity
  8
0
  6
Continuous
 62
     8
370
    15
100
AcDbLine
 10
1311.0147564013
 20
898.1142048045
 30
0.0
 11
1311.0147564013
 21
897.8142048045
 31
0.0
  0
LINE
  5
3CA
330
1F
100
AcDbEntity
  8
0
  6
Continuous
 62
     8
370
    15
100
AcDbLine
 10
1411.6224182057
 20
853.4467050713
 30
0.0
 11
1411.3623574434
 21
854.0448038773
 31
0.0
  0
LINE
  5
3CB
330
1F
100
AcDbEntity
  8
0
  6
Continuous
 62
     8
370
    15
100
AcDbLine
 10
1402.3315648998
 20
897.8083977448
 30
0.0
 11
1402.3315648998
 21
898.1142048045
 31
0.0
  0
LINE
  5
3CC
330
1F
100
AcDbEntity
  8
0
  6
Continuous
 62
     8
370
    15
100
AcDbLine
 10
1340.1647564013
 20
447.9142048045
 30
0.0
 11
1283.1647564013
 21
447.9142048045
 31
0.0
  0
LINE
  5
3CD
330
1F
100
AcDbEntity
  8
0
  6
Continuous
 62
     8
370
    15
100
AcDbLine
 10
766.1647564013
 20
447.9142048045
 30
0.0
 11
709.1647564013
 21
447.9142048045
 31
0.0
  0
LINE
  5
3CE
330
1F
100
AcDbEntity
  8
0
  6
Continuous
 62
     8
370
    15
100
AcDbLine
 10
1343.5647564013
 20
592.4142048045
 30
0.0
 11
1279.7647564013
 21
592.4142048045
 31
0.0
  0
LINE
  5
3CF
330
1F
100
AcDbEntity
  8
0
  6
Continuous
 62
     8
370
    15
100
AcDbLine
 10
1343.5647564013
 20
505.9467707501
 30
0.0
 11
1279.7647564013
 21
505.9467707501
 31
0.0
  0
LINE
  5
3D0
330
1F
100
AcDbEntity
  8
0
  6
Continuous
 62
     8
370
    15
100
AcDbLine
 10
1343.5008431743
 20
505.1743075256
 30
0.0
 11
1279.8286696283
 21
505.1743075256
 31
0.0
  0
LINE
  5
3D1
330
1F
100
AcDbEntity
  8
0
  6
Continuous
 62
     8
370
    15
100
AcDbLine
 10
769.5647564013
 20
592.4142048045
 30
0.0
 11
705.7647564013
 21
592.4142048045
 31
0.0
  0
LINE
  5
3D2
330
1F
100
AcDbEntity
  8
0
  6
Continuous
 62
     8
370
    15
100
AcDbLine
 10
769.5008431743
 20
505.1743075256
 30
0.0
 11
705.8286696283
 21
505.1743075256
 31
0.0
  0
LINE
  5
3D3
330
1F
100
AcDbEntity
  8
0
  6
Continuous
 62
     8
370
    15
100
AcDbLine
 10
769.5647564013
 20
505.9467707501
 30
0.0
 11
705.7647564013
 21
505.9467707501
 31
0.0
  0
ENDSEC
  0
SECTION
  2
OBJECTS
  0
DICTIONARY
  5
C
330
0
100
AcDbDictionary
281
     1
  3
ACAD_GROUP
350
D
  3
ACAD_LAYOUT
350
1A
  3
ACAD_MLINESTYLE
350
17
  3
ACAD_PLOTSETTINGS
350
19
  3
ACAD_PLOTSTYLENAME
350
E
  0
DICTIONARY
  5
D
102
{ACAD_REACTORS
330
C
102
}
330
C
100
AcDbDictionary
281
     1
  0
DICTIONARY
  5
1A
102
{ACAD_REACTORS
330
C
102
}
330
C
100
AcDbDictionary
281
     1
  3
Layout1
350
1E
  3
Layout2
350
26
  3
Model
350
22
  0
DICTIONARY
  5
17
102
{ACAD_REACTORS
330
C
102
}
330
C
100
AcDbDictionary
281
     1
  3
Standard
350
18
  0
DICTIONARY
  5
19
102
{ACAD_REACTORS
330
C
102
}
330
C
100
AcDbDictionary
281
     1
  0
ACDBDICTIONARYWDFLT
  5
E
102
{ACAD_REACTORS
330
C
102
}
330
C
100
AcDbDictionary
281
     1
  3
Normal
350
F
100
AcDbDictionaryWithDefault
340
F
  0
LAYOUT
  5
1E
102
{ACAD_REACTORS
330
1A
102
}
330
1A
100
AcDbPlotSettings
  1

  2
none_device
  4

  6

 40
0.0
 41
0.0
 42
0.0
 43
0.0
 44
0.0
 45
0.0
 46
0.0
 47
0.0
 48
0.0
 49
0.0
140
0.0
141
0.0
142
1.0
143
1.0
 70
   688
 72
     0
 73
     0
 74
     5
  7

 75
    16
147
1.0
148
0.0
149
0.0
100
AcDbLayout
  1
Layout1
 70
     1
 71
     1
 10
0.0
 20
0.0
 11
420.0
 21
297.0
 12
0.0
 22
0.0
 32
0.0
 14
1.0000000000E+20
 24
1.0000000000E+20
 34
1.0000000000E+20
 15
-1.0000000000E+20
 25
-1.0000000000E+20
 35
-1.0000000000E+20
146
0.0
 13
0.0
 23
0.0
 33
0.0
 16
1.0
 26
0.0
 36
0.0
 17
0.0
 27
1.0
 37
0.0
 76
     0
330
1B
  0
LAYOUT
  5
26
102
{ACAD_REACTORS
330
1A
102
}
330
1A
100
AcDbPlotSettings
  1

  2
none_device
  4

  6

 40
0.0
 41
0.0
 42
0.0
 43
0.0
 44
0.0
 45
0.0
 46
0.0
 47
0.0
 48
0.0
 49
0.0
140
0.0
141
0.0
142
1.0
143
1.0
 70
   688
 72
     0
 73
     0
 74
     5
  7

 75
    16
147
1.0
148
0.0
149
0.0
100
AcDbLayout
  1
Layout2
 70
     1
 71
     2
 10
0.0
 20
0.0
 11
0.0
 21
0.0
 12
0.0
 22
0.0
 32
0.0
 14
0.0
 24
0.0
 34
0.0
 15
0.0
 25
0.0
 35
0.0
146
0.0
 13
0.0
 23
0.0
 33
0.0
 16
1.0
 26
0.0
 36
0.0
 17
0.0
 27
1.0
 37
0.0
 76
     0
330
23
  0
LAYOUT
  5
22
102
{ACAD_REACTORS
330
1A
102
}
330
1A
100
AcDbPlotSettings
  1

  2
none_device
  4

  6

 40
0.0
 41
0.0
 42
0.0
 43
0.0
 44
0.0
 45
0.0
 46
0.0
 47
0.0
 48
0.0
 49
0.0
140
0.0
141
0.0
142
1.0
143
1.0
 70
  1712
 72
     0
 73
     0
 74
     0
  7

 75
     0
147
1.0
148
0.0
149
0.0
100
AcDbLayout
  1
Model
 70
     1
 71
     0
 10
0.0
 20
0.0
 11
2159.0
 21
1397.0
 12
0.0
 22
0.0
 32
0.0
 14
0.0
 24
0.0
 34
0.0
 15
2159.0
 25
1397.0
 35
0.0
146
0.0
 13
0.0
 23
0.0
 33
0.0
 16
1.0
 26
0.0
 36
0.0
 17
0.0
 27
1.0
 37
0.0
 76
     0
330
1F
331
29
  0
MLINESTYLE
  5
18
102
{ACAD_REACTORS
330
17
102
}
330
17
100
AcDbMlineStyle
  2
Standard
 70
     0
  3

 62
   256
 51
90.0
 52
90.0
 71
     2
 49
0.5
 62
   256
  6
BYLAYER
 49
-0.5
 62
   256
  6
BYLAYER
  0
ACDBPLACEHOLDER
  5
F
102
{ACAD_REACTORS
330
E
102
}
330
E
  0
ENDSEC
  0
EOF
