  0
SECTION
  2
HEADER
  9
$ACADVER
  1
AC1015
  9
$ACADMAINTVER
 70
     6
  9
$DWGCODEPAGE
  3
ANSI_1252
  9
$INSBASE
 10
0.0
 20
0.0
 30
0.0
  9
$EXTMIN
 10
0.0
 20
0.0
 30
0.0
  9
$EXTMAX
 10
841.0
 20
594.0
 30
0.0
  9
$LIMMIN
 10
0.0
 20
0.0
  9
$LIMMAX
 10
841.0
 20
594.0
  9
$ORTHOMODE
 70
     0
  9
$REGENMODE
 70
     1
  9
$FILLMODE
 70
     1
  9
$QTEXTMODE
 70
     0
  9
$MIRRTEXT
 70
     1
  9
$LTSCALE
 40
1.0
  9
$ATTMODE
 70
     1
  9
$TEXTSIZE
 40
3.5
  9
$TRACEWID
 40
1.0
  9
$TEXTSTYLE
  7
Standard
  9
$CLAYER
  8
0
  9
$CELTYPE
  6
ByLayer
  9
$CECOLOR
 62
   256
  9
$CELTSCALE
 40
1.0
  9
$DISPSILH
 70
     0
  9
$DIMSCALE
 40
1.0
  9
$DIMASZ
 40
3.302
  9
$DIMEXO
 40
1.0
  9
$DIMDLI
 40
3.75
  9
$DIMRND
 40
0.0
  9
$DIMDLE
 40
0.0
  9
$DIMEXE
 40
1.0
  9
$DIMTP
 40
0.0
  9
$DIMTM
 40
0.0
  9
$DIMTXT
 40
3.5
  9
$DIMCEN
 40
2.5
  9
$DIMTSZ
 40
0.0
  9
$DIMTOL
 70
     0
  9
$DIMLIM
 70
     0
  9
$DIMTIH
 70
     1
  9
$DIMTOH
 70
     1
  9
$DIMSE1
 70
     0
  9
$DIMSE2
 70
     0
  9
$DIMTAD
 70
     1
  9
$DIMZIN
 70
     0
  9
$DIMBLK
  1

  9
$DIMASO
 70
     1
  9
$DIMSHO
 70
     1
  9
$DIMPOST
  1

  9
$DIMAPOST
  1

  9
$DIMALT
 70
     0
  9
$DIMALTD
 70
     3
  9
$DIMALTF
 40
0.0393700787
  9
$DIMLFAC
 40
2.0
  9
$DIMTOFL
 70
     1
  9
$DIMTVP
 40
0.0
  9
$DIMTIX
 70
     0
  9
$DIMSOXD
 70
     0
  9
$DIMSAH
 70
     0
  9
$DIMBLK1
  1

  9
$DIMBLK2
  1

  9
$DIMSTYLE
  2
ISO-25
  9
$DIMCLRD
 70
     0
  9
$DIMCLRE
 70
     0
  9
$DIMCLRT
 70
     0
  9
$DIMTFAC
 40
1.0
  9
$DIMGAP
 40
1.524
  9
$DIMJUST
 70
     0
  9
$DIMSD1
 70
     0
  9
$DIMSD2
 70
     0
  9
$DIMTOLJ
 70
     0
  9
$DIMTZIN
 70
     0
  9
$DIMALTZ
 70
     0
  9
$DIMALTTZ
 70
     0
  9
$DIMUPT
 70
     0
  9
$DIMDEC
 70
     1
  9
$DIMTDEC
 70
     1
  9
$DIMALTU
 70
     2
  9
$DIMALTTD
 70
     3
  9
$DIMTXSTY
  7
Standard
  9
$DIMAUNIT
 70
     0
  9
$DIMADEC
 70
     1
  9
$DIMALTRND
 40
0.0
  9
$DIMAZIN
 70
     0
  9
$DIMDSEP
 70
    44
  9
$DIMATFIT
 70
     3
  9
$DIMFRAC
 70
     0
  9
$DIMLDRBLK
  1

  9
$DIMLUNIT
 70
     2
  9
$DIMLWD
 70
    -2
  9
$DIMLWE
 70
    -2
  9
$DIMTMOVE
 70
     0
  9
$LUNITS
 70
     2
  9
$LUPREC
 70
     1
  9
$SKETCHINC
 40
1.0
  9
$FILLETRAD
 40
10.0
  9
$AUNITS
 70
     0
  9
$AUPREC
 70
     1
  9
$MENU
  1
.
  9
$ELEVATION
 40
0.0
  9
$PELEVATION
 40
0.0
  9
$THICKNESS
 40
0.0
  9
$LIMCHECK
 70
     0
  9
$CHAMFERA
 40
10.0
  9
$CHAMFERB
 40
10.0
  9
$CHAMFERC
 40
20.0
  9
$CHAMFERD
 40
0.0
  9
$SKPOLY
 70
     0
  9
$TDCREATE
 40
2455860.392002384
  9
$TDUCREATE
 40
2455860.350335718
  9
$TDUPDATE
 40
2455860.392002396
  9
$TDUUPDATE
 40
2455860.350335729
  9
$TDINDWG
 40
0.0000000116
  9
$TDUSRTIMER
 40
0.0000000116
  9
$USRTIMER
 70
     1
  9
$ANGBASE
 50
0.0
  9
$ANGDIR
 70
     0
  9
$PDMODE
 70
     0
  9
$PDSIZE
 40
-1.0
  9
$PLINEWID
 40
0.0
  9
$SPLFRAME
 70
     0
  9
$SPLINETYPE
 70
     6
  9
$SPLINESEGS
 70
     8
  9
$HANDSEED
  5
286
  9
$SURFTAB1
 70
     6
  9
$SURFTAB2
 70
     6
  9
$SURFTYPE
 70
     6
  9
$SURFU
 70
     6
  9
$SURFV
 70
     6
  9
$UCSBASE
  2

  9
$UCSNAME
  2

  9
$UCSORG
 10
0.0
 20
0.0
 30
0.0
  9
$UCSXDIR
 10
1.0
 20
0.0
 30
0.0
  9
$UCSYDIR
 10
0.0
 20
1.0
 30
0.0
  9
$UCSORTHOREF
  2

  9
$UCSORTHOVIEW
 70
     0
  9
$UCSORGTOP
 10
0.0
 20
0.0
 30
0.0
  9
$UCSORGBOTTOM
 10
0.0
 20
0.0
 30
0.0
  9
$UCSORGLEFT
 10
0.0
 20
0.0
 30
0.0
  9
$UCSORGRIGHT
 10
0.0
 20
0.0
 30
0.0
  9
$UCSORGFRONT
 10
0.0
 20
0.0
 30
0.0
  9
$UCSORGBACK
 10
0.0
 20
0.0
 30
0.0
  9
$PUCSBASE
  2

  9
$PUCSNAME
  2

  9
$PUCSORG
 10
0.0
 20
0.0
 30
0.0
  9
$PUCSXDIR
 10
1.0
 20
0.0
 30
0.0
  9
$PUCSYDIR
 10
0.0
 20
1.0
 30
0.0
  9
$PUCSORTHOREF
  2

  9
$PUCSORTHOVIEW
 70
     0
  9
$PUCSORGTOP
 10
0.0
 20
0.0
 30
0.0
  9
$PUCSORGBOTTOM
 10
0.0
 20
0.0
 30
0.0
  9
$PUCSORGLEFT
 10
0.0
 20
0.0
 30
0.0
  9
$PUCSORGRIGHT
 10
0.0
 20
0.0
 30
0.0
  9
$PUCSORGFRONT
 10
0.0
 20
0.0
 30
0.0
  9
$PUCSORGBACK
 10
0.0
 20
0.0
 30
0.0
  9
$USERI1
 70
     0
  9
$USERI2
 70
     0
  9
$USERI3
 70
     0
  9
$USERI4
 70
     0
  9
$USERI5
 70
     0
  9
$USERR1
 40
0.0
  9
$USERR2
 40
0.0
  9
$USERR3
 40
0.0
  9
$USERR4
 40
0.0
  9
$USERR5
 40
0.0
  9
$WORLDVIEW
 70
     1
  9
$SHADEDGE
 70
     3
  9
$SHADEDIF
 70
    70
  9
$TILEMODE
 70
     1
  9
$MAXACTVP
 70
    64
  9
$PINSBASE
 10
0.0
 20
0.0
 30
0.0
  9
$PLIMCHECK
 70
     0
  9
$PEXTMIN
 10
1.0000000000E+20
 20
1.0000000000E+20
 30
1.0000000000E+20
  9
$PEXTMAX
 10
-1.0000000000E+20
 20
-1.0000000000E+20
 30
-1.0000000000E+20
  9
$PLIMMIN
 10
0.0
 20
0.0
  9
$PLIMMAX
 10
420.0
 20
297.0
  9
$UNITMODE
 70
     0
  9
$VISRETAIN
 70
     1
  9
$PLINEGEN
 70
     0
  9
$PSLTSCALE
 70
     1
  9
$TREEDEPTH
 70
  3020
  9
$CMLSTYLE
  2
Standard
  9
$CMLJUST
 70
     0
  9
$CMLSCALE
 40
20.0
  9
$PROXYGRAPHICS
 70
     1
  9
$MEASUREMENT
 70
     1
  9
$CELWEIGHT
370
    -1
  9
$ENDCAPS
280
     0
  9
$JOINSTYLE
280
     0
  9
$LWDISPLAY
290
     1
  9
$INSUNITS
 70
     4
  9
$HYPERLINKBASE
  1

  9
$STYLESHEET
  1

  9
$XEDIT
290
     1
  9
$CEPSNTYPE
380
     0
  9
$PSTYLEMODE
290
     1
  9
$FINGERPRINTGUID
  2
{69891022-2C22-4A83-A4FA-07920C9CEE55}
  9
$VERSIONGUID
  2
{FAEB1C32-E019-11D5-929B-00C0DF256EC4}
  9
$EXTNAMES
290
     1
  9
$PSVPSCALE
 40
0.0
  9
$OLESTARTUP
290
     0
  0
ENDSEC
  0
SECTION
  2
CLASSES
  0
CLASS
  1
ACDBDICTIONARYWDFLT
  2
AcDbDictionaryWithDefault
  3
ObjectDBX Classes
 90
        0
280
     0
281
     0
  0
CLASS
  1
VISUALSTYLE
  2
AcDbVisualStyle
  3
ObjectDBX Classes
 90
     4095
280
     0
281
     0
  0
CLASS
  1
MATERIAL
  2
AcDbMaterial
  3
ObjectDBX Classes
 90
     1153
280
     0
281
     0
  0
CLASS
  1
ACDBPLACEHOLDER
  2
AcDbPlaceHolder
  3
ObjectDBX Classes
 90
        0
280
     0
281
     0
  0
CLASS
  1
LAYOUT
  2
AcDbLayout
  3
ObjectDBX Classes
 90
        0
280
     0
281
     0
  0
ENDSEC
  0
SECTION
  2
TABLES
  0
TABLE
  2
VPORT
  5
8
330
0
100
AcDbSymbolTable
 70
     1
  0
VPORT
  5
29
330
8
100
AcDbSymbolTableRecord
100
AcDbViewportTableRecord
  2
*Active
 70
     0
 10
0.0
 20
0.0
 11
1.0
 21
1.0
 12
420.5
 22
297.0
 13
0.0
 23
0.0
 14
10.0
 24
10.0
 15
10.0
 25
10.0
 16
0.0
 26
0.0
 36
1.0
 17
0.0
 27
0.0
 37
0.0
 40
594.0
 41
1.4158249158
 42
50.0
 43
0.0
 44
0.0
 50
0.0
 51
0.0
 71
     0
 72
  2000
 73
     1
 74
     3
 75
     0
 76
     0
 77
     0
 78
     0
281
     0
 65
     1
110
0.0
120
0.0
130
0.0
111
1.0
121
0.0
131
0.0
112
0.0
122
1.0
132
0.0
 79
     0
146
0.0
  0
ENDTAB
  0
TABLE
  2
LTYPE
  5
5
330
0
100
AcDbSymbolTable
 70
     6
  0
LTYPE
  5
14
330
5
100
AcDbSymbolTableRecord
100
AcDbLinetypeTableRecord
  2
ByBlock
 70
     0
  3

 72
    65
 73
     0
 40
0.0
  0
LTYPE
  5
15
330
5
100
AcDbSymbolTableRecord
100
AcDbLinetypeTableRecord
  2
ByLayer
 70
     0
  3

 72
    65
 73
     0
 40
0.0
  0
LTYPE
  5
16
330
5
100
AcDbSymbolTableRecord
100
AcDbLinetypeTableRecord
  2
Continuous
 70
     0
  3
Solid line
 72
    65
 73
     0
 40
0.0
  0
LTYPE
  5
3F
330
5
100
AcDbSymbolTableRecord
100
AcDbLinetypeTableRecord
  2
HIDDEN
 70
     0
  3
Hidden __ __ __ __ __ __ __ __ __ __ __ __ __ __
 72
    65
 73
     2
 40
1.905
 49
1.27
 74
     0
 49
-0.635
 74
     0
  0
LTYPE
  5
40
330
5
100
AcDbSymbolTableRecord
100
AcDbLinetypeTableRecord
  2
PHANTOM
 70
     0
  3
Phantom ______  __  __  ______  __  __  ______
 72
    65
 73
     6
 40
12.7
 49
6.35
 74
     0
 49
-1.27
 74
     0
 49
1.27
 74
     0
 49
-1.27
 74
     0
 49
1.27
 74
     0
 49
-1.27
 74
     0
  0
LTYPE
  5
41
330
5
100
AcDbSymbolTableRecord
100
AcDbLinetypeTableRecord
  2
CENTER
 70
     0
  3
Center ____ _ ____ _ ____ _ ____ _ ____ _ ____
 72
    65
 73
     4
 40
10.16
 49
6.35
 74
     0
 49
-1.27
 74
     0
 49
1.27
 74
     0
 49
-1.27
 74
     0
  0
LTYPE
  5
42
330
5
100
AcDbSymbolTableRecord
100
AcDbLinetypeTableRecord
  2
CENTERX2
 70
     0
  3
Center (2x) ________  __  ________  __  _____
 72
    65
 73
     4
 40
20.32
 49
12.7
 74
     0
 49
-2.54
 74
     0
 49
2.54
 74
     0
 49
-2.54
 74
     0
  0
LTYPE
  5
43
330
5
100
AcDbSymbolTableRecord
100
AcDbLinetypeTableRecord
  2
DOT2
 70
     0
  3
Dot (.5x) ........................................
 72
    65
 73
     2
 40
0.635
 49
0.0
 74
     0
 49
-0.635
 74
     0
  0
ENDTAB
  0
TABLE
  2
LAYER
  5
2
330
0
100
AcDbSymbolTable
 70
     1
  0
LAYER
  5
10
330
2
100
AcDbSymbolTableRecord
100
AcDbLayerTableRecord
  2
0
 70
     0
 62
     7
  6
Continuous
370
    -3
390
F
  0
ENDTAB
  0
TABLE
  2
STYLE
  5
3
330
0
100
AcDbSymbolTable
 70
     1
  0
STYLE
  5
11
330
3
100
AcDbSymbolTableRecord
100
AcDbTextStyleTableRecord
  2
Standard
 70
     0
 40
0.0
 41
1.0
 50
0.0
 71
     0
 42
2.5
  3
txt
  4

  0
ENDTAB
  0
TABLE
  2
VIEW
  5
6
330
0
100
AcDbSymbolTable
 70
     0
  0
ENDTAB
  0
TABLE
  2
UCS
  5
7
330
0
100
AcDbSymbolTable
 70
     0
  0
ENDTAB
  0
TABLE
  2
APPID
  5
9
330
0
100
AcDbSymbolTable
 70
     1
  0
APPID
  5
12
330
9
100
AcDbSymbolTableRecord
100
AcDbRegAppTableRecord
  2
ACAD
 70
     0
  0
ENDTAB
  0
TABLE
  2
DIMSTYLE
  5
A
330
0
100
AcDbSymbolTable
 70
     1
100
AcDbDimStyleTable
  0
DIMSTYLE
105
27
330
A
100
AcDbSymbolTableRecord
100
AcDbDimStyleTableRecord
  2
ISO-25
 70
     0
 41
2.5
 42
0.625
 43
3.75
 44
1.25
 73
     0
 74
     0
 77
     1
 78
     8
140
2.5
141
2.5
143
0.0393700787
147
0.625
171
     3
172
     1
178
     0
271
     2
272
     2
274
     3
278
    44
283
     0
284
     8
340
11
  0
ENDTAB
  0
TABLE
  2
BLOCK_RECORD
  5
1
330
0
100
AcDbSymbolTable
 70
     1
  0
BLOCK_RECORD
  5
1F
330
1
100
AcDbSymbolTableRecord
100
AcDbBlockTableRecord
  2
*Model_Space
340
22
  0
BLOCK_RECORD
  5
1B
330
1
100
AcDbSymbolTableRecord
100
AcDbBlockTableRecord
  2
*Paper_Space
340
1E
  0
BLOCK_RECORD
  5
23
330
1
100
AcDbSymbolTableRecord
100
AcDbBlockTableRecord
  2
*Paper_Space0
340
26
  0
ENDTAB
  0
ENDSEC
  0
SECTION
  2
BLOCKS
  0
BLOCK
  5
20
330
1F
100
AcDbEntity
  8
0
100
AcDbBlockBegin
  2
*Model_Space
 70
     0
 10
0.0
 20
0.0
 30
0.0
  3
*Model_Space
  1

  0
ENDBLK
  5
21
330
1F
100
AcDbEntity
  8
0
100
AcDbBlockEnd
  0
BLOCK
  5
1C
330
1B
100
AcDbEntity
 67
     1
  8
0
100
AcDbBlockBegin
  2
*Paper_Space
 70
     0
 10
0.0
 20
0.0
 30
0.0
  3
*Paper_Space
  1

  0
ENDBLK
  5
1D
330
1B
100
AcDbEntity
 67
     1
  8
0
100
AcDbBlockEnd
  0
BLOCK
  5
24
330
23
100
AcDbEntity
  8
0
100
AcDbBlockBegin
  2
*Paper_Space0
 70
     0
 10
0.0
 20
0.0
 30
0.0
  3
*Paper_Space0
  1

  0
ENDBLK
  5
25
330
23
100
AcDbEntity
  8
0
100
AcDbBlockEnd
  0
ENDSEC
  0
SECTION
  2
ENTITIES
  0
CIRCLE
  5
44
330
1F
100
AcDbEntity
  8
0
  6
Continuous
 62
     7
100
AcDbCircle
 10
484.5111961489
 20
240.3433239992
 30
0.0
 40
1.999999999999995
  0
LINE
  5
45
330
1F
100
AcDbEntity
  8
0
  6
Continuous
 62
     7
370
    15
100
AcDbLine
 10
532.9111960081
 20
183.3627293417
 30
0.0
 11
532.9111960081
 21
183.6127298484
 31
0.0
  0
LINE
  5
46
330
1F
100
AcDbEntity
  8
0
  6
Continuous
 62
     7
370
    15
100
AcDbLine
 10
521.9111960677
 20
183.6127298484
 30
0.0
 11
521.9111960677
 21
183.3627293417
 31
0.0
  0
LINE
  5
47
330
1F
100
AcDbEntity
  8
0
  6
Continuous
 62
     7
370
    15
100
AcDbLine
 10
377.911194816
 20
183.3627293417
 30
0.0
 11
377.911194816
 21
183.6127298484
 31
0.0
  0
LINE
  5
48
330
1F
100
AcDbEntity
  8
0
  6
Continuous
 62
     7
370
    15
100
AcDbLine
 10
366.9111948756
 20
183.6127298484
 30
0.0
 11
366.9111948756
 21
183.3627293417
 31
0.0
  0
LINE
  5
49
330
1F
100
AcDbEntity
  8
0
  6
Continuous
 62
     7
370
    15
100
AcDbLine
 10
225.923627272
 20
227.5044894377
 30
0.0
 11
225.1674380449
 21
226.7483048672
 31
0.0
  0
LINE
  5
4A
330
1F
100
AcDbEntity
  8
0
  6
Continuous
 62
     7
370
    15
100
AcDbLine
 10
249.9161806254
 20
201.9995678747
 30
0.0
 11
250.6723549513
 21
202.7557515139
 31
0.0
  0
ARC
  5
4B
330
1F
100
AcDbEntity
  8
0
  6
Continuous
 62
     7
370
    15
100
AcDbCircle
 10
225.5209929939
 20
226.3947514046
 30
0.0
 40
0.5000000000000241
100
AcDbArc
 50
135.0
 51
216.4692343901
  0
ARC
  5
4C
330
1F
100
AcDbEntity
  8
0
  6
Continuous
 62
     7
370
    15
100
AcDbCircle
 10
249.5626235542
 20
202.3531208442
 30
0.0
 40
0.499999999999984
100
AcDbArc
 50
233.5307656099
 51
315.0
  0
LINE
  5
4D
330
1F
100
AcDbEntity
  8
0
  6
Continuous
 62
     7
370
    15
100
AcDbLine
 10
225.1189049629
 20
226.0975562567
 30
0.0
 11
230.3614910988
 21
219.0046473006
 31
0.0
  0
LINE
  5
4E
330
1F
100
AcDbEntity
  8
0
  6
Continuous
 62
     7
370
    15
100
AcDbLine
 10
242.1725239901
 20
207.1936172033
 30
0.0
 11
249.2654320149
 21
201.9510329301
 31
0.0
  0
ARC
  5
4F
330
1F
100
AcDbEntity
  8
0
  6
Continuous
 62
     7
370
    15
100
AcDbCircle
 10
229.5573132645
 20
218.410256395
 30
0.0
 40
1.000000000000028
100
AcDbArc
 50
315.0
 51
36.4692343901
  0
ARC
  5
50
330
1F
100
AcDbEntity
  8
0
  6
Continuous
 62
     7
370
    15
100
AcDbCircle
 10
241.5781285447
 20
206.3894411148
 30
0.0
 40
1.000000000000009
100
AcDbArc
 50
53.5307656099
 51
135.0
  0
LINE
  5
51
330
1F
100
AcDbEntity
  8
0
  6
Continuous
 62
     7
370
    15
100
AcDbLine
 10
230.2644249348
 20
217.7031496139
 30
0.0
 11
229.4591512827
 21
216.8978876034
 31
0.0
  0
LINE
  5
52
330
1F
100
AcDbEntity
  8
0
  6
Continuous
 62
     7
370
    15
100
AcDbLine
 10
240.065753117
 20
206.2912857691
 30
0.0
 11
240.8710267691
 21
207.0965477796
 31
0.0
  0
LINE
  5
53
330
1F
100
AcDbEntity
  8
0
  6
Continuous
 62
     7
370
    15
100
AcDbLine
 10
229.4591512827
 20
216.8978876034
 30
0.0
 11
228.7520464806
 21
216.1907807058
 31
0.0
  0
LINE
  5
54
330
1F
100
AcDbEntity
  8
0
  6
Continuous
 62
     7
370
    15
100
AcDbLine
 10
239.3586483149
 20
205.5841791043
 30
0.0
 11
240.065753117
 21
206.2912857691
 31
0.0
  0
LINE
  5
55
330
1F
100
AcDbEntity
  8
0
  6
Continuous
 62
     7
370
    15
100
AcDbLine
 10
228.7520464806
 20
216.1907807058
 30
0.0
 11
228.7384119181
 21
216.1399316574
 31
0.0
  0
LINE
  5
56
330
1F
100
AcDbEntity
  8
0
  6
Continuous
 62
     7
370
    15
100
AcDbLine
 10
239.3078055529
 20
205.5705342973
 30
0.0
 11
239.3586483149
 21
205.5841791043
 31
0.0
  0
ARC
  5
57
330
1F
100
AcDbEntity
  8
0
  6
Continuous
 62
     7
370
    15
100
AcDbCircle
 10
222.8123542053
 20
215.2008312417
 30
0.0
 40
6.000000000000006
100
AcDbArc
 50
271.5913213036
 51
9.0047717622
  0
ARC
  5
58
330
1F
100
AcDbEntity
  8
0
  6
Continuous
 62
     7
370
    15
100
AcDbCircle
 10
238.3687033914
 20
199.6444820556
 30
0.0
 40
6.000000000000033
100
AcDbArc
 50
80.9952282378
 51
178.4086786964
  0
LINE
  5
59
330
1F
100
AcDbEntity
  8
0
  6
Continuous
 62
     7
370
    15
100
AcDbLine
 10
221.2806340603
 20
208.471876529
 30
0.0
 11
192.459806457
 21
179.6510382155
 31
0.0
  0
LINE
  5
5A
330
1F
100
AcDbEntity
  8
0
  6
Continuous
 62
     7
370
    15
100
AcDbLine
 10
202.818914905
 20
169.2919223169
 30
0.0
 11
231.6397425083
 21
198.1127610961
 31
0.0
  0
ARC
  5
5B
330
1F
100
AcDbEntity
  8
0
  6
Continuous
 62
     7
370
    15
100
AcDbCircle
 10
223.0484011232
 20
206.704109412
 30
0.0
 40
2.500000000000028
100
AcDbArc
 50
91.5913213036
 51
135.0
  0
ARC
  5
5C
330
1F
100
AcDbEntity
  8
0
  6
Continuous
 62
     7
370
    15
100
AcDbCircle
 10
229.8719815616
 20
199.8805289735
 30
0.0
 40
2.5
100
AcDbArc
 50
315.0
 51
358.4086786964
  0
ARC
  5
5D
330
1F
100
AcDbEntity
  8
0
  6
Continuous
 62
     7
370
    15
100
AcDbCircle
 10
194.2275625758
 20
177.8832708646
 30
0.0
 40
2.50000000000002
100
AcDbArc
 50
135.0
 51
225.0
  0
ARC
  5
5E
330
1F
100
AcDbEntity
  8
0
  6
Continuous
 62
     7
370
    15
100
AcDbCircle
 10
201.0511430143
 20
171.0596904262
 30
0.0
 40
2.5
100
AcDbArc
 50
225.0
 51
315.0
  0
LWPOLYLINE
  5
5F
330
1F
100
AcDbEntity
  8
0
  6
Continuous
 62
     7
370
    15
100
AcDbPolyline
 90
       10
 70
   128
 43
0.0
 10
294.6127053646
 20
221.7520600716
 10
294.5541885046
 20
221.6942957202
 10
294.5414927153
 20
221.6771621788
 10
294.5378419308
 20
221.6721321056
 10
294.5367094425
 20
221.6705721403
 10
294.5360537914
 20
221.669673414
 10
294.535919681
 20
221.6694787676
 10
294.5359047798
 20
221.6694564158
 10
294.5359047798
 20
221.6694554845
 10
294.5359047798
 20
221.6694564158
  0
LINE
  5
60
330
1F
100
AcDbEntity
  8
0
  6
Continuous
 62
     7
370
    15
100
AcDbLine
 10
290.9778204111
 20
287.7023866931
 30
0.0
 11
289.7536751179
 21
287.2127270857
 31
0.0
  0
LINE
  5
61
330
1F
100
AcDbEntity
  8
0
  6
Continuous
 62
     7
370
    15
100
AcDbLine
 10
294.7536852507
 20
289.2127311388
 30
0.0
 11
293.158247724
 21
288.5745516578
 31
0.0
  0
LINE
  5
62
330
1F
100
AcDbEntity
  8
0
  6
Continuous
 62
     7
370
    15
100
AcDbLine
 10
289.7536751179
 20
258.7127289334
 30
0.0
 11
294.7536852507
 21
256.7127286056
 31
0.0
  0
LINE
  5
63
330
1F
100
AcDbEntity
  8
0
  6
Continuous
 62
     7
370
    15
100
AcDbLine
 10
289.7536751179
 20
287.2127270857
 30
0.0
 11
289.5257022528
 21
287.1101400415
 31
0.0
  0
LINE
  5
64
330
1F
100
AcDbEntity
  8
0
  6
Continuous
 62
     7
370
    15
100
AcDbLine
 10
280.0485041289
 20
263.080061839
 30
0.0
 11
289.7536751179
 21
258.7127289334
 31
0.0
  0
ARC
  5
65
330
1F
100
AcDbEntity
  8
0
  6
Continuous
 62
     7
370
    15
100
AcDbCircle
 10
280.253679423
 20
263.536021804
 30
0.0
 40
0.5000000000000568
100
AcDbArc
 50
180.0
 51
245.772254682
  0
LINE
  5
66
330
1F
100
AcDbEntity
  8
0
  6
Continuous
 62
     7
370
    15
100
AcDbLine
 10
294.7536852507
 20
269.3893699506
 30
0.0
 11
295.7536723761
 21
269.4068229357
 31
0.0
  0
LINE
  5
67
330
1F
100
AcDbEntity
  8
0
  6
Continuous
 62
     7
370
    15
100
AcDbLine
 10
291.3439568428
 20
287.8542220751
 30
0.0
 11
290.9725006966
 21
287.7056425968
 31
0.0
  0
LINE
  5
68
330
1F
100
AcDbEntity
  8
0
  6
Continuous
 62
     7
370
    15
100
AcDbLine
 10
293.1589033751
 20
288.5801991979
 30
0.0
 11
292.7788492588
 21
288.4281775514
 31
0.0
  0
LINE
  5
69
330
1F
100
AcDbEntity
  8
0
  6
Continuous
 62
     7
370
    15
100
AcDbLine
 10
295.7536723761
 20
247.1127300123
 30
0.0
 11
294.0036800055
 21
246.5377277294
 31
0.0
  0
LINE
  5
6A
330
1F
100
AcDbEntity
  8
0
  6
Continuous
 62
     7
370
    15
100
AcDbLine
 10
294.0036800055
 20
239.8877287814
 30
0.0
 11
295.7536723761
 21
239.3127283612
 31
0.0
  0
LINE
  5
6B
330
1F
100
AcDbEntity
  8
0
  6
Continuous
 62
     7
370
    15
100
AcDbLine
 10
260.5467286257
 20
234.3433233509
 30
0.0
 11
295.7536723761
 21
234.3433233509
 31
0.0
  0
LINE
  5
6C
330
1F
100
AcDbEntity
  8
0
  6
Continuous
 62
     7
370
    15
100
AcDbLine
 10
282.0089157967
 20
238.3433240065
 30
0.0
 11
260.5467286257
 21
238.3433240065
 31
0.0
  0
LINE
  5
6D
330
1F
100
AcDbEntity
  8
0
  6
Continuous
 62
     7
370
    15
100
AcDbLine
 10
239.7122081665
 20
213.7159070007
 30
0.0
 11
260.1931836752
 21
234.1968766013
 31
0.0
  0
LINE
  5
6E
330
1F
100
AcDbEntity
  8
0
  6
Continuous
 62
     7
370
    15
100
AcDbLine
 10
257.3647495655
 20
237.0253051231
 30
0.0
 11
236.8837740568
 21
216.5443340382
 31
0.0
  0
ARC
  5
6F
330
1F
100
AcDbEntity
  8
0
  6
Continuous
 62
     7
370
    15
100
AcDbCircle
 10
260.5467300548
 20
233.8433239992
 30
0.0
 40
0.499999999999984
100
AcDbArc
 50
90.0
 51
135.0
  0
ARC
  5
70
330
1F
100
AcDbEntity
  8
0
  6
Continuous
 62
     7
370
    15
100
AcDbCircle
 10
260.5467300548
 20
233.8433239992
 30
0.0
 40
4.499999999999996
100
AcDbArc
 50
90.0
 51
135.0
  0
LINE
  5
71
330
1F
100
AcDbEntity
  8
0
  6
Continuous
 62
     7
370
    15
100
AcDbLine
 10
292.5111946015
 20
244.3433231274
 30
0.0
 11
292.5111946015
 21
238.743323327
 31
0.0
  0
ARC
  5
72
330
1F
100
AcDbEntity
  8
0
  6
Continuous
 62
     7
370
    15
100
AcDbCircle
 10
509.7521105475
 20
189.6705933889
 30
0.0
 40
0.5000000000000568
100
AcDbArc
 50
180.0
 51
270.0
  0
LINE
  5
73
330
1F
100
AcDbEntity
  8
0
  6
Continuous
 62
     7
370
    15
100
AcDbLine
 10
509.2521120159
 20
189.6705939034
 30
0.0
 11
509.2521120159
 21
223.6705929572
 31
0.0
  0
ARC
  5
74
330
1F
100
AcDbEntity
  8
0
  6
Continuous
 62
     7
370
    15
100
AcDbCircle
 10
509.7521105475
 20
223.6705933889
 30
0.0
 40
0.5000000000000568
100
AcDbArc
 50
90.0
 51
180.0
  0
LINE
  5
75
330
1F
100
AcDbEntity
  8
0
  6
Continuous
 62
     7
370
    15
100
AcDbLine
 10
509.7521093039
 20
224.1705930391
 30
0.0
 11
571.2521072773
 21
224.1705930391
 31
0.0
  0
ARC
  5
76
330
1F
100
AcDbEntity
  8
0
  6
Continuous
 62
     7
370
    15
100
AcDbCircle
 10
571.2521105475
 20
223.6705933889
 30
0.0
 40
0.5000000000000284
100
AcDbArc
 50
0.0
 51
90.0
  0
LINE
  5
77
330
1F
100
AcDbEntity
  8
0
  6
Continuous
 62
     7
370
    15
100
AcDbLine
 10
571.7521082906
 20
223.6705929572
 30
0.0
 11
571.7521082906
 21
189.6705939034
 31
0.0
  0
ARC
  5
78
330
1F
100
AcDbEntity
  8
0
  6
Continuous
 62
     7
370
    15
100
AcDbCircle
 10
571.2521105475
 20
189.6705933889
 30
0.0
 40
0.5
100
AcDbArc
 50
270.0
 51
0.0
  0
LINE
  5
79
330
1F
100
AcDbEntity
  8
0
  6
Continuous
 62
     7
370
    15
100
AcDbLine
 10
571.2521072773
 20
189.1705928901
 30
0.0
 11
509.7521093039
 21
189.1705928901
 31
0.0
  0
SPLINE
  5
7A
330
1F
100
AcDbEntity
  8
0
  6
Continuous
 62
     7
370
    15
100
AcDbSpline
210
0.0
220
0.0
230
1.0
 70
     8
 71
     3
 72
    10
 73
     6
 74
     0
 42
0.00000001
 43
0.00000001
 40
0.0
 40
0.0
 40
0.0
 40
0.0
 40
0.3954292542476218
 40
0.786606512497547
 40
1.0
 40
1.0
 40
1.0
 40
1.0
 10
324.5632421521342
 20
423.6381924310733
 30
0.0
 10
324.5747537946775
 20
423.7235237908632
 30
0.0
 10
324.5976532966665
 20
423.8932689541509
 30
0.0
 10
324.6456104758652
 20
424.0878136420231
 30
0.0
 10
324.6872461455199
 20
424.1801351586393
 30
0.0
 10
324.7019421605265
 20
424.2127216020633
 30
0.0
  0
LINE
  5
7B
330
1F
100
AcDbEntity
  8
0
  6
Continuous
 62
     7
370
    15
100
AcDbLine
 10
538.7611981777
 20
431.1164742867
 30
0.0
 11
538.7611981777
 21
424.6127283732
 31
0.0
  0
LINE
  5
7C
330
1F
100
AcDbEntity
  8
0
  6
Continuous
 62
     7
370
    15
100
AcDbLine
 10
492.6997456996
 20
438.4319162527
 30
0.0
 11
493.240069255
 21
438.2352507273
 31
0.0
  0
LINE
  5
7D
330
1F
100
AcDbEntity
  8
0
  6
Continuous
 62
     7
370
    15
100
AcDbLine
 10
538.1861996202
 20
431.1164742867
 30
0.0
 11
538.7611981777
 21
431.1164742867
 31
0.0
  0
LINE
  5
7E
330
1F
100
AcDbEntity
  8
0
  6
Continuous
 62
     7
370
    15
100
AcDbLine
 10
487.6699742226
 20
424.6127283732
 30
0.0
 11
492.6997456996
 21
438.4319162527
 31
0.0
  0
LWPOLYLINE
  5
7F
330
1F
100
AcDbEntity
  8
0
  6
Continuous
 62
     7
370
    15
100
AcDbPolyline
 90
        9
 70
   128
 43
0.0
 10
538.3778285531
 20
432.3264038721
 10
538.3741479663
 20
432.3031431595
 10
538.3632403163
 20
432.2342997948
 10
538.3455302862
 20
432.1224963823
 10
538.3217033295
 20
431.9720244566
 10
538.2926609663
 20
431.7886805693
 10
538.2595282344
 20
431.5794980684
 10
538.223579183
 20
431.3525235811
 10
538.1861996202
 20
431.1164742867
  0
LINE
  5
80
330
1F
100
AcDbEntity
  8
0
  6
Continuous
 62
     7
370
    15
100
AcDbLine
 10
493.431698188
 20
439.4451654116
 30
0.0
 11
538.3778285531
 21
432.3264038721
 31
0.0
  0
LWPOLYLINE
  5
81
330
1F
100
AcDbEntity
  8
0
  6
Continuous
 62
     7
370
    15
100
AcDbPolyline
 90
        9
 70
   128
 43
0.0
 10
493.240069255
 20
438.2352507273
 10
493.2774525432
 20
438.4712851206
 10
493.3134015946
 20
438.6982596079
 10
493.3465343265
 20
438.9074421087
 10
493.3755729643
 20
439.0907859961
 10
493.3994036464
 20
439.2412579218
 10
493.4171136765
 20
439.3530613342
 10
493.4280176012
 20
439.4219196001
 10
493.431698188
 20
439.4451654116
  0
LINE
  5
82
330
1F
100
AcDbEntity
  8
0
  6
Continuous
 62
     7
370
    15
100
AcDbLine
 10
487.1204044966
 20
425.0032729069
 30
0.0
 11
487.6842197327
 21
424.7980690161
 31
0.0
  0
LINE
  5
83
330
1F
100
AcDbEntity
  8
0
  6
Continuous
 62
     7
370
    15
100
AcDbLine
 10
492.0889433769
 20
438.6542266766
 30
0.0
 11
487.1204044966
 21
425.0032729069
 31
0.0
  0
LINE
  5
84
330
1F
100
AcDbEntity
  8
0
  6
Continuous
 62
     7
370
    15
100
AcDbLine
 10
492.652758613
 20
438.4490078846
 30
0.0
 11
492.0889433769
 21
438.6542266766
 31
0.0
  0
LINE
  5
85
330
1F
100
AcDbEntity
  8
0
  6
Continuous
 62
     7
370
    15
100
AcDbLine
 10
492.652758613
 20
438.4490078846
 30
0.0
 11
487.6842197327
 21
424.7980690161
 31
0.0
  0
LINE
  5
86
330
1F
100
AcDbEntity
  8
0
  6
Continuous
 62
     7
370
    15
100
AcDbLine
 10
538.8111990241
 20
431.1164742867
 30
0.0
 11
538.8111990241
 21
425.2377277771
 31
0.0
  0
LINE
  5
87
330
1F
100
AcDbEntity
  8
0
  6
Continuous
 62
     7
370
    15
100
AcDbLine
 10
538.8111990241
 20
431.1164742867
 30
0.0
 11
539.4111942796
 21
431.1164742867
 31
0.0
  0
LINE
  5
88
330
1F
100
AcDbEntity
  8
0
  6
Continuous
 62
     7
370
    15
100
AcDbLine
 10
539.4111942796
 20
431.1164742867
 30
0.0
 11
539.4111942796
 21
425.2377277771
 31
0.0
  0
LINE
  5
89
330
1F
100
AcDbEntity
  8
0
  6
Continuous
 62
     7
370
    15
100
AcDbLine
 10
539.4111942796
 20
425.2377277771
 30
0.0
 11
538.8111990241
 21
425.2377277771
 31
0.0
  0
ARC
  5
8A
330
1F
100
AcDbEntity
  8
0
  6
Continuous
 62
     7
370
    15
100
AcDbCircle
 10
493.2400677936
 20
438.2352475438
 30
0.0
 40
1.225000000000083
100
AcDbArc
 50
81.0
 51
160.0
  0
ARC
  5
8B
330
1F
100
AcDbEntity
  8
0
  6
Continuous
 62
     7
370
    15
100
AcDbCircle
 10
493.2400677936
 20
438.2352475438
 30
0.0
 40
0.624999999999978
100
AcDbArc
 50
81.0
 51
160.0
  0
LWPOLYLINE
  5
8C
330
1F
100
AcDbEntity
  8
0
  6
Continuous
 62
     7
370
    15
100
AcDbPolyline
 90
        3
 70
   128
 43
0.0
 10
487.598668441
 20
424.6127283732
 10
487.6070875971
 20
424.6278232494
 10
487.6842197327
 20
424.7980690161
  0
ARC
  5
8D
330
1F
100
AcDbEntity
  8
0
  6
Continuous
 62
     7
370
    15
100
AcDbCircle
 10
486.5330976729
 20
425.2170367247
 30
0.0
 40
0.6249999999999849
100
AcDbArc
 50
284.7845218306
 51
340.0
  0
ARC
  5
8E
330
1F
100
AcDbEntity
  8
0
  6
Continuous
 62
     7
370
    15
100
AcDbCircle
 10
538.1861961489
 20
431.1164801595
 30
0.0
 40
0.625
100
AcDbArc
 50
0.0
 51
81.0
  0
ARC
  5
8F
330
1F
100
AcDbEntity
  8
0
  6
Continuous
 62
     7
370
    15
100
AcDbCircle
 10
538.1861961489
 20
431.1164801595
 30
0.0
 40
1.225000000000027
100
AcDbArc
 50
0.0
 51
81.0
  0
ARC
  5
90
330
1F
100
AcDbEntity
  8
0
  6
Continuous
 62
     7
370
    15
100
AcDbCircle
 10
540.0361961489
 20
425.2377289992
 30
0.0
 40
0.6250000000001137
100
AcDbArc
 50
180.0
 51
270.0
  0
ARC
  5
91
330
1F
100
AcDbEntity
  8
0
  6
Continuous
 62
     7
370
    15
100
AcDbCircle
 10
540.0361961489
 20
425.2377289992
 30
0.0
 40
1.224999999999909
100
AcDbArc
 50
180.0
 51
210.6774244726
  0
LINE
  5
92
330
1F
100
AcDbEntity
  8
0
  6
Continuous
 62
     7
370
    15
100
AcDbLine
 10
527.4111997632
 20
183.3627293417
 30
0.0
 11
521.9111960677
 21
183.3627293417
 31
0.0
  0
LINE
  5
93
330
1F
100
AcDbEntity
  8
0
  6
Continuous
 62
     7
370
    15
100
AcDbLine
 10
532.9111960081
 20
183.3627293417
 30
0.0
 11
527.4111997632
 21
183.3627293417
 31
0.0
  0
LINE
  5
94
330
1F
100
AcDbEntity
  8
0
  6
Continuous
 62
     7
370
    15
100
AcDbLine
 10
372.4111985711
 20
183.3627293417
 30
0.0
 11
366.9111948756
 21
183.3627293417
 31
0.0
  0
LINE
  5
95
330
1F
100
AcDbEntity
  8
0
  6
Continuous
 62
     7
370
    15
100
AcDbLine
 10
377.911194816
 20
183.3627293417
 30
0.0
 11
372.4111985711
 21
183.3627293417
 31
0.0
  0
LINE
  5
96
330
1F
100
AcDbEntity
  8
0
  6
Continuous
 62
     7
370
    15
100
AcDbLine
 10
559.4758387951
 20
184.6377285728
 30
0.0
 11
559.4758387951
 21
187.0127296606
 31
0.0
  0
LINE
  5
97
330
1F
100
AcDbEntity
  8
0
  6
Continuous
 62
     7
370
    15
100
AcDbLine
 10
339.3465500621
 20
184.6377285728
 30
0.0
 11
339.3465500621
 21
186.6127284775
 31
0.0
  0
LINE
  5
98
330
1F
100
AcDbEntity
  8
0
  6
Continuous
 62
     7
370
    15
100
AcDbLine
 10
558.8861998467
 20
183.6127298484
 30
0.0
 11
339.9361964611
 21
183.6127298484
 31
0.0
  0
SPLINE
  5
99
330
1F
100
AcDbEntity
  8
0
  6
Continuous
 62
     7
370
    15
100
AcDbSpline
210
0.0
220
0.0
230
1.0
 70
     8
 71
     3
 72
    11
 73
     7
 74
     0
 42
0.00000001
 43
0.00000001
 40
0.0
 40
0.0
 40
0.0
 40
0.0
 40
0.2499967203444246
 40
0.4999979444656006
 40
0.7499992581122149
 40
1.0
 40
1.0
 40
1.0
 40
1.0
 10
339.9361964611209
 20
183.6127298483658
 30
0.0
 10
339.8870594265058
 20
183.6281370255624
 30
0.0
 10
339.7887844720553
 20
183.6589516575211
 30
0.0
 10
339.6413797807552
 20
183.8959834734193
 30
0.0
 10
339.4939574303676
 20
184.2347882879788
 30
0.0
 10
339.3956858140641
 20
184.5034152469367
 30
0.0
 10
339.3465500620997
 20
184.6377285728264
 30
0.0
  0
SPLINE
  5
9A
330
1F
100
AcDbEntity
  8
0
  6
Continuous
 62
     7
370
    15
100
AcDbSpline
210
0.0
220
0.0
230
1.0
 70
     8
 71
     3
 72
    11
 73
     7
 74
     0
 42
0.00000001
 43
0.00000001
 40
0.0
 40
0.0
 40
0.0
 40
0.0
 40
0.2500011197287674
 40
0.5000012998577839
 40
0.7500029018206711
 40
0.9999999999999999
 40
0.9999999999999999
 40
0.9999999999999999
 40
0.9999999999999999
 10
559.4758387951052
 20
184.6377285728264
 30
0.0
 10
559.4267023013035
 20
184.5034154600186
 30
0.0
 10
559.328429498374
 20
184.2347897392031
 30
0.0
 10
559.1810185726343
 20
183.8959822172978
 30
0.0
 10
559.0336112500795
 20
183.6589518521345
 30
0.0
 10
558.935336686064
 20
183.6281370904331
 30
0.0
 10
558.8861998466647
 20
183.6127298483658
 30
0.0
  0
SPLINE
  5
9B
330
1F
100
AcDbEntity
  8
0
  6
Continuous
 62
     7
370
    15
100
AcDbSpline
210
0.0
220
0.0
230
1.0
 70
     8
 71
     3
 72
    10
 73
     6
 74
     0
 42
0.00000001
 43
0.00000001
 40
0.0
 40
0.0
 40
0.0
 40
0.0
 40
0.4655998927588159
 40
0.9314765700702473
 40
1.0
 40
1.0
 40
1.0
 40
1.0
 10
339.3111970571673
 20
184.6377285728264
 30
0.0
 10
339.3216286543883
 20
184.5571314871056
 30
0.0
 10
339.3424980500881
 20
184.3958894032208
 30
0.0
 10
339.4359310493875
 20
184.2313868883806
 30
0.0
 10
339.5151205227648
 20
184.1812739446966
 30
0.0
 10
339.5252745894587
 20
184.1748482147265
 30
0.0
  0
SPLINE
  5
9C
330
1F
100
AcDbEntity
  8
0
  6
Continuous
 62
     7
370
    15
100
AcDbSpline
210
0.0
220
0.0
230
1.0
 70
     8
 71
     3
 72
    12
 73
     8
 74
     0
 42
0.00000001
 43
0.00000001
 40
0.0
 40
0.0
 40
0.0
 40
0.0
 40
0.228671760198128
 40
0.457414233633465
 40
0.686157504690827
 40
0.9149000259671695
 40
0.9999999999999999
 40
0.9999999999999999
 40
0.9999999999999999
 40
0.9999999999999999
 10
338.9111977366603
 20
184.6377285728264
 30
0.0
 10
338.924065860335
 20
184.5149928198493
 30
0.0
 10
338.9498060869544
 20
184.2694833597445
 30
0.0
 10
339.1496153691013
 20
183.9478956684519
 30
0.0
 10
339.4402900794154
 20
183.7158163782648
 30
0.0
 10
339.7230467319592
 20
183.6214232269548
 30
0.0
 10
339.8907286610977
 20
183.6145842668573
 30
0.0
 10
339.9361964611209
 20
183.6127298483658
 30
0.0
  0
LINE
  5
9D
330
1F
100
AcDbEntity
  8
0
  6
Continuous
 62
     7
370
    15
100
AcDbLine
 10
338.9111977367
 20
184.6377285728
 30
0.0
 11
339.3111970572
 21
184.6377285728
 31
0.0
  0
SPLINE
  5
9E
330
1F
100
AcDbEntity
  8
0
  6
Continuous
 62
     7
370
    15
100
AcDbSpline
210
0.0
220
0.0
230
1.0
 70
     8
 71
     3
 72
    10
 73
     6
 74
     0
 42
0.00000001
 43
0.00000001
 40
0.0
 40
0.0
 40
0.0
 40
0.0
 40
0.0728961533869839
 40
0.5393589016867857
 40
1.0
 40
1.0
 40
1.0
 40
1.0
 10
559.2974271921313
 20
184.1755336681414
 30
0.0
 10
559.3081926702548
 20
184.1824020141123
 30
0.0
 10
559.387846481698
 20
184.2332209307098
 30
0.0
 10
559.4805094673818
 20
184.3977256572092
 30
0.0
 10
559.5010122378616
 20
184.5580632084866
 30
0.0
 10
559.5111992506182
 20
184.6377285728264
 30
0.0
  0
LINE
  5
9F
330
1F
100
AcDbEntity
  8
0
  6
Continuous
 62
     7
370
    15
100
AcDbLine
 10
559.9111985711
 20
184.6377285728
 30
0.0
 11
559.5111992506
 21
184.6377285728
 31
0.0
  0
SPLINE
  5
A0
330
1F
100
AcDbEntity
  8
0
  6
Continuous
 62
     7
370
    15
100
AcDbSpline
210
0.0
220
0.0
230
1.0
 70
     8
 71
     3
 72
    12
 73
     8
 74
     0
 42
0.00000001
 43
0.00000001
 40
0.0
 40
0.0
 40
0.0
 40
0.0
 40
0.2286657017995307
 40
0.4574113541531006
 40
0.6861583033675053
 40
0.9149009875559818
 40
1.0
 40
1.0
 40
1.0
 40
1.0
 10
558.8861998466647
 20
183.6127298483658
 30
0.0
 10
559.0089345323532
 20
183.6255980106639
 30
0.0
 10
559.2544468166204
 20
183.6513388344774
 30
0.0
 10
559.5760249344186
 20
183.8511451391567
 30
0.0
 10
559.8081125723781
 20
184.1418221955155
 30
0.0
 10
559.9025049055535
 20
184.4245803465173
 30
0.0
 10
559.9093441041886
 20
184.5922614065272
 30
0.0
 10
559.9111985711253
 20
184.6377285728264
 30
0.0
  0
LINE
  5
A1
330
1F
100
AcDbEntity
  8
0
  6
Continuous
 62
     7
370
    15
100
AcDbLine
 10
559.9111985711
 20
184.6377285728
 30
0.0
 11
559.9111985711
 21
187.0127296606
 31
0.0
  0
LINE
  5
A2
330
1F
100
AcDbEntity
  8
0
  6
Continuous
 62
     7
370
    15
100
AcDbLine
 10
559.5111992506
 20
184.6377285728
 30
0.0
 11
559.5111992506
 21
187.0127296606
 31
0.0
  0
LINE
  5
A3
330
1F
100
AcDbEntity
  8
0
  6
Continuous
 62
     7
370
    15
100
AcDbLine
 10
338.9111977367
 20
184.6377285728
 30
0.0
 11
338.9111977367
 21
186.6127284775
 31
0.0
  0
LINE
  5
A4
330
1F
100
AcDbEntity
  8
0
  6
Continuous
 62
     7
370
    15
100
AcDbLine
 10
339.3111970572
 20
184.6377285728
 30
0.0
 11
339.3111970572
 21
186.6127284775
 31
0.0
  0
LINE
  5
A5
330
1F
100
AcDbEntity
  8
0
  6
Continuous
 62
     7
370
    15
100
AcDbLine
 10
323.6611929087
 20
188.1127296547
 30
0.0
 11
323.3536776451
 21
188.1127296547
 31
0.0
  0
LINE
  5
A6
330
1F
100
AcDbEntity
  8
0
  6
Continuous
 62
     7
370
    15
100
AcDbLine
 10
336.4123996643
 20
396.5495950142
 30
0.0
 11
337.9111957101
 21
396.7336243549
 31
0.0
  0
LINE
  5
A7
330
1F
100
AcDbEntity
  8
0
  6
Continuous
 62
     7
370
    15
100
AcDbLine
 10
342.9111983923
 20
397.347537295
 30
0.0
 11
345.4111960081
 21
397.6545012156
 31
0.0
  0
LINE
  5
A8
330
1F
100
AcDbEntity
  8
0
  6
Continuous
 62
     7
370
    15
100
AcDbLine
 10
350.4111986903
 20
398.2684290567
 30
0.0
 11
352.9111963061
 21
398.5753929773
 31
0.0
  0
LINE
  5
A9
330
1F
100
AcDbEntity
  8
0
  6
Continuous
 62
     7
370
    15
100
AcDbLine
 10
357.9111989884
 20
399.1893059174
 30
0.0
 11
360.4111966042
 21
399.496269838
 31
0.0
  0
LINE
  5
AA
330
1F
100
AcDbEntity
  8
0
  6
Continuous
 62
     7
370
    15
100
AcDbLine
 10
365.4111992864
 20
400.1101976791
 30
0.0
 11
367.9111969022
 21
400.4171615997
 31
0.0
  0
LINE
  5
AB
330
1F
100
AcDbEntity
  8
0
  6
Continuous
 62
     7
370
    15
100
AcDbLine
 10
372.9111995844
 20
401.0310745398
 30
0.0
 11
375.4111972002
 21
401.3380384604
 31
0.0
  0
LINE
  5
AC
330
1F
100
AcDbEntity
  8
0
  6
Continuous
 62
     7
370
    15
100
AcDbLine
 10
380.4111924318
 20
401.9519663015
 30
0.0
 11
382.9111974982
 21
402.2589302221
 31
0.0
  0
LINE
  5
AD
330
1F
100
AcDbEntity
  8
0
  6
Continuous
 62
     7
370
    15
100
AcDbLine
 10
387.9111964552
 20
402.8728431622
 30
0.0
 11
390.4111977963
 21
403.1798070828
 31
0.0
  0
LINE
  5
AE
330
1F
100
AcDbEntity
  8
0
  6
Continuous
 62
     7
370
    15
100
AcDbLine
 10
395.4111967532
 20
403.7937349239
 30
0.0
 11
397.911194369
 21
404.1006988445
 31
0.0
  0
LINE
  5
AF
330
1F
100
AcDbEntity
  8
0
  6
Continuous
 62
     7
370
    15
100
AcDbLine
 10
402.9111970512
 20
404.7146117846
 30
0.0
 11
405.411194667
 21
405.0215757052
 31
0.0
  0
LINE
  5
B0
330
1F
100
AcDbEntity
  8
0
  6
Continuous
 62
     7
370
    15
100
AcDbLine
 10
410.4111973492
 20
405.6355035463
 30
0.0
 11
412.911194965
 21
405.9424674669
 31
0.0
  0
LINE
  5
B1
330
1F
100
AcDbEntity
  8
0
  6
Continuous
 62
     7
370
    15
100
AcDbLine
 10
417.9111976473
 20
406.556380407
 30
0.0
 11
420.4111952631
 21
406.8633443276
 31
0.0
  0
LINE
  5
B2
330
1F
100
AcDbEntity
  8
0
  6
Continuous
 62
     7
370
    15
100
AcDbLine
 10
425.4111960826
 20
407.4772721687
 30
0.0
 11
427.9111955611
 21
407.7842360893
 31
0.0
  0
LINE
  5
B3
330
1F
100
AcDbEntity
  8
0
  6
Continuous
 62
     7
370
    15
100
AcDbLine
 10
432.9111963807
 20
408.3981490294
 30
0.0
 11
435.4111958591
 21
408.7051129499
 31
0.0
  0
LINE
  5
B4
330
1F
100
AcDbEntity
  8
0
  6
Continuous
 62
     7
370
    15
100
AcDbLine
 10
440.4111957474
 20
409.3190407911
 30
0.0
 11
442.9111961571
 21
409.6260047117
 31
0.0
  0
LINE
  5
B5
330
1F
100
AcDbEntity
  8
0
  6
Continuous
 62
     7
370
    15
100
AcDbLine
 10
447.9111961618
 20
410.2399176518
 30
0.0
 11
450.4111961641
 21
410.5468815723
 31
0.0
  0
LINE
  5
B6
330
1F
100
AcDbEntity
  8
0
  6
Continuous
 62
     7
370
    15
100
AcDbLine
 10
455.4111963434
 20
411.1608094135
 30
0.0
 11
457.9111958219
 21
411.4677733341
 31
0.0
  0
LINE
  5
B7
330
1F
100
AcDbEntity
  8
0
  6
Continuous
 62
     7
370
    15
100
AcDbLine
 10
462.9111957101
 20
412.0816862742
 30
0.0
 11
465.4111970512
 21
412.3886501947
 31
0.0
  0
LINE
  5
B8
330
1F
100
AcDbEntity
  8
0
  6
Continuous
 62
     7
370
    15
100
AcDbLine
 10
470.4111960081
 20
413.0025780359
 30
0.0
 11
472.1227769105
 21
413.2127291122
 31
0.0
  0
LINE
  5
B9
330
1F
100
AcDbEntity
  8
0
  6
Continuous
 62
     7
370
    15
100
AcDbLine
 10
282.0089157967
 20
237.8933238396
 30
0.0
 11
295.7536723761
 21
237.8933238396
 31
0.0
  0
LINE
  5
BA
330
1F
100
AcDbEntity
  8
0
  6
Continuous
 62
     7
370
    15
100
AcDbLine
 10
282.0089157967
 20
237.8933238396
 30
0.0
 11
282.0089157967
 21
238.743323327
 31
0.0
  0
LINE
  5
BB
330
1F
100
AcDbEntity
  8
0
  6
Continuous
 62
     7
370
    15
100
AcDbLine
 10
282.0089157967
 20
238.743323327
 30
0.0
 11
295.7536723761
 21
238.743323327
 31
0.0
  0
LINE
  5
BC
330
1F
100
AcDbEntity
  8
0
  6
Continuous
 62
     7
370
    15
100
AcDbLine
 10
281.8839248566
 20
218.8183241123
 30
0.0
 11
281.8839248566
 21
218.7683241973
 31
0.0
  0
LINE
  5
BD
330
1F
100
AcDbEntity
  8
0
  6
Continuous
 62
     7
370
    15
100
AcDbLine
 10
281.1411019711
 20
218.8183241123
 30
0.0
 11
281.8839248566
 21
218.8183241123
 31
0.0
  0
LINE
  5
BE
330
1F
100
AcDbEntity
  8
0
  6
Continuous
 62
     7
370
    15
100
AcDbLine
 10
272.3712768702
 20
234.0080956528
 30
0.0
 11
281.1411019711
 21
218.8183241123
 31
0.0
  0
LINE
  5
BF
330
1F
100
AcDbEntity
  8
0
  6
Continuous
 62
     7
370
    15
100
AcDbLine
 10
282.0089157967
 20
234.0080956528
 30
0.0
 11
272.3712768702
 21
234.0080956528
 31
0.0
  0
LINE
  5
C0
330
1F
100
AcDbEntity
  8
0
  6
Continuous
 62
     7
370
    15
100
AcDbLine
 10
282.0089157967
 20
234.3433233509
 30
0.0
 11
282.0089157967
 21
234.0080956528
 31
0.0
  0
LINE
  5
C1
330
1F
100
AcDbEntity
  8
0
  6
Continuous
 62
     7
370
    15
100
AcDbLine
 10
281.8839248566
 20
217.7433240758
 30
0.0
 11
281.8839248566
 21
218.7683241973
 31
0.0
  0
LINE
  5
C2
330
1F
100
AcDbEntity
  8
0
  6
Continuous
 62
     7
370
    15
100
AcDbLine
 10
294.2536767868
 20
217.7433240758
 30
0.0
 11
281.8839248566
 21
217.7433240758
 31
0.0
  0
LINE
  5
C3
330
1F
100
AcDbEntity
  8
0
  6
Continuous
 62
     7
370
    15
100
AcDbLine
 10
274.4238373188
 20
229.4529690007
 30
0.0
 11
274.0774300245
 21
229.2529684091
 31
0.0
  0
LINE
  5
C4
330
1F
100
AcDbEntity
  8
0
  6
Continuous
 62
     7
370
    15
100
AcDbLine
 10
271.7899229674
 20
233.215035365
 30
0.0
 11
274.0774300245
 21
229.2529684091
 31
0.0
  0
LINE
  5
C5
330
1F
100
AcDbEntity
  8
0
  6
Continuous
 62
     7
370
    15
100
AcDbLine
 10
272.1363302616
 20
233.4150350252
 30
0.0
 11
274.4238373188
 21
229.4529690007
 31
0.0
  0
ARC
  5
C6
330
1F
100
AcDbEntity
  8
0
  6
Continuous
 62
     7
370
    15
100
AcDbCircle
 10
272.1579856215
 20
233.4275344428
 30
0.0
 40
0.4250000000000673
100
AcDbArc
 50
30.0
 51
210.0
  0
ARC
  5
C7
330
1F
100
AcDbEntity
  8
0
  6
Continuous
 62
     7
370
    15
100
AcDbCircle
 10
272.1579856215
 20
233.4275344428
 30
0.0
 40
0.0250000000000357
100
AcDbArc
 50
30.0000000001
 51
209.9999999999
  0
LINE
  5
C8
330
1F
100
AcDbEntity
  8
0
  6
Continuous
 62
     7
370
    15
100
AcDbLine
 10
281.2926616816
 20
218.4558240296
 30
0.0
 11
280.9462394861
 21
218.2558239037
 31
0.0
  0
LINE
  5
C9
330
1F
100
AcDbEntity
  8
0
  6
Continuous
 62
     7
370
    15
100
AcDbLine
 10
280.9462394861
 20
218.2558239037
 30
0.0
 11
272.1796330361
 21
233.4400335858
 31
0.0
  0
LINE
  5
CA
330
1F
100
AcDbEntity
  8
0
  6
Continuous
 62
     7
370
    15
100
AcDbLine
 10
281.2926616816
 20
218.4558240296
 30
0.0
 11
272.5260403303
 21
233.6400351087
 31
0.0
  0
ARC
  5
CB
330
1F
100
AcDbEntity
  8
0
  6
Continuous
 62
     7
370
    15
100
AcDbCircle
 10
281.8339202825
 20
218.7683239992
 30
0.0
 40
1.025000000000048
100
AcDbArc
 50
210.0
 51
270.0
  0
ARC
  5
CC
330
1F
100
AcDbEntity
  8
0
  6
Continuous
 62
     7
370
    15
100
AcDbCircle
 10
281.8339202825
 20
218.7683239992
 30
0.0
 40
0.6250000000000284
100
AcDbArc
 50
210.0
 51
270.0
  0
LINE
  5
CD
330
1F
100
AcDbEntity
  8
0
  6
Continuous
 62
     7
370
    15
100
AcDbLine
 10
281.8839248566
 20
218.143323862
 30
0.0
 11
281.8339165596
 21
218.143323862
 31
0.0
  0
LINE
  5
CE
330
1F
100
AcDbEntity
  8
0
  6
Continuous
 62
     7
370
    15
100
AcDbLine
 10
281.8839248566
 20
217.7433240758
 30
0.0
 11
281.8339165596
 21
217.7433240758
 31
0.0
  0
LINE
  5
CF
330
1F
100
AcDbEntity
  8
0
  6
Continuous
 62
     7
370
    15
100
AcDbLine
 10
294.7536852507
 20
273.7627303759
 30
0.0
 11
295.7536723761
 21
273.7627303759
 31
0.0
  0
LINE
  5
D0
330
1F
100
AcDbEntity
  8
0
  6
Continuous
 62
     7
370
    15
100
AcDbLine
 10
323.7536844162
 20
423.7627363363
 30
0.0
 11
323.7536844162
 21
423.5877221981
 31
0.0
  0
SPLINE
  5
D1
330
1F
100
AcDbEntity
  8
0
  6
Continuous
 62
     7
370
    15
100
AcDbSpline
210
0.0
220
0.0
230
1.0
 70
     8
 71
     3
 72
    12
 73
     8
 74
     0
 42
0.00000001
 43
0.00000001
 40
0.0
 40
0.0
 40
0.0
 40
0.0
 40
0.0106854252541435
 40
0.239622427637264
 40
0.4770365936959977
 40
0.731947992448077
 40
1.0
 40
1.0
 40
1.0
 40
1.0
 10
323.7051215318835
 20
329.9070423999835
 30
0.0
 10
323.7043572737545
 20
329.9076980621761
 30
0.0
 10
323.687218658878
 20
329.9224013952289
 30
0.0
 10
323.5615836060735
 20
329.9889346564632
 30
0.0
 10
323.3402458785899
 20
330.113356688552
 30
0.0
 10
323.0514885396161
 20
330.2926282225193
 30
0.0
 10
322.8380692176829
 20
330.421612899722
 30
0.0
 10
322.728678241173
 20
330.4877257505465
 30
0.0
  0
SPLINE
  5
D2
330
1F
100
AcDbEntity
  8
0
  6
Continuous
 62
     7
370
    15
100
AcDbSpline
210
0.0
220
0.0
230
1.0
 70
     8
 71
     3
 72
    11
 73
     7
 74
     0
 42
0.00000001
 43
0.00000001
 40
0.0
 40
0.0
 40
0.0
 40
0.0
 40
0.2500047952808973
 40
0.5000055415842936
 40
0.7500062878876897
 40
0.9999999999999999
 40
0.9999999999999999
 40
0.9999999999999999
 40
0.9999999999999999
 10
322.728678241173
 20
424.387735740285
 30
0.0
 10
322.8629938960203
 20
424.3356513782801
 30
0.0
 10
323.1316230303923
 20
424.231483497808
 30
0.0
 10
323.470434072414
 20
424.0752291573384
 30
0.0
 10
323.7074609576289
 20
423.9189737082743
 30
0.0
 10
323.7382767411968
 20
423.8148149718587
 30
0.0
 10
323.7536844162142
 20
423.7627363363314
 30
0.0
  0
LINE
  5
D3
330
1F
100
AcDbEntity
  8
0
  6
Continuous
 62
     7
370
    15
100
AcDbLine
 10
296.7786785511
 20
411.5627235333
 30
0.0
 11
296.8036826996
 21
411.5627235333
 31
0.0
  0
LINE
  5
D4
330
1F
100
AcDbEntity
  8
0
  6
Continuous
 62
     7
370
    15
100
AcDbLine
 10
296.8036826996
 20
411.5627235333
 30
0.0
 11
296.8036826996
 21
411.9627303043
 31
0.0
  0
LINE
  5
D5
330
1F
100
AcDbEntity
  8
0
  6
Continuous
 62
     7
370
    15
100
AcDbLine
 10
296.8036826996
 20
411.9627303043
 30
0.0
 11
296.1786832956
 21
411.9627303043
 31
0.0
  0
ARC
  5
D6
330
1F
100
AcDbEntity
  8
0
  6
Continuous
 62
     7
370
    15
100
AcDbCircle
 10
308.6784570506
 20
411.8881685511
 30
0.0
 40
12.50000000000005
100
AcDbArc
 50
90.4804952221
 51
179.6582380547
  0
LINE
  5
D7
330
1F
100
AcDbEntity
  8
0
  6
Continuous
 62
     7
370
    15
100
AcDbLine
 10
308.5736330895
 20
424.3877357403
 30
0.0
 11
322.7286782412
 21
424.3877357403
 31
0.0
  0
SPLINE
  5
D8
330
1F
100
AcDbEntity
  8
0
  6
Continuous
 62
     7
370
    15
100
AcDbSpline
210
0.0
220
0.0
230
1.0
 70
     8
 71
     3
 72
    12
 73
     8
 74
     0
 42
0.00000001
 43
0.00000001
 40
0.0
 40
0.0
 40
0.0
 40
0.0
 40
0.1739914944494022
 40
0.3321040009467278
 40
0.5068853892100957
 40
0.7762291576369286
 40
1.0
 40
1.0
 40
1.0
 40
1.0
 10
323.3536776451266
 20
329.8662653723765
 30
0.0
 10
323.3470519789471
 20
329.8782297784379
 30
0.0
 10
323.3344053248443
 20
329.9010666828192
 30
0.0
 10
323.245825084625
 20
329.9814746556729
 30
0.0
 10
323.106689310954
 20
330.1080046329459
 30
0.0
 10
322.929521314714
 20
330.2886897897367
 30
0.0
 10
322.7913700192686
 20
330.4255980502074
 30
0.0
 10
322.728678241173
 20
330.4877257505465
 30
0.0
  0
LWPOLYLINE
  5
D9
330
1F
100
AcDbEntity
  8
0
  6
Continuous
 62
     7
370
    15
100
AcDbPolyline
 90
        2
 70
   128
 43
0.0
 10
322.7286782412
 20
330.4877257505
 10
322.7286782412
 20
330.4877257505
  0
LINE
  5
DA
330
1F
100
AcDbEntity
  8
0
  6
Continuous
 62
     7
370
    15
100
AcDbLine
 10
323.6111995129
 20
329.8662653724
 30
0.0
 11
323.3536776451
 21
329.8662653724
 31
0.0
  0
SPLINE
  5
DB
330
1F
100
AcDbEntity
  8
0
  6
Continuous
 62
     7
370
    15
100
AcDbSpline
210
0.0
220
0.0
230
1.0
 70
     8
 71
     3
 72
    11
 73
     7
 74
     0
 42
0.00000001
 43
0.00000001
 40
0.0
 40
0.0
 40
0.0
 40
0.0
 40
0.2500008150767283
 40
0.4999995944772965
 40
0.7499938565397251
 40
0.9999999999999999
 40
0.9999999999999999
 40
0.9999999999999999
 40
0.9999999999999999
 10
322.728678241173
 20
330.4877257505465
 30
0.0
 10
322.7804709500409
 20
330.405830650728
 30
0.0
 10
322.8840559460452
 20
330.2420411179364
 30
0.0
 10
323.0394099806632
 20
330.0354432955259
 30
0.0
 10
323.1947725539368
 20
329.8909140443733
 30
0.0
 10
323.2983540774665
 20
329.8721223947003
 30
0.0
 10
323.3501460699237
 20
329.862726346593
 30
0.0
  0
LINE
  5
DC
330
1F
100
AcDbEntity
  8
0
  6
Continuous
 62
     7
370
    15
100
AcDbLine
 10
323.3501460699
 20
329.8627263466
 30
0.0
 11
323.3501460699
 21
329.4627270261
 31
0.0
  0
SPLINE
  5
DD
330
1F
100
AcDbEntity
  8
0
  6
Continuous
 62
     7
370
    15
100
AcDbSpline
210
0.0
220
0.0
230
1.0
 70
     8
 71
     3
 72
    11
 73
     7
 74
     0
 42
0.00000001
 43
0.00000001
 40
0.0
 40
0.0
 40
0.0
 40
0.0
 40
0.2500028864580364
 40
0.4999991779719224
 40
0.7500010824366101
 40
0.9999999999999999
 40
0.9999999999999999
 40
0.9999999999999999
 40
0.9999999999999999
 10
322.728678241173
 20
330.4877257505465
 30
0.0
 10
322.7804704921716
 20
330.3534126044017
 30
0.0
 10
322.8840536279165
 20
330.0847898552219
 30
0.0
 10
323.0394147401865
 20
329.7459853241843
 30
0.0
 10
323.1947664985539
 20
329.5089467151575
 30
0.0
 10
323.2983530857353
 20
329.4781335277526
 30
0.0
 10
323.3501460699237
 20
329.4627270260859
 30
0.0
  0
LINE
  5
DE
330
1F
100
AcDbEntity
  8
0
  6
Continuous
 62
     7
370
    15
100
AcDbLine
 10
296.7786785511
 20
329.4627270261
 30
0.0
 11
296.7786785511
 21
330.4877257505
 31
0.0
  0
LINE
  5
DF
330
1F
100
AcDbEntity
  8
0
  6
Continuous
 62
     7
370
    15
100
AcDbLine
 10
323.3501460699
 20
329.4627270261
 30
0.0
 11
296.7786785511
 21
329.4627270261
 31
0.0
  0
LINE
  5
E0
330
1F
100
AcDbEntity
  8
0
  6
Continuous
 62
     7
370
    15
100
AcDbLine
 10
295.7536723761
 20
411.5627235333
 30
0.0
 11
296.7786785511
 21
411.5627235333
 31
0.0
  0
LINE
  5
E1
330
1F
100
AcDbEntity
  8
0
  6
Continuous
 62
     7
370
    15
100
AcDbLine
 10
296.7786785511
 20
330.4877257505
 30
0.0
 11
295.7536723761
 21
330.4877257505
 31
0.0
  0
LINE
  5
E2
330
1F
100
AcDbEntity
  8
0
  6
Continuous
 62
     7
370
    15
100
AcDbLine
 10
295.7536723761
 20
330.4877257505
 30
0.0
 11
295.7536723761
 21
411.5627235333
 31
0.0
  0
LINE
  5
E3
330
1F
100
AcDbEntity
  8
0
  6
Continuous
 62
     7
370
    15
100
AcDbLine
 10
322.7286782412
 20
424.4627332846
 30
0.0
 11
322.7286782412
 21
424.8627251545
 31
0.0
  0
LINE
  5
E4
330
1F
100
AcDbEntity
  8
0
  6
Continuous
 62
     7
370
    15
100
AcDbLine
 10
323.7109180836
 20
423.8377338806
 30
0.0
 11
323.7536844162
 21
423.8377338806
 31
0.0
  0
SPLINE
  5
E5
330
1F
100
AcDbEntity
  8
0
  6
Continuous
 62
     7
370
    15
100
AcDbSpline
210
0.0
220
0.0
230
1.0
 70
     8
 71
     3
 72
    10
 73
     6
 74
     0
 42
0.00000001
 43
0.00000001
 40
0.0
 40
0.0
 40
0.0
 40
0.0
 40
0.2189400531636733
 40
0.6249024332431049
 40
1.0
 40
1.0
 40
1.0
 40
1.0
 10
323.2395943550265
 20
424.1757220188189
 30
0.0
 10
323.2163952247901
 20
424.2142486324496
 30
0.0
 10
323.1501798716634
 20
424.3242119500543
 30
0.0
 10
322.9639123128124
 20
424.4356027443049
 30
0.0
 10
322.8049963266006
 20
424.453931197038
 30
0.0
 10
322.728678241173
 20
424.4627332845736
 30
0.0
  0
SPLINE
  5
E6
330
1F
100
AcDbEntity
  8
0
  6
Continuous
 62
     7
370
    15
100
AcDbSpline
210
0.0
220
0.0
230
1.0
 70
     8
 71
     3
 72
    12
 73
     8
 74
     0
 42
0.00000001
 43
0.00000001
 40
0.0
 40
0.0
 40
0.0
 40
0.0
 40
0.2303382583533961
 40
0.4607618249144415
 40
0.6911860674310215
 40
0.9216118024855984
 40
1.0
 40
1.0
 40
1.0
 40
1.0
 10
323.7536844162142
 20
423.8377338806201
 30
0.0
 10
323.7406227361774
 20
423.9613631048512
 30
0.0
 10
323.7144945385727
 20
424.2086673407028
 30
0.0
 10
323.5118524128057
 20
424.5318963346593
 30
0.0
 10
323.2174577416076
 20
424.7638425440942
 30
0.0
 10
322.9355394498515
 20
424.854941291076
 30
0.0
 10
322.770556826088
 20
424.8611493289142
 30
0.0
 10
322.728678241173
 20
424.8627251545001
 30
0.0
  0
LINE
  5
E7
330
1F
100
AcDbEntity
  8
0
  6
Continuous
 62
     7
370
    15
100
AcDbLine
 10
322.7286782412
 20
424.8627251545
 30
0.0
 11
308.6536821274
 21
424.8627251545
 31
0.0
  0
LINE
  5
E8
330
1F
100
AcDbEntity
  8
0
  6
Continuous
 62
     7
370
    15
100
AcDbLine
 10
322.7286782412
 20
424.4627332846
 30
0.0
 11
308.6536821274
 21
424.4627332846
 31
0.0
  0
LINE
  5
E9
330
1F
100
AcDbEntity
  8
0
  6
Continuous
 62
     7
370
    15
100
AcDbLine
 10
296.1536791472
 20
411.9527316252
 30
0.0
 11
295.7536723761
 21
411.9527316252
 31
0.0
  0
LINE
  5
EA
330
1F
100
AcDbEntity
  8
0
  6
Continuous
 62
     7
370
    15
100
AcDbLine
 10
296.1536791472
 20
411.9527316252
 30
0.0
 11
296.1536791472
 21
411.9627303043
 31
0.0
  0
LINE
  5
EB
330
1F
100
AcDbEntity
  8
0
  6
Continuous
 62
     7
370
    15
100
AcDbLine
 10
295.7536723761
 20
411.9527316252
 30
0.0
 11
295.7536723761
 21
411.9627303043
 31
0.0
  0
ARC
  5
EC
330
1F
100
AcDbEntity
  8
0
  6
Continuous
 62
     7
370
    15
100
AcDbCircle
 10
308.653679423
 20
411.962728999
 30
0.0
 40
12.5
100
AcDbArc
 50
90.0
 51
180.0
  0
ARC
  5
ED
330
1F
100
AcDbEntity
  8
0
  6
Continuous
 62
     7
370
    15
100
AcDbCircle
 10
308.653679423
 20
411.962728999
 30
0.0
 40
12.89999999999998
100
AcDbArc
 50
90.0
 51
180.0
  0
LINE
  5
EE
330
1F
100
AcDbEntity
  8
0
  6
Continuous
 62
     7
370
    15
100
AcDbLine
 10
296.1536791472
 20
411.5627235333
 30
0.0
 11
296.1536791472
 21
411.9527316252
 31
0.0
  0
LINE
  5
EF
330
1F
100
AcDbEntity
  8
0
  6
Continuous
 62
     7
370
    15
100
AcDbLine
 10
295.7536723761
 20
411.5627235333
 30
0.0
 11
295.7536723761
 21
411.9527316252
 31
0.0
  0
SPLINE
  5
F0
330
1F
100
AcDbEntity
  8
0
  6
Continuous
 62
     7
370
    15
100
AcDbSpline
210
0.0
220
0.0
230
1.0
 70
     8
 71
     3
 72
    11
 73
     7
 74
     0
 42
0.00000001
 43
0.00000001
 40
0.0
 40
0.0
 40
0.0
 40
0.0
 40
0.2500028200096733
 40
0.499999963358826
 40
0.7500034413831312
 40
1.0
 40
1.0
 40
1.0
 40
1.0
 10
295.753672376076
 20
330.4877257505465
 30
0.0
 10
295.7690849763871
 20
330.3534125119801
 30
0.0
 10
295.799909827045
 20
330.0847890846156
 30
0.0
 10
296.0369413571543
 20
329.7459849019754
 30
0.0
 10
296.3757426780439
 20
329.5089480632502
 30
0.0
 10
296.6443678325772
 20
329.4781338963302
 30
0.0
 10
296.7786785511172
 20
329.4627270260859
 30
0.0
  0
SPLINE
  5
F1
330
1F
100
AcDbEntity
  8
0
  6
Continuous
 62
     7
370
    15
100
AcDbSpline
210
0.0
220
0.0
230
1.0
 70
     8
 71
     3
 72
    11
 73
     7
 74
     0
 42
0.00000001
 43
0.00000001
 40
0.0
 40
0.0
 40
0.0
 40
0.0
 40
0.2499964674927494
 40
0.4999994585837714
 40
0.7499964196398115
 40
1.0
 40
1.0
 40
1.0
 40
1.0
 10
296.1536791471636
 20
330.4877257505465
 30
0.0
 10
296.1630761789191
 20
330.4058300095131
 30
0.0
 10
296.1818704876433
 20
330.2420363903964
 30
0.0
 10
296.3263943274662
 20
330.0354445566305
 30
0.0
 10
296.5329848770538
 20
329.8909148623077
 30
0.0
 10
296.6967799369573
 20
329.8721226014256
 30
0.0
 10
296.7786785511172
 20
329.862726346593
 30
0.0
  0
LINE
  5
F2
330
1F
100
AcDbEntity
  8
0
  6
Continuous
 62
     7
370
    15
100
AcDbLine
 10
323.7536844162
 20
423.7800067822
 30
0.0
 11
323.7536844162
 21
423.8377338806
 31
0.0
  0
LWPOLYLINE
  5
F3
330
1F
100
AcDbEntity
  8
0
  6
Continuous
 62
     7
370
    15
100
AcDbPolyline
 90
       17
 70
   128
 43
0.0
 10
238.2979985623
 20
215.1301205922
 10
239.5498898176
 20
213.8782264483
 10
240.7889362721
 20
212.6391784586
 10
242.002427235
 20
211.4256908717
 10
243.1778904347
 20
210.2502157977
 10
244.3033006338
 20
209.1248151446
 10
245.3670796303
 20
208.0610370794
 10
246.3583197741
 20
207.0697974013
 10
247.2668435721
 20
206.1612675497
 10
248.0833377985
 20
205.344769598
 10
248.7994280008
 20
204.6286840523
 10
249.4077530054
 20
204.0203562537
 10
249.9020841269
 20
203.5260297889
 10
250.2773400692
 20
203.1507775718
 10
250.5296614317
 20
202.8984487588
 10
250.6564852146
 20
202.7716342891
 10
250.6723549513
 20
202.7557515139
  0
LWPOLYLINE
  5
F4
330
1F
100
AcDbEntity
  8
0
  6
Continuous
 62
     7
370
    15
100
AcDbPolyline
 90
       17
 70
   128
 43
0.0
 10
225.923627272
 20
227.5044894377
 10
225.9395119099
 20
227.4886066625
 10
226.0663207916
 20
227.3617921928
 10
226.3186421541
 20
227.1094633797
 10
226.6938980965
 20
226.7342111627
 10
227.1882292179
 20
226.2398846978
 10
227.7965542225
 20
225.6315578306
 10
228.5126444248
 20
224.9154713536
 10
229.3291386513
 20
224.0989734018
 10
230.2376624493
 20
223.1904440159
 10
231.2289025931
 20
222.1992038721
 10
232.2926815895
 20
221.135425807
 10
233.4180917887
 20
220.0100253867
 10
234.5935698895
 20
218.8345500799
 10
235.8070459513
 20
217.6210626094
 10
237.0460924057
 20
216.382014758
 10
238.2979985623
 20
215.1301205922
  0
LWPOLYLINE
  5
F5
330
1F
100
AcDbEntity
  8
0
  6
Continuous
 62
     7
370
    15
100
AcDbPolyline
 90
       10
 70
   128
 43
0.0
 10
236.8837740568
 20
209.4732662262
 10
237.115636125
 20
209.241406952
 10
237.8135469107
 20
208.5434984947
 10
238.4399470238
 20
207.9171053665
 10
238.9801290182
 20
207.3769094022
 10
239.4214716105
 20
206.9355719322
 10
239.7536035923
 20
206.6034376221
 10
239.9687465576
 20
206.3882918628
 10
240.0618639139
 20
206.2951773005
 10
240.065753117
 20
206.2912857691
  0
LWPOLYLINE
  5
F6
330
1F
100
AcDbEntity
  8
0
  6
Continuous
 62
     7
370
    15
100
AcDbPolyline
 90
       12
 70
   128
 43
0.0
 10
229.4591512827
 20
216.8978876034
 10
229.4630553869
 20
216.8939958392
 10
229.5561578421
 20
216.8008812768
 10
229.7713157086
 20
216.5857355176
 10
230.1034476904
 20
216.2536014402
 10
230.5447753815
 20
215.8122639703
 10
231.0849722771
 20
215.2720678896
 10
231.7113723902
 20
214.6456745868
 10
232.4092831759
 20
213.9477664495
 10
233.1623431591
 20
213.1947017806
 10
233.9529093651
 20
212.4041317329
 10
234.7624596504
 20
211.5945866862
  0
LWPOLYLINE
  5
F7
330
1F
100
AcDbEntity
  8
0
  6
Continuous
 62
     7
370
    15
100
AcDbPolyline
 90
       22
 70
   128
 43
0.0
 10
228.7520464806
 20
216.1907807058
 10
228.8141992239
 20
216.1286281953
 10
228.9991971401
 20
215.9436277179
 10
229.3027188925
 20
215.6401153952
 10
229.7176268248
 20
215.2252053674
 10
230.2342053799
 20
214.7086226796
 10
230.8403548149
 20
214.1024756311
 10
231.5218594221
 20
213.4209718097
 10
232.2627451567
 20
212.6800850565
 10
233.0456521658
 20
211.8971811906
 10
233.8522222189
 20
211.0906107882
 10
234.6635457424
 20
210.2792791156
 10
235.4606237559
 20
209.4822031977
 10
236.224770203
 20
208.7180655981
 10
236.9380589871
 20
208.0047777453
 10
237.5837710051
 20
207.3590573454
 10
238.1467964796
 20
206.7960407184
 10
238.6139031796
 20
206.328923774
 10
238.9741834549
 20
205.9686551401
 10
239.2191585449
 20
205.7236800501
 10
239.3430915026
 20
205.5997396419
 10
239.3586483149
 20
205.5841791043
  0
LWPOLYLINE
  5
F8
330
1F
100
AcDbEntity
  8
0
  6
Continuous
 62
     7
370
    15
100
AcDbPolyline
 90
       22
 70
   128
 43
0.0
 10
229.4591512827
 20
216.8978876034
 10
229.521304026
 20
216.8357350929
 10
229.7063168434
 20
216.6507346155
 10
230.0098236946
 20
216.3472221764
 10
230.4247316269
 20
215.9323121486
 10
230.941310182
 20
215.4157294026
 10
231.5474596171
 20
214.8095824122
 10
232.2289642243
 20
214.1280785908
 10
232.9698499588
 20
213.3871918668
 10
233.7527569679
 20
212.6042879717
 10
234.559327021
 20
211.7977176858
 10
235.3706654457
 20
210.9863860132
 10
236.167728558
 20
210.1893100953
 10
236.9318750052
 20
209.4251727285
 10
237.6451637892
 20
208.7118844101
 10
238.2908758072
 20
208.0661644759
 10
238.8539012818
 20
207.5031473832
 10
239.3210079817
 20
207.0360304387
 10
239.681288257
 20
206.6757622706
 10
239.9262633471
 20
206.4307867149
 10
240.0501963047
 20
206.3068467723
 10
240.065753117
 20
206.2912857691
  0
LWPOLYLINE
  5
F9
330
1F
100
AcDbEntity
  8
0
  6
Continuous
 62
     7
370
    15
100
AcDbPolyline
 90
       22
 70
   128
 43
0.0
 10
228.7384119181
 20
216.1399316574
 10
228.800341144
 20
216.0779970763
 10
228.9846983103
 20
215.893645498
 10
229.287147179
 20
215.5911977934
 10
229.7005947975
 20
215.1777430736
 10
230.2153703121
 20
214.6629723902
 10
230.8193888811
 20
214.0589514638
 10
231.4984944014
 20
213.3798381146
 10
232.2367873339
 20
212.641550188
 10
233.0169525294
 20
211.8613924431
 10
233.8206913618
 20
211.0576510495
 10
234.6291687636
 20
210.2491652658
 10
235.4234453587
 20
209.4548851782
 10
236.1849095968
 20
208.6934283907
 10
236.8956949858
 20
207.9826420704
 10
237.5391569285
 20
207.339186647
 10
238.1001856474
 20
206.7781448895
 10
238.5656681208
 20
206.3126661414
 10
238.9246817974
 20
205.953661778
 10
239.1687926201
 20
205.7095453674
 10
239.2922934441
 20
205.5860398868
 10
239.3078055529
 20
205.5705342973
  0
LWPOLYLINE
  5
FA
330
1F
100
AcDbEntity
  8
0
  6
Continuous
 62
     7
370
    15
100
AcDbPolyline
 90
       17
 70
   128
 43
0.0
 10
192.459806457
 20
176.115503029
 10
192.5253417639
 20
176.0499490956
 10
192.7195038942
 20
175.8557981411
 10
193.0347826628
 20
175.540511922
 10
193.4590783266
 20
175.1162125329
 10
193.9760890154
 20
174.5992018441
 10
194.5659365801
 20
174.0093505541
 10
195.2059712557
 20
173.3693196038
 10
195.8715763239
 20
172.7037145356
 10
196.5371813921
 20
172.0381057421
 10
197.1772160677
 20
171.3980785171
 10
197.7670636324
 20
170.8082235018
 10
198.2840743212
 20
170.291212813
 10
198.7083997873
 20
169.8669134239
 10
199.0236785559
 20
169.55163093
 10
199.2178108839
 20
169.3574799756
 10
199.2833759932
 20
169.2919223169
  0
LINE
  5
FB
330
1F
100
AcDbEntity
  8
0
  6
Continuous
 62
     7
370
    15
100
AcDbLine
 10
295.7536723761
 20
192.0627294639
 30
0.0
 11
294.9536737351
 21
192.0627294639
 31
0.0
  0
SPLINE
  5
FC
330
1F
100
AcDbEntity
  8
0
  6
Continuous
 62
     7
370
    15
100
AcDbSpline
210
0.0
220
0.0
230
1.0
 70
    24
 71
     3
 72
    11
 73
     7
 74
     0
 42
0.00000001
 43
0.00000001
 40
0.0
 40
0.0
 40
0.0
 40
0.0
 40
0.2833245928669924
 40
0.558048690844533
 40
0.7754269285501526
 40
1.0
 40
1.0
 40
1.0
 40
1.0
 10
294.9536737350619
 20
193.0619063386727
 30
0.0
 10
294.9536737350619
 20
192.9133495754182
 30
0.0
 10
294.9536737350619
 20
192.6207455821985
 30
0.0
 10
294.9536737350618
 20
192.2961612687531
 30
0.0
 10
294.9536737350618
 20
192.0985751253879
 30
0.0
 10
294.9536737350619
 20
192.0748069970552
 30
0.0
 10
294.9536737350619
 20
192.0627294639159
 30
0.0
  0
LINE
  5
FD
330
1F
100
AcDbEntity
  8
0
  6
Continuous
 62
     7
370
    15
100
AcDbLine
 10
295.7536723761
 20
222.0627287934
 30
0.0
 11
294.9536737351
 21
222.0627287934
 31
0.0
  0
SPLINE
  5
FE
330
1F
100
AcDbEntity
  8
0
  6
Continuous
 62
     7
370
    15
100
AcDbSpline
210
0.0
220
0.0
230
1.0
 70
    24
 71
     3
 72
    11
 73
     7
 74
     0
 42
0.00000001
 43
0.00000001
 40
0.0
 40
0.0
 40
0.0
 40
0.0
 40
0.2833085338588806
 40
0.5580338794292393
 40
0.7754282086604883
 40
1.0
 40
1.0
 40
1.0
 40
1.0
 10
294.9536737350619
 20
222.0627287933636
 30
0.0
 10
294.9536737350619
 20
222.0432568614529
 30
0.0
 10
294.9536737350619
 20
222.0049029242943
 30
0.0
 10
294.9536737350619
 20
221.7376283858822
 30
0.0
 10
294.9536737350619
 20
221.4119292472061
 30
0.0
 10
294.9536737350619
 20
221.1807975593938
 30
0.0
 10
294.9536737350619
 20
221.0633549438823
 30
0.0
  0
LINE
  5
FF
330
1F
100
AcDbEntity
  8
0
  6
Continuous
 62
     7
370
    15
100
AcDbLine
 10
294.9536737351
 20
221.0633549439
 30
0.0
 11
294.9536737351
 21
193.0619063387
 31
0.0
  0
LINE
  5
100
330
1F
100
AcDbEntity
  8
0
  6
Continuous
 62
     7
370
    15
100
AcDbLine
 10
294.2536767868
 20
193.331587554
 30
0.0
 11
294.2536767868
 21
220.793871169
 31
0.0
  0
SPLINE
  5
101
330
1F
100
AcDbEntity
  8
0
  6
Continuous
 62
     7
370
    15
100
AcDbSpline
210
0.0
220
0.0
230
1.0
 70
     8
 71
     3
 72
    11
 73
     7
 74
     0
 42
0.00000001
 43
0.00000001
 40
0.0
 40
0.0
 40
0.0
 40
0.0
 40
0.2371703710736578
 40
0.497829641579583
 40
0.7485583146372978
 40
1.0
 40
1.0
 40
1.0
 40
1.0
 10
294.9536737350619
 20
222.0627287933636
 30
0.0
 10
294.856185710344
 20
221.9912646265311
 30
0.0
 10
294.6515546336042
 20
221.841258618618
 30
0.0
 10
294.4297422030531
 20
221.5295832999387
 30
0.0
 10
294.2811230291271
 20
221.171726611959
 30
0.0
 10
294.2628341901276
 20
220.9199421496534
 30
0.0
 10
294.2536767868197
 20
220.7938711689818
 30
0.0
  0
SPLINE
  5
102
330
1F
100
AcDbEntity
  8
0
  6
Continuous
 62
     7
370
    15
100
AcDbSpline
210
0.0
220
0.0
230
1.0
 70
    24
 71
     3
 72
    13
 73
     9
 74
     0
 42
0.00000001
 43
0.00000001
 40
0.0
 40
0.0
 40
0.0
 40
0.0
 40
0.1275699557979315
 40
0.2546453654147783
 40
0.5000115803121844
 40
0.7453699216445435
 40
0.8725246800667521
 40
0.9999999999999999
 40
0.9999999999999999
 40
0.9999999999999999
 40
0.9999999999999999
 10
294.9536737350619
 20
221.0633549438823
 30
0.0
 10
294.9536737350619
 20
221.1299523269742
 30
0.0
 10
294.9536737350619
 20
221.2628889173105
 30
0.0
 10
294.9536737350619
 20
221.5129722659319
 30
0.0
 10
294.9536737350618
 20
221.7871356077386
 30
0.0
 10
294.9536737350619
 20
221.9706691128368
 30
0.0
 10
294.9536737350619
 20
222.0513749915903
 30
0.0
 10
294.9536737350619
 20
222.0589410177394
 30
0.0
 10
294.9536737350619
 20
222.0627287933636
 30
0.0
  0
SPLINE
  5
103
330
1F
100
AcDbEntity
  8
0
  6
Continuous
 62
     7
370
    15
100
AcDbSpline
210
0.0
220
0.0
230
1.0
 70
     8
 71
     3
 72
    11
 73
     7
 74
     0
 42
0.00000001
 43
0.00000001
 40
0.0
 40
0.0
 40
0.0
 40
0.0
 40
0.2514414198866123
 40
0.5021698282210466
 40
0.7628329193586091
 40
1.0
 40
1.0
 40
1.0
 40
1.0
 10
294.2536767868197
 20
193.3315875539589
 30
0.0
 10
294.2628340487145
 20
193.205516450742
 30
0.0
 10
294.2811226052887
 20
192.9537317436931
 30
0.0
 10
294.4297447186661
 20
192.595874990034
 30
0.0
 10
294.651549882487
 20
192.2841924523973
 30
0.0
 10
294.856185163681
 20
192.1341905888048
 30
0.0
 10
294.9536737350619
 20
192.0627294639159
 30
0.0
  0
SPLINE
  5
104
330
1F
100
AcDbEntity
  8
0
  6
Continuous
 62
     7
370
    15
100
AcDbSpline
210
0.0
220
0.0
230
1.0
 70
    24
 71
     3
 72
    13
 73
     9
 74
     0
 42
0.00000001
 43
0.00000001
 40
0.0
 40
0.0
 40
0.0
 40
0.0
 40
0.1275709533287814
 40
0.2546498547530265
 40
0.5000047895349153
 40
0.7453560676114886
 40
0.8725124271371734
 40
1.0
 40
1.0
 40
1.0
 40
1.0
 10
294.9536737350619
 20
192.0627294639159
 30
0.0
 10
294.9536737350619
 20
192.0665070080767
 30
0.0
 10
294.9536737350619
 20
192.0740475260925
 30
0.0
 10
294.9536737350619
 20
192.1547930744169
 30
0.0
 10
294.9536737350619
 20
192.3382108266858
 30
0.0
 10
294.9536737350618
 20
192.6123620413239
 30
0.0
 10
294.9536737350619
 20
192.8624392055915
 30
0.0
 10
294.9536737350619
 20
192.9953596647843
 30
0.0
 10
294.9536737350619
 20
193.0619063386727
 30
0.0
  0
LINE
  5
105
330
1F
100
AcDbEntity
  8
0
  6
Continuous
 62
     7
370
    15
100
AcDbLine
 10
294.7536852507
 20
289.2127311388
 30
0.0
 11
294.7536852507
 21
256.7127286056
 31
0.0
  0
LINE
  5
106
330
1F
100
AcDbEntity
  8
0
  6
Continuous
 62
     7
370
    15
100
AcDbLine
 10
289.7536751179
 20
287.2127270857
 30
0.0
 11
289.7536751179
 21
284.8126194039
 31
0.0
  0
LINE
  5
107
330
1F
100
AcDbEntity
  8
0
  6
Continuous
 62
     7
370
    15
100
AcDbLine
 10
289.7536751179
 20
261.1128403405
 30
0.0
 11
289.7536751179
 21
258.7127289334
 31
0.0
  0
LINE
  5
108
330
1F
100
AcDbEntity
  8
0
  6
Continuous
 62
     7
370
    15
100
AcDbLine
 10
293.106019154
 20
282.9756787578
 30
0.0
 11
293.110176578
 21
282.4817350665
 31
0.0
  0
LINE
  5
109
330
1F
100
AcDbEntity
  8
0
  6
Continuous
 62
     7
370
    15
100
AcDbLine
 10
293.110176578
 20
282.4817350665
 30
0.0
 11
291.0409715323
 21
281.9501733938
 31
0.0
  0
SPLINE
  5
10A
330
1F
100
AcDbEntity
  8
0
  6
Continuous
 62
     7
370
    15
100
AcDbSpline
210
0.0
220
0.0
230
1.0
 70
     8
 71
     3
 72
    13
 73
     9
 74
     0
 42
0.00000001
 43
0.00000001
 40
0.0
 40
0.0
 40
0.0
 40
0.0
 40
0.1254689688706648
 40
0.2492773779759951
 40
0.3731271536309959
 40
0.4989160335334744
 40
0.7492464958286309
 40
0.9999999999999999
 40
0.9999999999999999
 40
0.9999999999999999
 40
0.9999999999999999
 10
293.1582477239764
 20
288.5745218554545
 30
0.0
 10
293.1550291545738
 20
288.5731249741397
 30
0.0
 10
293.1486346129694
 20
288.5703496989889
 30
0.0
 10
293.0798097002385
 20
288.5394071411654
 30
0.0
 10
292.9629482307532
 20
288.4881437231489
 30
0.0
 10
292.7556427567801
 20
288.3994909812047
 30
0.0
 10
292.4503977291574
 20
288.2729350920031
 30
0.0
 10
292.2017574762749
 20
288.1729629745329
 30
0.0
 10
292.0773323921359
 20
288.1229347148944
 30
0.0
  0
SPLINE
  5
10B
330
1F
100
AcDbEntity
  8
0
  6
Continuous
 62
     7
370
    15
100
AcDbSpline
210
0.0
220
0.0
230
1.0
 70
     8
 71
     3
 72
    13
 73
     9
 74
     0
 42
0.00000001
 43
0.00000001
 40
0.0
 40
0.0
 40
0.0
 40
0.0
 40
0.2507424746582004
 40
0.5003639354802111
 40
0.6272207281682203
 40
0.7500879647139312
 40
0.8749318778399069
 40
1.0
 40
1.0
 40
1.0
 40
1.0
 10
292.0773323921359
 20
288.1229347148944
 30
0.0
 10
291.9533423284319
 20
288.0733916540971
 30
0.0
 10
291.705916533022
 20
287.9745270285086
 30
0.0
 10
291.3988477586845
 20
287.8558290843981
 30
0.0
 10
291.1848056617614
 20
287.7758637327238
 30
0.0
 10
291.0583933299457
 20
287.730034130887
 30
0.0
 10
290.9876445735866
 20
287.7056499588684
 30
0.0
 10
290.980451566034
 20
287.7032168891737
 30
0.0
 10
290.9768518356478
 20
287.70199926291
 30
0.0
  0
SPLINE
  5
10C
330
1F
100
AcDbEntity
  8
0
  6
Continuous
 62
     7
370
    15
100
AcDbSpline
210
0.0
220
0.0
230
1.0
 70
     8
 71
     3
 72
    11
 73
     7
 74
     0
 42
0.00000001
 43
0.00000001
 40
0.0
 40
0.0
 40
0.0
 40
0.0
 40
0.2502769729532201
 40
0.5001180759284704
 40
0.746708019701772
 40
0.9999999999999999
 40
0.9999999999999999
 40
0.9999999999999999
 40
0.9999999999999999
 10
292.4953844694293
 20
269.3693986693431
 30
0.0
 10
292.5139374992707
 20
269.368525780024
 30
0.0
 10
292.5510112479159
 20
269.3667815215666
 30
0.0
 10
292.6048350600723
 20
269.3769021034012
 30
0.0
 10
292.6548041058463
 20
269.3990133656001
 30
0.0
 10
292.6822736169651
 20
269.4227030730522
 30
0.0
 10
292.6961925176776
 20
269.4347067335654
 30
0.0
  0
SPLINE
  5
10D
330
1F
100
AcDbEntity
  8
0
  6
Continuous
 62
     7
370
    15
100
AcDbSpline
210
0.0
220
0.0
230
1.0
 70
     8
 71
     3
 72
    10
 73
     6
 74
     0
 42
0.00000001
 43
0.00000001
 40
0.0
 40
0.0
 40
0.0
 40
0.0
 40
0.5008384509156195
 40
0.7509144046167129
 40
1.0
 40
1.0
 40
1.0
 40
1.0
 10
291.8630387930071
 20
269.8381631234694
 30
0.0
 10
291.9533425204569
 20
269.7367567093758
 30
0.0
 10
292.088736217983
 20
269.5847165916009
 30
0.0
 10
292.3062650467182
 20
269.4189919165617
 30
0.0
 10
292.4324280995282
 20
269.3859078716858
 30
0.0
 10
292.4953844694293
 20
269.3693986693431
 30
0.0
  0
LINE
  5
10E
330
1F
100
AcDbEntity
  8
0
  6
Continuous
 62
     7
370
    15
100
AcDbLine
 10
291.2256714253
 20
270.580497996
 30
0.0
 11
291.863038793
 21
269.8381631235
 31
0.0
  0
LINE
  5
10F
330
1F
100
AcDbEntity
  8
0
  6
Continuous
 62
     7
370
    15
100
AcDbLine
 10
291.0368588118
 20
270.5994299213
 30
0.0
 11
291.2256714253
 21
270.580497996
 31
0.0
  0
LINE
  5
110
330
1F
100
AcDbEntity
  8
0
  6
Continuous
 62
     7
370
    15
100
AcDbLine
 10
291.3844880013
 20
269.826312975
 30
0.0
 11
291.3808521179
 21
269.0545818368
 31
0.0
  0
SPLINE
  5
111
330
1F
100
AcDbEntity
  8
0
  6
Continuous
 62
     7
370
    15
100
AcDbSpline
210
0.0
220
0.0
230
1.0
 70
     8
 71
     3
 72
    11
 73
     7
 74
     0
 42
0.00000001
 43
0.00000001
 40
0.0
 40
0.0
 40
0.0
 40
0.0
 40
0.4035242948788069
 40
0.6066748297185486
 40
0.8082321768592117
 40
1.0
 40
1.0
 40
1.0
 40
1.0
 10
293.1432720569766
 20
269.5766253927756
 30
0.0
 10
293.1358911529129
 20
269.4895136139548
 30
0.0
 10
293.1247944016817
 20
269.3585462242505
 30
0.0
 10
293.0497918328742
 20
269.209763742937
 30
0.0
 10
292.9777289572992
 20
269.1106480782142
 30
0.0
 10
292.9079531447821
 20
269.0739671261867
 30
0.0
 10
292.8739335683978
 20
269.0560831287909
 30
0.0
  0
SPLINE
  5
112
330
1F
100
AcDbEntity
  8
0
  6
Continuous
 62
     7
370
    15
100
AcDbSpline
210
0.0
220
0.0
230
1.0
 70
     8
 71
     3
 72
    13
 73
     9
 74
     0
 42
0.00000001
 43
0.00000001
 40
0.0
 40
0.0
 40
0.0
 40
0.0
 40
0.2498787558094536
 40
0.3764029670939437
 40
0.5002586255442407
 40
0.6253059250989687
 40
0.7505747056849673
 40
0.9999999999999999
 40
0.9999999999999999
 40
0.9999999999999999
 40
0.9999999999999999
 10
292.4386557487643
 20
270.3988342145491
 30
0.0
 10
292.5327705556692
 20
270.3785203218205
 30
0.0
 10
292.6745396806664
 20
270.3479206437024
 30
0.0
 10
292.8434635412743
 20
270.2428780850113
 30
0.0
 10
292.9536400748743
 20
270.1394508242221
 30
0.0
 10
293.0415964159772
 20
270.0152357944187
 30
0.0
 10
293.1272216111941
 20
269.8284044471999
 30
0.0
 10
293.1368575994855
 20
269.6772472735402
 30
0.0
 10
293.1432720569766
 20
269.5766253927756
 30
0.0
  0
SPLINE
  5
113
330
1F
100
AcDbEntity
  8
0
  6
Continuous
 62
     7
370
    15
100
AcDbSpline
210
0.0
220
0.0
230
1.0
 70
     8
 71
     3
 72
    14
 73
    10
 74
     0
 42
0.00000001
 43
0.00000001
 40
0.0
 40
0.0
 40
0.0
 40
0.0
 40
0.1251943781791865
 40
0.2502295587752542
 40
0.3736632716857023
 40
0.5003888746418261
 40
0.6218051088247735
 40
0.750429965269368
 40
0.9999999999999999
 40
0.9999999999999999
 40
0.9999999999999999
 40
0.9999999999999999
 10
292.6008101848757
 20
259.0532912472297
 30
0.0
 10
292.6144427496497
 20
259.048765708077
 30
0.0
 10
292.6416905439835
 20
259.0397203844623
 30
0.0
 10
292.6806370666826
 20
259.0317566805382
 30
0.0
 10
292.7156297908583
 20
259.0290650865523
 30
0.0
 10
292.7451203790981
 20
259.0314636785185
 30
0.0
 10
292.7682763463159
 20
259.0390159870528
 30
0.0
 10
292.7895456757026
 20
259.055084687339
 30
0.0
 10
292.7919531297547
 20
259.0738751678782
 30
0.0
 10
292.793541803757
 20
259.0862749675322
 30
0.0
  0
SPLINE
  5
114
330
1F
100
AcDbEntity
  8
0
  6
Continuous
 62
     7
370
    15
100
AcDbSpline
210
0.0
220
0.0
230
1.0
 70
     8
 71
     3
 72
    13
 73
     9
 74
     0
 42
0.00000001
 43
0.00000001
 40
0.0
 40
0.0
 40
0.0
 40
0.0
 40
0.2505746851692973
 40
0.500050374581365
 40
0.6273151335052293
 40
0.7501034323700636
 40
0.8750805027242474
 40
1.0
 40
1.0
 40
1.0
 40
1.0
 10
292.3364337829745
 20
259.3172243395854
 30
0.0
 10
292.340875620931
 20
259.2959060522719
 30
0.0
 10
292.3497398153827
 20
259.2533629775423
 30
0.0
 10
292.3831001711064
 20
259.1943299729599
 30
0.0
 10
292.4336409818586
 20
259.1454113751023
 30
0.0
 10
292.4823823400769
 20
259.1100732459942
 30
0.0
 10
292.5389090945278
 20
259.0774278254189
 30
0.0
 10
292.5801796575021
 20
259.0613355374713
 30
0.0
 10
292.6008101848757
 20
259.0532912472297
 30
0.0
  0
LINE
  5
115
330
1F
100
AcDbEntity
  8
0
  6
Continuous
 62
     7
370
    15
100
AcDbLine
 10
291.9968810229
 20
259.4365975419
 30
0.0
 11
292.336433783
 21
259.3172243396
 31
0.0
  0
SPLINE
  5
116
330
1F
100
AcDbEntity
  8
0
  6
Continuous
 62
     7
370
    15
100
AcDbSpline
210
0.0
220
0.0
230
1.0
 70
     8
 71
     3
 72
    13
 73
     9
 74
     0
 42
0.00000001
 43
0.00000001
 40
0.0
 40
0.0
 40
0.0
 40
0.0
 40
0.1654495275650514
 40
0.3308369125686422
 40
0.4963157314530156
 40
0.661904908445336
 40
0.9922545143047609
 40
1.0
 40
1.0
 40
1.0
 40
1.0
 10
291.665702715317
 20
259.3294358411837
 30
0.0
 10
291.6929729098699
 20
259.3207039758645
 30
0.0
 10
291.7475030563367
 20
259.3032435248999
 30
0.0
 10
291.8218700843576
 20
259.2933360726061
 30
0.0
 10
291.8828089304806
 20
259.2964674851924
 30
0.0
 10
291.9463797314936
 20
259.3142850154916
 30
0.0
 10
291.9780650213803
 20
259.3398822767577
 30
0.0
 10
291.9829264721865
 20
259.3648210167378
 30
0.0
 10
291.9830378441012
 20
259.3653923431445
 30
0.0
  0
SPLINE
  5
117
330
1F
100
AcDbEntity
  8
0
  6
Continuous
 62
     7
370
    15
100
AcDbSpline
210
0.0
220
0.0
230
1.0
 70
     8
 71
     3
 72
    12
 73
     8
 74
     0
 42
0.00000001
 43
0.00000001
 40
0.0
 40
0.0
 40
0.0
 40
0.0
 40
0.2500747925353506
 40
0.37548320896927
 40
0.5009056170263999
 40
0.7504556146464996
 40
1.0
 40
1.0
 40
1.0
 40
1.0
 10
291.3526442197955
 20
259.5880827466059
 30
0.0
 10
291.3566710393124
 20
259.567123465086
 30
0.0
 10
291.3627172429254
 20
259.5356534468447
 30
0.0
 10
291.4020325307319
 20
259.4873933703877
 30
0.0
 10
291.4538739334352
 20
259.4393692716941
 30
0.0
 10
291.5411173628307
 20
259.3792124652888
 30
0.0
 10
291.6241745758117
 20
259.3460279248332
 30
0.0
 10
291.665702715317
 20
259.3294358411837
 30
0.0
  0
LINE
  5
118
330
1F
100
AcDbEntity
  8
0
  6
Continuous
 62
     7
370
    15
100
AcDbLine
 10
291.667058721
 20
259.8382657925
 30
0.0
 11
291.6672375349
 21
259.6385343531
 31
0.0
  0
SPLINE
  5
119
330
1F
100
AcDbEntity
  8
0
  6
Continuous
 62
     7
370
    15
100
AcDbSpline
210
0.0
220
0.0
230
1.0
 70
     8
 71
     3
 72
    13
 73
     9
 74
     0
 42
0.00000001
 43
0.00000001
 40
0.0
 40
0.0
 40
0.0
 40
0.0
 40
0.1131164824365097
 40
0.2610451696204249
 40
0.4089626760123534
 40
0.5556069513722046
 40
0.7048069855982686
 40
1.0
 40
1.0
 40
1.0
 40
1.0
 10
291.014149442116
 20
259.7976154247332
 30
0.0
 10
291.0173777292282
 20
259.813262438044
 30
0.0
 10
291.0248278261428
 20
259.8493719170145
 30
0.0
 10
291.0856162831632
 20
259.8846002503845
 30
0.0
 10
291.1692016896308
 20
259.9095443176724
 30
0.0
 10
291.2755039890814
 20
259.9170011690644
 30
0.0
 10
291.4387592875454
 20
259.9035836315359
 30
0.0
 10
291.5759369417739
 20
259.8643362807768
 30
0.0
 10
291.6670587209857
 20
259.8382657924701
 30
0.0
  0
LINE
  5
11A
330
1F
100
AcDbEntity
  8
0
  6
Continuous
 62
     7
370
    15
100
AcDbLine
 10
293.1738492397
 20
258.9463232616
 30
0.0
 11
293.1542691139
 21
258.8901570598
 31
0.0
  0
SPLINE
  5
11B
330
1F
100
AcDbEntity
  8
0
  6
Continuous
 62
     7
370
    15
100
AcDbSpline
210
0.0
220
0.0
230
1.0
 70
     8
 71
     3
 72
     9
 73
     5
 74
     0
 42
0.00000001
 43
0.00000001
 40
0.0
 40
0.0
 40
0.0
 40
0.0
 40
0.4996968678638431
 40
1.0
 40
1.0
 40
1.0
 40
1.0
 10
292.9745909122622
 20
259.2501765647937
 30
0.0
 10
293.0323727776471
 20
259.1950327842878
 30
0.0
 10
293.1480066130803
 20
259.0846783193069
 30
0.0
 10
293.165231549903
 20
258.9924602503422
 30
0.0
 10
293.1738492397463
 20
258.9463232615996
 30
0.0
  0
SPLINE
  5
11C
330
1F
100
AcDbEntity
  8
0
  6
Continuous
 62
     7
370
    15
100
AcDbSpline
210
0.0
220
0.0
230
1.0
 70
     8
 71
     3
 72
     9
 73
     5
 74
     0
 42
0.00000001
 43
0.00000001
 40
0.0
 40
0.0
 40
0.0
 40
0.0
 40
0.5005883840933304
 40
1.0
 40
1.0
 40
1.0
 40
1.0
 10
292.6039245275653
 20
259.4654424646903
 30
0.0
 10
292.6725742084258
 20
259.4348623323734
 30
0.0
 10
292.8097121905324
 20
259.3737739545994
 30
0.0
 10
292.9196744717236
 20
259.2913433608288
 30
0.0
 10
292.9745909122622
 20
259.2501765647937
 30
0.0
  0
SPLINE
  5
11D
330
1F
100
AcDbEntity
  8
0
  6
Continuous
 62
     7
370
    15
100
AcDbSpline
210
0.0
220
0.0
230
1.0
 70
     8
 71
     3
 72
     9
 73
     5
 74
     0
 42
0.00000001
 43
0.00000001
 40
0.0
 40
0.0
 40
0.0
 40
0.0
 40
0.5000753567366018
 40
1.0
 40
1.0
 40
1.0
 40
1.0
 10
293.1414243129885
 20
269.5756158391047
 30
0.0
 10
293.1417322471062
 20
269.5757850167827
 30
0.0
 10
293.1423480225359
 20
269.5761233211518
 30
0.0
 10
293.1429640764455
 20
269.5764580523838
 30
0.0
 10
293.1432720569766
 20
269.5766253927756
 30
0.0
  0
SPLINE
  5
11E
330
1F
100
AcDbEntity
  8
0
  6
Continuous
 62
     7
370
    15
100
AcDbSpline
210
0.0
220
0.0
230
1.0
 70
     8
 71
     3
 72
    13
 73
     9
 74
     0
 42
0.00000001
 43
0.00000001
 40
0.0
 40
0.0
 40
0.0
 40
0.0
 40
0.2498388490384096
 40
0.3763419063239645
 40
0.50020662826121
 40
0.6252577918647407
 40
0.7505439234699431
 40
1.0
 40
1.0
 40
1.0
 40
1.0
 10
292.4367931036151
 20
270.3980593541671
 30
0.0
 10
292.5309115662766
 20
270.3777380974983
 30
0.0
 10
292.6726858411531
 20
270.347127403833
 30
0.0
 10
292.8415934156071
 20
270.2420636213639
 30
0.0
 10
292.9517800470696
 20
270.1386068789337
 30
0.0
 10
293.0397331268009
 20
270.0143499407145
 30
0.0
 10
293.1253831044638
 20
269.8274736300051
 30
0.0
 10
293.1350135665323
 20
269.6762733544361
 30
0.0
 10
293.1414243129885
 20
269.5756232896853
 30
0.0
  0
LINE
  5
11F
330
1F
100
AcDbEntity
  8
0
  6
Continuous
 62
     7
370
    15
100
AcDbLine
 10
292.4367931036
 20
270.3980593542
 30
0.0
 11
292.4386557488
 21
270.3988342145
 31
0.0
  0
LINE
  5
120
330
1F
100
AcDbEntity
  8
0
  6
Continuous
 62
     7
370
    15
100
AcDbLine
 10
292.4268838314
 20
269.9918909529
 30
0.0
 11
292.4367931036
 21
270.3980593542
 31
0.0
  0
SPLINE
  5
121
330
1F
100
AcDbEntity
  8
0
  6
Continuous
 62
     7
370
    15
100
AcDbSpline
210
0.0
220
0.0
230
1.0
 70
     8
 71
     3
 72
    12
 73
     8
 74
     0
 42
0.00000001
 43
0.00000001
 40
0.0
 40
0.0
 40
0.0
 40
0.0
 40
0.250090711898161
 40
0.3759817640718716
 40
0.500903737392667
 40
0.7506663177379086
 40
1.0
 40
1.0
 40
1.0
 40
1.0
 10
293.1414243129885
 20
269.5756158391047
 30
0.0
 10
293.1338879753371
 20
269.4887454702553
 30
0.0
 10
293.1225579842978
 20
269.3581461597985
 30
0.0
 10
293.0486522290548
 20
269.2074444449988
 30
0.0
 10
292.9465140387157
 20
269.0808791032038
 30
0.0
 10
292.7720288293571
 20
268.9674643382023
 30
0.0
 10
292.6066949212862
 20
268.9601368916489
 30
0.0
 10
292.5240990070498
 20
268.9564763167907
 30
0.0
  0
SPLINE
  5
122
330
1F
100
AcDbEntity
  8
0
  6
Continuous
 62
     7
370
    15
100
AcDbSpline
210
0.0
220
0.0
230
1.0
 70
     8
 71
     3
 72
    10
 73
     6
 74
     0
 42
0.00000001
 43
0.00000001
 40
0.0
 40
0.0
 40
0.0
 40
0.0
 40
0.2477395955661489
 40
0.4995957764640874
 40
1.0
 40
1.0
 40
1.0
 40
1.0
 10
292.5240990070498
 20
268.9564763167907
 30
0.0
 10
292.437600450024
 20
268.9757540865082
 30
0.0
 10
292.2631660255972
 20
269.0146299565869
 30
0.0
 10
291.946456813455
 20
269.2143926801669
 30
0.0
 10
291.7534443757384
 20
269.4201048103622
 30
0.0
 10
291.6250523475802
 20
269.5569446841288
 30
0.0
  0
LINE
  5
123
330
1F
100
AcDbEntity
  8
0
  6
Continuous
 62
     7
370
    15
100
AcDbLine
 10
291.6250523476
 20
269.5569446841
 30
0.0
 11
291.3826253561
 21
269.825336949
 31
0.0
  0
LINE
  5
124
330
1F
100
AcDbEntity
  8
0
  6
Continuous
 62
     7
370
    15
100
AcDbLine
 10
291.3826253561
 20
269.825336949
 30
0.0
 11
291.3790043739
 21
269.0533636669
 31
0.0
  0
LINE
  5
125
330
1F
100
AcDbEntity
  8
0
  6
Continuous
 62
     7
370
    15
100
AcDbLine
 10
291.3790043739
 20
269.0533636669
 30
0.0
 11
291.013955727
 21
269.0899497429
 31
0.0
  0
LINE
  5
126
330
1F
100
AcDbEntity
  8
0
  6
Continuous
 62
     7
370
    15
100
AcDbLine
 10
291.013955727
 20
269.0899497429
 30
0.0
 11
291.0350110678
 21
270.5986848632
 31
0.0
  0
LINE
  5
127
330
1F
100
AcDbEntity
  8
0
  6
Continuous
 62
     7
370
    15
100
AcDbLine
 10
291.0350110678
 20
270.5986848632
 30
0.0
 11
291.2238236813
 21
270.5797492126
 31
0.0
  0
LINE
  5
128
330
1F
100
AcDbEntity
  8
0
  6
Continuous
 62
     7
370
    15
100
AcDbLine
 10
291.2238236813
 20
270.5797492126
 30
0.0
 11
291.8611761479
 21
269.8372019986
 31
0.0
  0
SPLINE
  5
129
330
1F
100
AcDbEntity
  8
0
  6
Continuous
 62
     7
370
    15
100
AcDbSpline
210
0.0
220
0.0
230
1.0
 70
     8
 71
     3
 72
    10
 73
     6
 74
     0
 42
0.00000001
 43
0.00000001
 40
0.0
 40
0.0
 40
0.0
 40
0.0
 40
0.5008592923310388
 40
0.750934198745044
 40
1.0
 40
1.0
 40
1.0
 40
1.0
 10
291.8611761478579
 20
269.8372019985724
 30
0.0
 10
291.951478972444
 20
269.735768989613
 30
0.0
 10
292.0868692512374
 20
269.5836913173495
 30
0.0
 10
292.3043947659577
 20
269.4179133782562
 30
0.0
 10
292.4305644966462
 20
269.3848227495295
 30
0.0
 10
292.49352182428
 20
269.3683108845759
 30
0.0
  0
SPLINE
  5
12A
330
1F
100
AcDbEntity
  8
0
  6
Continuous
 62
     7
370
    15
100
AcDbSpline
210
0.0
220
0.0
230
1.0
 70
     8
 71
     3
 72
    14
 73
    10
 74
     0
 42
0.00000001
 43
0.00000001
 40
0.0
 40
0.0
 40
0.0
 40
0.0
 40
0.2492513765719263
 40
0.3726532275446988
 40
0.4994529452883857
 40
0.624280066096273
 40
0.7495892214095684
 40
0.8747137606731548
 40
1.0
 40
1.0
 40
1.0
 40
1.0
 10
292.49352182428
 20
269.3683108845759
 30
0.0
 10
292.5308306508472
 20
269.3679703778619
 30
0.0
 10
292.5866107024054
 20
269.3674612896968
 30
0.0
 10
292.6526091774303
 20
269.3984772254207
 30
0.0
 10
292.6954596274757
 20
269.4319107151961
 30
0.0
 10
292.7306217480678
 20
269.4747077705477
 30
0.0
 10
292.7552606178926
 20
269.5251914820349
 30
0.0
 10
292.7694104739896
 20
269.5808716454206
 30
0.0
 10
292.7715500797478
 20
269.6196464403492
 30
0.0
 10
292.7726205734408
 20
269.6390463570166
 30
0.0
  0
SPLINE
  5
12B
330
1F
100
AcDbEntity
  8
0
  6
Continuous
 62
     7
370
    15
100
AcDbSpline
210
0.0
220
0.0
230
1.0
 70
     8
 71
     3
 72
    13
 73
     9
 74
     0
 42
0.00000001
 43
0.00000001
 40
0.0
 40
0.0
 40
0.0
 40
0.0
 40
0.125152451468542
 40
0.2502271829246956
 40
0.3753386371704533
 40
0.5005336610274476
 40
0.749859444288192
 40
1.0
 40
1.0
 40
1.0
 40
1.0
 10
292.7726205734408
 20
269.6390500823069
 30
0.0
 10
292.7717550761602
 20
269.661820381601
 30
0.0
 10
292.7700246190752
 20
269.7073468397715
 30
0.0
 10
292.7488660765514
 20
269.7742273636588
 30
0.0
 10
292.7147336498675
 20
269.8353539927096
 30
0.0
 10
292.6532566282588
 20
269.9043235329934
 30
0.0
 10
292.5555737366095
 20
269.9666904988056
 30
0.0
 10
292.469827092251
 20
269.9834816711508
 30
0.0
 10
292.4268838314212
 20
269.9918909529258
 30
0.0
  0
SPLINE
  5
12C
330
1F
100
AcDbEntity
  8
0
  6
Continuous
 62
     7
370
    15
100
AcDbSpline
210
0.0
220
0.0
230
1.0
 70
     8
 71
     3
 72
     9
 73
     5
 74
     0
 42
0.00000001
 43
0.00000001
 40
0.0
 40
0.0
 40
0.0
 40
0.0
 40
0.4981022206984372
 40
1.0
 40
1.0
 40
1.0
 40
1.0
 10
292.49352182428
 20
269.3683108845759
 30
0.0
 10
292.4938291339315
 20
269.3684925234977
 30
0.0
 10
292.4944460949461
 20
269.3688571854372
 30
0.0
 10
292.495070887456
 20
269.3692177185661
 30
0.0
 10
292.4953844694293
 20
269.3693986693431
 30
0.0
  0
LINE
  5
12D
330
1F
100
AcDbEntity
  8
0
  6
Continuous
 62
     7
370
    15
100
AcDbLine
 10
291.2238236813
 20
270.5797492126
 30
0.0
 11
291.2256714253
 21
270.580497996
 31
0.0
  0
LINE
  5
12E
330
1F
100
AcDbEntity
  8
0
  6
Continuous
 62
     7
370
    15
100
AcDbLine
 10
291.0350110678
 20
270.5986848632
 30
0.0
 11
291.0368588118
 21
270.5994299213
 31
0.0
  0
LINE
  5
12F
330
1F
100
AcDbEntity
  8
0
  6
Continuous
 62
     7
370
    15
100
AcDbLine
 10
291.3790043739
 20
269.0533636669
 30
0.0
 11
291.3808521179
 21
269.0545818368
 31
0.0
  0
LINE
  5
130
330
1F
100
AcDbEntity
  8
0
  6
Continuous
 62
     7
370
    15
100
AcDbLine
 10
289.7536751179
 20
262.0300291637
 30
0.0
 11
289.7536751179
 21
283.8954305807
 31
0.0
  0
LINE
  5
131
330
1F
100
AcDbEntity
  8
0
  6
Continuous
 62
     7
370
    15
100
AcDbLine
 10
291.0391088871
 20
281.9529971639
 30
0.0
 11
291.0409715323
 21
281.9501733938
 31
0.0
  0
LINE
  5
132
330
1F
100
AcDbEntity
  8
0
  6
Continuous
 62
     7
370
    15
100
AcDbLine
 10
293.108328834
 20
282.4845662871
 30
0.0
 11
291.0391088871
 21
281.9529971639
 31
0.0
  0
LINE
  5
133
330
1F
100
AcDbEntity
  8
0
  6
Continuous
 62
     7
370
    15
100
AcDbLine
 10
293.108328834
 20
282.4845662871
 30
0.0
 11
293.110176578
 21
282.4817350665
 31
0.0
  0
LINE
  5
134
330
1F
100
AcDbEntity
  8
0
  6
Continuous
 62
     7
370
    15
100
AcDbLine
 10
293.10417141
 20
282.97865899
 30
0.0
 11
293.108328834
 21
282.4845662871
 31
0.0
  0
LINE
  5
135
330
1F
100
AcDbEntity
  8
0
  6
Continuous
 62
     7
370
    15
100
AcDbLine
 10
291.0391088871
 20
281.9529971639
 30
0.0
 11
291.0349812655
 21
282.2824841896
 31
0.0
  0
LINE
  5
136
330
1F
100
AcDbEntity
  8
0
  6
Continuous
 62
     7
370
    15
100
AcDbLine
 10
291.0349812655
 20
282.2824841896
 30
0.0
 11
292.7345630078
 21
282.7187678376
 31
0.0
  0
LINE
  5
137
330
1F
100
AcDbEntity
  8
0
  6
Continuous
 62
     7
370
    15
100
AcDbLine
 10
292.7345630078
 20
282.7187678376
 30
0.0
 11
292.7348014263
 21
283.0705768028
 31
0.0
  0
LINE
  5
138
330
1F
100
AcDbEntity
  8
0
  6
Continuous
 62
     7
370
    15
100
AcDbLine
 10
292.7348014263
 20
283.0705768028
 30
0.0
 11
293.10417141
 21
282.97865899
 31
0.0
  0
LINE
  5
139
330
1F
100
AcDbEntity
  8
0
  6
Continuous
 62
     7
370
    15
100
AcDbLine
 10
293.10417141
 20
282.97865899
 30
0.0
 11
293.106019154
 21
282.9756787578
 31
0.0
  0
SPLINE
  5
13A
330
1F
100
AcDbEntity
  8
0
  6
Continuous
 62
     7
370
    15
100
AcDbSpline
210
0.0
220
0.0
230
1.0
 70
     8
 71
     3
 72
    11
 73
     7
 74
     0
 42
0.00000001
 43
0.00000001
 40
0.0
 40
0.0
 40
0.0
 40
0.0
 40
0.3706762145692482
 40
0.744213276895275
 40
0.9440375051405545
 40
1.0
 40
1.0
 40
1.0
 40
1.0
 10
289.7536751178897
 20
261.1128403404761
 30
0.0
 10
289.7535914304924
 20
261.1144167929664
 30
0.0
 10
289.7534234098057
 20
261.1175818648745
 30
0.0
 10
289.7515224767465
 20
261.1221581788217
 30
0.0
 10
289.7488655096149
 20
261.1253024793754
 30
0.0
 10
289.7474566481299
 20
261.1264631160506
 30
0.0
 10
289.7471484092868
 20
261.1267170468379
 30
0.0
  0
SPLINE
  5
13B
330
1F
100
AcDbEntity
  8
0
  6
Continuous
 62
     7
370
    15
100
AcDbSpline
210
0.0
220
0.0
230
1.0
 70
     8
 71
     3
 72
    12
 73
     8
 74
     0
 42
0.00000001
 43
0.00000001
 40
0.0
 40
0.0
 40
0.0
 40
0.0
 40
0.3037273237226683
 40
0.6074487421497998
 40
0.9111875869099341
 40
0.9695305476072871
 40
1.0
 40
1.0
 40
1.0
 40
1.0
 10
289.7471484092868
 20
261.1267170468379
 30
0.0
 10
289.7074470755166
 20
261.1645758822683
 30
0.0
 10
289.6280451798797
 20
261.240292817049
 30
0.0
 10
289.5512239088527
 20
261.3949085411983
 30
0.0
 10
289.5267885146645
 20
261.5148878586875
 30
0.0
 10
289.5248359503041
 20
261.583908901479
 30
0.0
 10
289.5252035938811
 20
261.5993597821134
 30
0.0
 10
289.5253297237551
 20
261.6046606162597
 30
0.0
  0
SPLINE
  5
13C
330
1F
100
AcDbEntity
  8
0
  6
Continuous
 62
     7
370
    15
100
AcDbSpline
210
0.0
220
0.0
230
1.0
 70
     8
 71
     3
 72
    12
 73
     8
 74
     0
 42
0.00000001
 43
0.00000001
 40
0.0
 40
0.0
 40
0.0
 40
0.0
 40
0.0304696481620016
 40
0.0888065586183976
 40
0.3925473549310844
 40
0.6962707247988028
 40
1.0
 40
1.0
 40
1.0
 40
1.0
 10
289.5253297237551
 20
284.3207991281558
 30
0.0
 10
289.5252035877623
 20
284.3260999731269
 30
0.0
 10
289.5248359529485
 20
284.3415497675305
 30
0.0
 10
289.5267888369758
 20
284.4105685480089
 30
0.0
 10
289.5512238738423
 20
284.5305477896489
 30
0.0
 10
289.6280451886322
 20
284.6851631241456
 30
0.0
 10
289.7074470784342
 20
284.7608801108798
 30
0.0
 10
289.7471484092868
 20
284.7987389722873
 30
0.0
  0
SPLINE
  5
13D
330
1F
100
AcDbEntity
  8
0
  6
Continuous
 62
     7
370
    15
100
AcDbSpline
210
0.0
220
0.0
230
1.0
 70
     8
 71
     3
 72
    10
 73
     6
 74
     0
 42
0.00000001
 43
0.00000001
 40
0.0
 40
0.0
 40
0.0
 40
0.0
 40
0.2120872613749677
 40
0.4882584797315221
 40
0.9999999999999999
 40
0.9999999999999999
 40
0.9999999999999999
 40
0.9999999999999999
 10
289.7471484092868
 20
284.7987389722873
 30
0.0
 10
289.748237157705
 20
284.7997449220799
 30
0.0
 10
289.7507436290701
 20
284.8020607778898
 30
0.0
 10
289.7532577623414
 20
284.8070425410907
 30
0.0
 10
289.7535107832896
 20
284.8104235027964
 30
0.0
 10
289.7536751178897
 20
284.8126194039393
 30
0.0
  0
LINE
  5
13E
330
1F
100
AcDbEntity
  8
0
  6
Continuous
 62
     7
370
    15
100
AcDbLine
 10
280.0485041289
 20
282.8168994347
 30
0.0
 11
280.722424045
 21
283.1210172335
 31
0.0
  0
LINE
  5
13F
330
1F
100
AcDbEntity
  8
0
  6
Continuous
 62
     7
370
    15
100
AcDbLine
 10
289.4192930607
 20
287.0616367618
 30
0.0
 11
280.722424045
 21
283.1210172335
 31
0.0
  0
SPLINE
  5
140
330
1F
100
AcDbEntity
  8
0
  6
Continuous
 62
     7
370
    15
100
AcDbSpline
210
0.0
220
0.0
230
1.0
 70
     8
 71
     3
 72
    12
 73
     8
 74
     0
 42
0.00000001
 43
0.00000001
 40
0.0
 40
0.0
 40
0.0
 40
0.0
 40
0.2239136158449165
 40
0.4477732973277979
 40
0.6716484771422975
 40
0.8955881929907908
 40
1.0
 40
1.0
 40
1.0
 40
1.0
 10
289.525702252785
 20
287.1101325908709
 30
0.0
 10
289.5244519067981
 20
287.1095499134148
 30
0.0
 10
289.5219515159969
 20
287.1083846988527
 30
0.0
 10
289.5023557206825
 20
287.099379690406
 30
0.0
 10
289.4735243752036
 20
287.0861804921644
 30
0.0
 10
289.4438216851896
 20
287.0727047666378
 30
0.0
 10
289.4252110251613
 20
287.0643071136852
 30
0.0
 10
289.4192930606997
 20
287.0616367617656
 30
0.0
  0
LINE
  5
141
330
1F
100
AcDbEntity
  8
0
  6
Continuous
 62
     7
370
    15
100
AcDbLine
 10
292.6034774927
 20
259.2688290933
 30
0.0
 11
292.6020767836
 21
259.4613707224
 31
0.0
  0
SPLINE
  5
142
330
1F
100
AcDbEntity
  8
0
  6
Continuous
 62
     7
370
    15
100
AcDbSpline
210
0.0
220
0.0
230
1.0
 70
     8
 71
     3
 72
     9
 73
     5
 74
     0
 42
0.00000001
 43
0.00000001
 40
0.0
 40
0.0
 40
0.0
 40
0.0
 40
0.5005509238940445
 40
1.0
 40
1.0
 40
1.0
 40
1.0
 10
292.6020767835772
 20
259.4613707223941
 30
0.0
 10
292.6707222334541
 20
259.4307871168073
 30
0.0
 10
292.8078620260308
 20
259.3696872284108
 30
0.0
 10
292.9178132365849
 20
259.2872537802699
 30
0.0
 10
292.972728267113
 20
259.2460824707557
 30
0.0
  0
SPLINE
  5
143
330
1F
100
AcDbEntity
  8
0
  6
Continuous
 62
     7
370
    15
100
AcDbSpline
210
0.0
220
0.0
230
1.0
 70
     8
 71
     3
 72
     9
 73
     5
 74
     0
 42
0.00000001
 43
0.00000001
 40
0.0
 40
0.0
 40
0.0
 40
0.0
 40
0.4996566727948775
 40
1.0
 40
1.0
 40
1.0
 40
1.0
 10
292.972728267113
 20
259.2460824707557
 30
0.0
 10
293.0305089095113
 20
259.1909241684662
 30
0.0
 10
293.1461495994979
 20
259.0805317624549
 30
0.0
 10
293.1633802531701
 20
258.9883039550591
 30
0.0
 10
293.1720014957583
 20
258.9421583870459
 30
0.0
  0
SPLINE
  5
144
330
1F
100
AcDbEntity
  8
0
  6
Continuous
 62
     7
370
    15
100
AcDbSpline
210
0.0
220
0.0
230
1.0
 70
     8
 71
     3
 72
    14
 73
    10
 74
     0
 42
0.00000001
 43
0.00000001
 40
0.0
 40
0.0
 40
0.0
 40
0.0
 40
0.2497403250288813
 40
0.499062274577952
 40
0.6254191705569374
 40
0.7495128204640673
 40
0.8746339445110951
 40
0.9372981198177466
 40
1.0
 40
1.0
 40
1.0
 40
1.0
 10
293.1720014957583
 20
258.9421583870459
 30
0.0
 10
293.1670037334601
 20
258.9082230462434
 30
0.0
 10
293.1570165813252
 20
258.8404092145463
 30
0.0
 10
293.057714010847
 20
258.8005101804827
 30
0.0
 10
292.9513990769245
 20
258.7917966695735
 30
0.0
 10
292.856641297741
 20
258.7984828799967
 30
0.0
 10
292.767880199441
 20
258.8165485959052
 30
0.0
 10
292.6937707464191
 20
258.83707959015
 30
0.0
 10
292.656010244204
 20
258.8500345400035
 30
0.0
 10
292.6371243147051
 20
258.8565139630843
 30
0.0
  0
SPLINE
  5
145
330
1F
100
AcDbEntity
  8
0
  6
Continuous
 62
     7
370
    15
100
AcDbSpline
210
0.0
220
0.0
230
1.0
 70
     8
 71
     3
 72
    11
 73
     7
 74
     0
 42
0.00000001
 43
0.00000001
 40
0.0
 40
0.0
 40
0.0
 40
0.0
 40
0.2497738616101408
 40
0.4995621131383907
 40
0.7496097735286992
 40
1.0
 40
1.0
 40
1.0
 40
1.0
 10
292.6371243147051
 20
258.8565139630843
 30
0.0
 10
292.5903451142942
 20
258.8747091794357
 30
0.0
 10
292.4967840184391
 20
258.9111006603973
 30
0.0
 10
292.368458160763
 20
258.9850110115379
 30
0.0
 10
292.2619591229636
 20
259.0648861750683
 30
0.0
 10
292.2145336854929
 20
259.1184399299818
 30
0.0
 10
292.190804734627
 20
259.145235137086
 30
0.0
  0
SPLINE
  5
146
330
1F
100
AcDbEntity
  8
0
  6
Continuous
 62
     7
370
    15
100
AcDbSpline
210
0.0
220
0.0
230
1.0
 70
     8
 71
     3
 72
    11
 73
     7
 74
     0
 42
0.00000001
 43
0.00000001
 40
0.0
 40
0.0
 40
0.0
 40
0.0
 40
0.2501830260054511
 40
0.5000262479237086
 40
0.7498813181369132
 40
1.0
 40
1.0
 40
1.0
 40
1.0
 10
292.190804734627
 20
259.145235137086
 30
0.0
 10
292.1711315636347
 20
259.1268884263519
 30
0.0
 10
292.1318119421837
 20
259.0902199237896
 30
0.0
 10
292.0110484598029
 20
259.0748123861005
 30
0.0
 10
291.8530074183849
 20
259.0931687560993
 30
0.0
 10
291.7335131014271
 20
259.1316205608801
 30
0.0
 10
291.6737344412005
 20
259.1508566001464
 30
0.0
  0
SPLINE
  5
147
330
1F
100
AcDbEntity
  8
0
  6
Continuous
 62
     7
370
    15
100
AcDbSpline
210
0.0
220
0.0
230
1.0
 70
     8
 71
     3
 72
    13
 73
     9
 74
     0
 42
0.00000001
 43
0.00000001
 40
0.0
 40
0.0
 40
0.0
 40
0.0
 40
0.1252276376278288
 40
0.2504002988160504
 40
0.3728587760670144
 40
0.5008646487593893
 40
0.7501337631323677
 40
1.0
 40
1.0
 40
1.0
 40
1.0
 10
291.6737344412005
 20
259.1508566001464
 30
0.0
 10
291.6274789735426
 20
259.1682473772241
 30
0.0
 10
291.5349883449336
 20
259.2030212966192
 30
0.0
 10
291.401652574858
 20
259.2686653494702
 30
0.0
 10
291.2800836756959
 20
259.3424659169034
 30
0.0
 10
291.1417318011472
 20
259.446238924181
 30
0.0
 10
291.0126734388603
 20
259.5828928379404
 30
0.0
 10
290.9957430625158
 20
259.6756730755845
 30
0.0
 10
290.9872677473223
 20
259.7221186915446
 30
0.0
  0
SPLINE
  5
148
330
1F
100
AcDbEntity
  8
0
  6
Continuous
 62
     7
370
    15
100
AcDbSpline
210
0.0
220
0.0
230
1.0
 70
     8
 71
     3
 72
    13
 73
     9
 74
     0
 42
0.00000001
 43
0.00000001
 40
0.0
 40
0.0
 40
0.0
 40
0.0
 40
0.2495748827902364
 40
0.3747721608581662
 40
0.4999416813762261
 40
0.6240001195503633
 40
0.7502639040404765
 40
1.0
 40
1.0
 40
1.0
 40
1.0
 10
290.9872677473223
 20
259.7221186915446
 30
0.0
 10
290.993187362733
 20
259.7640075231368
 30
0.0
 10
291.002076506681
 20
259.8269095578132
 30
0.0
 10
291.0826140472298
 20
259.8809975120969
 30
0.0
 10
291.1676282480003
 20
259.9053193894678
 30
0.0
 10
291.27355911951
 20
259.912956539906
 30
0.0
 10
291.43693947382
 20
259.8995060680359
 30
0.0
 10
291.5740970902999
 20
259.8602695385748
 30
0.0
 10
291.6651960758364
 20
259.834208951335
 30
0.0
  0
LINE
  5
149
330
1F
100
AcDbEntity
  8
0
  6
Continuous
 62
     7
370
    15
100
AcDbLine
 10
291.6651960758
 20
259.8342089513
 30
0.0
 11
291.6653897909
 21
259.6344179073
 31
0.0
  0
SPLINE
  5
14A
330
1F
100
AcDbEntity
  8
0
  6
Continuous
 62
     7
370
    15
100
AcDbSpline
210
0.0
220
0.0
230
1.0
 70
     8
 71
     3
 72
    12
 73
     8
 74
     0
 42
0.00000001
 43
0.00000001
 40
0.0
 40
0.0
 40
0.0
 40
0.0
 40
0.2504121084909881
 40
0.4996782203331769
 40
0.6252444893358807
 40
0.7501956758972567
 40
1.0
 40
1.0
 40
1.0
 40
1.0
 10
291.665389790932
 20
259.6344179073382
 30
0.0
 10
291.6238383926341
 20
259.6447915610714
 30
0.0
 10
291.5409257536289
 20
259.6654913941066
 30
0.0
 10
291.4484922323514
 20
259.6695663914757
 30
0.0
 10
291.3959912278387
 20
259.6557229999304
 30
0.0
 10
291.3578105572095
 20
259.6321965509791
 30
0.0
 10
291.353592946977
 20
259.6032255924876
 30
0.0
 10
291.3507815746462
 20
259.583914146762
 30
0.0
  0
SPLINE
  5
14B
330
1F
100
AcDbEntity
  8
0
  6
Continuous
 62
     7
370
    15
100
AcDbSpline
210
0.0
220
0.0
230
1.0
 70
     8
 71
     3
 72
    13
 73
     9
 74
     0
 42
0.00000001
 43
0.00000001
 40
0.0
 40
0.0
 40
0.0
 40
0.0
 40
0.2497594171669484
 40
0.3750373196718428
 40
0.5002770602271401
 40
0.7494652165799774
 40
0.8746461078105208
 40
1.0
 40
1.0
 40
1.0
 40
1.0
 10
291.3507815746462
 20
259.583914146762
 30
0.0
 10
291.3548052326033
 20
259.5629396575425
 30
0.0
 10
291.3608471344969
 20
259.5314444838767
 30
0.0
 10
291.4001871678371
 20
259.4832343785623
 30
0.0
 10
291.4519914033511
 20
259.435020093654
 30
0.0
 10
291.5219573399107
 20
259.3878445320462
 30
0.0
 10
291.6017786335511
 20
259.3484614525081
 30
0.0
 10
291.6431533352908
 20
259.3329724079398
 30
0.0
 10
291.663854971329
 20
259.3252225378562
 30
0.0
  0
SPLINE
  5
14C
330
1F
100
AcDbEntity
  8
0
  6
Continuous
 62
     7
370
    15
100
AcDbSpline
210
0.0
220
0.0
230
1.0
 70
     8
 71
     3
 72
    13
 73
     9
 74
     0
 42
0.00000001
 43
0.00000001
 40
0.0
 40
0.0
 40
0.0
 40
0.0
 40
0.1249533868077166
 40
0.2498963004242913
 40
0.3749283505839253
 40
0.5000319692984343
 40
0.7496501749505643
 40
1.0
 40
1.0
 40
1.0
 40
1.0
 10
291.663854971329
 20
259.3252225378562
 30
0.0
 10
291.6911162415423
 20
259.316492277659
 30
0.0
 10
291.745636497017
 20
259.2990324890072
 30
0.0
 10
291.8200653538766
 20
259.2891008756428
 30
0.0
 10
291.8807489808694
 20
259.29235961878
 30
0.0
 10
291.9455496504985
 20
259.309592241068
 30
0.0
 10
291.9883040545756
 20
259.3561933904577
 30
0.0
 10
291.9927880169243
 20
259.4070072068567
 30
0.0
 10
291.9950332788623
 20
259.4324512938071
 30
0.0
  0
LINE
  5
14D
330
1F
100
AcDbEntity
  8
0
  6
Continuous
 62
     7
370
    15
100
AcDbLine
 10
291.9950332789
 20
259.4324512938
 30
0.0
 11
292.3345711378
 21
259.3130780915
 31
0.0
  0
SPLINE
  5
14E
330
1F
100
AcDbEntity
  8
0
  6
Continuous
 62
     7
370
    15
100
AcDbSpline
210
0.0
220
0.0
230
1.0
 70
     8
 71
     3
 72
    14
 73
    10
 74
     0
 42
0.00000001
 43
0.00000001
 40
0.0
 40
0.0
 40
0.0
 40
0.0
 40
0.2505068673570242
 40
0.499917770656805
 40
0.6247828323084057
 40
0.7499044483703731
 40
0.8748244776969117
 40
0.937386235519751
 40
1.0
 40
1.0
 40
1.0
 40
1.0
 10
292.3345711378253
 20
259.3130780914832
 30
0.0
 10
292.3390067088638
 20
259.2917551963855
 30
0.0
 10
292.3478584453795
 20
259.2492026935595
 30
0.0
 10
292.3811711961695
 20
259.190356643
 30
0.0
 10
292.4314427303922
 20
259.141492014744
 30
0.0
 10
292.480181225383
 20
259.1059739945198
 30
0.0
 10
292.5276286299657
 20
259.0790407046184
 30
0.0
 10
292.5680491184145
 20
259.0605280113354
 30
0.0
 10
292.5886452136035
 20
259.0529081059611
 30
0.0
 10
292.5989475397265
 20
259.0490965703536
 30
0.0
  0
SPLINE
  5
14F
330
1F
100
AcDbEntity
  8
0
  6
Continuous
 62
     7
370
    15
100
AcDbSpline
210
0.0
220
0.0
230
1.0
 70
     8
 71
     3
 72
    14
 73
    10
 74
     0
 42
0.00000001
 43
0.00000001
 40
0.0
 40
0.0
 40
0.0
 40
0.0
 40
0.2488898003594825
 40
0.3723760809729375
 40
0.4992160763306277
 40
0.6206990420276904
 40
0.7494374962709237
 40
0.8746331583986674
 40
1.0
 40
1.0
 40
1.0
 40
1.0
 10
292.5989475397265
 20
259.0490965703536
 30
0.0
 10
292.6263109656164
 20
259.0406779133786
 30
0.0
 10
292.6672507119625
 20
259.028082353067
 30
0.0
 10
292.7137740026965
 20
259.0249425485603
 30
0.0
 10
292.7432488492823
 20
259.0272683644782
 30
0.0
 10
292.7665147022626
 20
259.0347972502505
 30
0.0
 10
292.7819776117193
 20
259.0470673164458
 30
0.0
 10
292.7908689673303
 20
259.0629637751726
 30
0.0
 10
292.7914089718751
 20
259.0757250809505
 30
0.0
 10
292.7916791586077
 20
259.0821100929786
 30
0.0
  0
SPLINE
  5
150
330
1F
100
AcDbEntity
  8
0
  6
Continuous
 62
     7
370
    15
100
AcDbSpline
210
0.0
220
0.0
230
1.0
 70
     8
 71
     3
 72
    12
 73
     8
 74
     0
 42
0.00000001
 43
0.00000001
 40
0.0
 40
0.0
 40
0.0
 40
0.0
 40
0.2499016393768749
 40
0.4997285015638911
 40
0.7494188016743661
 40
0.8746854162014441
 40
1.0
 40
1.0
 40
1.0
 40
1.0
 10
292.7916791586077
 20
259.0821100929786
 30
0.0
 10
292.7888373159255
 20
259.0963567978845
 30
0.0
 10
292.7831544809159
 20
259.124845944705
 30
0.0
 10
292.7406879826628
 20
259.1756352855334
 30
0.0
 10
292.6905665151071
 20
259.2171962441565
 30
0.0
 10
292.6427404014706
 20
259.2481243898574
 30
0.0
 10
292.6165667991318
 20
259.2619266447666
 30
0.0
 10
292.6034774927294
 20
259.2688290933181
 30
0.0
  0
SPLINE
  5
151
330
1F
100
AcDbEntity
  8
0
  6
Continuous
 62
     7
370
    15
100
AcDbSpline
210
0.0
220
0.0
230
1.0
 70
     8
 71
     3
 72
     9
 73
     5
 74
     0
 42
0.00000001
 43
0.00000001
 40
0.0
 40
0.0
 40
0.0
 40
0.0
 40
0.4997495654987416
 40
0.9999999999999999
 40
0.9999999999999999
 40
0.9999999999999999
 40
0.9999999999999999
 10
292.972728267113
 20
259.2460824707557
 30
0.0
 10
292.9730350615915
 20
259.2467659214863
 30
0.0
 10
292.9736489580301
 20
259.2481335079294
 30
0.0
 10
292.9742768226922
 20
259.249495318476
 30
0.0
 10
292.9745909122622
 20
259.2501765647937
 30
0.0
  0
LINE
  5
152
330
1F
100
AcDbEntity
  8
0
  6
Continuous
 62
     7
370
    15
100
AcDbLine
 10
292.6020767836
 20
259.4613707224
 30
0.0
 11
292.6039245276
 21
259.4654424647
 31
0.0
  0
SPLINE
  5
153
330
1F
100
AcDbEntity
  8
0
  6
Continuous
 62
     7
370
    15
100
AcDbSpline
210
0.0
220
0.0
230
1.0
 70
    24
 71
     3
 72
     9
 73
     5
 74
     0
 42
0.00000001
 43
0.00000001
 40
0.0
 40
0.0
 40
0.0
 40
0.0
 40
0.499389842432538
 40
1.0
 40
1.0
 40
1.0
 40
1.0
 10
293.1720014957583
 20
258.9421583870459
 30
0.0
 10
293.1723096405341
 20
258.9428529553107
 30
0.0
 10
293.172926683072
 20
258.9442437890958
 30
0.0
 10
293.1735414707767
 20
258.9456295404139
 30
0.0
 10
293.1738492397463
 20
258.9463232615996
 30
0.0
  0
LINE
  5
154
330
1F
100
AcDbEntity
  8
0
  6
Continuous
 62
     7
370
    15
100
AcDbLine
 10
291.6653897909
 20
259.6344179073
 30
0.0
 11
291.6672375349
 21
259.6385343531
 31
0.0
  0
SPLINE
  5
155
330
1F
100
AcDbEntity
  8
0
  6
Continuous
 62
     7
370
    15
100
AcDbSpline
210
0.0
220
0.0
230
1.0
 70
     8
 71
     3
 72
     9
 73
     5
 74
     0
 42
0.00000001
 43
0.00000001
 40
0.0
 40
0.0
 40
0.0
 40
0.0
 40
0.4984714729123044
 40
1.0
 40
1.0
 40
1.0
 40
1.0
 10
291.6651960758364
 20
259.834208951335
 30
0.0
 10
291.6655032705983
 20
259.8348851892928
 30
0.0
 10
291.6661195441036
 20
259.836241812479
 30
0.0
 10
291.6667450246489
 20
259.8375897588913
 30
0.0
 10
291.6670587209857
 20
259.8382657924701
 30
0.0
  0
SPLINE
  5
156
330
1F
100
AcDbEntity
  8
0
  6
Continuous
 62
     7
370
    15
100
AcDbSpline
210
0.0
220
0.0
230
1.0
 70
     8
 71
     3
 72
     9
 73
     5
 74
     0
 42
0.00000001
 43
0.00000001
 40
0.0
 40
0.0
 40
0.0
 40
0.0
 40
0.4994460403971858
 40
1.0
 40
1.0
 40
1.0
 40
1.0
 10
292.5989475397265
 20
259.0490965703536
 30
0.0
 10
292.599254429634
 20
259.0497960695893
 30
0.0
 10
292.5998688902215
 20
259.0511966197571
 30
0.0
 10
292.6004961883258
 20
259.0525925225563
 30
0.0
 10
292.6008101848757
 20
259.0532912472297
 30
0.0
  0
LINE
  5
157
330
1F
100
AcDbEntity
  8
0
  6
Continuous
 62
     7
370
    15
100
AcDbLine
 10
292.3345711378
 20
259.3130780915
 30
0.0
 11
292.336433783
 21
259.3172243396
 31
0.0
  0
SPLINE
  5
158
330
1F
100
AcDbEntity
  8
0
  6
Continuous
 62
     7
370
    15
100
AcDbSpline
210
0.0
220
0.0
230
1.0
 70
     8
 71
     3
 72
     9
 73
     5
 74
     0
 42
0.00000001
 43
0.00000001
 40
0.0
 40
0.0
 40
0.0
 40
0.0
 40
0.5003636621770232
 40
1.0
 40
1.0
 40
1.0
 40
1.0
 10
291.3507815746462
 20
259.583914146762
 30
0.0
 10
291.3510881753465
 20
259.5846095921489
 30
0.0
 10
291.351700931075
 20
259.5859994720294
 30
0.0
 10
291.3523299427204
 20
259.5873886585435
 30
0.0
 10
291.3526442197955
 20
259.5880827466059
 30
0.0
  0
SPLINE
  5
159
330
1F
100
AcDbEntity
  8
0
  6
Continuous
 62
     7
370
    15
100
AcDbSpline
210
0.0
220
0.0
230
1.0
 70
     8
 71
     3
 72
     9
 73
     5
 74
     0
 42
0.00000001
 43
0.00000001
 40
0.0
 40
0.0
 40
0.0
 40
0.0
 40
0.4996905557465682
 40
1.0
 40
1.0
 40
1.0
 40
1.0
 10
291.9950332788623
 20
259.4324512938071
 30
0.0
 10
291.9953413313713
 20
259.4331416177931
 30
0.0
 10
291.995957817926
 20
259.4345231207615
 30
0.0
 10
291.9965731609325
 20
259.4359057829554
 30
0.0
 10
291.9968810228503
 20
259.4365975419093
 30
0.0
  0
SPLINE
  5
15A
330
1F
100
AcDbEntity
  8
0
  6
Continuous
 62
     7
370
    15
100
AcDbSpline
210
0.0
220
0.0
230
1.0
 70
     8
 71
     3
 72
     9
 73
     5
 74
     0
 42
0.00000001
 43
0.00000001
 40
0.0
 40
0.0
 40
0.0
 40
0.0
 40
0.4997319101114513
 40
1.0
 40
1.0
 40
1.0
 40
1.0
 10
291.663854971329
 20
259.3252225378562
 30
0.0
 10
291.6641630111321
 20
259.3259258741228
 30
0.0
 10
291.6647794212449
 20
259.3273333012901
 30
0.0
 10
291.6653948406345
 20
259.3287347440774
 30
0.0
 10
291.665702715317
 20
259.3294358411837
 30
0.0
  0
LINE
  5
15B
330
1F
100
AcDbEntity
  8
0
  6
Continuous
 62
     7
370
    15
100
AcDbLine
 10
279.7536846546
 20
265.1788978437
 30
0.0
 11
279.7536846546
 21
280.7465619007
 31
0.0
  0
LINE
  5
15C
330
1F
100
AcDbEntity
  8
0
  6
Continuous
 62
     7
370
    15
100
AcDbLine
 10
279.7536846546
 20
280.7465619007
 30
0.0
 11
279.7536846546
 21
282.3595529953
 31
0.0
  0
SPLINE
  5
15D
330
1F
100
AcDbEntity
  8
0
  6
Continuous
 62
     7
370
    15
100
AcDbSpline
210
0.0
220
0.0
230
1.0
 70
     8
 71
     3
 72
    11
 73
     7
 74
     0
 42
0.00000001
 43
0.00000001
 40
0.0
 40
0.0
 40
0.0
 40
0.0
 40
0.294731980655085
 40
0.5894742008860638
 40
0.8837717785491088
 40
1.0
 40
1.0
 40
1.0
 40
1.0
 10
279.7536846546328
 20
282.3595529953051
 30
0.0
 10
279.7592243245777
 20
282.4161111275548
 30
0.0
 10
279.7703038569268
 20
282.5292293569963
 30
0.0
 10
279.8570416345807
 20
282.6791479771974
 30
0.0
 10
279.9584618321803
 20
282.7717993886612
 30
0.0
 10
280.0286363051838
 20
282.8069481140694
 30
0.0
 10
280.0485041288531
 20
282.8168994346667
 30
0.0
  0
LINE
  5
15E
330
1F
100
AcDbEntity
  8
0
  6
Continuous
 62
     7
370
    15
100
AcDbLine
 10
279.7536846546
 20
263.5360224703
 30
0.0
 11
279.7536846546
 21
265.1788978437
 31
0.0
  0
SPLINE
  5
15F
330
1F
100
AcDbEntity
  8
0
  6
Continuous
 62
     7
370
    15
100
AcDbSpline
210
0.0
220
0.0
230
1.0
 70
    24
 71
     3
 72
    15
 73
    11
 74
     0
 42
0.00000001
 43
0.00000001
 40
0.0
 40
0.0
 40
0.0
 40
0.0
 40
0.8893552112063151
 40
0.9507540203934524
 40
0.9814860723501431
 40
0.9897493733993858
 40
0.9940495496391878
 40
0.9969154110875482
 40
0.9987000762265696
 40
1.0
 40
1.0
 40
1.0
 40
1.0
 10
294.7536852506793
 20
273.5877274135161
 30
0.0
 10
295.0535839020401
 20
273.587727413516
 30
0.0
 10
295.3741867892768
 20
273.5877274135159
 30
0.0
 10
295.6998335253472
 20
273.5877274135161
 30
0.0
 10
295.7327497726984
 20
273.5877274135161
 30
0.0
 10
295.7461116611098
 20
273.5877274135161
 30
0.0
 10
295.7504635578299
 20
273.5877274135161
 30
0.0
 10
295.7525845092799
 20
273.5877274135161
 30
0.0
 10
295.7535332367895
 20
273.5877274135161
 30
0.0
 10
295.7536311239507
 20
273.5877274135161
 30
0.0
 10
295.753672376076
 20
273.5877274135161
 30
0.0
  0
LINE
  5
160
330
1F
100
AcDbEntity
  8
0
  6
Continuous
 62
     7
370
    15
100
AcDbLine
 10
294.7536852507
 20
272.3202756206
 30
0.0
 11
295.7536723761
 21
272.3377286056
 31
0.0
  0
LINE
  5
161
330
1F
100
AcDbEntity
  8
0
  6
Continuous
 62
     7
370
    15
100
AcDbLine
 10
294.7536852507
 20
270.8322084108
 30
0.0
 11
295.7536723761
 21
270.8340561548
 31
0.0
  0
SPLINE
  5
162
330
1F
100
AcDbEntity
  8
0
  6
Continuous
 62
     7
370
    15
100
AcDbSpline
210
0.0
220
0.0
230
1.0
 70
     8
 71
     3
 72
     9
 73
     5
 74
     0
 42
0.00000001
 43
0.00000001
 40
0.0
 40
0.0
 40
0.0
 40
0.0
 40
0.4993116733166463
 40
1.0
 40
1.0
 40
1.0
 40
1.0
 10
293.1563999799884
 20
288.5791635671664
 30
0.0
 10
293.1567081487121
 20
288.5783912784476
 30
0.0
 10
293.1573253358123
 20
288.5768445717308
 30
0.0
 10
293.1579399792047
 20
288.5752968044596
 30
0.0
 10
293.1582477239764
 20
288.5745218554545
 30
0.0
  0
SPLINE
  5
163
330
1F
100
AcDbEntity
  8
0
  6
Continuous
 62
     7
370
    15
100
AcDbSpline
210
0.0
220
0.0
230
1.0
 70
     8
 71
     3
 72
    13
 73
     9
 74
     0
 42
0.00000001
 43
0.00000001
 40
0.0
 40
0.0
 40
0.0
 40
0.0
 40
0.1254913758007221
 40
0.2493159822428219
 40
0.37317217498134
 40
0.4989613335910461
 40
0.7492681211783646
 40
1.0
 40
1.0
 40
1.0
 40
1.0
 10
293.1563999799884
 20
288.5791635671664
 30
0.0
 10
293.153173502313
 20
288.5777667347289
 30
0.0
 10
293.1467634008565
 20
288.5749916225032
 30
0.0
 10
293.077972491725
 20
288.5440507710882
 30
0.0
 10
292.961101716314
 20
288.4927864346228
 30
0.0
 10
292.7538098545721
 20
288.4041400333977
 30
0.0
 10
292.4485492447663
 20
288.2775647066156
 30
0.0
 10
292.1998998992739
 20
288.1775958247558
 30
0.0
 10
292.0754697469866
 20
288.1275689760257
 30
0.0
  0
SPLINE
  5
164
330
1F
100
AcDbEntity
  8
0
  6
Continuous
 62
     7
370
    15
100
AcDbSpline
210
0.0
220
0.0
230
1.0
 70
     8
 71
     3
 72
    13
 73
     9
 74
     0
 42
0.00000001
 43
0.00000001
 40
0.0
 40
0.0
 40
0.0
 40
0.0
 40
0.2505152194495086
 40
0.5001083871292623
 40
0.6271558297042276
 40
0.7499821052175282
 40
0.8748485466978777
 40
0.9999999999999999
 40
0.9999999999999999
 40
0.9999999999999999
 40
0.9999999999999999
 10
292.0754697469866
 20
288.1275689760257
 30
0.0
 10
291.9515795986861
 20
288.0780651691799
 30
0.0
 10
291.7042552948615
 20
287.9792397602776
 30
0.0
 10
291.3971825106834
 20
287.8605540099356
 30
0.0
 10
291.1830362069217
 20
287.7805173462803
 30
0.0
 10
291.0565689038185
 20
287.7346991947575
 30
0.0
 10
290.9858434523009
 20
287.7103031234493
 30
0.0
 10
290.9786199567192
 20
287.7078626182616
 30
0.0
 10
290.9750040916598
 20
287.7066409746218
 30
0.0
  0
SPLINE
  5
165
330
1F
100
AcDbEntity
  8
0
  6
Continuous
 62
     7
370
    15
100
AcDbSpline
210
0.0
220
0.0
230
1.0
 70
     8
 71
     3
 72
    11
 73
     7
 74
     0
 42
0.00000001
 43
0.00000001
 40
0.0
 40
0.0
 40
0.0
 40
0.0
 40
0.2526474592399122
 40
0.4983529950273153
 40
0.7492460110976784
 40
1.0
 40
1.0
 40
1.0
 40
1.0
 10
291.3422581104434
 20
287.8535440722514
 30
0.0
 10
291.3440656467422
 20
287.8542512078197
 30
0.0
 10
291.3476310541715
 20
287.8556460491905
 30
0.0
 10
291.3796727969209
 20
287.8679533971434
 30
0.0
 10
291.4266596583997
 20
287.8861130007798
 30
0.0
 10
291.4667366362644
 20
287.901734200699
 30
0.0
 10
291.4867695717013
 20
287.9095426360179
 30
0.0
  0
SPLINE
  5
166
330
1F
100
AcDbEntity
  8
0
  6
Continuous
 62
     7
370
    15
100
AcDbSpline
210
0.0
220
0.0
230
1.0
 70
     8
 71
     3
 72
     9
 73
     5
 74
     0
 42
0.00000001
 43
0.00000001
 40
0.0
 40
0.0
 40
0.0
 40
0.0
 40
0.4986271131848417
 40
1.0
 40
1.0
 40
1.0
 40
1.0
 10
291.4867695717013
 20
287.9095426360179
 30
0.0
 10
291.5798391693854
 20
287.9461098683407
 30
0.0
 10
291.7664908680661
 20
288.0194456965697
 30
0.0
 10
291.9645667612191
 20
288.0986576114551
 30
0.0
 10
292.0638766435778
 20
288.1383723178912
 30
0.0
  0
SPLINE
  5
167
330
1F
100
AcDbEntity
  8
0
  6
Continuous
 62
     7
370
    15
100
AcDbSpline
210
0.0
220
0.0
230
1.0
 70
     8
 71
     3
 72
    13
 73
     9
 74
     0
 42
0.00000001
 43
0.00000001
 40
0.0
 40
0.0
 40
0.0
 40
0.0
 40
0.5002178069496293
 40
0.6253725983988103
 40
0.7503512182224675
 40
0.8754802969182651
 40
0.9379597916076478
 40
1.0
 40
1.0
 40
1.0
 40
1.0
 10
292.0638766435778
 20
288.1383723178912
 30
0.0
 10
292.2111570249849
 20
288.19740064015
 30
0.0
 10
292.3952870450162
 20
288.2711978835853
 30
0.0
 10
292.6036267718347
 20
288.3559714858448
 30
0.0
 10
292.695560364392
 20
288.3937542963104
 30
0.0
 10
292.7537840457624
 20
288.4178147088855
 30
0.0
 10
292.7780411000627
 20
288.4278626840193
 30
0.0
 10
292.779863515497
 20
288.428580078686
 30
0.0
 10
292.7807715086138
 20
288.4289375105906
 30
0.0
  0
SPLINE
  5
168
330
1F
100
AcDbEntity
  8
0
  6
Continuous
 62
     7
370
    15
100
AcDbSpline
210
0.0
220
0.0
230
1.0
 70
     8
 71
     3
 72
     9
 73
     5
 74
     0
 42
0.00000001
 43
0.00000001
 40
0.0
 40
0.0
 40
0.0
 40
0.0
 40
0.5006927870179356
 40
1.0
 40
1.0
 40
1.0
 40
1.0
 10
290.9750040916598
 20
287.7066409746218
 30
0.0
 10
290.9753118350502
 20
287.7058660290753
 30
0.0
 10
290.9759264702087
 20
287.7043182824996
 30
0.0
 10
290.976543665558
 20
287.7027715550714
 30
0.0
 10
290.9768518356478
 20
287.70199926291
 30
0.0
  0
LINE
  5
169
330
1F
100
AcDbEntity
  8
0
  6
Continuous
 62
     7
370
    15
100
AcDbLine
 10
294.0036800055
 20
243.2127291868
 30
0.0
 11
294.0036800055
 21
246.5377277294
 31
0.0
  0
LINE
  5
16A
330
1F
100
AcDbEntity
  8
0
  6
Continuous
 62
     7
370
    15
100
AcDbLine
 10
294.0036800055
 20
239.8877287814
 30
0.0
 11
294.0036800055
 21
243.2127291868
 31
0.0
  0
LINE
  5
16B
330
1F
100
AcDbEntity
  8
0
  6
Continuous
 62
     7
370
    15
100
AcDbLine
 10
293.2733591942
 20
187.5074761519
 30
0.0
 11
293.2956066279
 21
187.5071650902
 31
0.0
  0
LINE
  5
16C
330
1F
100
AcDbEntity
  8
0
  6
Continuous
 62
     7
370
    15
100
AcDbLine
 10
288.8751473574
 20
202.3045760179
 30
0.0
 11
293.2733591942
 21
187.5074761519
 31
0.0
  0
LINE
  5
16D
330
1F
100
AcDbEntity
  8
0
  6
Continuous
 62
     7
370
    15
100
AcDbLine
 10
294.2536767868
 20
203.2427317062
 30
0.0
 11
288.8751473574
 21
202.3045760179
 31
0.0
  0
LINE
  5
16E
330
1F
100
AcDbEntity
  8
0
  6
Continuous
 62
     7
370
    15
100
AcDbLine
 10
317.0840736775
 20
187.1749939928
 30
0.0
 11
317.1749111561
 21
187.4627298275
 31
0.0
  0
LINE
  5
16F
330
1F
100
AcDbEntity
  8
0
  6
Continuous
 62
     7
370
    15
100
AcDbLine
 10
317.0627948193
 20
187.175292016
 30
0.0
 11
317.0840736775
 21
187.1749939928
 31
0.0
  0
LINE
  5
170
330
1F
100
AcDbEntity
  8
0
  6
Continuous
 62
     7
370
    15
100
AcDbLine
 10
317.0421418099
 20
187.1124743084
 30
0.0
 11
317.0627948193
 21
187.175292016
 31
0.0
  0
LINE
  5
171
330
1F
100
AcDbEntity
  8
0
  6
Continuous
 62
     7
370
    15
100
AcDbLine
 10
293.3144863991
 20
187.4437960396
 30
0.0
 11
293.2956066279
 21
187.5071650902
 31
0.0
  0
LINE
  5
172
330
1F
100
AcDbEntity
  8
0
  6
Continuous
 62
     7
370
    15
100
AcDbLine
 10
316.4099749474
 20
186.0962020764
 30
0.0
 11
293.9180430321
 21
186.410268263
 31
0.0
  0
SPLINE
  5
173
330
1F
100
AcDbEntity
  8
0
  6
Continuous
 62
     7
370
    15
100
AcDbSpline
210
0.0
220
0.0
230
1.0
 70
     8
 71
     3
 72
    11
 73
     7
 74
     0
 42
0.00000001
 43
0.00000001
 40
0.0
 40
0.0
 40
0.0
 40
0.0
 40
0.2082973085416743
 40
0.4426827511190102
 40
0.7059354974472306
 40
1.0
 40
1.0
 40
1.0
 40
1.0
 10
293.3706786779559
 20
187.2004544893313
 30
0.0
 10
293.3887205037186
 20
187.1038877782658
 30
0.0
 10
293.4270637983093
 20
186.8986598873234
 30
0.0
 10
293.5448456443455
 20
186.6451966047278
 30
0.0
 10
293.7065467415548
 20
186.4510968751814
 30
0.0
 10
293.8449928975722
 20
186.4243703335346
 30
0.0
 10
293.9180430320895
 20
186.4102682629633
 30
0.0
  0
SPLINE
  5
174
330
1F
100
AcDbEntity
  8
0
  6
Continuous
 62
     7
370
    15
100
AcDbSpline
210
0.0
220
0.0
230
1.0
 70
     8
 71
     3
 72
    11
 73
     7
 74
     0
 42
0.00000001
 43
0.00000001
 40
0.0
 40
0.0
 40
0.0
 40
0.0
 40
0.2739158426844514
 40
0.5311895333093333
 40
0.7728174508679898
 40
1.0
 40
1.0
 40
1.0
 40
1.0
 10
316.4099749473727
 20
186.0962020764161
 30
0.0
 10
316.4738396039539
 20
186.1071359364966
 30
0.0
 10
316.5976887278011
 20
186.1283393542198
 30
0.0
 10
316.7549930210065
 20
186.3071404102656
 30
0.0
 10
316.8854561708229
 20
186.557271270417
 30
0.0
 10
316.9485901041424
 20
186.7684568979259
 30
0.0
 10
316.9791844038165
 20
186.8707961002398
 30
0.0
  0
LINE
  5
175
330
1F
100
AcDbEntity
  8
0
  6
Continuous
 62
     7
370
    15
100
AcDbLine
 10
293.3144863991
 20
187.4437960396
 30
0.0
 11
293.370678678
 21
187.2004544893
 31
0.0
  0
LINE
  5
176
330
1F
100
AcDbEntity
  8
0
  6
Continuous
 62
     7
370
    15
100
AcDbLine
 10
316.9791844038
 20
186.8707961002
 30
0.0
 11
317.0421418099
 21
187.1124743084
 31
0.0
  0
LINE
  5
177
330
1F
100
AcDbEntity
  8
0
  6
Continuous
 62
     7
370
    15
100
AcDbLine
 10
317.0180168299
 20
186.9258912811
 30
0.0
 11
316.9610347895
 21
186.8153712312
 31
0.0
  0
LINE
  5
178
330
1F
100
AcDbEntity
  8
0
  6
Continuous
 62
     7
370
    15
100
AcDbLine
 10
317.0180168299
 20
186.9258912811
 30
0.0
 11
317.3980113415
 21
186.800958083
 31
0.0
  0
SPLINE
  5
179
330
1F
100
AcDbEntity
  8
0
  6
Continuous
 62
     7
370
    15
100
AcDbSpline
210
0.0
220
0.0
230
1.0
 70
     8
 71
     3
 72
    11
 73
     7
 74
     0
 42
0.00000001
 43
0.00000001
 40
0.0
 40
0.0
 40
0.0
 40
0.0
 40
0.2500001082014764
 40
0.4999994880722201
 40
0.7500019491367192
 40
1.0
 40
1.0
 40
1.0
 40
1.0
 10
317.398011341492
 20
186.8009580830145
 30
0.0
 10
317.3547247192114
 20
186.7011606838088
 30
0.0
 10
317.2681516007582
 20
186.5015661761393
 30
0.0
 10
317.0283876942511
 20
186.2741790946172
 30
0.0
 10
316.7353335930235
 20
186.1215130704119
 30
0.0
 10
316.518427191523
 20
186.1046390248028
 30
0.0
 10
316.4099749473727
 20
186.0962020764161
 30
0.0
  0
LINE
  5
17A
330
1F
100
AcDbEntity
  8
0
  6
Continuous
 62
     7
370
    15
100
AcDbLine
 10
317.0180168299
 20
186.9258912811
 30
0.0
 11
317.1945210842
 21
187.4627298275
 31
0.0
  0
LINE
  5
17B
330
1F
100
AcDbEntity
  8
0
  6
Continuous
 62
     7
370
    15
100
AcDbLine
 10
317.3980113415
 20
186.800958083
 30
0.0
 11
317.6155831961
 21
187.4627298275
 31
0.0
  0
LINE
  5
17C
330
1F
100
AcDbEntity
  8
0
  6
Continuous
 62
     7
370
    15
100
AcDbLine
 10
292.9500785021
 20
187.142338098
 30
0.0
 11
293.3333959726
 21
187.2566132406
 31
0.0
  0
LINE
  5
17D
330
1F
100
AcDbEntity
  8
0
  6
Continuous
 62
     7
370
    15
100
AcDbLine
 10
292.9500785021
 20
187.142338098
 30
0.0
 11
288.4656038431
 21
202.1851869831
 31
0.0
  0
LINE
  5
17E
330
1F
100
AcDbEntity
  8
0
  6
Continuous
 62
     7
370
    15
100
AcDbLine
 10
288.4656038431
 20
202.1851869831
 30
0.0
 11
288.8489362148
 21
202.299463057
 31
0.0
  0
LINE
  5
17F
330
1F
100
AcDbEntity
  8
0
  6
Continuous
 62
     7
370
    15
100
AcDbLine
 10
293.3333959726
 20
187.2566132406
 30
0.0
 11
288.8489362148
 21
202.299463057
 31
0.0
  0
SPLINE
  5
180
330
1F
100
AcDbEntity
  8
0
  6
Continuous
 62
     7
370
    15
100
AcDbSpline
210
0.0
220
0.0
230
1.0
 70
     8
 71
     3
 72
    11
 73
     7
 74
     0
 42
0.00000001
 43
0.00000001
 40
0.0
 40
0.0
 40
0.0
 40
0.0
 40
0.2500039864684152
 40
0.5000005687244602
 40
0.7500019773238451
 40
1.0
 40
1.0
 40
1.0
 40
1.0
 10
293.9180430320895
 20
186.4102682629633
 30
0.0
 10
293.8098649303995
 20
186.4217292301472
 30
0.0
 10
293.5935119308633
 20
186.4446508250827
 30
0.0
 10
293.3048446231136
 20
186.6054491575774
 30
0.0
 10
293.0715167224619
 20
186.8394339564248
 30
0.0
 10
292.9905577261387
 20
187.0413705066566
 30
0.0
 10
292.9500785020983
 20
187.1423380980301
 30
0.0
  0
LINE
  5
181
330
1F
100
AcDbEntity
  8
0
  6
Continuous
 62
     7
370
    15
100
AcDbLine
 10
293.3794852642
 20
187.1607615212
 30
0.0
 11
293.3333959726
 21
187.2566132406
 31
0.0
  0
LINE
  5
182
330
1F
100
AcDbEntity
  8
0
  6
Continuous
 62
     7
370
    15
100
AcDbLine
 10
292.5111946015
 20
244.3433231274
 30
0.0
 11
294.0036800055
 21
244.3433231274
 31
0.0
  0
LINE
  5
183
330
1F
100
AcDbEntity
  8
0
  6
Continuous
 62
     7
370
    15
100
AcDbLine
 10
337.9111957101
 20
408.462730662
 30
0.0
 11
336.4123996643
 21
408.462730662
 31
0.0
  0
LINE
  5
184
330
1F
100
AcDbEntity
  8
0
  6
Continuous
 62
     7
370
    15
100
AcDbLine
 10
336.4123996643
 20
409.8627245585
 30
0.0
 11
336.4123996643
 21
409.1127342144
 31
0.0
  0
LINE
  5
185
330
1F
100
AcDbEntity
  8
0
  6
Continuous
 62
     7
370
    15
100
AcDbLine
 10
336.4123996643
 20
409.1127342144
 30
0.0
 11
335.4123976378
 21
409.1127342144
 31
0.0
  0
LINE
  5
186
330
1F
100
AcDbEntity
  8
0
  6
Continuous
 62
     7
370
    15
100
AcDbLine
 10
335.4123976378
 20
409.8627245585
 30
0.0
 11
336.4123996643
 21
409.8627245585
 31
0.0
  0
LINE
  5
187
330
1F
100
AcDbEntity
  8
0
  6
Continuous
 62
     7
370
    15
100
AcDbLine
 10
335.4111980943
 20
409.1127342144
 30
0.0
 11
335.4123976378
 21
409.1127342144
 31
0.0
  0
LINE
  5
188
330
1F
100
AcDbEntity
  8
0
  6
Continuous
 62
     7
370
    15
100
AcDbLine
 10
335.4111980943
 20
409.8627245585
 30
0.0
 11
335.4123976378
 21
409.8627245585
 31
0.0
  0
LINE
  5
189
330
1F
100
AcDbEntity
  8
0
  6
Continuous
 62
     7
370
    15
100
AcDbLine
 10
335.4111980943
 20
409.109187738
 30
0.0
 11
336.4123996643
 21
409.109187738
 31
0.0
  0
LINE
  5
18A
330
1F
100
AcDbEntity
  8
0
  6
Continuous
 62
     7
370
    15
100
AcDbLine
 10
336.4123996643
 20
409.109187738
 30
0.0
 11
336.4123996643
 21
394.3627303997
 31
0.0
  0
LINE
  5
18B
330
1F
100
AcDbEntity
  8
0
  6
Continuous
 62
     7
370
    15
100
AcDbLine
 10
323.3536776451
 20
328.4377283016
 30
0.0
 11
323.7073567061
 21
328.4377283016
 31
0.0
  0
LINE
  5
18C
330
1F
100
AcDbEntity
  8
0
  6
Continuous
 62
     7
370
    15
100
AcDbLine
 10
323.7073567061
 20
188.487728552
 30
0.0
 11
323.3536776451
 21
188.487728552
 31
0.0
  0
LINE
  5
18D
330
1F
100
AcDbEntity
  8
0
  6
Continuous
 62
     7
370
    15
100
AcDbLine
 10
323.3536776451
 20
188.487728552
 30
0.0
 11
323.3536776451
 21
187.4627298275
 31
0.0
  0
LINE
  5
18E
330
1F
100
AcDbEntity
  8
0
  6
Continuous
 62
     7
370
    15
100
AcDbLine
 10
323.3536776451
 20
187.4627298275
 30
0.0
 11
296.7786785511
 21
187.4627298275
 31
0.0
  0
LINE
  5
18F
330
1F
100
AcDbEntity
  8
0
  6
Continuous
 62
     7
370
    15
100
AcDbLine
 10
296.7786785511
 20
187.4627298275
 30
0.0
 11
296.7786785511
 21
188.487728552
 31
0.0
  0
LINE
  5
190
330
1F
100
AcDbEntity
  8
0
  6
Continuous
 62
     7
370
    15
100
AcDbLine
 10
323.3536776451
 20
188.487728552
 30
0.0
 11
322.7286782412
 21
188.487728552
 31
0.0
  0
LINE
  5
191
330
1F
100
AcDbEntity
  8
0
  6
Continuous
 62
     7
370
    15
100
AcDbLine
 10
296.7786785511
 20
328.4377283016
 30
0.0
 11
296.7786785511
 21
329.4627270261
 31
0.0
  0
LINE
  5
192
330
1F
100
AcDbEntity
  8
0
  6
Continuous
 62
     7
370
    15
100
AcDbLine
 10
296.7786785511
 20
329.4627270261
 30
0.0
 11
323.3536776451
 21
329.4627270261
 31
0.0
  0
LINE
  5
193
330
1F
100
AcDbEntity
  8
0
  6
Continuous
 62
     7
370
    15
100
AcDbLine
 10
323.3536776451
 20
329.4627270261
 30
0.0
 11
323.3536776451
 21
328.4377283016
 31
0.0
  0
LINE
  5
194
330
1F
100
AcDbEntity
  8
0
  6
Continuous
 62
     7
370
    15
100
AcDbLine
 10
323.3536776451
 20
328.4377283016
 30
0.0
 11
322.7286782412
 21
328.4377283016
 31
0.0
  0
LINE
  5
195
330
1F
100
AcDbEntity
  8
0
  6
Continuous
 62
     7
370
    15
100
AcDbLine
 10
295.7536723761
 20
188.487728552
 30
0.0
 11
296.7786785511
 21
188.487728552
 31
0.0
  0
LINE
  5
196
330
1F
100
AcDbEntity
  8
0
  6
Continuous
 62
     7
370
    15
100
AcDbLine
 10
295.7536723761
 20
188.487728552
 30
0.0
 11
295.7536723761
 21
328.4377283016
 31
0.0
  0
LINE
  5
197
330
1F
100
AcDbEntity
  8
0
  6
Continuous
 62
     7
370
    15
100
AcDbLine
 10
296.7786785511
 20
328.4377283016
 30
0.0
 11
295.7536723761
 21
328.4377283016
 31
0.0
  0
SPLINE
  5
198
330
1F
100
AcDbEntity
  8
0
  6
Continuous
 62
     7
370
    15
100
AcDbSpline
210
0.0
220
0.0
230
1.0
 70
     8
 71
     3
 72
    12
 73
     8
 74
     0
 42
0.00000001
 43
0.00000001
 40
0.0
 40
0.0
 40
0.0
 40
0.0
 40
0.230336590613369
 40
0.4607661274238768
 40
0.691189428386553
 40
0.9216156593648368
 40
1.0
 40
1.0
 40
1.0
 40
1.0
 10
296.7786785511172
 20
329.4627270260859
 30
0.0
 10
296.6550496581963
 20
329.4496677009926
 30
0.0
 10
296.4077419852072
 20
329.4235437810632
 30
0.0
 10
296.0845048986714
 20
329.2209058752227
 30
0.0
 10
295.8525437555596
 20
328.9265095560444
 30
0.0
 10
295.7614864872115
 20
328.6445826122182
 30
0.0
 10
295.7552542768955
 20
328.4796042101934
 30
0.0
 10
295.753672376076
 20
328.4377283016253
 30
0.0
  0
SPLINE
  5
199
330
1F
100
AcDbEntity
  8
0
  6
Continuous
 62
     7
370
    15
100
AcDbSpline
210
0.0
220
0.0
230
1.0
 70
     8
 71
     3
 72
    11
 73
     7
 74
     0
 42
0.00000001
 43
0.00000001
 40
0.0
 40
0.0
 40
0.0
 40
0.0
 40
0.2547134095520896
 40
0.5096048523165535
 40
0.7645027813212758
 40
1.0
 40
1.0
 40
1.0
 40
1.0
 10
296.7786785511172
 20
329.0627277055789
 30
0.0
 10
296.6952246790485
 20
329.0529674672518
 30
0.0
 10
296.5282586044098
 20
329.0334401686304
 30
0.0
 10
296.319072058162
 20
328.8834805069796
 30
0.0
 10
296.179414588835
 20
328.6753754899489
 30
0.0
 10
296.1620283532112
 20
328.5148268557229
 30
0.0
 10
296.1536791471636
 20
328.4377283016253
 30
0.0
  0
SPLINE
  5
19A
330
1F
100
AcDbEntity
  8
0
  6
Continuous
 62
     7
370
    15
100
AcDbSpline
210
0.0
220
0.0
230
1.0
 70
     8
 71
     3
 72
    11
 73
     7
 74
     0
 42
0.00000001
 43
0.00000001
 40
0.0
 40
0.0
 40
0.0
 40
0.0
 40
0.254714441352183
 40
0.5096094011416993
 40
0.7645064220340373
 40
1.0
 40
1.0
 40
1.0
 40
1.0
 10
296.1536791471636
 20
188.4877285519648
 30
0.0
 10
296.1634427943378
 20
188.4042758454935
 30
0.0
 10
296.1829770082716
 20
188.23731128886
 30
0.0
 10
296.3329309266974
 20
188.0281184805635
 30
0.0
 10
296.5410396739923
 20
187.8884717406866
 30
0.0
 10
296.7015830154591
 20
187.8710806391289
 30
0.0
 10
296.7786785511172
 20
187.8627291480113
 30
0.0
  0
SPLINE
  5
19B
330
1F
100
AcDbEntity
  8
0
  6
Continuous
 62
     7
370
    15
100
AcDbSpline
210
0.0
220
0.0
230
1.0
 70
     8
 71
     3
 72
    12
 73
     8
 74
     0
 42
0.00000001
 43
0.00000001
 40
0.0
 40
0.0
 40
0.0
 40
0.0
 40
0.2303395438900019
 40
0.4607650023896429
 40
0.6911891682065271
 40
0.9216197942481893
 40
1.0
 40
1.0
 40
1.0
 40
1.0
 10
295.753672376076
 20
188.4877285519648
 30
0.0
 10
295.7667340893867
 20
188.3640980046307
 30
0.0
 10
295.7928623879117
 20
188.1167907968633
 30
0.0
 10
295.9955040073994
 20
187.7935597140657
 30
0.0
 10
296.2898977435951
 20
187.5615974231571
 30
0.0
 10
296.5718280173211
 20
187.4705344595785
 30
0.0
 10
296.7368051970706
 20
187.464309741832
 30
0.0
 10
296.7786785511172
 20
187.4627298275042
 30
0.0
  0
ARC
  5
19C
330
1F
100
AcDbEntity
  8
0
  6
Continuous
 62
     7
370
    15
100
AcDbCircle
 10
573.9861961489
 20
187.8877289992
 30
0.0
 40
1.025000000000013
100
AcDbArc
 50
270.0
 51
301.3881499198
  0
LINE
  5
19D
330
1F
100
AcDbEntity
  8
0
  6
Continuous
 62
     7
370
    15
100
AcDbLine
 10
562.5111978797
 20
186.8627289841
 30
0.0
 11
560.0111928133
 21
186.8627289841
 31
0.0
  0
LINE
  5
19E
330
1F
100
AcDbEntity
  8
0
  6
Continuous
 62
     7
370
    15
100
AcDbLine
 10
560.0111928133
 20
186.8627289841
 30
0.0
 11
560.0111928133
 21
187.0127296606
 31
0.0
  0
LINE
  5
19F
330
1F
100
AcDbEntity
  8
0
  6
Continuous
 62
     7
370
    15
100
AcDbLine
 10
573.9861946849
 20
186.8627289841
 30
0.0
 11
562.5111978797
 21
186.8627289841
 31
0.0
  0
ARC
  5
1A0
330
1F
100
AcDbEntity
  8
0
  6
Continuous
 62
     7
370
    15
100
AcDbCircle
 10
573.9861961489
 20
423.8377289992
 30
0.0
 40
1.025000000000112
100
AcDbArc
 50
21.4601278008
 51
90.0
  0
ARC
  5
1A1
330
1F
100
AcDbEntity
  8
0
  6
Continuous
 62
     7
370
    15
100
AcDbCircle
 10
573.9861961489
 20
423.8377289992
 30
0.0
 40
0.6250000000000568
100
AcDbArc
 50
36.8698977439
 51
90.0
  0
LINE
  5
1A2
330
1F
100
AcDbEntity
  8
0
  6
Continuous
 62
     7
370
    15
100
AcDbLine
 10
573.9861946849
 20
424.8627251545
 30
0.0
 11
566.03619422
 21
424.8627251545
 31
0.0
  0
LINE
  5
1A3
330
1F
100
AcDbEntity
  8
0
  6
Continuous
 62
     7
370
    15
100
AcDbLine
 10
573.9861946849
 20
424.4627332846
 30
0.0
 11
573.9111971406
 21
424.4627332846
 31
0.0
  0
ARC
  5
1A4
330
1F
100
AcDbEntity
  8
0
  6
Continuous
 62
     7
370
    15
100
AcDbCircle
 10
566.0361961489
 20
423.8377289992
 30
0.0
 40
1.025000000000024
100
AcDbArc
 50
90.0
 51
130.8786351463
  0
LINE
  5
1A5
330
1F
100
AcDbEntity
  8
0
  6
Continuous
 62
     7
370
    15
100
AcDbLine
 10
538.5111939458
 20
394.3627303997
 30
0.0
 11
538.5111939458
 21
413.2127291122
 31
0.0
  0
LINE
  5
1A6
330
1F
100
AcDbEntity
  8
0
  6
Continuous
 62
     7
370
    15
100
AcDbLine
 10
557.1611967234
 20
187.0127296606
 30
0.0
 11
557.1611967234
 21
186.6127284775
 31
0.0
  0
LINE
  5
1A7
330
1F
100
AcDbEntity
  8
0
  6
Continuous
 62
     7
370
    15
100
AcDbLine
 10
324.6111940889
 20
186.6127284775
 30
0.0
 11
557.1611967234
 21
186.6127284775
 31
0.0
  0
LINE
  5
1A8
330
1F
100
AcDbEntity
  8
0
  6
Continuous
 62
     7
370
    15
100
AcDbLine
 10
324.6111940889
 20
186.6127284775
 30
0.0
 11
324.6111940889
 21
187.6377290646
 31
0.0
  0
LINE
  5
1A9
330
1F
100
AcDbEntity
  8
0
  6
Continuous
 62
     7
370
    15
100
AcDbLine
 10
324.6111940889
 20
187.6377290646
 30
0.0
 11
324.6861990837
 21
187.6377290646
 31
0.0
  0
LINE
  5
1AA
330
1F
100
AcDbEntity
  8
0
  6
Continuous
 62
     7
370
    15
100
AcDbLine
 10
324.6111940889
 20
187.6377290646
 30
0.0
 11
323.6611929087
 21
187.6377290646
 31
0.0
  0
LINE
  5
1AB
330
1F
100
AcDbEntity
  8
0
  6
Continuous
 62
     7
370
    15
100
AcDbLine
 10
323.6611929087
 20
329.8663026253
 30
0.0
 11
323.6611929087
 21
328.4377283016
 31
0.0
  0
LINE
  5
1AC
330
1F
100
AcDbEntity
  8
0
  6
Continuous
 62
     7
370
    15
100
AcDbLine
 10
323.6611929087
 20
188.487728552
 30
0.0
 11
323.6611929087
 21
187.6377290646
 31
0.0
  0
LINE
  5
1AD
330
1F
100
AcDbEntity
  8
0
  6
Continuous
 62
     7
370
    15
100
AcDbLine
 10
323.7073567061
 20
423.5877221981
 30
0.0
 11
324.6861990837
 21
423.5877221981
 31
0.0
  0
LINE
  5
1AE
330
1F
100
AcDbEntity
  8
0
  6
Continuous
 62
     7
370
    15
100
AcDbLine
 10
573.9111971406
 20
423.5477274815
 30
0.0
 11
573.9111971406
 21
423.5877221981
 31
0.0
  0
LINE
  5
1AF
330
1F
100
AcDbEntity
  8
0
  6
Continuous
 62
     7
370
    15
100
AcDbLine
 10
573.9511993078
 20
423.5477274815
 30
0.0
 11
573.9111971406
 21
423.5477274815
 31
0.0
  0
LINE
  5
1B0
330
1F
100
AcDbEntity
  8
0
  6
Continuous
 62
     7
370
    15
100
AcDbLine
 10
573.9511993078
 20
424.2127216021
 30
0.0
 11
573.9511993078
 21
423.5477274815
 31
0.0
  0
LINE
  5
1B1
330
1F
100
AcDbEntity
  8
0
  6
Continuous
 62
     7
370
    15
100
AcDbLine
 10
574.3861940054
 20
424.2127216021
 30
0.0
 11
573.9511993078
 21
424.2127216021
 31
0.0
  0
LINE
  5
1B2
330
1F
100
AcDbEntity
  8
0
  6
Continuous
 62
     7
370
    15
100
AcDbLine
 10
557.1611967234
 20
187.0127296606
 30
0.0
 11
574.3861940054
 21
187.0127296606
 31
0.0
  0
LINE
  5
1B3
330
1F
100
AcDbEntity
  8
0
  6
Continuous
 62
     7
370
    15
100
AcDbLine
 10
562.9111972002
 20
422.3627275387
 30
0.0
 11
560.4111995844
 21
422.3627275387
 31
0.0
  0
LINE
  5
1B4
330
1F
100
AcDbEntity
  8
0
  6
Continuous
 62
     7
370
    15
100
AcDbLine
 10
560.4111995844
 20
422.3627275387
 30
0.0
 11
560.4111995844
 21
394.3627303997
 31
0.0
  0
LINE
  5
1B5
330
1F
100
AcDbEntity
  8
0
  6
Continuous
 62
     7
370
    15
100
AcDbLine
 10
560.4111995844
 20
394.3627303997
 30
0.0
 11
562.9111972002
 21
394.3627303997
 31
0.0
  0
LINE
  5
1B6
330
1F
100
AcDbEntity
  8
0
  6
Continuous
 62
     7
370
    15
100
AcDbLine
 10
562.9111972002
 20
394.3627303997
 30
0.0
 11
562.9111972002
 21
422.3627275387
 31
0.0
  0
LINE
  5
1B7
330
1F
100
AcDbEntity
  8
0
  6
Continuous
 62
     7
370
    15
100
AcDbLine
 10
540.4111963061
 20
422.3627275387
 30
0.0
 11
537.9111986903
 21
422.3627275387
 31
0.0
  0
LINE
  5
1B8
330
1F
100
AcDbEntity
  8
0
  6
Continuous
 62
     7
370
    15
100
AcDbLine
 10
537.9111986903
 20
422.3627275387
 30
0.0
 11
537.9111986903
 21
394.3627303997
 31
0.0
  0
LINE
  5
1B9
330
1F
100
AcDbEntity
  8
0
  6
Continuous
 62
     7
370
    15
100
AcDbLine
 10
537.9111986903
 20
394.3627303997
 30
0.0
 11
540.4111963061
 21
394.3627303997
 31
0.0
  0
LINE
  5
1BA
330
1F
100
AcDbEntity
  8
0
  6
Continuous
 62
     7
370
    15
100
AcDbLine
 10
540.4111963061
 20
394.3627303997
 30
0.0
 11
540.4111963061
 21
422.3627275387
 31
0.0
  0
LINE
  5
1BB
330
1F
100
AcDbEntity
  8
0
  6
Continuous
 62
     7
370
    15
100
AcDbLine
 10
525.4111957101
 20
422.3627275387
 30
0.0
 11
522.9111980943
 21
422.3627275387
 31
0.0
  0
LINE
  5
1BC
330
1F
100
AcDbEntity
  8
0
  6
Continuous
 62
     7
370
    15
100
AcDbLine
 10
522.9111980943
 20
422.3627275387
 30
0.0
 11
522.9111980943
 21
394.3627303997
 31
0.0
  0
LINE
  5
1BD
330
1F
100
AcDbEntity
  8
0
  6
Continuous
 62
     7
370
    15
100
AcDbLine
 10
522.9111980943
 20
394.3627303997
 30
0.0
 11
525.4111957101
 21
394.3627303997
 31
0.0
  0
LINE
  5
1BE
330
1F
100
AcDbEntity
  8
0
  6
Continuous
 62
     7
370
    15
100
AcDbLine
 10
525.4111957101
 20
394.3627303997
 30
0.0
 11
525.4111957101
 21
422.3627275387
 31
0.0
  0
LINE
  5
1BF
330
1F
100
AcDbEntity
  8
0
  6
Continuous
 62
     7
370
    15
100
AcDbLine
 10
510.4111951141
 20
422.3627275387
 30
0.0
 11
507.9111974982
 21
422.3627275387
 31
0.0
  0
LINE
  5
1C0
330
1F
100
AcDbEntity
  8
0
  6
Continuous
 62
     7
370
    15
100
AcDbLine
 10
507.9111974982
 20
422.3627275387
 30
0.0
 11
507.9111974982
 21
394.3627303997
 31
0.0
  0
LINE
  5
1C1
330
1F
100
AcDbEntity
  8
0
  6
Continuous
 62
     7
370
    15
100
AcDbLine
 10
507.9111974982
 20
394.3627303997
 30
0.0
 11
510.4111951141
 21
394.3627303997
 31
0.0
  0
LINE
  5
1C2
330
1F
100
AcDbEntity
  8
0
  6
Continuous
 62
     7
370
    15
100
AcDbLine
 10
510.4111951141
 20
394.3627303997
 30
0.0
 11
510.4111951141
 21
422.3627275387
 31
0.0
  0
LINE
  5
1C3
330
1F
100
AcDbEntity
  8
0
  6
Continuous
 62
     7
370
    15
100
AcDbLine
 10
495.411194518
 20
422.3627275387
 30
0.0
 11
492.9111969022
 21
422.3627275387
 31
0.0
  0
LINE
  5
1C4
330
1F
100
AcDbEntity
  8
0
  6
Continuous
 62
     7
370
    15
100
AcDbLine
 10
492.9111969022
 20
422.3627275387
 30
0.0
 11
492.9111969022
 21
394.3627303997
 31
0.0
  0
LINE
  5
1C5
330
1F
100
AcDbEntity
  8
0
  6
Continuous
 62
     7
370
    15
100
AcDbLine
 10
492.9111969022
 20
394.3627303997
 30
0.0
 11
495.411194518
 21
394.3627303997
 31
0.0
  0
LINE
  5
1C6
330
1F
100
AcDbEntity
  8
0
  6
Continuous
 62
     7
370
    15
100
AcDbLine
 10
495.411194518
 20
394.3627303997
 30
0.0
 11
495.411194518
 21
422.3627275387
 31
0.0
  0
LINE
  5
1C7
330
1F
100
AcDbEntity
  8
0
  6
Continuous
 62
     7
370
    15
100
AcDbLine
 10
480.4111957846
 20
422.3627275387
 30
0.0
 11
477.9111963061
 21
422.3627275387
 31
0.0
  0
LINE
  5
1C8
330
1F
100
AcDbEntity
  8
0
  6
Continuous
 62
     7
370
    15
100
AcDbLine
 10
477.9111963061
 20
422.3627275387
 30
0.0
 11
477.9111963061
 21
394.3627303997
 31
0.0
  0
LINE
  5
1C9
330
1F
100
AcDbEntity
  8
0
  6
Continuous
 62
     7
370
    15
100
AcDbLine
 10
477.9111963061
 20
394.3627303997
 30
0.0
 11
480.4111957846
 21
394.3627303997
 31
0.0
  0
LINE
  5
1CA
330
1F
100
AcDbEntity
  8
0
  6
Continuous
 62
     7
370
    15
100
AcDbLine
 10
480.4111957846
 20
394.3627303997
 30
0.0
 11
480.4111957846
 21
422.3627275387
 31
0.0
  0
LINE
  5
1CB
330
1F
100
AcDbEntity
  8
0
  6
Continuous
 62
     7
370
    15
100
AcDbLine
 10
465.4111970512
 20
422.3627275387
 30
0.0
 11
462.9111957101
 21
422.3627275387
 31
0.0
  0
LINE
  5
1CC
330
1F
100
AcDbEntity
  8
0
  6
Continuous
 62
     7
370
    15
100
AcDbLine
 10
462.9111957101
 20
422.3627275387
 30
0.0
 11
462.9111957101
 21
394.3627303997
 31
0.0
  0
LINE
  5
1CD
330
1F
100
AcDbEntity
  8
0
  6
Continuous
 62
     7
370
    15
100
AcDbLine
 10
462.9111957101
 20
394.3627303997
 30
0.0
 11
465.4111970512
 21
394.3627303997
 31
0.0
  0
LINE
  5
1CE
330
1F
100
AcDbEntity
  8
0
  6
Continuous
 62
     7
370
    15
100
AcDbLine
 10
465.4111970512
 20
394.3627303997
 30
0.0
 11
465.4111970512
 21
422.3627275387
 31
0.0
  0
LINE
  5
1CF
330
1F
100
AcDbEntity
  8
0
  6
Continuous
 62
     7
370
    15
100
AcDbLine
 10
442.9111961571
 20
422.3627275387
 30
0.0
 11
440.4111957474
 21
422.3627275387
 31
0.0
  0
LINE
  5
1D0
330
1F
100
AcDbEntity
  8
0
  6
Continuous
 62
     7
370
    15
100
AcDbLine
 10
440.4111957474
 20
422.3627275387
 30
0.0
 11
440.4111957474
 21
394.3627303997
 31
0.0
  0
LINE
  5
1D1
330
1F
100
AcDbEntity
  8
0
  6
Continuous
 62
     7
370
    15
100
AcDbLine
 10
440.4111957474
 20
394.3627303997
 30
0.0
 11
442.9111961571
 21
394.3627303997
 31
0.0
  0
LINE
  5
1D2
330
1F
100
AcDbEntity
  8
0
  6
Continuous
 62
     7
370
    15
100
AcDbLine
 10
442.9111961571
 20
394.3627303997
 30
0.0
 11
442.9111961571
 21
422.3627275387
 31
0.0
  0
LINE
  5
1D3
330
1F
100
AcDbEntity
  8
0
  6
Continuous
 62
     7
370
    15
100
AcDbLine
 10
427.9111955611
 20
422.3627275387
 30
0.0
 11
425.4111960826
 21
422.3627275387
 31
0.0
  0
LINE
  5
1D4
330
1F
100
AcDbEntity
  8
0
  6
Continuous
 62
     7
370
    15
100
AcDbLine
 10
425.4111960826
 20
422.3627275387
 30
0.0
 11
425.4111960826
 21
394.3627303997
 31
0.0
  0
LINE
  5
1D5
330
1F
100
AcDbEntity
  8
0
  6
Continuous
 62
     7
370
    15
100
AcDbLine
 10
425.4111960826
 20
394.3627303997
 30
0.0
 11
427.9111955611
 21
394.3627303997
 31
0.0
  0
LINE
  5
1D6
330
1F
100
AcDbEntity
  8
0
  6
Continuous
 62
     7
370
    15
100
AcDbLine
 10
427.9111955611
 20
394.3627303997
 30
0.0
 11
427.9111955611
 21
422.3627275387
 31
0.0
  0
LINE
  5
1D7
330
1F
100
AcDbEntity
  8
0
  6
Continuous
 62
     7
370
    15
100
AcDbLine
 10
412.911194965
 20
422.3627275387
 30
0.0
 11
410.4111973492
 21
422.3627275387
 31
0.0
  0
LINE
  5
1D8
330
1F
100
AcDbEntity
  8
0
  6
Continuous
 62
     7
370
    15
100
AcDbLine
 10
410.4111973492
 20
422.3627275387
 30
0.0
 11
410.4111973492
 21
394.3627303997
 31
0.0
  0
LINE
  5
1D9
330
1F
100
AcDbEntity
  8
0
  6
Continuous
 62
     7
370
    15
100
AcDbLine
 10
410.4111973492
 20
394.3627303997
 30
0.0
 11
412.911194965
 21
394.3627303997
 31
0.0
  0
LINE
  5
1DA
330
1F
100
AcDbEntity
  8
0
  6
Continuous
 62
     7
370
    15
100
AcDbLine
 10
412.911194965
 20
394.3627303997
 30
0.0
 11
412.911194965
 21
422.3627275387
 31
0.0
  0
LINE
  5
1DB
330
1F
100
AcDbEntity
  8
0
  6
Continuous
 62
     7
370
    15
100
AcDbLine
 10
397.911194369
 20
422.3627275387
 30
0.0
 11
395.4111967532
 21
422.3627275387
 31
0.0
  0
LINE
  5
1DC
330
1F
100
AcDbEntity
  8
0
  6
Continuous
 62
     7
370
    15
100
AcDbLine
 10
395.4111967532
 20
422.3627275387
 30
0.0
 11
395.4111967532
 21
394.3627303997
 31
0.0
  0
LINE
  5
1DD
330
1F
100
AcDbEntity
  8
0
  6
Continuous
 62
     7
370
    15
100
AcDbLine
 10
395.4111967532
 20
394.3627303997
 30
0.0
 11
397.911194369
 21
394.3627303997
 31
0.0
  0
LINE
  5
1DE
330
1F
100
AcDbEntity
  8
0
  6
Continuous
 62
     7
370
    15
100
AcDbLine
 10
397.911194369
 20
394.3627303997
 30
0.0
 11
397.911194369
 21
422.3627275387
 31
0.0
  0
LINE
  5
1DF
330
1F
100
AcDbEntity
  8
0
  6
Continuous
 62
     7
370
    15
100
AcDbLine
 10
382.9111974982
 20
422.3627275387
 30
0.0
 11
380.4111924318
 21
422.3627275387
 31
0.0
  0
LINE
  5
1E0
330
1F
100
AcDbEntity
  8
0
  6
Continuous
 62
     7
370
    15
100
AcDbLine
 10
380.4111924318
 20
422.3627275387
 30
0.0
 11
380.4111924318
 21
394.3627303997
 31
0.0
  0
LINE
  5
1E1
330
1F
100
AcDbEntity
  8
0
  6
Continuous
 62
     7
370
    15
100
AcDbLine
 10
380.4111924318
 20
394.3627303997
 30
0.0
 11
382.9111974982
 21
394.3627303997
 31
0.0
  0
LINE
  5
1E2
330
1F
100
AcDbEntity
  8
0
  6
Continuous
 62
     7
370
    15
100
AcDbLine
 10
382.9111974982
 20
394.3627303997
 30
0.0
 11
382.9111974982
 21
422.3627275387
 31
0.0
  0
LINE
  5
1E3
330
1F
100
AcDbEntity
  8
0
  6
Continuous
 62
     7
370
    15
100
AcDbLine
 10
367.9111969022
 20
422.3627275387
 30
0.0
 11
365.4111992864
 21
422.3627275387
 31
0.0
  0
LINE
  5
1E4
330
1F
100
AcDbEntity
  8
0
  6
Continuous
 62
     7
370
    15
100
AcDbLine
 10
365.4111992864
 20
422.3627275387
 30
0.0
 11
365.4111992864
 21
394.3627303997
 31
0.0
  0
LINE
  5
1E5
330
1F
100
AcDbEntity
  8
0
  6
Continuous
 62
     7
370
    15
100
AcDbLine
 10
365.4111992864
 20
394.3627303997
 30
0.0
 11
367.9111969022
 21
394.3627303997
 31
0.0
  0
LINE
  5
1E6
330
1F
100
AcDbEntity
  8
0
  6
Continuous
 62
     7
370
    15
100
AcDbLine
 10
367.9111969022
 20
394.3627303997
 30
0.0
 11
367.9111969022
 21
422.3627275387
 31
0.0
  0
ARC
  5
1E7
330
1F
100
AcDbEntity
  8
0
  6
Continuous
 62
     7
370
    15
100
AcDbCircle
 10
359.1611961489
 20
419.3627290001
 30
0.0
 40
3.000000000000048
100
AcDbArc
 50
294.6243183522
 51
245.3756816478
  0
LINE
  5
1E8
330
1F
100
AcDbEntity
  8
0
  6
Continuous
 62
     7
370
    15
100
AcDbLine
 10
357.9111989884
 20
416.6355556408
 30
0.0
 11
357.9111989884
 21
394.3627303997
 31
0.0
  0
LINE
  5
1E9
330
1F
100
AcDbEntity
  8
0
  6
Continuous
 62
     7
370
    15
100
AcDbLine
 10
357.9111989884
 20
394.3627303997
 30
0.0
 11
360.4111966042
 21
394.3627303997
 31
0.0
  0
LINE
  5
1EA
330
1F
100
AcDbEntity
  8
0
  6
Continuous
 62
     7
370
    15
100
AcDbLine
 10
360.4111966042
 20
394.3627303997
 30
0.0
 11
360.4111966042
 21
416.6355556408
 31
0.0
  0
LINE
  5
1EB
330
1F
100
AcDbEntity
  8
0
  6
Continuous
 62
     7
370
    15
100
AcDbLine
 10
345.4111960081
 20
422.3627275387
 30
0.0
 11
342.9111983923
 21
422.3627275387
 31
0.0
  0
LINE
  5
1EC
330
1F
100
AcDbEntity
  8
0
  6
Continuous
 62
     7
370
    15
100
AcDbLine
 10
342.9111983923
 20
422.3627275387
 30
0.0
 11
342.9111983923
 21
394.3627303997
 31
0.0
  0
LINE
  5
1ED
330
1F
100
AcDbEntity
  8
0
  6
Continuous
 62
     7
370
    15
100
AcDbLine
 10
342.9111983923
 20
394.3627303997
 30
0.0
 11
345.4111960081
 21
394.3627303997
 31
0.0
  0
LINE
  5
1EE
330
1F
100
AcDbEntity
  8
0
  6
Continuous
 62
     7
370
    15
100
AcDbLine
 10
345.4111960081
 20
394.3627303997
 30
0.0
 11
345.4111960081
 21
422.3627275387
 31
0.0
  0
LINE
  5
1EF
330
1F
100
AcDbEntity
  8
0
  6
Continuous
 62
     7
370
    15
100
AcDbLine
 10
335.4111980943
 20
422.3627275387
 30
0.0
 11
335.4111980943
 21
394.3627303997
 31
0.0
  0
LINE
  5
1F0
330
1F
100
AcDbEntity
  8
0
  6
Continuous
 62
     7
370
    15
100
AcDbLine
 10
335.4111980943
 20
394.3627303997
 30
0.0
 11
337.9111957101
 21
394.3627303997
 31
0.0
  0
LINE
  5
1F1
330
1F
100
AcDbEntity
  8
0
  6
Continuous
 62
     7
370
    15
100
AcDbLine
 10
337.9111957101
 20
394.3627303997
 30
0.0
 11
337.9111957101
 21
422.3627275387
 31
0.0
  0
LINE
  5
1F2
330
1F
100
AcDbEntity
  8
0
  6
Continuous
 62
     7
370
    15
100
AcDbLine
 10
337.9111957101
 20
422.3627275387
 30
0.0
 11
335.4111980943
 21
422.3627275387
 31
0.0
  0
LINE
  5
1F3
330
1F
100
AcDbEntity
  8
0
  6
Continuous
 62
     7
370
    15
100
AcDbLine
 10
455.4111963434
 20
394.3627303997
 30
0.0
 11
457.9111958219
 21
394.3627303997
 31
0.0
  0
LINE
  5
1F4
330
1F
100
AcDbEntity
  8
0
  6
Continuous
 62
     7
370
    15
100
AcDbLine
 10
457.9111958219
 20
394.3627303997
 30
0.0
 11
457.9111958219
 21
416.6355556408
 31
0.0
  0
ARC
  5
1F5
330
1F
100
AcDbEntity
  8
0
  6
Continuous
 62
     7
370
    15
100
AcDbCircle
 10
456.6611961489
 20
419.3627290001
 30
0.0
 40
2.999999999999972
100
AcDbArc
 50
294.6243183522
 51
245.3756816478
  0
LINE
  5
1F6
330
1F
100
AcDbEntity
  8
0
  6
Continuous
 62
     7
370
    15
100
AcDbLine
 10
455.4111963434
 20
416.6355556408
 30
0.0
 11
455.4111963434
 21
394.3627303997
 31
0.0
  0
LINE
  5
1F7
330
1F
100
AcDbEntity
  8
0
  6
Continuous
 62
     7
370
    15
100
AcDbLine
 10
352.9111963061
 20
422.3627275387
 30
0.0
 11
350.4111986903
 21
422.3627275387
 31
0.0
  0
LINE
  5
1F8
330
1F
100
AcDbEntity
  8
0
  6
Continuous
 62
     7
370
    15
100
AcDbLine
 10
350.4111986903
 20
422.3627275387
 30
0.0
 11
350.4111986903
 21
394.3627303997
 31
0.0
  0
LINE
  5
1F9
330
1F
100
AcDbEntity
  8
0
  6
Continuous
 62
     7
370
    15
100
AcDbLine
 10
350.4111986903
 20
394.3627303997
 30
0.0
 11
352.9111963061
 21
394.3627303997
 31
0.0
  0
LINE
  5
1FA
330
1F
100
AcDbEntity
  8
0
  6
Continuous
 62
     7
370
    15
100
AcDbLine
 10
352.9111963061
 20
394.3627303997
 30
0.0
 11
352.9111963061
 21
422.3627275387
 31
0.0
  0
LINE
  5
1FB
330
1F
100
AcDbEntity
  8
0
  6
Continuous
 62
     7
370
    15
100
AcDbLine
 10
552.9111992864
 20
394.3627303997
 30
0.0
 11
555.4111969022
 21
394.3627303997
 31
0.0
  0
LINE
  5
1FC
330
1F
100
AcDbEntity
  8
0
  6
Continuous
 62
     7
370
    15
100
AcDbLine
 10
555.4111969022
 20
394.3627303997
 30
0.0
 11
555.4111969022
 21
416.6355556408
 31
0.0
  0
ARC
  5
1FD
330
1F
100
AcDbEntity
  8
0
  6
Continuous
 62
     7
370
    15
100
AcDbCircle
 10
554.1611961489
 20
419.3627290001
 30
0.0
 40
3.000000000000024
100
AcDbArc
 50
294.6243183522
 51
245.3756816478
  0
LINE
  5
1FE
330
1F
100
AcDbEntity
  8
0
  6
Continuous
 62
     7
370
    15
100
AcDbLine
 10
552.9111992864
 20
416.6355556408
 30
0.0
 11
552.9111992864
 21
394.3627303997
 31
0.0
  0
LINE
  5
1FF
330
1F
100
AcDbEntity
  8
0
  6
Continuous
 62
     7
370
    15
100
AcDbLine
 10
375.4111972002
 20
422.3627275387
 30
0.0
 11
372.9111995844
 21
422.3627275387
 31
0.0
  0
LINE
  5
200
330
1F
100
AcDbEntity
  8
0
  6
Continuous
 62
     7
370
    15
100
AcDbLine
 10
372.9111995844
 20
422.3627275387
 30
0.0
 11
372.9111995844
 21
394.3627303997
 31
0.0
  0
LINE
  5
201
330
1F
100
AcDbEntity
  8
0
  6
Continuous
 62
     7
370
    15
100
AcDbLine
 10
372.9111995844
 20
394.3627303997
 30
0.0
 11
375.4111972002
 21
394.3627303997
 31
0.0
  0
LINE
  5
202
330
1F
100
AcDbEntity
  8
0
  6
Continuous
 62
     7
370
    15
100
AcDbLine
 10
375.4111972002
 20
394.3627303997
 30
0.0
 11
375.4111972002
 21
422.3627275387
 31
0.0
  0
LINE
  5
203
330
1F
100
AcDbEntity
  8
0
  6
Continuous
 62
     7
370
    15
100
AcDbLine
 10
390.4111977963
 20
422.3627275387
 30
0.0
 11
387.9111964552
 21
422.3627275387
 31
0.0
  0
LINE
  5
204
330
1F
100
AcDbEntity
  8
0
  6
Continuous
 62
     7
370
    15
100
AcDbLine
 10
387.9111964552
 20
422.3627275387
 30
0.0
 11
387.9111964552
 21
394.3627303997
 31
0.0
  0
LINE
  5
205
330
1F
100
AcDbEntity
  8
0
  6
Continuous
 62
     7
370
    15
100
AcDbLine
 10
387.9111964552
 20
394.3627303997
 30
0.0
 11
390.4111977963
 21
394.3627303997
 31
0.0
  0
LINE
  5
206
330
1F
100
AcDbEntity
  8
0
  6
Continuous
 62
     7
370
    15
100
AcDbLine
 10
390.4111977963
 20
394.3627303997
 30
0.0
 11
390.4111977963
 21
422.3627275387
 31
0.0
  0
LINE
  5
207
330
1F
100
AcDbEntity
  8
0
  6
Continuous
 62
     7
370
    15
100
AcDbLine
 10
405.411194667
 20
422.3627275387
 30
0.0
 11
402.9111970512
 21
422.3627275387
 31
0.0
  0
LINE
  5
208
330
1F
100
AcDbEntity
  8
0
  6
Continuous
 62
     7
370
    15
100
AcDbLine
 10
402.9111970512
 20
422.3627275387
 30
0.0
 11
402.9111970512
 21
394.3627303997
 31
0.0
  0
LINE
  5
209
330
1F
100
AcDbEntity
  8
0
  6
Continuous
 62
     7
370
    15
100
AcDbLine
 10
402.9111970512
 20
394.3627303997
 30
0.0
 11
405.411194667
 21
394.3627303997
 31
0.0
  0
LINE
  5
20A
330
1F
100
AcDbEntity
  8
0
  6
Continuous
 62
     7
370
    15
100
AcDbLine
 10
405.411194667
 20
394.3627303997
 30
0.0
 11
405.411194667
 21
422.3627275387
 31
0.0
  0
LINE
  5
20B
330
1F
100
AcDbEntity
  8
0
  6
Continuous
 62
     7
370
    15
100
AcDbLine
 10
420.4111952631
 20
422.3627275387
 30
0.0
 11
417.9111976473
 21
422.3627275387
 31
0.0
  0
LINE
  5
20C
330
1F
100
AcDbEntity
  8
0
  6
Continuous
 62
     7
370
    15
100
AcDbLine
 10
417.9111976473
 20
422.3627275387
 30
0.0
 11
417.9111976473
 21
394.3627303997
 31
0.0
  0
LINE
  5
20D
330
1F
100
AcDbEntity
  8
0
  6
Continuous
 62
     7
370
    15
100
AcDbLine
 10
417.9111976473
 20
394.3627303997
 30
0.0
 11
420.4111952631
 21
394.3627303997
 31
0.0
  0
LINE
  5
20E
330
1F
100
AcDbEntity
  8
0
  6
Continuous
 62
     7
370
    15
100
AcDbLine
 10
420.4111952631
 20
394.3627303997
 30
0.0
 11
420.4111952631
 21
422.3627275387
 31
0.0
  0
LINE
  5
20F
330
1F
100
AcDbEntity
  8
0
  6
Continuous
 62
     7
370
    15
100
AcDbLine
 10
435.4111958591
 20
422.3627275387
 30
0.0
 11
432.9111963807
 21
422.3627275387
 31
0.0
  0
LINE
  5
210
330
1F
100
AcDbEntity
  8
0
  6
Continuous
 62
     7
370
    15
100
AcDbLine
 10
432.9111963807
 20
422.3627275387
 30
0.0
 11
432.9111963807
 21
394.3627303997
 31
0.0
  0
LINE
  5
211
330
1F
100
AcDbEntity
  8
0
  6
Continuous
 62
     7
370
    15
100
AcDbLine
 10
432.9111963807
 20
394.3627303997
 30
0.0
 11
435.4111958591
 21
394.3627303997
 31
0.0
  0
LINE
  5
212
330
1F
100
AcDbEntity
  8
0
  6
Continuous
 62
     7
370
    15
100
AcDbLine
 10
435.4111958591
 20
394.3627303997
 30
0.0
 11
435.4111958591
 21
422.3627275387
 31
0.0
  0
LINE
  5
213
330
1F
100
AcDbEntity
  8
0
  6
Continuous
 62
     7
370
    15
100
AcDbLine
 10
450.4111961641
 20
422.3627275387
 30
0.0
 11
447.9111961618
 21
422.3627275387
 31
0.0
  0
LINE
  5
214
330
1F
100
AcDbEntity
  8
0
  6
Continuous
 62
     7
370
    15
100
AcDbLine
 10
447.9111961618
 20
422.3627275387
 30
0.0
 11
447.9111961618
 21
394.3627303997
 31
0.0
  0
LINE
  5
215
330
1F
100
AcDbEntity
  8
0
  6
Continuous
 62
     7
370
    15
100
AcDbLine
 10
447.9111961618
 20
394.3627303997
 30
0.0
 11
450.4111961641
 21
394.3627303997
 31
0.0
  0
LINE
  5
216
330
1F
100
AcDbEntity
  8
0
  6
Continuous
 62
     7
370
    15
100
AcDbLine
 10
450.4111961641
 20
394.3627303997
 30
0.0
 11
450.4111961641
 21
422.3627275387
 31
0.0
  0
LINE
  5
217
330
1F
100
AcDbEntity
  8
0
  6
Continuous
 62
     7
370
    15
100
AcDbLine
 10
472.9111954866
 20
422.3627275387
 30
0.0
 11
470.4111960081
 21
422.3627275387
 31
0.0
  0
LINE
  5
218
330
1F
100
AcDbEntity
  8
0
  6
Continuous
 62
     7
370
    15
100
AcDbLine
 10
470.4111960081
 20
422.3627275387
 30
0.0
 11
470.4111960081
 21
394.3627303997
 31
0.0
  0
LINE
  5
219
330
1F
100
AcDbEntity
  8
0
  6
Continuous
 62
     7
370
    15
100
AcDbLine
 10
470.4111960081
 20
394.3627303997
 30
0.0
 11
472.9111954866
 21
394.3627303997
 31
0.0
  0
LINE
  5
21A
330
1F
100
AcDbEntity
  8
0
  6
Continuous
 62
     7
370
    15
100
AcDbLine
 10
472.9111954866
 20
394.3627303997
 30
0.0
 11
472.9111954866
 21
422.3627275387
 31
0.0
  0
LINE
  5
21B
330
1F
100
AcDbEntity
  8
0
  6
Continuous
 62
     7
370
    15
100
AcDbLine
 10
487.9111979453
 20
422.3627275387
 30
0.0
 11
485.4111966042
 21
422.3627275387
 31
0.0
  0
LINE
  5
21C
330
1F
100
AcDbEntity
  8
0
  6
Continuous
 62
     7
370
    15
100
AcDbLine
 10
485.4111966042
 20
422.3627275387
 30
0.0
 11
485.4111966042
 21
394.3627303997
 31
0.0
  0
LINE
  5
21D
330
1F
100
AcDbEntity
  8
0
  6
Continuous
 62
     7
370
    15
100
AcDbLine
 10
485.4111966042
 20
394.3627303997
 30
0.0
 11
487.9111979453
 21
394.3627303997
 31
0.0
  0
LINE
  5
21E
330
1F
100
AcDbEntity
  8
0
  6
Continuous
 62
     7
370
    15
100
AcDbLine
 10
487.9111979453
 20
394.3627303997
 30
0.0
 11
487.9111979453
 21
422.3627275387
 31
0.0
  0
LINE
  5
21F
330
1F
100
AcDbEntity
  8
0
  6
Continuous
 62
     7
370
    15
100
AcDbLine
 10
502.911194816
 20
422.3627275387
 30
0.0
 11
500.4111972002
 21
422.3627275387
 31
0.0
  0
LINE
  5
220
330
1F
100
AcDbEntity
  8
0
  6
Continuous
 62
     7
370
    15
100
AcDbLine
 10
500.4111972002
 20
422.3627275387
 30
0.0
 11
500.4111972002
 21
394.3627303997
 31
0.0
  0
LINE
  5
221
330
1F
100
AcDbEntity
  8
0
  6
Continuous
 62
     7
370
    15
100
AcDbLine
 10
500.4111972002
 20
394.3627303997
 30
0.0
 11
502.911194816
 21
394.3627303997
 31
0.0
  0
LINE
  5
222
330
1F
100
AcDbEntity
  8
0
  6
Continuous
 62
     7
370
    15
100
AcDbLine
 10
502.911194816
 20
394.3627303997
 30
0.0
 11
502.911194816
 21
422.3627275387
 31
0.0
  0
LINE
  5
223
330
1F
100
AcDbEntity
  8
0
  6
Continuous
 62
     7
370
    15
100
AcDbLine
 10
517.9111954121
 20
422.3627275387
 30
0.0
 11
515.4111977963
 21
422.3627275387
 31
0.0
  0
LINE
  5
224
330
1F
100
AcDbEntity
  8
0
  6
Continuous
 62
     7
370
    15
100
AcDbLine
 10
515.4111977963
 20
422.3627275387
 30
0.0
 11
515.4111977963
 21
394.3627303997
 31
0.0
  0
LINE
  5
225
330
1F
100
AcDbEntity
  8
0
  6
Continuous
 62
     7
370
    15
100
AcDbLine
 10
515.4111977963
 20
394.3627303997
 30
0.0
 11
517.9111954121
 21
394.3627303997
 31
0.0
  0
LINE
  5
226
330
1F
100
AcDbEntity
  8
0
  6
Continuous
 62
     7
370
    15
100
AcDbLine
 10
517.9111954121
 20
394.3627303997
 30
0.0
 11
517.9111954121
 21
422.3627275387
 31
0.0
  0
LINE
  5
227
330
1F
100
AcDbEntity
  8
0
  6
Continuous
 62
     7
370
    15
100
AcDbLine
 10
532.9111960081
 20
422.3627275387
 30
0.0
 11
530.4111983923
 21
422.3627275387
 31
0.0
  0
LINE
  5
228
330
1F
100
AcDbEntity
  8
0
  6
Continuous
 62
     7
370
    15
100
AcDbLine
 10
530.4111983923
 20
422.3627275387
 30
0.0
 11
530.4111983923
 21
394.3627303997
 31
0.0
  0
LINE
  5
229
330
1F
100
AcDbEntity
  8
0
  6
Continuous
 62
     7
370
    15
100
AcDbLine
 10
530.4111983923
 20
394.3627303997
 30
0.0
 11
532.9111960081
 21
394.3627303997
 31
0.0
  0
LINE
  5
22A
330
1F
100
AcDbEntity
  8
0
  6
Continuous
 62
     7
370
    15
100
AcDbLine
 10
532.9111960081
 20
394.3627303997
 30
0.0
 11
532.9111960081
 21
422.3627275387
 31
0.0
  0
LINE
  5
22B
330
1F
100
AcDbEntity
  8
0
  6
Continuous
 62
     7
370
    15
100
AcDbLine
 10
547.9111966042
 20
422.3627275387
 30
0.0
 11
545.4111989884
 21
422.3627275387
 31
0.0
  0
LINE
  5
22C
330
1F
100
AcDbEntity
  8
0
  6
Continuous
 62
     7
370
    15
100
AcDbLine
 10
545.4111989884
 20
422.3627275387
 30
0.0
 11
545.4111989884
 21
394.3627303997
 31
0.0
  0
LINE
  5
22D
330
1F
100
AcDbEntity
  8
0
  6
Continuous
 62
     7
370
    15
100
AcDbLine
 10
545.4111989884
 20
394.3627303997
 30
0.0
 11
547.9111966042
 21
394.3627303997
 31
0.0
  0
LINE
  5
22E
330
1F
100
AcDbEntity
  8
0
  6
Continuous
 62
     7
370
    15
100
AcDbLine
 10
547.9111966042
 20
394.3627303997
 30
0.0
 11
547.9111966042
 21
422.3627275387
 31
0.0
  0
LINE
  5
22F
330
1F
100
AcDbEntity
  8
0
  6
Continuous
 62
     7
370
    15
100
AcDbLine
 10
557.1611967234
 20
187.6377290646
 30
0.0
 11
557.1611967234
 21
187.0127296606
 31
0.0
  0
LINE
  5
230
330
1F
100
AcDbEntity
  8
0
  6
Continuous
 62
     7
370
    15
100
AcDbLine
 10
574.3861940054
 20
424.2127216021
 30
0.0
 11
575.4112001805
 21
424.2127216021
 31
0.0
  0
LINE
  5
231
330
1F
100
AcDbEntity
  8
0
  6
Continuous
 62
     7
370
    15
100
AcDbLine
 10
575.4112001805
 20
187.0127296606
 30
0.0
 11
575.4112001805
 21
424.2127216021
 31
0.0
  0
LINE
  5
232
330
1F
100
AcDbEntity
  8
0
  6
Continuous
 62
     7
370
    15
100
AcDbLine
 10
575.4112001805
 20
187.0127296606
 30
0.0
 11
574.3861940054
 21
187.0127296606
 31
0.0
  0
LINE
  5
233
330
1F
100
AcDbEntity
  8
0
  6
Continuous
 62
     7
370
    15
100
AcDbLine
 10
573.9111971406
 20
424.6127283732
 30
0.0
 11
573.9111971406
 21
423.5877221981
 31
0.0
  0
LINE
  5
234
330
1F
100
AcDbEntity
  8
0
  6
Continuous
 62
     7
370
    15
100
AcDbLine
 10
324.6861990837
 20
424.6127283732
 30
0.0
 11
324.6861990837
 21
423.5877221981
 31
0.0
  0
LINE
  5
235
330
1F
100
AcDbEntity
  8
0
  6
Continuous
 62
     7
370
    15
100
AcDbLine
 10
324.6861990837
 20
424.6127283732
 30
0.0
 11
573.9111971406
 21
424.6127283732
 31
0.0
  0
SPLINE
  5
236
330
1F
100
AcDbEntity
  8
0
  6
Continuous
 62
     7
370
    15
100
AcDbSpline
210
0.0
220
0.0
230
1.0
 70
     8
 71
     3
 72
    11
 73
     7
 74
     0
 42
0.00000001
 43
0.00000001
 40
0.0
 40
0.0
 40
0.0
 40
0.0
 40
0.3249721023026553
 40
0.6499376432197855
 40
0.9749031841369159
 40
1.0
 40
1.0
 40
1.0
 40
1.0
 10
324.6861990837252
 20
424.6127283731509
 30
0.0
 10
324.5511918006926
 20
424.5975541206701
 30
0.0
 10
324.281179960507
 20
424.5672059220861
 30
0.0
 10
323.9527438502188
 20
424.3266900352844
 30
0.0
 10
323.7613220720087
 20
424.1012646896392
 30
0.0
 10
323.7350768993879
 20
423.9598263601281
 30
0.0
 10
323.7331953195727
 20
423.9496863046695
 30
0.0
  0
LINE
  5
237
330
1F
100
AcDbEntity
  8
0
  6
Continuous
 62
     7
370
    15
100
AcDbLine
 10
323.712438002
 20
423.8453185717
 30
0.0
 11
323.6960020212
 21
423.7627363363
 31
0.0
  0
SPLINE
  5
238
330
1F
100
AcDbEntity
  8
0
  6
Continuous
 62
     7
370
    15
100
AcDbSpline
210
0.0
220
0.0
230
1.0
 70
     8
 71
     3
 72
    11
 73
     7
 74
     0
 42
0.00000001
 43
0.00000001
 40
0.0
 40
0.0
 40
0.0
 40
0.0
 40
0.2499974961918124
 40
0.4999899767675255
 40
0.7500035466875686
 40
1.0
 40
1.0
 40
1.0
 40
1.0
 10
324.6861990837252
 20
424.2127216020633
 30
0.0
 10
324.604300022911
 20
424.203331746726
 30
0.0
 10
324.4405035443959
 20
424.184552224437
 30
0.0
 10
324.2339147883699
 20
424.0400120515421
 30
0.0
 10
324.0893700952683
 20
423.8334251218804
 30
0.0
 10
324.0705896039693
 20
423.6696213035602
 30
0.0
 10
324.0611996797717
 20
423.5877221981097
 30
0.0
  0
LINE
  5
239
330
1F
100
AcDbEntity
  8
0
  6
Continuous
 62
     7
370
    15
100
AcDbLine
 10
335.4111980943
 20
413.2127291122
 30
0.0
 11
337.9111957101
 21
413.2127291122
 31
0.0
  0
LINE
  5
23A
330
1F
100
AcDbEntity
  8
0
  6
Continuous
 62
     7
370
    15
100
AcDbLine
 10
342.9111983923
 20
413.2127291122
 30
0.0
 11
345.4111960081
 21
413.2127291122
 31
0.0
  0
LINE
  5
23B
330
1F
100
AcDbEntity
  8
0
  6
Continuous
 62
     7
370
    15
100
AcDbLine
 10
350.4111986903
 20
413.2127291122
 30
0.0
 11
352.9111963061
 21
413.2127291122
 31
0.0
  0
LINE
  5
23C
330
1F
100
AcDbEntity
  8
0
  6
Continuous
 62
     7
370
    15
100
AcDbLine
 10
357.9111989884
 20
413.2127291122
 30
0.0
 11
360.4111966042
 21
413.2127291122
 31
0.0
  0
LINE
  5
23D
330
1F
100
AcDbEntity
  8
0
  6
Continuous
 62
     7
370
    15
100
AcDbLine
 10
365.4111992864
 20
413.2127291122
 30
0.0
 11
367.9111969022
 21
413.2127291122
 31
0.0
  0
LINE
  5
23E
330
1F
100
AcDbEntity
  8
0
  6
Continuous
 62
     7
370
    15
100
AcDbLine
 10
372.9111995844
 20
413.2127291122
 30
0.0
 11
375.4111972002
 21
413.2127291122
 31
0.0
  0
LINE
  5
23F
330
1F
100
AcDbEntity
  8
0
  6
Continuous
 62
     7
370
    15
100
AcDbLine
 10
380.4111924318
 20
413.2127291122
 30
0.0
 11
382.9111974982
 21
413.2127291122
 31
0.0
  0
LINE
  5
240
330
1F
100
AcDbEntity
  8
0
  6
Continuous
 62
     7
370
    15
100
AcDbLine
 10
387.9111964552
 20
413.2127291122
 30
0.0
 11
390.4111977963
 21
413.2127291122
 31
0.0
  0
LINE
  5
241
330
1F
100
AcDbEntity
  8
0
  6
Continuous
 62
     7
370
    15
100
AcDbLine
 10
395.4111967532
 20
413.2127291122
 30
0.0
 11
397.911194369
 21
413.2127291122
 31
0.0
  0
LINE
  5
242
330
1F
100
AcDbEntity
  8
0
  6
Continuous
 62
     7
370
    15
100
AcDbLine
 10
402.9111970512
 20
413.2127291122
 30
0.0
 11
405.411194667
 21
413.2127291122
 31
0.0
  0
LINE
  5
243
330
1F
100
AcDbEntity
  8
0
  6
Continuous
 62
     7
370
    15
100
AcDbLine
 10
410.4111973492
 20
413.2127291122
 30
0.0
 11
412.911194965
 21
413.2127291122
 31
0.0
  0
LINE
  5
244
330
1F
100
AcDbEntity
  8
0
  6
Continuous
 62
     7
370
    15
100
AcDbLine
 10
417.9111976473
 20
413.2127291122
 30
0.0
 11
420.4111952631
 21
413.2127291122
 31
0.0
  0
LINE
  5
245
330
1F
100
AcDbEntity
  8
0
  6
Continuous
 62
     7
370
    15
100
AcDbLine
 10
425.4111960826
 20
413.2127291122
 30
0.0
 11
427.9111955611
 21
413.2127291122
 31
0.0
  0
LINE
  5
246
330
1F
100
AcDbEntity
  8
0
  6
Continuous
 62
     7
370
    15
100
AcDbLine
 10
432.9111963807
 20
413.2127291122
 30
0.0
 11
435.4111958591
 21
413.2127291122
 31
0.0
  0
LINE
  5
247
330
1F
100
AcDbEntity
  8
0
  6
Continuous
 62
     7
370
    15
100
AcDbLine
 10
440.4111957474
 20
413.2127291122
 30
0.0
 11
442.9111961571
 21
413.2127291122
 31
0.0
  0
LINE
  5
248
330
1F
100
AcDbEntity
  8
0
  6
Continuous
 62
     7
370
    15
100
AcDbLine
 10
447.9111961618
 20
413.2127291122
 30
0.0
 11
450.4111961641
 21
413.2127291122
 31
0.0
  0
LINE
  5
249
330
1F
100
AcDbEntity
  8
0
  6
Continuous
 62
     7
370
    15
100
AcDbLine
 10
455.4111963434
 20
413.2127291122
 30
0.0
 11
457.9111958219
 21
413.2127291122
 31
0.0
  0
LINE
  5
24A
330
1F
100
AcDbEntity
  8
0
  6
Continuous
 62
     7
370
    15
100
AcDbLine
 10
462.9111957101
 20
413.2127291122
 30
0.0
 11
465.4111970512
 21
413.2127291122
 31
0.0
  0
LINE
  5
24B
330
1F
100
AcDbEntity
  8
0
  6
Continuous
 62
     7
370
    15
100
AcDbLine
 10
470.4111960081
 20
413.2127291122
 30
0.0
 11
472.9111954866
 21
413.2127291122
 31
0.0
  0
LINE
  5
24C
330
1F
100
AcDbEntity
  8
0
  6
Continuous
 62
     7
370
    15
100
AcDbLine
 10
477.9111963061
 20
413.2127291122
 30
0.0
 11
480.4111957846
 21
413.2127291122
 31
0.0
  0
LINE
  5
24D
330
1F
100
AcDbEntity
  8
0
  6
Continuous
 62
     7
370
    15
100
AcDbLine
 10
485.4111966042
 20
413.2127291122
 30
0.0
 11
487.9111979453
 21
413.2127291122
 31
0.0
  0
LINE
  5
24E
330
1F
100
AcDbEntity
  8
0
  6
Continuous
 62
     7
370
    15
100
AcDbLine
 10
492.9111969022
 20
413.2127291122
 30
0.0
 11
495.411194518
 21
413.2127291122
 31
0.0
  0
LINE
  5
24F
330
1F
100
AcDbEntity
  8
0
  6
Continuous
 62
     7
370
    15
100
AcDbLine
 10
500.4111972002
 20
413.2127291122
 30
0.0
 11
502.911194816
 21
413.2127291122
 31
0.0
  0
LINE
  5
250
330
1F
100
AcDbEntity
  8
0
  6
Continuous
 62
     7
370
    15
100
AcDbLine
 10
507.9111974982
 20
413.2127291122
 30
0.0
 11
510.4111951141
 21
413.2127291122
 31
0.0
  0
LINE
  5
251
330
1F
100
AcDbEntity
  8
0
  6
Continuous
 62
     7
370
    15
100
AcDbLine
 10
515.4111977963
 20
413.2127291122
 30
0.0
 11
517.9111954121
 21
413.2127291122
 31
0.0
  0
LINE
  5
252
330
1F
100
AcDbEntity
  8
0
  6
Continuous
 62
     7
370
    15
100
AcDbLine
 10
522.9111980943
 20
413.2127291122
 30
0.0
 11
525.4111957101
 21
413.2127291122
 31
0.0
  0
LINE
  5
253
330
1F
100
AcDbEntity
  8
0
  6
Continuous
 62
     7
370
    15
100
AcDbLine
 10
530.4111983923
 20
413.2127291122
 30
0.0
 11
532.9111960081
 21
413.2127291122
 31
0.0
  0
LINE
  5
254
330
1F
100
AcDbEntity
  8
0
  6
Continuous
 62
     7
370
    15
100
AcDbLine
 10
537.9111986903
 20
413.2127291122
 30
0.0
 11
540.4111963061
 21
413.2127291122
 31
0.0
  0
LINE
  5
255
330
1F
100
AcDbEntity
  8
0
  6
Continuous
 62
     7
370
    15
100
AcDbLine
 10
545.4111989884
 20
413.2127291122
 30
0.0
 11
547.9111966042
 21
413.2127291122
 31
0.0
  0
LINE
  5
256
330
1F
100
AcDbEntity
  8
0
  6
Continuous
 62
     7
370
    15
100
AcDbLine
 10
552.9111992864
 20
413.2127291122
 30
0.0
 11
555.4111969022
 21
413.2127291122
 31
0.0
  0
LINE
  5
257
330
1F
100
AcDbEntity
  8
0
  6
Continuous
 62
     7
370
    15
100
AcDbLine
 10
560.4111995844
 20
413.2127291122
 30
0.0
 11
562.9111972002
 21
413.2127291122
 31
0.0
  0
ARC
  5
258
330
1F
100
AcDbEntity
  8
0
  6
Continuous
 62
     7
370
    15
100
AcDbCircle
 10
359.1611961489
 20
417.7877290001
 30
0.0
 40
1.600000000000023
100
AcDbArc
 50
180.0
 51
0.0
  0
LINE
  5
259
330
1F
100
AcDbEntity
  8
0
  6
Continuous
 62
     7
370
    15
100
AcDbLine
 10
360.7611950783
 20
417.7877283255
 30
0.0
 11
360.7611950783
 21
420.9377294937
 31
0.0
  0
ARC
  5
25A
330
1F
100
AcDbEntity
  8
0
  6
Continuous
 62
     7
370
    15
100
AcDbCircle
 10
359.1611961489
 20
420.9377290001
 30
0.0
 40
1.600000000000023
100
AcDbArc
 50
0.0
 51
51.7753047596
  0
ARC
  5
25B
330
1F
100
AcDbEntity
  8
0
  6
Continuous
 62
     7
370
    15
100
AcDbCircle
 10
359.1611961489
 20
420.9377290001
 30
0.0
 40
1.599999999999966
100
AcDbArc
 50
128.2246952396
 51
180.0
  0
LINE
  5
25C
330
1F
100
AcDbEntity
  8
0
  6
Continuous
 62
     7
370
    15
100
AcDbLine
 10
357.5611930637
 20
420.9377294937
 30
0.0
 11
357.5611930637
 21
417.7877283255
 31
0.0
  0
ARC
  5
25D
330
1F
100
AcDbEntity
  8
0
  6
Continuous
 62
     7
370
    15
100
AcDbCircle
 10
456.6611961489
 20
417.7877290001
 30
0.0
 40
1.600000000000023
100
AcDbArc
 50
180.0
 51
0.0
  0
LINE
  5
25E
330
1F
100
AcDbEntity
  8
0
  6
Continuous
 62
     7
370
    15
100
AcDbLine
 10
458.2611961586
 20
417.7877283255
 30
0.0
 11
458.2611961586
 21
420.9377294937
 31
0.0
  0
ARC
  5
25F
330
1F
100
AcDbEntity
  8
0
  6
Continuous
 62
     7
370
    15
100
AcDbCircle
 10
456.6611961489
 20
420.9377290001
 30
0.0
 40
1.600000000000023
100
AcDbArc
 50
0.0
 51
51.7753047415
  0
ARC
  5
260
330
1F
100
AcDbEntity
  8
0
  6
Continuous
 62
     7
370
    15
100
AcDbCircle
 10
456.6611961489
 20
420.9377290001
 30
0.0
 40
1.600000000000021
100
AcDbArc
 50
128.2246952585
 51
180.0
  0
LINE
  5
261
330
1F
100
AcDbEntity
  8
0
  6
Continuous
 62
     7
370
    15
100
AcDbLine
 10
455.0611960066
 20
420.9377294937
 30
0.0
 11
455.0611960066
 21
417.7877283255
 31
0.0
  0
ARC
  5
262
330
1F
100
AcDbEntity
  8
0
  6
Continuous
 62
     7
370
    15
100
AcDbCircle
 10
554.1611961489
 20
417.7877290001
 30
0.0
 40
1.600000000000023
100
AcDbArc
 50
180.0
 51
0.0
  0
LINE
  5
263
330
1F
100
AcDbEntity
  8
0
  6
Continuous
 62
     7
370
    15
100
AcDbLine
 10
555.7611953763
 20
417.7877283255
 30
0.0
 11
555.7611953763
 21
420.9377294937
 31
0.0
  0
ARC
  5
264
330
1F
100
AcDbEntity
  8
0
  6
Continuous
 62
     7
370
    15
100
AcDbCircle
 10
554.1611961489
 20
420.9377290001
 30
0.0
 40
1.599999999999927
100
AcDbArc
 50
0.0
 51
51.7753049173
  0
ARC
  5
265
330
1F
100
AcDbEntity
  8
0
  6
Continuous
 62
     7
370
    15
100
AcDbCircle
 10
554.1611961489
 20
420.9377290001
 30
0.0
 40
1.600000000000059
100
AcDbArc
 50
128.2246950893
 51
180.0
  0
LINE
  5
266
330
1F
100
AcDbEntity
  8
0
  6
Continuous
 62
     7
370
    15
100
AcDbLine
 10
552.5611933617
 20
420.9377294937
 30
0.0
 11
552.5611933617
 21
417.7877283255
 31
0.0
  0
LINE
  5
267
330
1F
100
AcDbEntity
  8
0
  6
Continuous
 62
     7
370
    15
100
AcDbLine
 10
323.6374702601
 20
329.6377262631
 30
0.0
 11
323.6611929087
 21
329.6377262631
 31
0.0
  0
LINE
  5
268
330
1F
100
AcDbEntity
  8
0
  6
Continuous
 62
     7
370
    15
100
AcDbLine
 10
324.6111940889
 20
187.0162649611
 30
0.0
 11
323.6374702601
 21
187.0162649611
 31
0.0
  0
LINE
  5
269
330
1F
100
AcDbEntity
  8
0
  6
Continuous
 62
     7
370
    15
100
AcDbLine
 10
324.0119960455
 20
187.0127296606
 30
0.0
 11
324.0119960455
 21
186.6127284775
 31
0.0
  0
LINE
  5
26A
330
1F
100
AcDbEntity
  8
0
  6
Continuous
 62
     7
370
    15
100
AcDbLine
 10
324.0119960455
 20
186.6127284775
 30
0.0
 11
324.6111940889
 21
186.6127284775
 31
0.0
  0
LINE
  5
26B
330
1F
100
AcDbEntity
  8
0
  6
Continuous
 62
     7
370
    15
100
AcDbLine
 10
324.0119960455
 20
187.0127296606
 30
0.0
 11
324.6111940889
 21
187.0127296606
 31
0.0
  0
LINE
  5
26C
330
1F
100
AcDbEntity
  8
0
  6
Continuous
 62
     7
370
    15
100
AcDbLine
 10
323.6111995129
 20
329.6377262631
 30
0.0
 11
323.6374702601
 21
329.6377262631
 31
0.0
  0
LINE
  5
26D
330
1F
100
AcDbEntity
  8
0
  6
Continuous
 62
     7
370
    15
100
AcDbLine
 10
323.6374702601
 20
187.0162649611
 30
0.0
 11
323.6111995129
 21
187.0162649611
 31
0.0
  0
LINE
  5
26E
330
1F
100
AcDbEntity
  8
0
  6
Continuous
 62
     7
370
    15
100
AcDbLine
 10
323.6111995129
 20
187.0162649611
 30
0.0
 11
323.6111995129
 21
188.1127296547
 31
0.0
  0
LINE
  5
26F
330
1F
100
AcDbEntity
  8
0
  6
Continuous
 62
     7
370
    15
100
AcDbLine
 10
323.6111995129
 20
328.4377283016
 30
0.0
 11
323.6111995129
 21
329.6377262631
 31
0.0
  0
LINE
  5
270
330
1F
100
AcDbEntity
  8
0
  6
Continuous
 62
     7
370
    15
100
AcDbLine
 10
574.3611973075
 20
424.3377274433
 30
0.0
 11
574.3611973075
 21
424.2127216021
 31
0.0
  0
LINE
  5
271
330
1F
100
AcDbEntity
  8
0
  6
Continuous
 62
     7
370
    15
100
AcDbLine
 10
324.6361982373
 20
424.4881844679
 30
0.0
 11
324.6361982373
 21
424.6127283732
 31
0.0
  0
LINE
  5
272
330
1F
100
AcDbEntity
  8
0
  6
Continuous
 62
     7
370
    15
100
AcDbLine
 10
324.6361982373
 20
424.6127283732
 30
0.0
 11
324.6861990837
 21
424.6127283732
 31
0.0
  0
LINE
  5
273
330
1F
100
AcDbEntity
  8
0
  6
Continuous
 62
     7
370
    15
100
AcDbLine
 10
575.0076618342
 20
424.6127283732
 30
0.0
 11
574.6570226101
 21
424.6127283732
 31
0.0
  0
LINE
  5
274
330
1F
100
AcDbEntity
  8
0
  6
Continuous
 62
     7
370
    15
100
AcDbLine
 10
575.0076618342
 20
424.6127283732
 30
0.0
 11
575.0076618342
 21
424.2127216021
 31
0.0
  0
ARC
  5
275
330
1F
100
AcDbEntity
  8
0
  6
Continuous
 62
     7
370
    15
100
AcDbCircle
 10
324.6361961489
 20
423.5877289992
 30
0.0
 40
1.024999999999977
100
AcDbArc
 50
90.0
 51
154.3805943235
  0
LINE
  5
276
330
1F
100
AcDbEntity
  8
0
  6
Continuous
 62
     7
370
    15
100
AcDbLine
 10
323.6111995129
 20
329.8662653724
 30
0.0
 11
323.6111995129
 21
329.6377262631
 31
0.0
  0
ARC
  5
277
330
1F
100
AcDbEntity
  8
0
  6
Continuous
 62
     7
370
    15
100
AcDbCircle
 10
554.4111961489
 20
419.3627289992
 30
0.0
 40
1.475000000000032
100
AcDbArc
 50
23.758142055
 51
336.241857945
  0
ARC
  5
278
330
1F
100
AcDbEntity
  8
0
  6
Continuous
 62
     7
370
    15
100
AcDbCircle
 10
554.4111961489
 20
419.3627289992
 30
0.0
 40
2.000000000000009
100
AcDbArc
 50
47.5458497955
 51
157.6683549906
  0
ARC
  5
279
330
1F
100
AcDbEntity
  8
0
  6
Continuous
 62
     7
370
    15
100
AcDbCircle
 10
554.4111961489
 20
419.3627289992
 30
0.0
 40
2.000000000000009
100
AcDbArc
 50
202.3316450094
 51
312.4541502045
  0
ARC
  5
27A
330
1F
100
AcDbEntity
  8
0
  6
Continuous
 62
     7
370
    15
100
AcDbCircle
 10
554.4111961489
 20
419.3627289992
 30
0.0
 40
1.375000000000032
100
AcDbArc
 50
10.9424989062
 51
349.0575010938
  0
CIRCLE
  5
27B
330
1F
100
AcDbEntity
  8
0
  6
Continuous
 62
     7
370
    15
100
AcDbCircle
 10
554.4111961489
 20
419.3627289992
 30
0.0
 40
1.050000000000068
  0
ARC
  5
27C
330
1F
100
AcDbEntity
  8
0
  6
Continuous
 62
     7
370
    15
100
AcDbCircle
 10
456.9092340478
 20
419.3420367247
 30
0.0
 40
1.47500000000006
100
AcDbArc
 50
23.5682448051
 51
336.4317551949
  0
ARC
  5
27D
330
1F
100
AcDbEntity
  8
0
  6
Continuous
 62
     7
370
    15
100
AcDbCircle
 10
456.9092340478
 20
419.3420367247
 30
0.0
 40
2.000000000000046
100
AcDbArc
 50
47.4696191748
 51
157.520882842
  0
ARC
  5
27E
330
1F
100
AcDbEntity
  8
0
  6
Continuous
 62
     7
370
    15
100
AcDbCircle
 10
456.9092340478
 20
419.3420367247
 30
0.0
 40
2.000000000000046
100
AcDbArc
 50
202.479117158
 51
312.5303808252
  0
ARC
  5
27F
330
1F
100
AcDbEntity
  8
0
  6
Continuous
 62
     7
370
    15
100
AcDbCircle
 10
456.9092340478
 20
419.3420367247
 30
0.0
 40
1.375000000000075
100
AcDbArc
 50
10.5030628422
 51
349.4969371578
  0
CIRCLE
  5
280
330
1F
100
AcDbEntity
  8
0
  6
Continuous
 62
     7
370
    15
100
AcDbCircle
 10
456.9092340478
 20
419.3420367247
 30
0.0
 40
1.050000000000011
  0
ARC
  5
281
330
1F
100
AcDbEntity
  8
0
  6
Continuous
 62
     7
370
    15
100
AcDbCircle
 10
359.4092340478
 20
419.3420367247
 30
0.0
 40
1.475000000000008
100
AcDbArc
 50
23.5682448051
 51
336.4317551949
  0
ARC
  5
282
330
1F
100
AcDbEntity
  8
0
  6
Continuous
 62
     7
370
    15
100
AcDbCircle
 10
359.4092340478
 20
419.3420367247
 30
0.0
 40
2.00000000000006
100
AcDbArc
 50
47.4696191748
 51
157.520882842
  0
ARC
  5
283
330
1F
100
AcDbEntity
  8
0
  6
Continuous
 62
     7
370
    15
100
AcDbCircle
 10
359.4092340478
 20
419.3420367247
 30
0.0
 40
2.000000000000038
100
AcDbArc
 50
202.479117158
 51
312.5303808252
  0
ARC
  5
284
330
1F
100
AcDbEntity
  8
0
  6
Continuous
 62
     7
370
    15
100
AcDbCircle
 10
359.4092340478
 20
419.3420367247
 30
0.0
 40
1.375000000000009
100
AcDbArc
 50
10.5030628422
 51
349.4969371578
  0
CIRCLE
  5
285
330
1F
100
AcDbEntity
  8
0
  6
Continuous
 62
     7
370
    15
100
AcDbCircle
 10
359.4092340478
 20
419.3420367247
 30
0.0
 40
1.050000000000011
  0
ENDSEC
  0
SECTION
  2
OBJECTS
  0
DICTIONARY
  5
C
330
0
100
AcDbDictionary
281
     1
  3
ACAD_GROUP
350
D
  3
ACAD_LAYOUT
350
1A
  3
ACAD_MLINESTYLE
350
17
  3
ACAD_PLOTSETTINGS
350
19
  3
ACAD_PLOTSTYLENAME
350
E
  0
DICTIONARY
  5
D
102
{ACAD_REACTORS
330
C
102
}
330
C
100
AcDbDictionary
281
     1
  0
DICTIONARY
  5
1A
102
{ACAD_REACTORS
330
C
102
}
330
C
100
AcDbDictionary
281
     1
  3
Layout1
350
1E
  3
Layout2
350
26
  3
Model
350
22
  0
DICTIONARY
  5
17
102
{ACAD_REACTORS
330
C
102
}
330
C
100
AcDbDictionary
281
     1
  3
Standard
350
18
  0
DICTIONARY
  5
19
102
{ACAD_REACTORS
330
C
102
}
330
C
100
AcDbDictionary
281
     1
  0
ACDBDICTIONARYWDFLT
  5
E
102
{ACAD_REACTORS
330
C
102
}
330
C
100
AcDbDictionary
281
     1
  3
Normal
350
F
100
AcDbDictionaryWithDefault
340
F
  0
LAYOUT
  5
1E
102
{ACAD_REACTORS
330
1A
102
}
330
1A
100
AcDbPlotSettings
  1

  2
none_device
  4

  6

 40
0.0
 41
0.0
 42
0.0
 43
0.0
 44
0.0
 45
0.0
 46
0.0
 47
0.0
 48
0.0
 49
0.0
140
0.0
141
0.0
142
1.0
143
1.0
 70
   688
 72
     0
 73
     0
 74
     5
  7

 75
    16
147
1.0
148
0.0
149
0.0
100
AcDbLayout
  1
Layout1
 70
     1
 71
     1
 10
0.0
 20
0.0
 11
420.0
 21
297.0
 12
0.0
 22
0.0
 32
0.0
 14
1.0000000000E+20
 24
1.0000000000E+20
 34
1.0000000000E+20
 15
-1.0000000000E+20
 25
-1.0000000000E+20
 35
-1.0000000000E+20
146
0.0
 13
0.0
 23
0.0
 33
0.0
 16
1.0
 26
0.0
 36
0.0
 17
0.0
 27
1.0
 37
0.0
 76
     0
330
1B
  0
LAYOUT
  5
26
102
{ACAD_REACTORS
330
1A
102
}
330
1A
100
AcDbPlotSettings
  1

  2
none_device
  4

  6

 40
0.0
 41
0.0
 42
0.0
 43
0.0
 44
0.0
 45
0.0
 46
0.0
 47
0.0
 48
0.0
 49
0.0
140
0.0
141
0.0
142
1.0
143
1.0
 70
   688
 72
     0
 73
     0
 74
     5
  7

 75
    16
147
1.0
148
0.0
149
0.0
100
AcDbLayout
  1
Layout2
 70
     1
 71
     2
 10
0.0
 20
0.0
 11
0.0
 21
0.0
 12
0.0
 22
0.0
 32
0.0
 14
0.0
 24
0.0
 34
0.0
 15
0.0
 25
0.0
 35
0.0
146
0.0
 13
0.0
 23
0.0
 33
0.0
 16
1.0
 26
0.0
 36
0.0
 17
0.0
 27
1.0
 37
0.0
 76
     0
330
23
  0
LAYOUT
  5
22
102
{ACAD_REACTORS
330
1A
102
}
330
1A
100
AcDbPlotSettings
  1

  2
none_device
  4

  6

 40
0.0
 41
0.0
 42
0.0
 43
0.0
 44
0.0
 45
0.0
 46
0.0
 47
0.0
 48
0.0
 49
0.0
140
0.0
141
0.0
142
1.0
143
1.0
 70
  1712
 72
     0
 73
     0
 74
     0
  7

 75
     0
147
1.0
148
0.0
149
0.0
100
AcDbLayout
  1
Model
 70
     1
 71
     0
 10
0.0
 20
0.0
 11
841.0
 21
594.0
 12
0.0
 22
0.0
 32
0.0
 14
0.0
 24
0.0
 34
0.0
 15
841.0
 25
594.0
 35
0.0
146
0.0
 13
0.0
 23
0.0
 33
0.0
 16
1.0
 26
0.0
 36
0.0
 17
0.0
 27
1.0
 37
0.0
 76
     0
330
1F
331
29
  0
MLINESTYLE
  5
18
102
{ACAD_REACTORS
330
17
102
}
330
17
100
AcDbMlineStyle
  2
Standard
 70
     0
  3

 62
   256
 51
90.0
 52
90.0
 71
     2
 49
0.5
 62
   256
  6
BYLAYER
 49
-0.5
 62
   256
  6
BYLAYER
  0
ACDBPLACEHOLDER
  5
F
102
{ACAD_REACTORS
330
E
102
}
330
E
  0
ENDSEC
  0
EOF
