  0
SECTION
  2
HEADER
  9
$ACADVER
  1
AC1015
  9
$ACADMAINTVER
 70
     6
  9
$DWGCODEPAGE
  3
ANSI_1252
  9
$INSBASE
 10
0.0
 20
0.0
 30
0.0
  9
$EXTMIN
 10
0.0
 20
0.0
 30
0.0
  9
$EXTMAX
 10
841.0
 20
594.0
 30
0.0
  9
$LIMMIN
 10
0.0
 20
0.0
  9
$LIMMAX
 10
841.0
 20
594.0
  9
$ORTHOMODE
 70
     0
  9
$REGENMODE
 70
     1
  9
$FILLMODE
 70
     1
  9
$QTEXTMODE
 70
     0
  9
$MIRRTEXT
 70
     1
  9
$LTSCALE
 40
1.0
  9
$ATTMODE
 70
     1
  9
$TEXTSIZE
 40
3.5
  9
$TRACEWID
 40
1.0
  9
$TEXTSTYLE
  7
Standard
  9
$CLAYER
  8
0
  9
$CELTYPE
  6
ByLayer
  9
$CECOLOR
 62
   256
  9
$CELTSCALE
 40
1.0
  9
$DISPSILH
 70
     0
  9
$DIMSCALE
 40
1.0
  9
$DIMASZ
 40
3.302
  9
$DIMEXO
 40
1.0
  9
$DIMDLI
 40
3.75
  9
$DIMRND
 40
0.0
  9
$DIMDLE
 40
0.0
  9
$DIMEXE
 40
1.0
  9
$DIMTP
 40
0.0
  9
$DIMTM
 40
0.0
  9
$DIMTXT
 40
3.5
  9
$DIMCEN
 40
2.5
  9
$DIMTSZ
 40
0.0
  9
$DIMTOL
 70
     0
  9
$DIMLIM
 70
     0
  9
$DIMTIH
 70
     1
  9
$DIMTOH
 70
     1
  9
$DIMSE1
 70
     0
  9
$DIMSE2
 70
     0
  9
$DIMTAD
 70
     1
  9
$DIMZIN
 70
     0
  9
$DIMBLK
  1

  9
$DIMASO
 70
     1
  9
$DIMSHO
 70
     1
  9
$DIMPOST
  1

  9
$DIMAPOST
  1

  9
$DIMALT
 70
     0
  9
$DIMALTD
 70
     3
  9
$DIMALTF
 40
0.0393700787
  9
$DIMLFAC
 40
2.0
  9
$DIMTOFL
 70
     1
  9
$DIMTVP
 40
0.0
  9
$DIMTIX
 70
     0
  9
$DIMSOXD
 70
     0
  9
$DIMSAH
 70
     0
  9
$DIMBLK1
  1

  9
$DIMBLK2
  1

  9
$DIMSTYLE
  2
ISO-25
  9
$DIMCLRD
 70
     0
  9
$DIMCLRE
 70
     0
  9
$DIMCLRT
 70
     0
  9
$DIMTFAC
 40
1.0
  9
$DIMGAP
 40
1.524
  9
$DIMJUST
 70
     0
  9
$DIMSD1
 70
     0
  9
$DIMSD2
 70
     0
  9
$DIMTOLJ
 70
     0
  9
$DIMTZIN
 70
     0
  9
$DIMALTZ
 70
     0
  9
$DIMALTTZ
 70
     0
  9
$DIMUPT
 70
     0
  9
$DIMDEC
 70
     1
  9
$DIMTDEC
 70
     1
  9
$DIMALTU
 70
     2
  9
$DIMALTTD
 70
     3
  9
$DIMTXSTY
  7
Standard
  9
$DIMAUNIT
 70
     0
  9
$DIMADEC
 70
     1
  9
$DIMALTRND
 40
0.0
  9
$DIMAZIN
 70
     0
  9
$DIMDSEP
 70
    44
  9
$DIMATFIT
 70
     3
  9
$DIMFRAC
 70
     0
  9
$DIMLDRBLK
  1

  9
$DIMLUNIT
 70
     2
  9
$DIMLWD
 70
    -2
  9
$DIMLWE
 70
    -2
  9
$DIMTMOVE
 70
     0
  9
$LUNITS
 70
     2
  9
$LUPREC
 70
     1
  9
$SKETCHINC
 40
1.0
  9
$FILLETRAD
 40
10.0
  9
$AUNITS
 70
     0
  9
$AUPREC
 70
     1
  9
$MENU
  1
.
  9
$ELEVATION
 40
0.0
  9
$PELEVATION
 40
0.0
  9
$THICKNESS
 40
0.0
  9
$LIMCHECK
 70
     0
  9
$CHAMFERA
 40
10.0
  9
$CHAMFERB
 40
10.0
  9
$CHAMFERC
 40
20.0
  9
$CHAMFERD
 40
0.0
  9
$SKPOLY
 70
     0
  9
$TDCREATE
 40
2455860.393938206
  9
$TDUCREATE
 40
2455860.352271539
  9
$TDUPDATE
 40
2455860.393938218
  9
$TDUUPDATE
 40
2455860.352271551
  9
$TDINDWG
 40
0.0000000116
  9
$TDUSRTIMER
 40
0.0000000116
  9
$USRTIMER
 70
     1
  9
$ANGBASE
 50
0.0
  9
$ANGDIR
 70
     0
  9
$PDMODE
 70
     0
  9
$PDSIZE
 40
-1.0
  9
$PLINEWID
 40
0.0
  9
$SPLFRAME
 70
     0
  9
$SPLINETYPE
 70
     6
  9
$SPLINESEGS
 70
     8
  9
$HANDSEED
  5
524
  9
$SURFTAB1
 70
     6
  9
$SURFTAB2
 70
     6
  9
$SURFTYPE
 70
     6
  9
$SURFU
 70
     6
  9
$SURFV
 70
     6
  9
$UCSBASE
  2

  9
$UCSNAME
  2

  9
$UCSORG
 10
0.0
 20
0.0
 30
0.0
  9
$UCSXDIR
 10
1.0
 20
0.0
 30
0.0
  9
$UCSYDIR
 10
0.0
 20
1.0
 30
0.0
  9
$UCSORTHOREF
  2

  9
$UCSORTHOVIEW
 70
     0
  9
$UCSORGTOP
 10
0.0
 20
0.0
 30
0.0
  9
$UCSORGBOTTOM
 10
0.0
 20
0.0
 30
0.0
  9
$UCSORGLEFT
 10
0.0
 20
0.0
 30
0.0
  9
$UCSORGRIGHT
 10
0.0
 20
0.0
 30
0.0
  9
$UCSORGFRONT
 10
0.0
 20
0.0
 30
0.0
  9
$UCSORGBACK
 10
0.0
 20
0.0
 30
0.0
  9
$PUCSBASE
  2

  9
$PUCSNAME
  2

  9
$PUCSORG
 10
0.0
 20
0.0
 30
0.0
  9
$PUCSXDIR
 10
1.0
 20
0.0
 30
0.0
  9
$PUCSYDIR
 10
0.0
 20
1.0
 30
0.0
  9
$PUCSORTHOREF
  2

  9
$PUCSORTHOVIEW
 70
     0
  9
$PUCSORGTOP
 10
0.0
 20
0.0
 30
0.0
  9
$PUCSORGBOTTOM
 10
0.0
 20
0.0
 30
0.0
  9
$PUCSORGLEFT
 10
0.0
 20
0.0
 30
0.0
  9
$PUCSORGRIGHT
 10
0.0
 20
0.0
 30
0.0
  9
$PUCSORGFRONT
 10
0.0
 20
0.0
 30
0.0
  9
$PUCSORGBACK
 10
0.0
 20
0.0
 30
0.0
  9
$USERI1
 70
     0
  9
$USERI2
 70
     0
  9
$USERI3
 70
     0
  9
$USERI4
 70
     0
  9
$USERI5
 70
     0
  9
$USERR1
 40
0.0
  9
$USERR2
 40
0.0
  9
$USERR3
 40
0.0
  9
$USERR4
 40
0.0
  9
$USERR5
 40
0.0
  9
$WORLDVIEW
 70
     1
  9
$SHADEDGE
 70
     3
  9
$SHADEDIF
 70
    70
  9
$TILEMODE
 70
     1
  9
$MAXACTVP
 70
    64
  9
$PINSBASE
 10
0.0
 20
0.0
 30
0.0
  9
$PLIMCHECK
 70
     0
  9
$PEXTMIN
 10
1.0000000000E+20
 20
1.0000000000E+20
 30
1.0000000000E+20
  9
$PEXTMAX
 10
-1.0000000000E+20
 20
-1.0000000000E+20
 30
-1.0000000000E+20
  9
$PLIMMIN
 10
0.0
 20
0.0
  9
$PLIMMAX
 10
420.0
 20
297.0
  9
$UNITMODE
 70
     0
  9
$VISRETAIN
 70
     1
  9
$PLINEGEN
 70
     0
  9
$PSLTSCALE
 70
     1
  9
$TREEDEPTH
 70
  3020
  9
$CMLSTYLE
  2
Standard
  9
$CMLJUST
 70
     0
  9
$CMLSCALE
 40
20.0
  9
$PROXYGRAPHICS
 70
     1
  9
$MEASUREMENT
 70
     1
  9
$CELWEIGHT
370
    -1
  9
$ENDCAPS
280
     0
  9
$JOINSTYLE
280
     0
  9
$LWDISPLAY
290
     1
  9
$INSUNITS
 70
     4
  9
$HYPERLINKBASE
  1

  9
$STYLESHEET
  1

  9
$XEDIT
290
     1
  9
$CEPSNTYPE
380
     0
  9
$PSTYLEMODE
290
     1
  9
$FINGERPRINTGUID
  2
{AFDF6276-6B47-457F-8658-135796FD58C2}
  9
$VERSIONGUID
  2
{FAEB1C32-E019-11D5-929B-00C0DF256EC4}
  9
$EXTNAMES
290
     1
  9
$PSVPSCALE
 40
0.0
  9
$OLESTARTUP
290
     0
  0
ENDSEC
  0
SECTION
  2
CLASSES
  0
CLASS
  1
ACDBDICTIONARYWDFLT
  2
AcDbDictionaryWithDefault
  3
ObjectDBX Classes
 90
        0
280
     0
281
     0
  0
CLASS
  1
VISUALSTYLE
  2
AcDbVisualStyle
  3
ObjectDBX Classes
 90
     4095
280
     0
281
     0
  0
CLASS
  1
MATERIAL
  2
AcDbMaterial
  3
ObjectDBX Classes
 90
     1153
280
     0
281
     0
  0
CLASS
  1
ACDBPLACEHOLDER
  2
AcDbPlaceHolder
  3
ObjectDBX Classes
 90
        0
280
     0
281
     0
  0
CLASS
  1
LAYOUT
  2
AcDbLayout
  3
ObjectDBX Classes
 90
        0
280
     0
281
     0
  0
ENDSEC
  0
SECTION
  2
TABLES
  0
TABLE
  2
VPORT
  5
8
330
0
100
AcDbSymbolTable
 70
     1
  0
VPORT
  5
29
330
8
100
AcDbSymbolTableRecord
100
AcDbViewportTableRecord
  2
*Active
 70
     0
 10
0.0
 20
0.0
 11
1.0
 21
1.0
 12
420.5
 22
297.0
 13
0.0
 23
0.0
 14
10.0
 24
10.0
 15
10.0
 25
10.0
 16
0.0
 26
0.0
 36
1.0
 17
0.0
 27
0.0
 37
0.0
 40
594.0
 41
1.4158249158
 42
50.0
 43
0.0
 44
0.0
 50
0.0
 51
0.0
 71
     0
 72
  2000
 73
     1
 74
     3
 75
     0
 76
     0
 77
     0
 78
     0
281
     0
 65
     1
110
0.0
120
0.0
130
0.0
111
1.0
121
0.0
131
0.0
112
0.0
122
1.0
132
0.0
 79
     0
146
0.0
  0
ENDTAB
  0
TABLE
  2
LTYPE
  5
5
330
0
100
AcDbSymbolTable
 70
     6
  0
LTYPE
  5
14
330
5
100
AcDbSymbolTableRecord
100
AcDbLinetypeTableRecord
  2
ByBlock
 70
     0
  3

 72
    65
 73
     0
 40
0.0
  0
LTYPE
  5
15
330
5
100
AcDbSymbolTableRecord
100
AcDbLinetypeTableRecord
  2
ByLayer
 70
     0
  3

 72
    65
 73
     0
 40
0.0
  0
LTYPE
  5
16
330
5
100
AcDbSymbolTableRecord
100
AcDbLinetypeTableRecord
  2
Continuous
 70
     0
  3
Solid line
 72
    65
 73
     0
 40
0.0
  0
LTYPE
  5
3F
330
5
100
AcDbSymbolTableRecord
100
AcDbLinetypeTableRecord
  2
HIDDEN
 70
     0
  3
Hidden __ __ __ __ __ __ __ __ __ __ __ __ __ __
 72
    65
 73
     2
 40
1.905
 49
1.27
 74
     0
 49
-0.635
 74
     0
  0
LTYPE
  5
40
330
5
100
AcDbSymbolTableRecord
100
AcDbLinetypeTableRecord
  2
PHANTOM
 70
     0
  3
Phantom ______  __  __  ______  __  __  ______
 72
    65
 73
     6
 40
12.7
 49
6.35
 74
     0
 49
-1.27
 74
     0
 49
1.27
 74
     0
 49
-1.27
 74
     0
 49
1.27
 74
     0
 49
-1.27
 74
     0
  0
LTYPE
  5
41
330
5
100
AcDbSymbolTableRecord
100
AcDbLinetypeTableRecord
  2
CENTER
 70
     0
  3
Center ____ _ ____ _ ____ _ ____ _ ____ _ ____
 72
    65
 73
     4
 40
10.16
 49
6.35
 74
     0
 49
-1.27
 74
     0
 49
1.27
 74
     0
 49
-1.27
 74
     0
  0
LTYPE
  5
42
330
5
100
AcDbSymbolTableRecord
100
AcDbLinetypeTableRecord
  2
CENTERX2
 70
     0
  3
Center (2x) ________  __  ________  __  _____
 72
    65
 73
     4
 40
20.32
 49
12.7
 74
     0
 49
-2.54
 74
     0
 49
2.54
 74
     0
 49
-2.54
 74
     0
  0
LTYPE
  5
43
330
5
100
AcDbSymbolTableRecord
100
AcDbLinetypeTableRecord
  2
DOT2
 70
     0
  3
Dot (.5x) ........................................
 72
    65
 73
     2
 40
0.635
 49
0.0
 74
     0
 49
-0.635
 74
     0
  0
ENDTAB
  0
TABLE
  2
LAYER
  5
2
330
0
100
AcDbSymbolTable
 70
     1
  0
LAYER
  5
10
330
2
100
AcDbSymbolTableRecord
100
AcDbLayerTableRecord
  2
0
 70
     0
 62
     7
  6
Continuous
370
    -3
390
F
  0
ENDTAB
  0
TABLE
  2
STYLE
  5
3
330
0
100
AcDbSymbolTable
 70
     1
  0
STYLE
  5
11
330
3
100
AcDbSymbolTableRecord
100
AcDbTextStyleTableRecord
  2
Standard
 70
     0
 40
0.0
 41
1.0
 50
0.0
 71
     0
 42
2.5
  3
txt
  4

  0
ENDTAB
  0
TABLE
  2
VIEW
  5
6
330
0
100
AcDbSymbolTable
 70
     0
  0
ENDTAB
  0
TABLE
  2
UCS
  5
7
330
0
100
AcDbSymbolTable
 70
     0
  0
ENDTAB
  0
TABLE
  2
APPID
  5
9
330
0
100
AcDbSymbolTable
 70
     1
  0
APPID
  5
12
330
9
100
AcDbSymbolTableRecord
100
AcDbRegAppTableRecord
  2
ACAD
 70
     0
  0
ENDTAB
  0
TABLE
  2
DIMSTYLE
  5
A
330
0
100
AcDbSymbolTable
 70
     1
100
AcDbDimStyleTable
  0
DIMSTYLE
105
27
330
A
100
AcDbSymbolTableRecord
100
AcDbDimStyleTableRecord
  2
ISO-25
 70
     0
 41
2.5
 42
0.625
 43
3.75
 44
1.25
 73
     0
 74
     0
 77
     1
 78
     8
140
2.5
141
2.5
143
0.0393700787
147
0.625
171
     3
172
     1
178
     0
271
     2
272
     2
274
     3
278
    44
283
     0
284
     8
340
11
  0
ENDTAB
  0
TABLE
  2
BLOCK_RECORD
  5
1
330
0
100
AcDbSymbolTable
 70
     1
  0
BLOCK_RECORD
  5
1F
330
1
100
AcDbSymbolTableRecord
100
AcDbBlockTableRecord
  2
*Model_Space
340
22
  0
BLOCK_RECORD
  5
1B
330
1
100
AcDbSymbolTableRecord
100
AcDbBlockTableRecord
  2
*Paper_Space
340
1E
  0
BLOCK_RECORD
  5
23
330
1
100
AcDbSymbolTableRecord
100
AcDbBlockTableRecord
  2
*Paper_Space0
340
26
  0
ENDTAB
  0
ENDSEC
  0
SECTION
  2
BLOCKS
  0
BLOCK
  5
20
330
1F
100
AcDbEntity
  8
0
100
AcDbBlockBegin
  2
*Model_Space
 70
     0
 10
0.0
 20
0.0
 30
0.0
  3
*Model_Space
  1

  0
ENDBLK
  5
21
330
1F
100
AcDbEntity
  8
0
100
AcDbBlockEnd
  0
BLOCK
  5
1C
330
1B
100
AcDbEntity
 67
     1
  8
0
100
AcDbBlockBegin
  2
*Paper_Space
 70
     0
 10
0.0
 20
0.0
 30
0.0
  3
*Paper_Space
  1

  0
ENDBLK
  5
1D
330
1B
100
AcDbEntity
 67
     1
  8
0
100
AcDbBlockEnd
  0
BLOCK
  5
24
330
23
100
AcDbEntity
  8
0
100
AcDbBlockBegin
  2
*Paper_Space0
 70
     0
 10
0.0
 20
0.0
 30
0.0
  3
*Paper_Space0
  1

  0
ENDBLK
  5
25
330
23
100
AcDbEntity
  8
0
100
AcDbBlockEnd
  0
ENDSEC
  0
SECTION
  2
ENTITIES
  0
LINE
  5
44
330
1F
100
AcDbEntity
  8
0
  6
Continuous
 62
     7
370
    15
100
AcDbLine
 10
499.3714374148
 20
486.8780094471
 30
0.0
 11
499.3714374148
 21
486.9280177441
 31
0.0
  0
LINE
  5
45
330
1F
100
AcDbEntity
  8
0
  6
Continuous
 62
     7
370
    15
100
AcDbLine
 10
489.8714405143
 20
486.9280177441
 30
0.0
 11
489.8714405143
 21
486.8780094471
 31
0.0
  0
LINE
  5
46
330
1F
100
AcDbEntity
  8
0
  6
Continuous
 62
     7
370
    15
100
AcDbLine
 10
236.2297457301
 20
207.6204884138
 30
0.0
 11
236.2297457301
 21
193.8757318344
 31
0.0
  0
LINE
  5
47
330
1F
100
AcDbEntity
  8
0
  6
Continuous
 62
     7
370
    15
100
AcDbLine
 10
497.2297456705
 20
193.8757318344
 30
0.0
 11
497.2297456705
 21
207.6204884138
 31
0.0
  0
LINE
  5
48
330
1F
100
AcDbEntity
  8
0
  6
Continuous
 62
     7
370
    15
100
AcDbLine
 10
256.6297408783
 20
183.5998016682
 30
0.0
 11
476.8297430717
 21
183.5998016682
 31
0.0
  0
LINE
  5
49
330
1F
100
AcDbEntity
  8
0
  6
Continuous
 62
     7
370
    15
100
AcDbLine
 10
420.4047453248
 20
459.7465786424
 30
0.0
 11
420.4047453248
 21
454.5094463315
 31
0.0
  0
LINE
  5
4A
330
1F
100
AcDbEntity
  8
0
  6
Continuous
 62
     7
370
    15
100
AcDbLine
 10
443.5547423207
 20
453.8788813438
 30
0.0
 11
443.5547423207
 21
460.37714363
 31
0.0
  0
LINE
  5
4B
330
1F
100
AcDbEntity
  8
0
  6
Continuous
 62
     7
370
    15
100
AcDbLine
 10
441.0547447049
 20
459.291772851
 30
0.0
 11
441.0547447049
 21
454.9642446723
 31
0.0
  0
LINE
  5
4C
330
1F
100
AcDbEntity
  8
0
  6
Continuous
 62
     7
370
    15
100
AcDbLine
 10
313.0547423505
 20
456.075930902
 30
0.0
 11
313.0547423505
 21
458.1800940719
 31
0.0
  0
LINE
  5
4D
330
1F
100
AcDbEntity
  8
0
  6
Continuous
 62
     7
370
    15
100
AcDbLine
 10
310.5547410094
 20
460.3267404523
 30
0.0
 11
310.5547410094
 21
453.9292845216
 31
0.0
  0
LINE
  5
4E
330
1F
100
AcDbEntity
  8
0
  6
Continuous
 62
     7
370
    15
100
AcDbLine
 10
269.5547398769
 20
455.7113665428
 30
0.0
 11
269.5547398769
 21
458.5446509805
 31
0.0
  0
LINE
  5
4F
330
1F
100
AcDbEntity
  8
0
  6
Continuous
 62
     7
370
    15
100
AcDbLine
 10
527.7297478759
 20
417.0848968711
 30
0.0
 11
527.6335012757
 21
417.0933160272
 31
0.0
  0
LINE
  5
50
330
1F
100
AcDbEntity
  8
0
  6
Continuous
 62
     7
370
    15
100
AcDbLine
 10
523.4797429883
 20
425.36551685
 30
0.0
 11
522.7297377431
 21
425.36551685
 31
0.0
  0
LINE
  5
51
330
1F
100
AcDbEntity
  8
0
  6
Continuous
 62
     7
370
    15
100
AcDbLine
 10
445.2297445976
 20
458.2780096021
 30
0.0
 11
445.2297445976
 21
459.8666223969
 31
0.0
  0
LINE
  5
52
330
1F
100
AcDbEntity
  8
0
  6
Continuous
 62
     7
370
    15
100
AcDbLine
 10
404.8547428691
 20
460.0280094233
 30
0.0
 11
404.8547428691
 21
458.2780096021
 31
0.0
  0
LINE
  5
53
330
1F
100
AcDbEntity
  8
0
  6
Continuous
 62
     7
370
    15
100
AcDbLine
 10
418.1047436439
 20
458.2780096021
 30
0.0
 11
418.1047436439
 21
460.0280094233
 31
0.0
  0
LINE
  5
54
330
1F
100
AcDbEntity
  8
0
  6
Continuous
 62
     7
370
    15
100
AcDbLine
 10
431.8547417068
 20
459.7655105677
 30
0.0
 11
431.8547417068
 21
458.2780096021
 31
0.0
  0
LINE
  5
55
330
1F
100
AcDbEntity
  8
0
  6
Continuous
 62
     7
370
    15
100
AcDbLine
 10
297.3547410809
 20
458.7781074729
 30
0.0
 11
297.3547410809
 21
458.6780089226
 31
0.0
  0
LINE
  5
56
330
1F
100
AcDbEntity
  8
0
  6
Continuous
 62
     7
370
    15
100
AcDbLine
 10
319.6047451936
 20
458.2780096021
 30
0.0
 11
319.6047451936
 21
458.6435574379
 31
0.0
  0
LINE
  5
57
330
1F
100
AcDbEntity
  8
0
  6
Continuous
 62
     7
370
    15
100
AcDbLine
 10
324.3547436439
 20
459.7826096501
 30
0.0
 11
324.3547436439
 21
458.2780096021
 31
0.0
  0
LINE
  5
58
330
1F
100
AcDbEntity
  8
0
  6
Continuous
 62
     7
370
    15
100
AcDbLine
 10
467.7297454917
 20
150.1648146
 30
0.0
 11
467.7297454917
 21
149.4086253729
 31
0.0
  0
LINE
  5
59
330
1F
100
AcDbEntity
  8
0
  6
Continuous
 62
     7
370
    15
100
AcDbLine
 10
502.7297419154
 20
149.4086253729
 30
0.0
 11
502.7297419154
 21
150.1648146
 31
0.0
  0
SPLINE
  5
5A
330
1F
100
AcDbEntity
  8
0
  6
Continuous
 62
     7
370
    15
100
AcDbSpline
210
0.0
220
0.0
230
1.0
 70
     8
 71
     3
 72
    37
 73
    33
 74
     0
 42
0.00000001
 43
0.00000001
 40
0.0
 40
0.0
 40
0.0
 40
0.0
 40
0.01918973960502
 40
0.0534745096266099
 40
0.0878459402464294
 40
0.1222893462337944
 40
0.1567861010780743
 40
0.1913179791058063
 40
0.2258700650171939
 40
0.2604315107657344
 40
0.2949942295870019
 40
0.3295549995255811
 40
0.3641128934036433
 40
0.3986684798329455
 40
0.4332234503857144
 40
0.4677799209559042
 40
0.50233984846339
 40
0.5369049314105024
 40
0.5714776272358476
 40
0.6060593251624217
 40
0.6406507086164326
 40
0.6752505214546579
 40
0.7098552253333231
 40
0.7444560967455855
 40
0.779040807996946
 40
0.8135928112681965
 40
0.8480912555310589
 40
0.882514499416444
 40
0.9168442494074929
 40
0.9510736574224097
 40
0.9852118688511173
 40
1.0
 40
1.0
 40
1.0
 40
1.0
 10
468.9899962984757
 20
144.7718757476817
 30
0.0
 10
469.1025097536813
 20
144.56420811436
 30
0.0
 10
469.4160419832665
 20
143.9855173616054
 30
0.0
 10
470.0899274789165
 20
143.0879029084888
 30
0.0
 10
470.9906144222044
 20
142.0859397969975
 30
0.0
 10
472.0275702187877
 20
141.1521447078854
 30
0.0
 10
473.1826420303278
 20
140.2924921235864
 30
0.0
 10
474.4475385051684
 20
139.5156266352375
 30
0.0
 10
475.8099578354421
 20
138.8284442212229
 30
0.0
 10
477.2575132421464
 20
138.2371811133626
 30
0.0
 10
478.776898045633
 20
137.7470301056356
 30
0.0
 10
480.3543153212154
 20
137.3622994451258
 30
0.0
 10
481.975519793022
 20
137.086297982529
 30
0.0
 10
483.6259430477661
 20
136.9214180911278
 30
0.0
 10
485.29079011696
 20
136.8690459877708
 30
0.0
 10
486.9551580017434
 20
136.9296805666961
 30
0.0
 10
488.6041405431051
 20
137.1028088763436
 30
0.0
 10
490.2229809602177
 20
137.3869407211125
 30
0.0
 10
491.7971736819421
 20
137.7797096074936
 30
0.0
 10
493.3125907670237
 20
138.2778173876014
 30
0.0
 10
494.7555799913972
 20
138.8770370190986
 30
0.0
 10
496.113058072998
 20
139.5722831508414
 30
0.0
 10
497.3725618810997
 20
140.357632793983
 30
0.0
 10
498.5224031479731
 20
141.2262507750706
 30
0.0
 10
499.5517537370394
 20
142.1704286777104
 30
0.0
 10
500.4507824044225
 20
143.1816189114037
 30
0.0
 10
501.2109121273117
 20
144.2503835180163
 30
0.0
 10
501.8247005839323
 20
145.3665364005143
 30
0.0
 10
502.2871290610226
 20
146.5192399282449
 30
0.0
 10
502.59186447749
 20
147.6972406238442
 30
0.0
 10
502.7166825465945
 20
148.66510590742
 30
0.0
 10
502.7267108355231
 20
149.2360544839827
 30
0.0
 10
502.7297419153886
 20
149.4086253728877
 30
0.0
  0
LINE
  5
5B
330
1F
100
AcDbEntity
  8
0
  6
Continuous
 62
     7
370
    15
100
AcDbLine
 10
230.7297420346
 20
150.1648146
 30
0.0
 11
230.7297420346
 21
149.4086253729
 31
0.0
  0
LINE
  5
5C
330
1F
100
AcDbEntity
  8
0
  6
Continuous
 62
     7
370
    15
100
AcDbLine
 10
265.7297459089
 20
149.4086253729
 30
0.0
 11
265.7297459089
 21
150.1648146
 31
0.0
  0
SPLINE
  5
5D
330
1F
100
AcDbEntity
  8
0
  6
Continuous
 62
     7
370
    15
100
AcDbSpline
210
0.0
220
0.0
230
1.0
 70
     8
 71
     3
 72
    37
 73
    33
 74
     0
 42
0.00000001
 43
0.00000001
 40
0.0
 40
0.0
 40
0.0
 40
0.0
 40
0.0191897977175753
 40
0.0534744949269072
 40
0.087845924664427
 40
0.1222894262385884
 40
0.1567861801973517
 40
0.1913179398077186
 40
0.2258700248321692
 40
0.2604316040841115
 40
0.2949943220181691
 40
0.3295550910695884
 40
0.3641128335453003
 40
0.3986684190875757
 40
0.4332233887533335
 40
0.4677800129630045
 40
0.5023397864999939
 40
0.5369050188215013
 40
0.5714775676725217
 40
0.6060594053085465
 40
0.640650654032383
 40
0.6752504659824461
 40
0.7098552857586036
 40
0.7444561562826767
 40
0.7790408666462626
 40
0.8135928690305783
 40
0.8480912417144257
 40
0.8825144847161811
 40
0.9168442769949391
 40
0.9510736554429504
 40
0.985211865995345
 40
1.0
 40
1.0
 40
1.0
 40
1.0
 10
231.9899928414063
 20
144.7718757476817
 30
0.0
 10
232.1025094283908
 20
144.5642083240488
 30
0.0
 10
232.4160493493661
 20
143.985520067144
 30
0.0
 10
233.0899216885418
 20
143.0879012515924
 30
0.0
 10
233.9906111671995
 20
142.0859383088644
 30
0.0
 10
235.0275743117316
 20
141.1521461693659
 30
0.0
 10
236.1826453878069
 20
140.292493737047
 30
0.0
 10
237.4475356790707
 20
139.515625137329
 30
0.0
 10
238.8099557974178
 20
138.8284427732206
 30
0.0
 10
240.2575158980208
 20
138.2371825906316
 30
0.0
 10
241.776901837895
 20
137.7470297846626
 30
0.0
 10
243.3543171980772
 20
137.3623004455636
 30
0.0
 10
244.9755185553879
 20
137.0862972584641
 30
0.0
 10
246.625939650108
 20
136.921418147529
 30
0.0
 10
248.2907890806638
 20
136.8690461687538
 30
0.0
 10
249.9551572322692
 20
136.9296796494478
 30
0.0
 10
251.6041415158732
 20
137.1028105340742
 30
0.0
 10
253.2229810379837
 20
137.386938363227
 30
0.0
 10
254.7971735109231
 20
137.7797125289404
 30
0.0
 10
256.3125920104129
 20
138.2778142365673
 30
0.0
 10
257.7555778114261
 20
138.8770386926642
 30
0.0
 10
259.1130551572314
 20
139.5722846496473
 30
0.0
 10
260.3725656210073
 20
140.3576309678868
 30
0.0
 10
261.5224069942558
 20
141.2262509509907
 30
0.0
 10
262.5517572802092
 20
142.1704288221786
 30
0.0
 10
263.4507877297618
 20
143.1816174693345
 30
0.0
 10
264.2109078174179
 20
144.2503848949652
 30
0.0
 10
264.824694813569
 20
145.3665372915075
 30
0.0
 10
265.2871373309189
 20
146.5192382837145
 30
0.0
 10
265.5918595300137
 20
147.6972414250213
 30
0.0
 10
265.7166743726053
 20
148.6651059751952
 30
0.0
 10
265.7267120046014
 20
149.2360544794841
 30
0.0
 10
265.7297459088998
 20
149.4086253728877
 30
0.0
  0
LINE
  5
5E
330
1F
100
AcDbEntity
  8
0
  6
Continuous
 62
     7
370
    15
100
AcDbLine
 10
477.9047426426
 20
138.0490976658
 30
0.0
 11
477.9047426426
 21
109.5061767187
 31
0.0
  0
LINE
  5
5F
330
1F
100
AcDbEntity
  8
0
  6
Continuous
 62
     7
370
    15
100
AcDbLine
 10
492.5547447645
 20
109.5061767187
 30
0.0
 11
492.5547447645
 21
138.0495148983
 31
0.0
  0
SPLINE
  5
60
330
1F
100
AcDbEntity
  8
0
  6
Continuous
 62
     7
370
    15
100
AcDbSpline
210
0.0
220
0.0
230
1.0
 70
     8
 71
     3
 72
    19
 73
    15
 74
     0
 42
0.00000001
 43
0.00000001
 40
0.0
 40
0.0
 40
0.0
 40
0.0
 40
0.0194804898786457
 40
0.1074663779953987
 40
0.1947369135346916
 40
0.2822290702735918
 40
0.3708905025179127
 40
0.4614133573009818
 40
0.5540959122086404
 40
0.6487645217917444
 40
0.7448856319779784
 40
0.8418567083471111
 40
0.9392056407337681
 40
1.0
 40
1.0
 40
1.0
 40
1.0
 10
477.9188912951188
 20
109.5567512598048
 30
0.0
 10
477.9139315349368
 20
109.491949186869
 30
0.0
 10
477.8865704436194
 20
109.1344610483069
 30
0.0
 10
477.9935600626875
 20
108.4853356427262
 30
0.0
 10
478.239508873587
 20
107.642078091065
 30
0.0
 10
478.6400805100996
 20
106.8486968075967
 30
0.0
 10
479.1698373981516
 20
106.1159440031849
 30
0.0
 10
479.8263577155935
 20
105.4534631933368
 30
0.0
 10
480.6000579128821
 20
104.8724200264606
 30
0.0
 10
481.4790375114305
 20
104.3853829828304
 30
0.0
 10
482.4457459832025
 20
104.0040947631776
 30
0.0
 10
483.4779033574837
 20
103.7408994949799
 30
0.0
 10
484.416422601297
 20
103.6120167870337
 30
0.0
 10
485.0039016198102
 20
103.5992769539756
 30
0.0
 10
485.2297437035279
 20
103.5943794336329
 30
0.0
  0
SPLINE
  5
61
330
1F
100
AcDbEntity
  8
0
  6
Continuous
 62
     7
370
    15
100
AcDbSpline
210
0.0
220
0.0
230
1.0
 70
     8
 71
     3
 72
    18
 73
    14
 74
     0
 42
0.00000001
 43
0.00000001
 40
0.0
 40
0.0
 40
0.0
 40
0.0
 40
0.0564568123722898
 40
0.1551467857085807
 40
0.2544364448203945
 40
0.3543941796343539
 40
0.4549342421319381
 40
0.5554618020197184
 40
0.6550278176430337
 40
0.7427156086645756
 40
0.8375880779145312
 40
0.9298965643448454
 40
1.0
 40
1.0
 40
1.0
 40
1.0
 10
485.2297437035279
 20
103.5943794336329
 30
0.0
 10
485.4380815196997
 20
103.5985716359457
 30
0.0
 10
486.0106066262795
 20
103.6100920652175
 30
0.0
 10
486.9415147609371
 20
103.7327009331516
 30
0.0
 10
487.9950067569924
 20
103.9969102059549
 30
0.0
 10
488.9962527724513
 20
104.3906383510316
 30
0.0
 10
489.9207011816455
 20
104.9087049810784
 30
0.0
 10
490.7421035901013
 20
105.544582263132
 30
0.0
 10
491.410325406034
 20
106.2597169203107
 30
0.0
 10
491.9385799727775
 20
107.0484156101915
 30
0.0
 10
492.3092634462382
 20
107.8879560789449
 30
0.0
 10
492.5253524337257
 20
108.7212587402216
 30
0.0
 10
492.5360782027627
 20
109.2601353328199
 30
0.0
 10
492.540707870646
 20
109.492735871316
 30
0.0
  0
LINE
  5
62
330
1F
100
AcDbEntity
  8
0
  6
Continuous
 62
     7
370
    15
100
AcDbLine
 10
240.9047466361
 20
138.0490976658
 30
0.0
 11
240.9047466361
 21
109.5061767187
 31
0.0
  0
LINE
  5
63
330
1F
100
AcDbEntity
  8
0
  6
Continuous
 62
     7
370
    15
100
AcDbLine
 10
255.5547413074
 20
109.5061767187
 30
0.0
 11
255.5547413074
 21
138.0495148983
 31
0.0
  0
SPLINE
  5
64
330
1F
100
AcDbEntity
  8
0
  6
Continuous
 62
     7
370
    15
100
AcDbSpline
210
0.0
220
0.0
230
1.0
 70
     8
 71
     3
 72
    19
 73
    15
 74
     0
 42
0.00000001
 43
0.00000001
 40
0.0
 40
0.0
 40
0.0
 40
0.0
 40
0.0194804979124324
 40
0.1074664933798695
 40
0.1947368904131321
 40
0.2822293533444974
 40
0.3708908221529416
 40
0.4614132815118175
 40
0.5540963741325703
 40
0.6487650227571675
 40
0.7448861725839085
 40
0.8418566512138679
 40
0.9392062836776339
 40
0.9999999999999999
 40
0.9999999999999999
 40
0.9999999999999999
 40
0.9999999999999999
 10
240.9188878380494
 20
109.5567512598048
 30
0.0
 10
240.9139279865263
 20
109.4919491744169
 30
0.0
 10
240.8865663732215
 20
109.1344607307623
 30
0.0
 10
240.9935702374493
 20
108.4853376046839
 30
0.0
 10
241.2395003946723
 20
107.6420752130903
 30
0.0
 10
241.6400867934402
 20
106.8486983113804
 30
0.0
 10
242.1698414045521
 20
106.1159462456242
 30
0.0
 10
242.8263541181899
 20
105.4534588513916
 30
0.0
 10
243.6000620584088
 20
104.8724224795841
 30
0.0
 10
244.4790409830806
 20
104.3853823916738
 30
0.0
 10
245.4457481832871
 20
104.0040963506388
 30
0.0
 10
246.4779042263417
 20
103.74089752383
 30
0.0
 10
247.4164217751939
 20
103.6120175593273
 30
0.0
 10
248.0039006774605
 20
103.5992771297329
 30
0.0
 10
248.2297402464585
 20
103.5943794336329
 30
0.0
  0
SPLINE
  5
65
330
1F
100
AcDbEntity
  8
0
  6
Continuous
 62
     7
370
    15
100
AcDbSpline
210
0.0
220
0.0
230
1.0
 70
     8
 71
     3
 72
    18
 73
    14
 74
     0
 42
0.00000001
 43
0.00000001
 40
0.0
 40
0.0
 40
0.0
 40
0.0
 40
0.0564574741869473
 40
0.1551474287769067
 40
0.2544370690284775
 40
0.3543941777077456
 40
0.4549342211075706
 40
0.5554617618999665
 40
0.6550277586105446
 40
0.7427158720776272
 40
0.8375880764006737
 40
0.9298965452968307
 40
1.0
 40
1.0
 40
1.0
 40
1.0
 10
248.2297402464585
 20
103.5943794336329
 30
0.0
 10
248.4380805560563
 20
103.5985715573647
 30
0.0
 10
249.0106081763615
 20
103.610091683397
 30
0.0
 10
249.9415186124371
 20
103.7327011943981
 30
0.0
 10
250.9950091329988
 20
103.9969087247002
 30
0.0
 10
251.996250777213
 20
104.3906401673948
 30
0.0
 10
252.9206976218157
 20
104.9087048765206
 30
0.0
 10
253.742100944273
 20
105.5445819091702
 30
0.0
 10
254.4103197833741
 20
106.2597191917094
 30
0.0
 10
254.9385871674358
 20
107.0484120397103
 30
0.0
 10
255.3092581753073
 20
107.8879579295583
 30
0.0
 10
255.5253468045065
 20
108.7212587679049
 30
0.0
 10
255.5360792941693
 20
109.2601352985352
 30
0.0
 10
255.5407118641572
 20
109.492735871316
 30
0.0
  0
LINE
  5
66
330
1F
100
AcDbEntity
  8
0
  6
Continuous
 62
     7
370
    15
100
AcDbLine
 10
524.4797450148
 20
206.6205012884
 30
0.0
 11
526.354027971
 21
201.9348013487
 31
0.0
  0
LINE
  5
67
330
1F
100
AcDbEntity
  8
0
  6
Continuous
 62
     7
370
    15
100
AcDbLine
 10
555.1054608666
 20
201.9348013487
 30
0.0
 11
556.9797438227
 21
206.6205012884
 31
0.0
  0
SPLINE
  5
68
330
1F
100
AcDbEntity
  8
0
  6
Continuous
 62
     7
370
    15
100
AcDbSpline
210
0.0
220
0.0
230
1.0
 70
     8
 71
     3
 72
    12
 73
     8
 74
     0
 42
0.00000001
 43
0.00000001
 40
0.0
 40
0.0
 40
0.0
 40
0.0
 40
0.0495458631498499
 40
0.366069501019847
 40
0.6392225947985984
 40
0.894289327260203
 40
1.0
 40
1.0
 40
1.0
 40
1.0
 10
547.8065293871598
 20
200.0672835197459
 30
0.0
 10
547.8100438756683
 20
200.0914169984704
 30
0.0
 10
547.8360106662907
 20
200.2697271529999
 30
0.0
 10
547.9601021660003
 20
200.5971237051519
 30
0.0
 10
548.2147660546202
 20
200.9920956776435
 30
0.0
 10
548.4682568843848
 20
201.2631799768512
 30
0.0
 10
548.6311915939617
 20
201.3581497698582
 30
0.0
 10
548.6789327704148
 20
201.3859766807566
 30
0.0
  0
SPLINE
  5
69
330
1F
100
AcDbEntity
  8
0
  6
Continuous
 62
     7
370
    15
100
AcDbSpline
210
0.0
220
0.0
230
1.0
 70
     8
 71
     3
 72
    11
 73
     7
 74
     0
 42
0.00000001
 43
0.00000001
 40
0.0
 40
0.0
 40
0.0
 40
0.0
 40
0.1919451748060657
 40
0.4689980170516588
 40
0.7635644139471828
 40
0.9999999999999999
 40
0.9999999999999999
 40
0.9999999999999999
 40
0.9999999999999999
 10
532.8470599495606
 20
201.3423311796198
 30
0.0
 10
532.9274628150405
 20
201.2832531912447
 30
0.0
 10
533.1239188317828
 20
201.1389022877778
 30
0.0
 10
533.3759459698998
 20
200.8066974390848
 30
0.0
 10
533.5767504568953
 20
200.4285426148895
 30
0.0
 10
533.6213457818438
 20
200.1791695212601
 30
0.0
 10
533.6412024342255
 20
200.0681328859339
 30
0.0
  0
LINE
  5
6A
330
1F
100
AcDbEntity
  8
0
  6
Continuous
 62
     7
370
    15
100
AcDbLine
 10
534.7840320908
 20
192.9294335928
 30
0.0
 11
534.9010360085
 21
192.0570600119
 31
0.0
  0
SPLINE
  5
6B
330
1F
100
AcDbEntity
  8
0
  6
Continuous
 62
     7
370
    15
100
AcDbSpline
210
0.0
220
0.0
230
1.0
 70
     8
 71
     3
 72
    10
 73
     6
 74
     0
 42
0.00000001
 43
0.00000001
 40
0.0
 40
0.0
 40
0.0
 40
0.0
 40
0.1237922240481923
 40
0.806178290038076
 40
1.0
 40
1.0
 40
1.0
 40
1.0
 10
533.6519908749299
 20
200.0669705953608
 30
0.0
 10
533.7061547437687
 20
199.7716260328614
 30
0.0
 10
534.058888814896
 20
197.8482388718459
 30
0.0
 10
534.4504691483851
 20
195.4622061789292
 30
0.0
 10
534.7236115690231
 20
193.3882118975555
 30
0.0
 10
534.7840320908265
 20
192.9294335927974
 30
0.0
  0
SPLINE
  5
6C
330
1F
100
AcDbEntity
  8
0
  6
Continuous
 62
     7
370
    15
100
AcDbSpline
210
0.0
220
0.0
230
1.0
 70
     8
 71
     3
 72
     9
 73
     5
 74
     0
 42
0.00000001
 43
0.00000001
 40
0.0
 40
0.0
 40
0.0
 40
0.0
 40
0.5175660158008759
 40
0.9999999999999999
 40
0.9999999999999999
 40
0.9999999999999999
 40
0.9999999999999999
 10
546.5433430515961
 20
192.0539158668528
 30
0.0
 10
546.7358840714356
 20
193.4324208931023
 30
0.0
 10
547.1078965567251
 20
196.0958589554264
 30
0.0
 10
547.5818947600904
 20
198.7748883161233
 30
0.0
 10
547.8105676018433
 20
200.0673431243907
 30
0.0
  0
ARC
  5
6D
330
1F
100
AcDbEntity
  8
0
  6
Continuous
 62
     7
370
    15
100
AcDbCircle
 10
526.8182600487
 20
202.1204954607
 30
0.0
 40
0.5
100
AcDbArc
 50
201.8014094864
 51
270.0
  0
ARC
  5
6E
330
1F
100
AcDbEntity
  8
0
  6
Continuous
 62
     7
370
    15
100
AcDbCircle
 10
554.6412270873
 20
202.1204954607
 30
0.0
 40
0.5
100
AcDbArc
 50
270.0
 51
338.1985905136
  0
ARC
  5
6F
330
1F
100
AcDbEntity
  8
0
  6
Continuous
 62
     7
370
    15
100
AcDbCircle
 10
535.4123419378
 20
192.1204954607
 30
0.0
 40
0.5000000000000105
100
AcDbArc
 50
187.6598619983
 51
270.0
  0
ARC
  5
70
330
1F
100
AcDbEntity
  8
0
  6
Continuous
 62
     7
370
    15
100
AcDbCircle
 10
546.0471451982
 20
192.1204954607
 30
0.0
 40
0.5
100
AcDbArc
 50
270.0
 51
352.3401380017
  0
LINE
  5
71
330
1F
100
AcDbEntity
  8
0
  6
Continuous
 62
     7
370
    15
100
AcDbLine
 10
536.8137490594
 20
207.6204884138
 30
0.0
 11
536.9357597672
 21
207.2491365757
 31
0.0
  0
LINE
  5
72
330
1F
100
AcDbEntity
  8
0
  6
Continuous
 62
     7
370
    15
100
AcDbLine
 10
544.5221048438
 20
207.3416131821
 30
0.0
 11
544.6137469851
 21
207.6204884138
 31
0.0
  0
LINE
  5
73
330
1F
100
AcDbEntity
  8
0
  6
Continuous
 62
     7
370
    15
100
AcDbLine
 10
250.2297442996
 20
172.4135446634
 30
0.0
 11
250.2297442996
 21
193.8757318344
 31
0.0
  0
LINE
  5
74
330
1F
100
AcDbEntity
  8
0
  6
Continuous
 62
     7
370
    15
100
AcDbLine
 10
250.2297442996
 20
204.2094934073
 30
0.0
 11
250.2297442996
 21
207.6204884138
 31
0.0
  0
LINE
  5
75
330
1F
100
AcDbEntity
  8
0
  6
Continuous
 62
     7
370
    15
100
AcDbLine
 10
246.2297361933
 20
207.6204884138
 30
0.0
 11
246.2297361933
 21
204.2094934073
 31
0.0
  0
LINE
  5
76
330
1F
100
AcDbEntity
  8
0
  6
Continuous
 62
     7
370
    15
100
AcDbLine
 10
246.2297361933
 20
193.8757318344
 30
0.0
 11
246.2297361933
 21
172.4135446634
 31
0.0
  0
LINE
  5
77
330
1F
100
AcDbEntity
  8
0
  6
Continuous
 62
     7
370
    15
100
AcDbLine
 10
487.2297403061
 20
172.4135446634
 30
0.0
 11
487.2297403061
 21
193.8757318344
 31
0.0
  0
LINE
  5
78
330
1F
100
AcDbEntity
  8
0
  6
Continuous
 62
     7
370
    15
100
AcDbLine
 10
487.2297403061
 20
204.2094934073
 30
0.0
 11
487.2297403061
 21
207.6204884138
 31
0.0
  0
LINE
  5
79
330
1F
100
AcDbEntity
  8
0
  6
Continuous
 62
     7
370
    15
100
AcDbLine
 10
483.229747101
 20
207.6204884138
 30
0.0
 11
483.229747101
 21
204.2094934073
 31
0.0
  0
LINE
  5
7A
330
1F
100
AcDbEntity
  8
0
  6
Continuous
 62
     7
370
    15
100
AcDbLine
 10
483.229747101
 20
193.8757318344
 30
0.0
 11
483.229747101
 21
172.4135446634
 31
0.0
  0
LINE
  5
7B
330
1F
100
AcDbEntity
  8
0
  6
Continuous
 62
     7
370
    15
100
AcDbLine
 10
250.2297442996
 20
170.6457752075
 30
0.0
 11
250.2297442996
 21
172.4135446634
 31
0.0
  0
LINE
  5
7C
330
1F
100
AcDbEntity
  8
0
  6
Continuous
 62
     7
370
    15
100
AcDbLine
 10
246.2297361933
 20
172.4135446634
 30
0.0
 11
246.2297361933
 21
170.6457752075
 31
0.0
  0
LINE
  5
7D
330
1F
100
AcDbEntity
  8
0
  6
Continuous
 62
     7
370
    15
100
AcDbLine
 10
483.229747101
 20
172.4135446634
 30
0.0
 11
483.229747101
 21
170.6457752075
 31
0.0
  0
LINE
  5
7E
330
1F
100
AcDbEntity
  8
0
  6
Continuous
 62
     7
370
    15
100
AcDbLine
 10
487.2297403061
 20
170.6457752075
 30
0.0
 11
487.2297403061
 21
172.4135446634
 31
0.0
  0
LINE
  5
7F
330
1F
100
AcDbEntity
  8
0
  6
Continuous
 62
     7
370
    15
100
AcDbLine
 10
250.2297442996
 20
149.4359392014
 30
0.0
 11
250.2297442996
 21
170.6457752075
 31
0.0
  0
LINE
  5
80
330
1F
100
AcDbEntity
  8
0
  6
Continuous
 62
     7
370
    15
100
AcDbLine
 10
246.2297361933
 20
170.6457752075
 30
0.0
 11
246.2297361933
 21
149.4359392014
 31
0.0
  0
LINE
  5
81
330
1F
100
AcDbEntity
  8
0
  6
Continuous
 62
     7
370
    15
100
AcDbLine
 10
487.2297403061
 20
149.4359392014
 30
0.0
 11
487.2297403061
 21
170.6457752075
 31
0.0
  0
LINE
  5
82
330
1F
100
AcDbEntity
  8
0
  6
Continuous
 62
     7
370
    15
100
AcDbLine
 10
483.229747101
 20
170.6457752075
 30
0.0
 11
483.229747101
 21
149.4359392014
 31
0.0
  0
LINE
  5
83
330
1F
100
AcDbEntity
  8
0
  6
Continuous
 62
     7
370
    15
100
AcDbLine
 10
509.8478776061
 20
487.1280062284
 30
0.0
 11
509.8478776061
 21
486.98301793
 31
0.0
  0
LINE
  5
84
330
1F
100
AcDbEntity
  8
0
  6
Continuous
 62
     7
370
    15
100
AcDbLine
 10
515.0478762232
 20
486.98301793
 30
0.0
 11
515.0478762232
 21
487.1280062284
 31
0.0
  0
LINE
  5
85
330
1F
100
AcDbEntity
  8
0
  6
Continuous
 62
     7
370
    15
100
AcDbLine
 10
571.8632173382
 20
486.4780175772
 30
0.0
 11
571.8928855502
 21
486.1387926426
 31
0.0
  0
LINE
  5
86
330
1F
100
AcDbEntity
  8
0
  6
Continuous
 62
     7
370
    15
100
AcDbLine
 10
576.0665964925
 20
486.1387926426
 30
0.0
 11
576.0962796056
 21
486.4780175772
 31
0.0
  0
ARC
  5
87
330
1F
100
AcDbEntity
  8
0
  6
Continuous
 62
     7
370
    15
100
AcDbCircle
 10
575.6183105117
 20
486.1780121866
 30
0.0
 40
0.4499999999999831
100
AcDbArc
 50
297.2660444545
 51
355.0
  0
ARC
  5
88
330
1F
100
AcDbEntity
  8
0
  6
Continuous
 62
     7
370
    15
100
AcDbCircle
 10
572.3411766244
 20
486.1780121866
 30
0.0
 40
0.4500000000001763
100
AcDbArc
 50
185.0
 51
242.7339555455
  0
LINE
  5
89
330
1F
100
AcDbEntity
  8
0
  6
Continuous
 62
     7
370
    15
100
AcDbLine
 10
495.1047432267
 20
439.3780100431
 30
0.0
 11
495.1047432267
 21
439.5780134287
 31
0.0
  0
ARC
  5
8A
330
1F
100
AcDbEntity
  8
0
  6
Continuous
 62
     7
370
    15
100
AcDbCircle
 10
494.954743568
 20
439.3780121866
 30
0.0
 40
0.1500000000000341
100
AcDbArc
 50
270.0
 51
0.0
  0
ARC
  5
8B
330
1F
100
AcDbEntity
  8
0
  6
Continuous
 62
     7
370
    15
100
AcDbCircle
 10
494.954743568
 20
439.5780121866
 30
0.0
 40
0.1500000000000341
100
AcDbArc
 50
0.0
 51
90.0
  0
LINE
  5
8C
330
1F
100
AcDbEntity
  8
0
  6
Continuous
 62
     7
370
    15
100
AcDbLine
 10
494.6797472083
 20
440.1280152884
 30
0.0
 11
494.6797472083
 21
440.3780120697
 31
0.0
  0
ARC
  5
8D
330
1F
100
AcDbEntity
  8
0
  6
Continuous
 62
     7
370
    15
100
AcDbCircle
 10
490.779743568
 20
439.0780121866
 30
0.0
 40
0.1500000000000341
100
AcDbArc
 50
0.0
 51
90.0
  0
ARC
  5
8E
330
1F
100
AcDbEntity
  8
0
  6
Continuous
 62
     7
370
    15
100
AcDbCircle
 10
494.579743568
 20
439.0780121866
 30
0.0
 40
0.1499999999999773
100
AcDbArc
 50
90.0
 51
180.0
  0
LINE
  5
8F
330
1F
100
AcDbEntity
  8
0
  6
Continuous
 62
     7
370
    15
100
AcDbLine
 10
490.929743334
 20
439.0780124154
 30
0.0
 11
490.929743334
 21
436.7780107346
 31
0.0
  0
LINE
  5
90
330
1F
100
AcDbEntity
  8
0
  6
Continuous
 62
     7
370
    15
100
AcDbLine
 10
494.4297429764
 20
436.7780107346
 30
0.0
 11
494.4297429764
 21
439.0780124154
 31
0.0
  0
LINE
  5
91
330
1F
100
AcDbEntity
  8
0
  6
Continuous
 62
     7
370
    15
100
AcDbLine
 10
490.929743334
 20
436.7780107346
 30
0.0
 11
491.0547417247
 21
436.4780131068
 31
0.0
  0
LINE
  5
92
330
1F
100
AcDbEntity
  8
0
  6
Continuous
 62
     7
370
    15
100
AcDbLine
 10
494.3047445857
 20
436.4780131068
 30
0.0
 11
494.4297429764
 21
436.7780107346
 31
0.0
  0
ARC
  5
93
330
1F
100
AcDbEntity
  8
0
  6
Continuous
 62
     7
370
    15
100
AcDbCircle
 10
236.904743568
 20
439.3780121866
 30
0.0
 40
0.1500000000000057
100
AcDbArc
 50
180.0
 51
270.0
  0
ARC
  5
94
330
1F
100
AcDbEntity
  8
0
  6
Continuous
 62
     7
370
    15
100
AcDbCircle
 10
236.904743568
 20
439.5780121866
 30
0.0
 40
0.1500000000000341
100
AcDbArc
 50
90.0
 51
180.0
  0
LINE
  5
95
330
1F
100
AcDbEntity
  8
0
  6
Continuous
 62
     7
370
    15
100
AcDbLine
 10
236.7547434413
 20
439.5780134287
 30
0.0
 11
236.7547434413
 21
439.3780100431
 31
0.0
  0
LINE
  5
96
330
1F
100
AcDbEntity
  8
0
  6
Continuous
 62
     7
370
    15
100
AcDbLine
 10
237.1797394597
 20
440.3780120697
 30
0.0
 11
237.1797394597
 21
440.1280152884
 31
0.0
  0
ARC
  5
97
330
1F
100
AcDbEntity
  8
0
  6
Continuous
 62
     7
370
    15
100
AcDbCircle
 10
237.279743568
 20
439.0780121866
 30
0.0
 40
0.1500000000000057
100
AcDbArc
 50
0.0
 51
90.0
  0
LINE
  5
98
330
1F
100
AcDbEntity
  8
0
  6
Continuous
 62
     7
370
    15
100
AcDbLine
 10
237.429736241
 20
439.0780124154
 30
0.0
 11
237.429736241
 21
436.7780107346
 31
0.0
  0
LINE
  5
99
330
1F
100
AcDbEntity
  8
0
  6
Continuous
 62
     7
370
    15
100
AcDbLine
 10
237.429736241
 20
436.7780107346
 30
0.0
 11
237.5547420823
 21
436.4780131068
 31
0.0
  0
LINE
  5
9A
330
1F
100
AcDbEntity
  8
0
  6
Continuous
 62
     7
370
    15
100
AcDbLine
 10
569.479746803
 20
468.2780149665
 30
0.0
 11
569.2297500216
 21
468.2780149665
 31
0.0
  0
LINE
  5
9B
330
1F
100
AcDbEntity
  8
0
  6
Continuous
 62
     7
370
    15
100
AcDbLine
 10
569.2297500216
 20
464.2780143108
 30
0.0
 11
569.479746803
 21
464.2780143108
 31
0.0
  0
LINE
  5
9C
330
1F
100
AcDbEntity
  8
0
  6
Continuous
 62
     7
370
    15
100
AcDbLine
 10
569.479746803
 20
370.7760497268
 30
0.0
 11
569.2297500216
 21
370.7760497268
 31
0.0
  0
LINE
  5
9D
330
1F
100
AcDbEntity
  8
0
  6
Continuous
 62
     7
370
    15
100
AcDbLine
 10
569.2297500216
 20
366.7760500025
 30
0.0
 11
569.479746803
 21
366.7760500025
 31
0.0
  0
LINE
  5
9E
330
1F
100
AcDbEntity
  8
0
  6
Continuous
 62
     7
370
    15
100
AcDbLine
 10
224.9797415578
 20
269.2760470595
 30
0.0
 11
225.2297383391
 21
269.2760470595
 31
0.0
  0
LINE
  5
9F
330
1F
100
AcDbEntity
  8
0
  6
Continuous
 62
     7
370
    15
100
AcDbLine
 10
225.2297383391
 20
273.2760477152
 30
0.0
 11
224.9797415578
 21
273.2760477152
 31
0.0
  0
LINE
  5
A0
330
1F
100
AcDbEntity
  8
0
  6
Continuous
 62
     7
370
    15
100
AcDbLine
 10
224.9797415578
 20
366.7760500025
 30
0.0
 11
225.2297383391
 21
366.7760500025
 31
0.0
  0
LINE
  5
A1
330
1F
100
AcDbEntity
  8
0
  6
Continuous
 62
     7
370
    15
100
AcDbLine
 10
225.2297383391
 20
370.7760497268
 30
0.0
 11
224.9797415578
 21
370.7760497268
 31
0.0
  0
LINE
  5
A2
330
1F
100
AcDbEntity
  8
0
  6
Continuous
 62
     7
370
    15
100
AcDbLine
 10
224.9797415578
 20
464.2780143108
 30
0.0
 11
225.2297383391
 21
464.2780143108
 31
0.0
  0
LINE
  5
A3
330
1F
100
AcDbEntity
  8
0
  6
Continuous
 62
     7
370
    15
100
AcDbLine
 10
225.2297383391
 20
468.2780149665
 30
0.0
 11
224.9797415578
 21
468.2780149665
 31
0.0
  0
LINE
  5
A4
330
1F
100
AcDbEntity
  8
0
  6
Continuous
 62
     7
370
    15
100
AcDbLine
 10
569.479746803
 20
273.2760477152
 30
0.0
 11
569.2297500216
 21
273.2760477152
 31
0.0
  0
LINE
  5
A5
330
1F
100
AcDbEntity
  8
0
  6
Continuous
 62
     7
370
    15
100
AcDbLine
 10
569.2297500216
 20
269.2760470595
 30
0.0
 11
569.479746803
 21
269.2760470595
 31
0.0
  0
LINE
  5
A6
330
1F
100
AcDbEntity
  8
0
  6
Continuous
 62
     7
370
    15
100
AcDbLine
 10
579.5802455985
 20
421.6189253416
 30
0.0
 11
579.5802455985
 21
483.118923315
 31
0.0
  0
LINE
  5
A7
330
1F
100
AcDbEntity
  8
0
  6
Continuous
 62
     7
370
    15
100
AcDbLine
 10
579.4802439057
 20
483.6189243283
 30
0.0
 11
579.5802455985
 21
483.6189243283
 31
0.0
  0
LINE
  5
A8
330
1F
100
AcDbEntity
  8
0
  6
Continuous
 62
     7
370
    15
100
AcDbLine
 10
579.5802455985
 20
483.118923315
 30
0.0
 11
579.5802455985
 21
483.6189243283
 31
0.0
  0
LINE
  5
A9
330
1F
100
AcDbEntity
  8
0
  6
Continuous
 62
     7
370
    15
100
AcDbLine
 10
579.4802439057
 20
421.1189280536
 30
0.0
 11
579.5802455985
 21
421.1189280536
 31
0.0
  0
LINE
  5
AA
330
1F
100
AcDbEntity
  8
0
  6
Continuous
 62
     7
370
    15
100
AcDbLine
 10
579.5802455985
 20
421.1189280536
 30
0.0
 11
579.5802455985
 21
421.6189253416
 31
0.0
  0
LINE
  5
AB
330
1F
100
AcDbEntity
  8
0
  6
Continuous
 62
     7
370
    15
100
AcDbLine
 10
480.4258477532
 20
486.9780111399
 30
0.0
 11
485.0185942494
 21
486.9780111399
 31
0.0
  0
LINE
  5
AC
330
1F
100
AcDbEntity
  8
0
  6
Continuous
 62
     7
370
    15
100
AcDbLine
 10
487.00842826
 20
486.9780111399
 30
0.0
 11
488.7205120765
 21
486.9780111399
 31
0.0
  0
LINE
  5
AD
330
1F
100
AcDbEntity
  8
0
  6
Continuous
 62
     7
370
    15
100
AcDbLine
 10
490.5757364475
 20
486.9780111399
 30
0.0
 11
491.0897072994
 21
486.9780111399
 31
0.0
  0
LINE
  5
AE
330
1F
100
AcDbEntity
  8
0
  6
Continuous
 62
     7
370
    15
100
AcDbLine
 10
497.5425955497
 20
486.9780111399
 30
0.0
 11
497.7173116647
 21
486.9780111399
 31
0.0
  0
LINE
  5
AF
330
1F
100
AcDbEntity
  8
0
  6
Continuous
 62
     7
370
    15
100
AcDbLine
 10
498.3946513974
 20
486.9780111399
 30
0.0
 11
500.813467487
 21
486.9780111399
 31
0.0
  0
LINE
  5
B0
330
1F
100
AcDbEntity
  8
0
  6
Continuous
 62
     7
370
    15
100
AcDbLine
 10
501.8834304654
 20
486.9780111399
 30
0.0
 11
502.0250063979
 21
486.9780111399
 31
0.0
  0
LINE
  5
B1
330
1F
100
AcDbEntity
  8
0
  6
Continuous
 62
     7
370
    15
100
AcDbLine
 10
503.0949693762
 20
486.9780111399
 30
0.0
 11
506.3033532941
 21
486.9780111399
 31
0.0
  0
LINE
  5
B2
330
1F
100
AcDbEntity
  8
0
  6
Continuous
 62
     7
370
    15
100
AcDbLine
 10
483.9500096285
 20
486.9280177441
 30
0.0
 11
489.8714405143
 21
486.9280177441
 31
0.0
  0
LINE
  5
B3
330
1F
100
AcDbEntity
  8
0
  6
Continuous
 62
     7
370
    15
100
AcDbLine
 10
499.3714374148
 20
486.9280177441
 30
0.0
 11
505.9500020587
 21
486.9280177441
 31
0.0
  0
LINE
  5
B4
330
1F
100
AcDbEntity
  8
0
  6
Continuous
 62
     7
370
    15
100
AcDbLine
 10
482.4500065886
 20
486.8780094471
 30
0.0
 11
482.4500065886
 21
486.9280177441
 31
0.0
  0
LINE
  5
B5
330
1F
100
AcDbEntity
  8
0
  6
Continuous
 62
     7
370
    15
100
AcDbLine
 10
482.4500065886
 20
486.9280177441
 30
0.0
 11
483.9500096285
 21
486.9280177441
 31
0.0
  0
LINE
  5
B6
330
1F
100
AcDbEntity
  8
0
  6
Continuous
 62
     7
370
    15
100
AcDbLine
 10
505.9500020587
 20
486.9280177441
 30
0.0
 11
506.3033532941
 21
486.9280177441
 31
0.0
  0
LINE
  5
B7
330
1F
100
AcDbEntity
  8
0
  6
Continuous
 62
     7
370
    15
100
AcDbLine
 10
503.0312371098
 20
486.9330096331
 30
0.0
 11
502.831114515
 21
486.9330096331
 31
0.0
  0
LINE
  5
B8
330
1F
100
AcDbEntity
  8
0
  6
Continuous
 62
     7
370
    15
100
AcDbLine
 10
503.0312371098
 20
486.9330096331
 30
0.0
 11
503.0312371098
 21
486.9280177441
 31
0.0
  0
LINE
  5
B9
330
1F
100
AcDbEntity
  8
0
  6
Continuous
 62
     7
370
    15
100
AcDbLine
 10
504.903031572
 20
486.9330096331
 30
0.0
 11
504.7069173896
 21
486.9330096331
 31
0.0
  0
LINE
  5
BA
330
1F
100
AcDbEntity
  8
0
  6
Continuous
 62
     7
370
    15
100
AcDbLine
 10
504.903031572
 20
486.9330096331
 30
0.0
 11
504.903031572
 21
486.9280177441
 31
0.0
  0
LINE
  5
BB
330
1F
100
AcDbEntity
  8
0
  6
Continuous
 62
     7
370
    15
100
AcDbLine
 10
501.7748308026
 20
486.9330096331
 30
0.0
 11
501.7748308026
 21
486.9280177441
 31
0.0
  0
LINE
  5
BC
330
1F
100
AcDbEntity
  8
0
  6
Continuous
 62
     7
370
    15
100
AcDbLine
 10
502.3004692637
 20
486.9330096331
 30
0.0
 11
501.7748308026
 21
486.9330096331
 31
0.0
  0
LINE
  5
BD
330
1F
100
AcDbEntity
  8
0
  6
Continuous
 62
     7
370
    15
100
AcDbLine
 10
502.3004692637
 20
486.9330096331
 30
0.0
 11
502.3004692637
 21
486.9280177441
 31
0.0
  0
LINE
  5
BE
330
1F
100
AcDbEntity
  8
0
  6
Continuous
 62
     7
370
    15
100
AcDbLine
 10
500.5568843924
 20
486.9330096331
 30
0.0
 11
500.4671346986
 21
486.9330096331
 31
0.0
  0
LINE
  5
BF
330
1F
100
AcDbEntity
  8
0
  6
Continuous
 62
     7
370
    15
100
AcDbLine
 10
500.5568843924
 20
486.9330096331
 30
0.0
 11
500.5568843924
 21
486.9280177441
 31
0.0
  0
LINE
  5
C0
330
1F
100
AcDbEntity
  8
0
  6
Continuous
 62
     7
370
    15
100
AcDbLine
 10
500.4671346986
 20
486.9330096331
 30
0.0
 11
500.4671346986
 21
486.9280177441
 31
0.0
  0
LINE
  5
C1
330
1F
100
AcDbEntity
  8
0
  6
Continuous
 62
     7
370
    15
100
AcDbLine
 10
503.2107215964
 20
486.9330096331
 30
0.0
 11
503.2107215964
 21
486.9280177441
 31
0.0
  0
LINE
  5
C2
330
1F
100
AcDbEntity
  8
0
  6
Continuous
 62
     7
370
    15
100
AcDbLine
 10
503.6722701632
 20
486.9330096331
 30
0.0
 11
503.2107215964
 21
486.9330096331
 31
0.0
  0
LINE
  5
C3
330
1F
100
AcDbEntity
  8
0
  6
Continuous
 62
     7
370
    15
100
AcDbLine
 10
503.6722701632
 20
486.9330096331
 30
0.0
 11
503.6722701632
 21
486.9280177441
 31
0.0
  0
LINE
  5
C4
330
1F
100
AcDbEntity
  8
0
  6
Continuous
 62
     7
370
    15
100
AcDbLine
 10
504.4791531407
 20
486.9330096331
 30
0.0
 11
504.4791531407
 21
486.9280177441
 31
0.0
  0
LINE
  5
C5
330
1F
100
AcDbEntity
  8
0
  6
Continuous
 62
     7
370
    15
100
AcDbLine
 10
503.6850851618
 20
486.9330096331
 30
0.0
 11
503.6722701632
 21
486.9330096331
 31
0.0
  0
LINE
  5
C6
330
1F
100
AcDbEntity
  8
0
  6
Continuous
 62
     7
370
    15
100
AcDbLine
 10
503.6850851618
 20
486.9330096331
 30
0.0
 11
503.6850851618
 21
486.9280177441
 31
0.0
  0
LINE
  5
C7
330
1F
100
AcDbEntity
  8
0
  6
Continuous
 62
     7
370
    15
100
AcDbLine
 10
502.6045572602
 20
486.9330096331
 30
0.0
 11
502.6045572602
 21
486.9280177441
 31
0.0
  0
LINE
  5
C8
330
1F
100
AcDbEntity
  8
0
  6
Continuous
 62
     7
370
    15
100
AcDbLine
 10
501.2175422751
 20
486.9330096331
 30
0.0
 11
501.2175422751
 21
486.9280177441
 31
0.0
  0
LINE
  5
C9
330
1F
100
AcDbEntity
  8
0
  6
Continuous
 62
     7
370
    15
100
AcDbLine
 10
501.2363624417
 20
486.9330096331
 30
0.0
 11
501.2175422751
 21
486.9330096331
 31
0.0
  0
LINE
  5
CA
330
1F
100
AcDbEntity
  8
0
  6
Continuous
 62
     7
370
    15
100
AcDbLine
 10
501.2363624417
 20
486.9330096331
 30
0.0
 11
501.2363624417
 21
486.9280177441
 31
0.0
  0
LINE
  5
CB
330
1F
100
AcDbEntity
  8
0
  6
Continuous
 62
     7
370
    15
100
AcDbLine
 10
501.2175422751
 20
486.9330096331
 30
0.0
 11
500.5568843924
 21
486.9330096331
 31
0.0
  0
LINE
  5
CC
330
1F
100
AcDbEntity
  8
0
  6
Continuous
 62
     7
370
    15
100
AcDbLine
 10
504.1594487273
 20
486.9330096331
 30
0.0
 11
504.1594487273
 21
486.9280177441
 31
0.0
  0
LINE
  5
CD
330
1F
100
AcDbEntity
  8
0
  6
Continuous
 62
     7
370
    15
100
AcDbLine
 10
504.1594487273
 20
486.9330096331
 30
0.0
 11
503.6850851618
 21
486.9330096331
 31
0.0
  0
LINE
  5
CE
330
1F
100
AcDbEntity
  8
0
  6
Continuous
 62
     7
370
    15
100
AcDbLine
 10
502.4030339562
 20
486.9330096331
 30
0.0
 11
502.4030339562
 21
486.9280177441
 31
0.0
  0
LINE
  5
CF
330
1F
100
AcDbEntity
  8
0
  6
Continuous
 62
     7
370
    15
100
AcDbLine
 10
504.287643417
 20
486.9330096331
 30
0.0
 11
504.287643417
 21
486.9280177441
 31
0.0
  0
LINE
  5
D0
330
1F
100
AcDbEntity
  8
0
  6
Continuous
 62
     7
370
    15
100
AcDbLine
 10
487.675672456
 20
486.9330096331
 30
0.0
 11
487.675672456
 21
486.9280177441
 31
0.0
  0
LINE
  5
D1
330
1F
100
AcDbEntity
  8
0
  6
Continuous
 62
     7
370
    15
100
AcDbLine
 10
488.2013183676
 20
486.9330096331
 30
0.0
 11
487.675672456
 21
486.9330096331
 31
0.0
  0
LINE
  5
D2
330
1F
100
AcDbEntity
  8
0
  6
Continuous
 62
     7
370
    15
100
AcDbLine
 10
488.2013183676
 20
486.9330096331
 30
0.0
 11
488.2013183676
 21
486.9280177441
 31
0.0
  0
LINE
  5
D3
330
1F
100
AcDbEntity
  8
0
  6
Continuous
 62
     7
370
    15
100
AcDbLine
 10
490.1628550731
 20
486.9330096331
 30
0.0
 11
489.9609294378
 21
486.9330096331
 31
0.0
  0
LINE
  5
D4
330
1F
100
AcDbEntity
  8
0
  6
Continuous
 62
     7
370
    15
100
AcDbLine
 10
490.1628550731
 20
486.9330096331
 30
0.0
 11
490.1628550731
 21
486.9280177441
 31
0.0
  0
LINE
  5
D5
330
1F
100
AcDbEntity
  8
0
  6
Continuous
 62
     7
370
    15
100
AcDbLine
 10
488.739779278
 20
486.9330096331
 30
0.0
 11
488.739779278
 21
486.9280177441
 31
0.0
  0
LINE
  5
D6
330
1F
100
AcDbEntity
  8
0
  6
Continuous
 62
     7
370
    15
100
AcDbLine
 10
489.2141353928
 20
486.9330096331
 30
0.0
 11
489.2141353928
 21
486.9280177441
 31
0.0
  0
LINE
  5
D7
330
1F
100
AcDbEntity
  8
0
  6
Continuous
 62
     7
370
    15
100
AcDbLine
 10
489.2141353928
 20
486.9330096331
 30
0.0
 11
488.739779278
 21
486.9330096331
 31
0.0
  0
LINE
  5
D8
330
1F
100
AcDbEntity
  8
0
  6
Continuous
 62
     7
370
    15
100
AcDbLine
 10
488.2654157125
 20
486.9330096331
 30
0.0
 11
488.2654157125
 21
486.9280177441
 31
0.0
  0
LINE
  5
D9
330
1F
100
AcDbEntity
  8
0
  6
Continuous
 62
     7
370
    15
100
AcDbLine
 10
488.7269568288
 20
486.9330096331
 30
0.0
 11
488.7269568288
 21
486.9280177441
 31
0.0
  0
LINE
  5
DA
330
1F
100
AcDbEntity
  8
0
  6
Continuous
 62
     7
370
    15
100
AcDbLine
 10
488.7269568288
 20
486.9330096331
 30
0.0
 11
488.2654157125
 21
486.9330096331
 31
0.0
  0
LINE
  5
DB
330
1F
100
AcDbEntity
  8
0
  6
Continuous
 62
     7
370
    15
100
AcDbLine
 10
486.9577270591
 20
486.9330096331
 30
0.0
 11
486.9577270591
 21
486.9280177441
 31
0.0
  0
LINE
  5
DC
330
1F
100
AcDbEntity
  8
0
  6
Continuous
 62
     7
370
    15
100
AcDbLine
 10
487.5218254172
 20
486.9330096331
 30
0.0
 11
486.9577270591
 21
486.9330096331
 31
0.0
  0
LINE
  5
DD
330
1F
100
AcDbEntity
  8
0
  6
Continuous
 62
     7
370
    15
100
AcDbLine
 10
487.5218254172
 20
486.9330096331
 30
0.0
 11
487.5218254172
 21
486.9280177441
 31
0.0
  0
LINE
  5
DE
330
1F
100
AcDbEntity
  8
0
  6
Continuous
 62
     7
370
    15
100
AcDbLine
 10
488.739779278
 20
486.9330096331
 30
0.0
 11
488.7269568288
 21
486.9330096331
 31
0.0
  0
LINE
  5
DF
330
1F
100
AcDbEntity
  8
0
  6
Continuous
 62
     7
370
    15
100
AcDbLine
 10
489.6436241113
 20
486.9330096331
 30
0.0
 11
489.6436241113
 21
486.9280177441
 31
0.0
  0
LINE
  5
E0
330
1F
100
AcDbEntity
  8
0
  6
Continuous
 62
     7
370
    15
100
AcDbLine
 10
489.3423375332
 20
486.9330096331
 30
0.0
 11
489.3423375332
 21
486.9280177441
 31
0.0
  0
LINE
  5
E1
330
1F
100
AcDbEntity
  8
0
  6
Continuous
 62
     7
370
    15
100
AcDbLine
 10
499.8833966099
 20
486.9330096331
 30
0.0
 11
499.8833966099
 21
486.9280177441
 31
0.0
  0
LINE
  5
E2
330
1F
100
AcDbEntity
  8
0
  6
Continuous
 62
     7
370
    15
100
AcDbLine
 10
500.1618546092
 20
486.9330096331
 30
0.0
 11
500.1618546092
 21
486.9280177441
 31
0.0
  0
LINE
  5
E3
330
1F
100
AcDbEntity
  8
0
  6
Continuous
 62
     7
370
    15
100
AcDbLine
 10
499.6057581746
 20
486.9330096331
 30
0.0
 11
499.6057581746
 21
486.9280177441
 31
0.0
  0
LINE
  5
E4
330
1F
100
AcDbEntity
  8
0
  6
Continuous
 62
     7
370
    15
100
AcDbLine
 10
499.505592569
 20
486.9330096331
 30
0.0
 11
499.505592569
 21
486.9280177441
 31
0.0
  0
LINE
  5
E5
330
1F
100
AcDbEntity
  8
0
  6
Continuous
 62
     7
370
    15
100
AcDbLine
 10
500.2620053136
 20
486.9330096331
 30
0.0
 11
500.2620053136
 21
486.9280177441
 31
0.0
  0
LINE
  5
E6
330
1F
100
AcDbEntity
  8
0
  6
Continuous
 62
     7
370
    15
100
AcDbLine
 10
502.3902189576
 20
486.9330096331
 30
0.0
 11
502.3902189576
 21
486.9280177441
 31
0.0
  0
LINE
  5
E7
330
1F
100
AcDbEntity
  8
0
  6
Continuous
 62
     7
370
    15
100
AcDbLine
 10
499.2299508893
 20
486.9330096331
 30
0.0
 11
499.2299508893
 21
486.9280177441
 31
0.0
  0
LINE
  5
E8
330
1F
100
AcDbEntity
  8
0
  6
Continuous
 62
     7
370
    15
100
AcDbLine
 10
499.3132930838
 20
486.9330096331
 30
0.0
 11
499.3132930838
 21
486.9280177441
 31
0.0
  0
LINE
  5
E9
330
1F
100
AcDbEntity
  8
0
  6
Continuous
 62
     7
370
    15
100
AcDbLine
 10
499.1466235959
 20
486.9330096331
 30
0.0
 11
499.1466235959
 21
486.9280177441
 31
0.0
  0
LINE
  5
EA
330
1F
100
AcDbEntity
  8
0
  6
Continuous
 62
     7
370
    15
100
AcDbLine
 10
482.9422366463
 20
486.9330096331
 30
0.0
 11
482.9422366463
 21
486.9280177441
 31
0.0
  0
LINE
  5
EB
330
1F
100
AcDbEntity
  8
0
  6
Continuous
 62
     7
370
    15
100
AcDbLine
 10
482.9422366463
 20
486.9330096331
 30
0.0
 11
486.9577270591
 21
486.9330096331
 31
0.0
  0
LINE
  5
EC
330
1F
100
AcDbEntity
  8
0
  6
Continuous
 62
     7
370
    15
100
AcDbLine
 10
487.5218254172
 20
486.9330096331
 30
0.0
 11
487.675672456
 21
486.9330096331
 31
0.0
  0
LINE
  5
ED
330
1F
100
AcDbEntity
  8
0
  6
Continuous
 62
     7
370
    15
100
AcDbLine
 10
488.2013183676
 20
486.9330096331
 30
0.0
 11
488.2654157125
 21
486.9330096331
 31
0.0
  0
LINE
  5
EE
330
1F
100
AcDbEntity
  8
0
  6
Continuous
 62
     7
370
    15
100
AcDbLine
 10
489.2141353928
 20
486.9330096331
 30
0.0
 11
489.2987292849
 21
486.9330096331
 31
0.0
  0
LINE
  5
EF
330
1F
100
AcDbEntity
  8
0
  6
Continuous
 62
     7
370
    15
100
AcDbLine
 10
490.1628550731
 20
486.9330096331
 30
0.0
 11
491.1021646702
 21
486.9330096331
 31
0.0
  0
LINE
  5
F0
330
1F
100
AcDbEntity
  8
0
  6
Continuous
 62
     7
370
    15
100
AcDbLine
 10
491.704179033
 20
486.9330096331
 30
0.0
 11
492.1406265938
 21
486.9330096331
 31
0.0
  0
LINE
  5
F1
330
1F
100
AcDbEntity
  8
0
  6
Continuous
 62
     7
370
    15
100
AcDbLine
 10
493.7522616827
 20
486.9330096331
 30
0.0
 11
493.7541317784
 21
486.9330096331
 31
0.0
  0
LINE
  5
F2
330
1F
100
AcDbEntity
  8
0
  6
Continuous
 62
     7
370
    15
100
AcDbLine
 10
497.5425955497
 20
486.9330096331
 30
0.0
 11
499.137206062
 21
486.9330096331
 31
0.0
  0
LINE
  5
F3
330
1F
100
AcDbEntity
  8
0
  6
Continuous
 62
     7
370
    15
100
AcDbLine
 10
499.3227106177
 20
486.9330096331
 30
0.0
 11
499.4847756468
 21
486.9330096331
 31
0.0
  0
LINE
  5
F4
330
1F
100
AcDbEntity
  8
0
  6
Continuous
 62
     7
370
    15
100
AcDbLine
 10
500.2827924334
 20
486.9330096331
 30
0.0
 11
500.4671346986
 21
486.9330096331
 31
0.0
  0
LINE
  5
F5
330
1F
100
AcDbEntity
  8
0
  6
Continuous
 62
     7
370
    15
100
AcDbLine
 10
501.2363624417
 20
486.9330096331
 30
0.0
 11
501.7748308026
 21
486.9330096331
 31
0.0
  0
LINE
  5
F6
330
1F
100
AcDbEntity
  8
0
  6
Continuous
 62
     7
370
    15
100
AcDbLine
 10
502.3004692637
 20
486.9330096331
 30
0.0
 11
502.3775827729
 21
486.9330096331
 31
0.0
  0
LINE
  5
F7
330
1F
100
AcDbEntity
  8
0
  6
Continuous
 62
     7
370
    15
100
AcDbLine
 10
503.0312371098
 20
486.9330096331
 30
0.0
 11
503.2107215964
 21
486.9330096331
 31
0.0
  0
LINE
  5
F8
330
1F
100
AcDbEntity
  8
0
  6
Continuous
 62
     7
370
    15
100
AcDbLine
 10
504.1594487273
 20
486.9330096331
 30
0.0
 11
504.2627435767
 21
486.9330096331
 31
0.0
  0
LINE
  5
F9
330
1F
100
AcDbEntity
  8
0
  6
Continuous
 62
     7
370
    15
100
AcDbLine
 10
504.903031572
 20
486.9330096331
 30
0.0
 11
506.3033532941
 21
486.9330096331
 31
0.0
  0
LINE
  5
FA
330
1F
100
AcDbEntity
  8
0
  6
Continuous
 62
     7
370
    15
100
AcDbLine
 10
482.8185570084
 20
486.9330096331
 30
0.0
 11
482.8185570084
 21
486.9280177441
 31
0.0
  0
LINE
  5
FB
330
1F
100
AcDbEntity
  8
0
  6
Continuous
 62
     7
370
    15
100
AcDbLine
 10
482.8185570084
 20
486.9330096331
 30
0.0
 11
482.9422366463
 21
486.9330096331
 31
0.0
  0
LINE
  5
FC
330
1F
100
AcDbEntity
  8
0
  6
Continuous
 62
     7
370
    15
100
AcDbLine
 10
489.8714405143
 20
486.9280177441
 30
0.0
 11
499.3714374148
 21
486.9280177441
 31
0.0
  0
LINE
  5
FD
330
1F
100
AcDbEntity
  8
0
  6
Continuous
 62
     7
370
    15
100
AcDbLine
 10
492.2156762921
 20
486.9780111399
 30
0.0
 11
492.2156762921
 21
486.9280177441
 31
0.0
  0
LINE
  5
FE
330
1F
100
AcDbEntity
  8
0
  6
Continuous
 62
     7
370
    15
100
AcDbLine
 10
492.8701203906
 20
486.9780111399
 30
0.0
 11
492.8701203906
 21
486.9280177441
 31
0.0
  0
LINE
  5
FF
330
1F
100
AcDbEntity
  8
0
  6
Continuous
 62
     7
370
    15
100
AcDbLine
 10
493.6772119843
 20
486.9780111399
 30
0.0
 11
493.6772119843
 21
486.9280177441
 31
0.0
  0
LINE
  5
100
330
1F
100
AcDbEntity
  8
0
  6
Continuous
 62
     7
370
    15
100
AcDbLine
 10
493.8695189201
 20
486.9780111399
 30
0.0
 11
493.8695189201
 21
486.9280177441
 31
0.0
  0
LINE
  5
101
330
1F
100
AcDbEntity
  8
0
  6
Continuous
 62
     7
370
    15
100
AcDbLine
 10
494.7156739079
 20
486.9780111399
 30
0.0
 11
494.7156739079
 21
486.9280177441
 31
0.0
  0
LINE
  5
102
330
1F
100
AcDbEntity
  8
0
  6
Continuous
 62
     7
370
    15
100
AcDbLine
 10
494.7156739079
 20
486.9780111399
 30
0.0
 11
493.8695189201
 21
486.9780111399
 31
0.0
  0
LINE
  5
103
330
1F
100
AcDbEntity
  8
0
  6
Continuous
 62
     7
370
    15
100
AcDbLine
 10
495.5425989472
 20
486.9780111399
 30
0.0
 11
495.5425989472
 21
486.9280177441
 31
0.0
  0
LINE
  5
104
330
1F
100
AcDbEntity
  8
0
  6
Continuous
 62
     7
370
    15
100
AcDbLine
 10
495.6772085869
 20
486.9780111399
 30
0.0
 11
495.6772085869
 21
486.9280177441
 31
0.0
  0
LINE
  5
105
330
1F
100
AcDbEntity
  8
0
  6
Continuous
 62
     7
370
    15
100
AcDbLine
 10
495.6772085869
 20
486.9780111399
 30
0.0
 11
495.5425989472
 21
486.9780111399
 31
0.0
  0
LINE
  5
106
330
1F
100
AcDbEntity
  8
0
  6
Continuous
 62
     7
370
    15
100
AcDbLine
 10
496.7925977551
 20
486.9780111399
 30
0.0
 11
496.7925977551
 21
486.9280177441
 31
0.0
  0
LINE
  5
107
330
1F
100
AcDbEntity
  8
0
  6
Continuous
 62
     7
370
    15
100
AcDbLine
 10
495.9464427673
 20
486.9780111399
 30
0.0
 11
495.9464427673
 21
486.9280177441
 31
0.0
  0
LINE
  5
108
330
1F
100
AcDbEntity
  8
0
  6
Continuous
 62
     7
370
    15
100
AcDbLine
 10
496.7925977551
 20
486.9780111399
 30
0.0
 11
495.9464427673
 21
486.9780111399
 31
0.0
  0
LINE
  5
109
330
1F
100
AcDbEntity
  8
0
  6
Continuous
 62
     7
370
    15
100
AcDbLine
 10
494.9656706893
 20
486.9780111399
 30
0.0
 11
494.9656706893
 21
486.9280177441
 31
0.0
  0
LINE
  5
10A
330
1F
100
AcDbEntity
  8
0
  6
Continuous
 62
     7
370
    15
100
AcDbLine
 10
495.5425989472
 20
486.9780111399
 30
0.0
 11
494.9656706893
 21
486.9780111399
 31
0.0
  0
LINE
  5
10B
330
1F
100
AcDbEntity
  8
0
  6
Continuous
 62
     7
370
    15
100
AcDbLine
 10
491.6291367852
 20
486.9780111399
 30
0.0
 11
491.6291367852
 21
486.9280177441
 31
0.0
  0
LINE
  5
10C
330
1F
100
AcDbEntity
  8
0
  6
Continuous
 62
     7
370
    15
100
AcDbLine
 10
492.7817118012
 20
486.9780111399
 30
0.0
 11
492.6772099578
 21
486.9780111399
 31
0.0
  0
LINE
  5
10D
330
1F
100
AcDbEntity
  8
0
  6
Continuous
 62
     7
370
    15
100
AcDbLine
 10
492.4079832279
 20
486.9780111399
 30
0.0
 11
492.3334625208
 21
486.9780111399
 31
0.0
  0
LINE
  5
10E
330
1F
100
AcDbEntity
  8
0
  6
Continuous
 62
     7
370
    15
100
AcDbLine
 10
492.2156762921
 20
486.9780111399
 30
0.0
 11
492.1050947749
 21
486.9780111399
 31
0.0
  0
LINE
  5
10F
330
1F
100
AcDbEntity
  8
0
  6
Continuous
 62
     7
370
    15
100
AcDbLine
 10
497.5425955497
 20
486.9780111399
 30
0.0
 11
496.7925977551
 21
486.9780111399
 31
0.0
  0
LINE
  5
110
330
1F
100
AcDbEntity
  8
0
  6
Continuous
 62
     7
370
    15
100
AcDbLine
 10
497.5425955497
 20
486.9780111399
 30
0.0
 11
497.5425955497
 21
486.9280177441
 31
0.0
  0
LINE
  5
111
330
1F
100
AcDbEntity
  8
0
  6
Continuous
 62
     7
370
    15
100
AcDbLine
 10
493.7541317784
 20
486.9780111399
 30
0.0
 11
493.7541317784
 21
486.9280177441
 31
0.0
  0
LINE
  5
112
330
1F
100
AcDbEntity
  8
0
  6
Continuous
 62
     7
370
    15
100
AcDbLine
 10
493.8695189201
 20
486.9780111399
 30
0.0
 11
493.7541317784
 21
486.9780111399
 31
0.0
  0
LINE
  5
113
330
1F
100
AcDbEntity
  8
0
  6
Continuous
 62
     7
370
    15
100
AcDbLine
 10
495.9464427673
 20
486.9780111399
 30
0.0
 11
495.6772085869
 21
486.9780111399
 31
0.0
  0
LINE
  5
114
330
1F
100
AcDbEntity
  8
0
  6
Continuous
 62
     7
370
    15
100
AcDbLine
 10
491.1772143685
 20
486.9780111399
 30
0.0
 11
491.1772143685
 21
486.9280177441
 31
0.0
  0
LINE
  5
115
330
1F
100
AcDbEntity
  8
0
  6
Continuous
 62
     7
370
    15
100
AcDbLine
 10
506.3033532941
 20
486.9780111399
 30
0.0
 11
506.3033532941
 21
486.8780094471
 31
0.0
  0
LINE
  5
116
330
1F
100
AcDbEntity
  8
0
  6
Continuous
 62
     7
370
    15
100
AcDbLine
 10
506.3033532941
 20
486.9780111399
 30
0.0
 11
518.8033562743
 21
486.9780111399
 31
0.0
  0
LINE
  5
117
330
1F
100
AcDbEntity
  8
0
  6
Continuous
 62
     7
370
    15
100
AcDbLine
 10
518.8033562743
 20
486.9780111399
 30
0.0
 11
518.8033562743
 21
486.8780094471
 31
0.0
  0
LINE
  5
118
330
1F
100
AcDbEntity
  8
0
  6
Continuous
 62
     7
370
    15
100
AcDbLine
 10
512.3783629977
 20
486.98301793
 30
0.0
 11
512.3783629977
 21
486.9780111399
 31
0.0
  0
LINE
  5
119
330
1F
100
AcDbEntity
  8
0
  6
Continuous
 62
     7
370
    15
100
AcDbLine
 10
512.3783629977
 20
486.98301793
 30
0.0
 11
512.7283614718
 21
486.98301793
 31
0.0
  0
LINE
  5
11A
330
1F
100
AcDbEntity
  8
0
  6
Continuous
 62
     7
370
    15
100
AcDbLine
 10
512.7283614718
 20
486.98301793
 30
0.0
 11
512.7283614718
 21
486.9780111399
 31
0.0
  0
LINE
  5
11B
330
1F
100
AcDbEntity
  8
0
  6
Continuous
 62
     7
370
    15
100
AcDbLine
 10
509.0892594897
 20
486.98301793
 30
0.0
 11
509.0892594897
 21
486.9780111399
 31
0.0
  0
LINE
  5
11C
330
1F
100
AcDbEntity
  8
0
  6
Continuous
 62
     7
370
    15
100
AcDbLine
 10
509.0892594897
 20
486.98301793
 30
0.0
 11
512.3783629977
 21
486.98301793
 31
0.0
  0
LINE
  5
11D
330
1F
100
AcDbEntity
  8
0
  6
Continuous
 62
     7
370
    15
100
AcDbLine
 10
516.0174649798
 20
486.98301793
 30
0.0
 11
516.0174649798
 21
486.9780111399
 31
0.0
  0
LINE
  5
11E
330
1F
100
AcDbEntity
  8
0
  6
Continuous
 62
     7
370
    15
100
AcDbLine
 10
512.7283614718
 20
486.98301793
 30
0.0
 11
516.0174649798
 21
486.98301793
 31
0.0
  0
LINE
  5
11F
330
1F
100
AcDbEntity
  8
0
  6
Continuous
 62
     7
370
    15
100
AcDbLine
 10
226.4547478997
 20
405.2985142257
 30
0.0
 11
226.4547478997
 21
403.9557594147
 31
0.0
  0
LINE
  5
120
330
1F
100
AcDbEntity
  8
0
  6
Continuous
 62
     7
370
    15
100
AcDbLine
 10
568.004740461
 20
403.9557594147
 30
0.0
 11
568.004740461
 21
405.2985142257
 31
0.0
  0
ARC
  5
121
330
1F
100
AcDbEntity
  8
0
  6
Continuous
 62
     7
370
    15
100
AcDbCircle
 10
226.1559866879
 20
403.1970586223
 30
0.0
 40
2.122586609455517
100
AcDbArc
 50
81.9085573233
 51
115.8729580955
  0
LINE
  5
122
330
1F
100
AcDbEntity
  8
0
  6
Continuous
 62
     7
370
    15
100
AcDbLine
 10
225.2297383391
 20
450.0530156579
 30
0.0
 11
225.2297383391
 21
405.1068852928
 31
0.0
  0
ARC
  5
123
330
1F
100
AcDbEntity
  8
0
  6
Continuous
 62
     7
370
    15
100
AcDbCircle
 10
226.1560001462
 20
448.1431029538
 30
0.0
 40
2.122669892451406
100
AcDbArc
 50
81.9092438414
 51
115.8722715774
  0
LINE
  5
124
330
1F
100
AcDbEntity
  8
0
  6
Continuous
 62
     7
370
    15
100
AcDbLine
 10
225.2297383391
 20
405.1068852928
 30
0.0
 11
225.8297484957
 21
405.1068852928
 31
0.0
  0
ARC
  5
125
330
1F
100
AcDbEntity
  8
0
  6
Continuous
 62
     7
370
    15
100
AcDbCircle
 10
226.3023197756
 20
404.132507745
 30
0.0
 40
1.082929000516772
100
AcDbArc
 50
81.908438625
 51
115.8732980718
  0
LINE
  5
126
330
1F
100
AcDbEntity
  8
0
  6
Continuous
 62
     7
370
    15
100
AcDbLine
 10
554.7297429883
 20
441.8279621091
 30
0.0
 11
559.7297382199
 21
441.8279621091
 31
0.0
  0
LINE
  5
127
330
1F
100
AcDbEntity
  8
0
  6
Continuous
 62
     7
370
    15
100
AcDbLine
 10
554.7297429883
 20
412.1973122742
 30
0.0
 11
554.7297429883
 21
441.8279621091
 31
0.0
  0
LINE
  5
128
330
1F
100
AcDbEntity
  8
0
  6
Continuous
 62
     7
370
    15
100
AcDbLine
 10
559.7297382199
 20
412.1973122742
 30
0.0
 11
554.7297429883
 21
412.1973122742
 31
0.0
  0
LINE
  5
129
330
1F
100
AcDbEntity
  8
0
  6
Continuous
 62
     7
370
    15
100
AcDbLine
 10
559.7297382199
 20
441.8279621091
 30
0.0
 11
559.7297382199
 21
412.1973122742
 31
0.0
  0
LINE
  5
12A
330
1F
100
AcDbEntity
  8
0
  6
Continuous
 62
     7
370
    15
100
AcDbLine
 10
551.7297369086
 20
441.8279621091
 30
0.0
 11
551.7297369086
 21
412.1973122742
 31
0.0
  0
LINE
  5
12B
330
1F
100
AcDbEntity
  8
0
  6
Continuous
 62
     7
370
    15
100
AcDbLine
 10
546.729741677
 20
441.8279621091
 30
0.0
 11
551.7297369086
 21
441.8279621091
 31
0.0
  0
LINE
  5
12C
330
1F
100
AcDbEntity
  8
0
  6
Continuous
 62
     7
370
    15
100
AcDbLine
 10
546.729741677
 20
412.1973122742
 30
0.0
 11
546.729741677
 21
441.8279621091
 31
0.0
  0
LINE
  5
12D
330
1F
100
AcDbEntity
  8
0
  6
Continuous
 62
     7
370
    15
100
AcDbLine
 10
551.7297369086
 20
412.1973122742
 30
0.0
 11
546.729741677
 21
412.1973122742
 31
0.0
  0
LINE
  5
12E
330
1F
100
AcDbEntity
  8
0
  6
Continuous
 62
     7
370
    15
100
AcDbLine
 10
543.7297504985
 20
441.8279621091
 30
0.0
 11
543.7297504985
 21
412.1973122742
 31
0.0
  0
LINE
  5
12F
330
1F
100
AcDbEntity
  8
0
  6
Continuous
 62
     7
370
    15
100
AcDbLine
 10
538.7297403657
 20
441.8279621091
 30
0.0
 11
543.7297504985
 21
441.8279621091
 31
0.0
  0
LINE
  5
130
330
1F
100
AcDbEntity
  8
0
  6
Continuous
 62
     7
370
    15
100
AcDbLine
 10
538.7297403657
 20
412.1973122742
 30
0.0
 11
538.7297403657
 21
441.8279621091
 31
0.0
  0
LINE
  5
131
330
1F
100
AcDbEntity
  8
0
  6
Continuous
 62
     7
370
    15
100
AcDbLine
 10
543.7297504985
 20
412.1973122742
 30
0.0
 11
538.7297403657
 21
412.1973122742
 31
0.0
  0
LINE
  5
132
330
1F
100
AcDbEntity
  8
0
  6
Continuous
 62
     7
370
    15
100
AcDbLine
 10
535.7297491872
 20
441.8279621091
 30
0.0
 11
535.7297491872
 21
412.1973122742
 31
0.0
  0
LINE
  5
133
330
1F
100
AcDbEntity
  8
0
  6
Continuous
 62
     7
370
    15
100
AcDbLine
 10
530.7297390544
 20
441.8279621091
 30
0.0
 11
535.7297491872
 21
441.8279621091
 31
0.0
  0
LINE
  5
134
330
1F
100
AcDbEntity
  8
0
  6
Continuous
 62
     7
370
    15
100
AcDbLine
 10
530.7297390544
 20
412.1973122742
 30
0.0
 11
530.7297390544
 21
441.8279621091
 31
0.0
  0
LINE
  5
135
330
1F
100
AcDbEntity
  8
0
  6
Continuous
 62
     7
370
    15
100
AcDbLine
 10
535.7297491872
 20
412.1973122742
 30
0.0
 11
530.7297390544
 21
412.1973122742
 31
0.0
  0
LINE
  5
136
330
1F
100
AcDbEntity
  8
0
  6
Continuous
 62
     7
370
    15
100
AcDbLine
 10
527.7297478759
 20
441.8279621091
 30
0.0
 11
527.7297478759
 21
412.1973122742
 31
0.0
  0
LINE
  5
137
330
1F
100
AcDbEntity
  8
0
  6
Continuous
 62
     7
370
    15
100
AcDbLine
 10
522.7297377431
 20
441.8279621091
 30
0.0
 11
527.7297478759
 21
441.8279621091
 31
0.0
  0
LINE
  5
138
330
1F
100
AcDbEntity
  8
0
  6
Continuous
 62
     7
370
    15
100
AcDbLine
 10
522.7297377431
 20
412.1973122742
 30
0.0
 11
522.7297377431
 21
441.8279621091
 31
0.0
  0
LINE
  5
139
330
1F
100
AcDbEntity
  8
0
  6
Continuous
 62
     7
370
    15
100
AcDbLine
 10
527.7297478759
 20
412.1973122742
 30
0.0
 11
522.7297377431
 21
412.1973122742
 31
0.0
  0
LINE
  5
13A
330
1F
100
AcDbEntity
  8
0
  6
Continuous
 62
     7
370
    15
100
AcDbLine
 10
519.7297465646
 20
441.8279621091
 30
0.0
 11
519.7297465646
 21
412.1973122742
 31
0.0
  0
LINE
  5
13B
330
1F
100
AcDbEntity
  8
0
  6
Continuous
 62
     7
370
    15
100
AcDbLine
 10
514.7297364318
 20
441.8279621091
 30
0.0
 11
519.7297465646
 21
441.8279621091
 31
0.0
  0
LINE
  5
13C
330
1F
100
AcDbEntity
  8
0
  6
Continuous
 62
     7
370
    15
100
AcDbLine
 10
514.7297364318
 20
412.1973122742
 30
0.0
 11
514.7297364318
 21
441.8279621091
 31
0.0
  0
LINE
  5
13D
330
1F
100
AcDbEntity
  8
0
  6
Continuous
 62
     7
370
    15
100
AcDbLine
 10
519.7297465646
 20
412.1973122742
 30
0.0
 11
514.7297364318
 21
412.1973122742
 31
0.0
  0
LINE
  5
13E
330
1F
100
AcDbEntity
  8
0
  6
Continuous
 62
     7
370
    15
100
AcDbLine
 10
511.7297452532
 20
441.8279621091
 30
0.0
 11
511.7297452532
 21
412.1973122742
 31
0.0
  0
LINE
  5
13F
330
1F
100
AcDbEntity
  8
0
  6
Continuous
 62
     7
370
    15
100
AcDbLine
 10
506.7297500216
 20
441.8279621091
 30
0.0
 11
511.7297452532
 21
441.8279621091
 31
0.0
  0
LINE
  5
140
330
1F
100
AcDbEntity
  8
0
  6
Continuous
 62
     7
370
    15
100
AcDbLine
 10
506.7297500216
 20
412.1973122742
 30
0.0
 11
506.7297500216
 21
441.8279621091
 31
0.0
  0
LINE
  5
141
330
1F
100
AcDbEntity
  8
0
  6
Continuous
 62
     7
370
    15
100
AcDbLine
 10
511.7297452532
 20
412.1973122742
 30
0.0
 11
506.7297500216
 21
412.1973122742
 31
0.0
  0
LINE
  5
142
330
1F
100
AcDbEntity
  8
0
  6
Continuous
 62
     7
370
    15
100
AcDbLine
 10
503.7297439419
 20
441.8279621091
 30
0.0
 11
503.7297439419
 21
412.1973122742
 31
0.0
  0
LINE
  5
143
330
1F
100
AcDbEntity
  8
0
  6
Continuous
 62
     7
370
    15
100
AcDbLine
 10
498.7297412597
 20
441.8279621091
 30
0.0
 11
503.7297439419
 21
441.8279621091
 31
0.0
  0
LINE
  5
144
330
1F
100
AcDbEntity
  8
0
  6
Continuous
 62
     7
370
    15
100
AcDbLine
 10
498.7297412597
 20
412.1973122742
 30
0.0
 11
498.7297412597
 21
441.8279621091
 31
0.0
  0
LINE
  5
145
330
1F
100
AcDbEntity
  8
0
  6
Continuous
 62
     7
370
    15
100
AcDbLine
 10
503.7297439419
 20
412.1973122742
 30
0.0
 11
498.7297412597
 21
412.1973122742
 31
0.0
  0
LINE
  5
146
330
1F
100
AcDbEntity
  8
0
  6
Continuous
 62
     7
370
    15
100
AcDbLine
 10
495.7297426306
 20
441.8279621091
 30
0.0
 11
495.7297426306
 21
412.1973122742
 31
0.0
  0
LINE
  5
147
330
1F
100
AcDbEntity
  8
0
  6
Continuous
 62
     7
370
    15
100
AcDbLine
 10
490.7297399484
 20
441.8279621091
 30
0.0
 11
495.7297426306
 21
441.8279621091
 31
0.0
  0
LINE
  5
148
330
1F
100
AcDbEntity
  8
0
  6
Continuous
 62
     7
370
    15
100
AcDbLine
 10
490.7297399484
 20
412.1973122742
 30
0.0
 11
490.7297399484
 21
441.8279621091
 31
0.0
  0
LINE
  5
149
330
1F
100
AcDbEntity
  8
0
  6
Continuous
 62
     7
370
    15
100
AcDbLine
 10
495.7297426306
 20
412.1973122742
 30
0.0
 11
490.7297399484
 21
412.1973122742
 31
0.0
  0
LINE
  5
14A
330
1F
100
AcDbEntity
  8
0
  6
Continuous
 62
     7
370
    15
100
AcDbLine
 10
487.7297413193
 20
441.8279621091
 30
0.0
 11
487.7297413193
 21
412.1973122742
 31
0.0
  0
LINE
  5
14B
330
1F
100
AcDbEntity
  8
0
  6
Continuous
 62
     7
370
    15
100
AcDbLine
 10
482.7297460877
 20
441.8279621091
 30
0.0
 11
487.7297413193
 21
441.8279621091
 31
0.0
  0
LINE
  5
14C
330
1F
100
AcDbEntity
  8
0
  6
Continuous
 62
     7
370
    15
100
AcDbLine
 10
482.7297460877
 20
412.1973122742
 30
0.0
 11
482.7297460877
 21
441.8279621091
 31
0.0
  0
LINE
  5
14D
330
1F
100
AcDbEntity
  8
0
  6
Continuous
 62
     7
370
    15
100
AcDbLine
 10
487.7297413193
 20
412.1973122742
 30
0.0
 11
482.7297460877
 21
412.1973122742
 31
0.0
  0
LINE
  5
14E
330
1F
100
AcDbEntity
  8
0
  6
Continuous
 62
     7
370
    15
100
AcDbLine
 10
479.729740008
 20
441.8279621091
 30
0.0
 11
479.729740008
 21
412.1973122742
 31
0.0
  0
LINE
  5
14F
330
1F
100
AcDbEntity
  8
0
  6
Continuous
 62
     7
370
    15
100
AcDbLine
 10
474.7297447764
 20
441.8279621091
 30
0.0
 11
479.729740008
 21
441.8279621091
 31
0.0
  0
LINE
  5
150
330
1F
100
AcDbEntity
  8
0
  6
Continuous
 62
     7
370
    15
100
AcDbLine
 10
474.7297447764
 20
412.1973122742
 30
0.0
 11
474.7297447764
 21
441.8279621091
 31
0.0
  0
LINE
  5
151
330
1F
100
AcDbEntity
  8
0
  6
Continuous
 62
     7
370
    15
100
AcDbLine
 10
479.729740008
 20
412.1973122742
 30
0.0
 11
474.7297447764
 21
412.1973122742
 31
0.0
  0
LINE
  5
152
330
1F
100
AcDbEntity
  8
0
  6
Continuous
 62
     7
370
    15
100
AcDbLine
 10
471.7297461473
 20
441.8279621091
 30
0.0
 11
471.7297461473
 21
412.1973122742
 31
0.0
  0
LINE
  5
153
330
1F
100
AcDbEntity
  8
0
  6
Continuous
 62
     7
370
    15
100
AcDbLine
 10
466.7297434651
 20
441.8279621091
 30
0.0
 11
471.7297461473
 21
441.8279621091
 31
0.0
  0
LINE
  5
154
330
1F
100
AcDbEntity
  8
0
  6
Continuous
 62
     7
370
    15
100
AcDbLine
 10
466.7297434651
 20
412.1973122742
 30
0.0
 11
466.7297434651
 21
441.8279621091
 31
0.0
  0
LINE
  5
155
330
1F
100
AcDbEntity
  8
0
  6
Continuous
 62
     7
370
    15
100
AcDbLine
 10
471.7297461473
 20
412.1973122742
 30
0.0
 11
466.7297434651
 21
412.1973122742
 31
0.0
  0
LINE
  5
156
330
1F
100
AcDbEntity
  8
0
  6
Continuous
 62
     7
370
    15
100
AcDbLine
 10
463.729744836
 20
441.8279621091
 30
0.0
 11
463.729744836
 21
412.1973122742
 31
0.0
  0
LINE
  5
157
330
1F
100
AcDbEntity
  8
0
  6
Continuous
 62
     7
370
    15
100
AcDbLine
 10
458.7297421538
 20
441.8279621091
 30
0.0
 11
463.729744836
 21
441.8279621091
 31
0.0
  0
LINE
  5
158
330
1F
100
AcDbEntity
  8
0
  6
Continuous
 62
     7
370
    15
100
AcDbLine
 10
458.7297421538
 20
412.1973122742
 30
0.0
 11
458.7297421538
 21
441.8279621091
 31
0.0
  0
LINE
  5
159
330
1F
100
AcDbEntity
  8
0
  6
Continuous
 62
     7
370
    15
100
AcDbLine
 10
463.729744836
 20
412.1973122742
 30
0.0
 11
458.7297421538
 21
412.1973122742
 31
0.0
  0
LINE
  5
15A
330
1F
100
AcDbEntity
  8
0
  6
Continuous
 62
     7
370
    15
100
AcDbLine
 10
455.7297435247
 20
441.8279621091
 30
0.0
 11
455.7297435247
 21
412.1973122742
 31
0.0
  0
LINE
  5
15B
330
1F
100
AcDbEntity
  8
0
  6
Continuous
 62
     7
370
    15
100
AcDbLine
 10
450.7297408425
 20
441.8279621091
 30
0.0
 11
455.7297435247
 21
441.8279621091
 31
0.0
  0
LINE
  5
15C
330
1F
100
AcDbEntity
  8
0
  6
Continuous
 62
     7
370
    15
100
AcDbLine
 10
450.7297408425
 20
412.1973122742
 30
0.0
 11
450.7297408425
 21
441.8279621091
 31
0.0
  0
LINE
  5
15D
330
1F
100
AcDbEntity
  8
0
  6
Continuous
 62
     7
370
    15
100
AcDbLine
 10
455.7297435247
 20
412.1973122742
 30
0.0
 11
450.7297408425
 21
412.1973122742
 31
0.0
  0
LINE
  5
15E
330
1F
100
AcDbEntity
  8
0
  6
Continuous
 62
     7
370
    15
100
AcDbLine
 10
447.7297422134
 20
441.8279621091
 30
0.0
 11
447.7297422134
 21
412.1973122742
 31
0.0
  0
LINE
  5
15F
330
1F
100
AcDbEntity
  8
0
  6
Continuous
 62
     7
370
    15
100
AcDbLine
 10
442.7297469818
 20
441.8279621091
 30
0.0
 11
447.7297422134
 21
441.8279621091
 31
0.0
  0
LINE
  5
160
330
1F
100
AcDbEntity
  8
0
  6
Continuous
 62
     7
370
    15
100
AcDbLine
 10
442.7297469818
 20
412.1973122742
 30
0.0
 11
442.7297469818
 21
441.8279621091
 31
0.0
  0
LINE
  5
161
330
1F
100
AcDbEntity
  8
0
  6
Continuous
 62
     7
370
    15
100
AcDbLine
 10
447.7297422134
 20
412.1973122742
 30
0.0
 11
442.7297469818
 21
412.1973122742
 31
0.0
  0
LINE
  5
162
330
1F
100
AcDbEntity
  8
0
  6
Continuous
 62
     7
370
    15
100
AcDbLine
 10
439.7297409021
 20
441.8279621091
 30
0.0
 11
439.7297409021
 21
412.1973122742
 31
0.0
  0
LINE
  5
163
330
1F
100
AcDbEntity
  8
0
  6
Continuous
 62
     7
370
    15
100
AcDbLine
 10
434.7297419452
 20
441.8279621091
 30
0.0
 11
439.7297409021
 21
441.8279621091
 31
0.0
  0
LINE
  5
164
330
1F
100
AcDbEntity
  8
0
  6
Continuous
 62
     7
370
    15
100
AcDbLine
 10
434.7297419452
 20
412.1973122742
 30
0.0
 11
434.7297419452
 21
441.8279621091
 31
0.0
  0
LINE
  5
165
330
1F
100
AcDbEntity
  8
0
  6
Continuous
 62
     7
370
    15
100
AcDbLine
 10
439.7297409021
 20
412.1973122742
 30
0.0
 11
434.7297419452
 21
412.1973122742
 31
0.0
  0
LINE
  5
166
330
1F
100
AcDbEntity
  8
0
  6
Continuous
 62
     7
370
    15
100
AcDbLine
 10
431.7297433161
 20
441.8279621091
 30
0.0
 11
431.7297433161
 21
412.1973122742
 31
0.0
  0
LINE
  5
167
330
1F
100
AcDbEntity
  8
0
  6
Continuous
 62
     7
370
    15
100
AcDbLine
 10
426.7297443592
 20
441.8279621091
 30
0.0
 11
431.7297433161
 21
441.8279621091
 31
0.0
  0
LINE
  5
168
330
1F
100
AcDbEntity
  8
0
  6
Continuous
 62
     7
370
    15
100
AcDbLine
 10
426.7297443592
 20
412.1973122742
 30
0.0
 11
426.7297443592
 21
441.8279621091
 31
0.0
  0
LINE
  5
169
330
1F
100
AcDbEntity
  8
0
  6
Continuous
 62
     7
370
    15
100
AcDbLine
 10
431.7297433161
 20
412.1973122742
 30
0.0
 11
426.7297443592
 21
412.1973122742
 31
0.0
  0
LINE
  5
16A
330
1F
100
AcDbEntity
  8
0
  6
Continuous
 62
     7
370
    15
100
AcDbLine
 10
423.7297420048
 20
441.8279621091
 30
0.0
 11
423.7297420048
 21
412.1973122742
 31
0.0
  0
LINE
  5
16B
330
1F
100
AcDbEntity
  8
0
  6
Continuous
 62
     7
370
    15
100
AcDbLine
 10
418.7297430479
 20
441.8279621091
 30
0.0
 11
423.7297420048
 21
441.8279621091
 31
0.0
  0
LINE
  5
16C
330
1F
100
AcDbEntity
  8
0
  6
Continuous
 62
     7
370
    15
100
AcDbLine
 10
418.7297430479
 20
412.1973122742
 30
0.0
 11
418.7297430479
 21
441.8279621091
 31
0.0
  0
LINE
  5
16D
330
1F
100
AcDbEntity
  8
0
  6
Continuous
 62
     7
370
    15
100
AcDbLine
 10
423.7297420048
 20
412.1973122742
 30
0.0
 11
418.7297430479
 21
412.1973122742
 31
0.0
  0
LINE
  5
16E
330
1F
100
AcDbEntity
  8
0
  6
Continuous
 62
     7
370
    15
100
AcDbLine
 10
415.7297444188
 20
441.8279621091
 30
0.0
 11
415.7297444188
 21
412.1973122742
 31
0.0
  0
LINE
  5
16F
330
1F
100
AcDbEntity
  8
0
  6
Continuous
 62
     7
370
    15
100
AcDbLine
 10
410.7297417366
 20
441.8279621091
 30
0.0
 11
415.7297444188
 21
441.8279621091
 31
0.0
  0
LINE
  5
170
330
1F
100
AcDbEntity
  8
0
  6
Continuous
 62
     7
370
    15
100
AcDbLine
 10
410.7297417366
 20
412.1973122742
 30
0.0
 11
410.7297417366
 21
441.8279621091
 31
0.0
  0
LINE
  5
171
330
1F
100
AcDbEntity
  8
0
  6
Continuous
 62
     7
370
    15
100
AcDbLine
 10
415.7297444188
 20
412.1973122742
 30
0.0
 11
410.7297417366
 21
412.1973122742
 31
0.0
  0
LINE
  5
172
330
1F
100
AcDbEntity
  8
0
  6
Continuous
 62
     7
370
    15
100
AcDbLine
 10
407.7297431075
 20
441.8279621091
 30
0.0
 11
407.7297431075
 21
412.1973122742
 31
0.0
  0
LINE
  5
173
330
1F
100
AcDbEntity
  8
0
  6
Continuous
 62
     7
370
    15
100
AcDbLine
 10
402.7297441506
 20
441.8279621091
 30
0.0
 11
407.7297431075
 21
441.8279621091
 31
0.0
  0
LINE
  5
174
330
1F
100
AcDbEntity
  8
0
  6
Continuous
 62
     7
370
    15
100
AcDbLine
 10
402.7297441506
 20
412.1973122742
 30
0.0
 11
402.7297441506
 21
441.8279621091
 31
0.0
  0
LINE
  5
175
330
1F
100
AcDbEntity
  8
0
  6
Continuous
 62
     7
370
    15
100
AcDbLine
 10
407.7297431075
 20
412.1973122742
 30
0.0
 11
402.7297441506
 21
412.1973122742
 31
0.0
  0
LINE
  5
176
330
1F
100
AcDbEntity
  8
0
  6
Continuous
 62
     7
370
    15
100
AcDbLine
 10
399.7297436588
 20
441.8279621091
 30
0.0
 11
399.7297436588
 21
412.1973122742
 31
0.0
  0
LINE
  5
177
330
1F
100
AcDbEntity
  8
0
  6
Continuous
 62
     7
370
    15
100
AcDbLine
 10
394.7297428393
 20
441.8279621091
 30
0.0
 11
399.7297436588
 21
441.8279621091
 31
0.0
  0
LINE
  5
178
330
1F
100
AcDbEntity
  8
0
  6
Continuous
 62
     7
370
    15
100
AcDbLine
 10
394.7297428393
 20
412.1973122742
 30
0.0
 11
394.7297428393
 21
441.8279621091
 31
0.0
  0
LINE
  5
179
330
1F
100
AcDbEntity
  8
0
  6
Continuous
 62
     7
370
    15
100
AcDbLine
 10
399.7297436588
 20
412.1973122742
 30
0.0
 11
394.7297428393
 21
412.1973122742
 31
0.0
  0
LINE
  5
17A
330
1F
100
AcDbEntity
  8
0
  6
Continuous
 62
     7
370
    15
100
AcDbLine
 10
391.7297442102
 20
441.8279621091
 30
0.0
 11
391.7297442102
 21
412.1973122742
 31
0.0
  0
LINE
  5
17B
330
1F
100
AcDbEntity
  8
0
  6
Continuous
 62
     7
370
    15
100
AcDbLine
 10
386.7297433906
 20
441.8279621091
 30
0.0
 11
391.7297442102
 21
441.8279621091
 31
0.0
  0
LINE
  5
17C
330
1F
100
AcDbEntity
  8
0
  6
Continuous
 62
     7
370
    15
100
AcDbLine
 10
386.7297433906
 20
412.1973122742
 30
0.0
 11
386.7297433906
 21
441.8279621091
 31
0.0
  0
LINE
  5
17D
330
1F
100
AcDbEntity
  8
0
  6
Continuous
 62
     7
370
    15
100
AcDbLine
 10
391.7297442102
 20
412.1973122742
 30
0.0
 11
386.7297433906
 21
412.1973122742
 31
0.0
  0
LINE
  5
17E
330
1F
100
AcDbEntity
  8
0
  6
Continuous
 62
     7
370
    15
100
AcDbLine
 10
383.7297438302
 20
441.8279621091
 30
0.0
 11
383.7297438302
 21
412.1973122742
 31
0.0
  0
LINE
  5
17F
330
1F
100
AcDbEntity
  8
0
  6
Continuous
 62
     7
370
    15
100
AcDbLine
 10
378.7297434763
 20
441.8279621091
 30
0.0
 11
383.7297438302
 21
441.8279621091
 31
0.0
  0
LINE
  5
180
330
1F
100
AcDbEntity
  8
0
  6
Continuous
 62
     7
370
    15
100
AcDbLine
 10
378.7297434763
 20
412.1973122742
 30
0.0
 11
378.7297434763
 21
441.8279621091
 31
0.0
  0
LINE
  5
181
330
1F
100
AcDbEntity
  8
0
  6
Continuous
 62
     7
370
    15
100
AcDbLine
 10
383.7297438302
 20
412.1973122742
 30
0.0
 11
378.7297434763
 21
412.1973122742
 31
0.0
  0
LINE
  5
182
330
1F
100
AcDbEntity
  8
0
  6
Continuous
 62
     7
370
    15
100
AcDbLine
 10
375.7297435666
 20
441.8279621091
 30
0.0
 11
375.7297435666
 21
412.1973122742
 31
0.0
  0
LINE
  5
183
330
1F
100
AcDbEntity
  8
0
  6
Continuous
 62
     7
370
    15
100
AcDbLine
 10
370.729743562
 20
441.8279621091
 30
0.0
 11
375.7297435666
 21
441.8279621091
 31
0.0
  0
LINE
  5
184
330
1F
100
AcDbEntity
  8
0
  6
Continuous
 62
     7
370
    15
100
AcDbLine
 10
370.729743562
 20
412.1973122742
 30
0.0
 11
370.729743562
 21
441.8279621091
 31
0.0
  0
LINE
  5
185
330
1F
100
AcDbEntity
  8
0
  6
Continuous
 62
     7
370
    15
100
AcDbLine
 10
375.7297435666
 20
412.1973122742
 30
0.0
 11
370.729743562
 21
412.1973122742
 31
0.0
  0
LINE
  5
186
330
1F
100
AcDbEntity
  8
0
  6
Continuous
 62
     7
370
    15
100
AcDbLine
 10
367.7297435359
 20
441.8279621091
 30
0.0
 11
367.7297435359
 21
412.1973122742
 31
0.0
  0
LINE
  5
187
330
1F
100
AcDbEntity
  8
0
  6
Continuous
 62
     7
370
    15
100
AcDbLine
 10
362.729743182
 20
441.8279621091
 30
0.0
 11
367.7297435359
 21
441.8279621091
 31
0.0
  0
LINE
  5
188
330
1F
100
AcDbEntity
  8
0
  6
Continuous
 62
     7
370
    15
100
AcDbLine
 10
362.729743182
 20
412.1973122742
 30
0.0
 11
362.729743182
 21
441.8279621091
 31
0.0
  0
LINE
  5
189
330
1F
100
AcDbEntity
  8
0
  6
Continuous
 62
     7
370
    15
100
AcDbLine
 10
367.7297435359
 20
412.1973122742
 30
0.0
 11
362.729743182
 21
412.1973122742
 31
0.0
  0
LINE
  5
18A
330
1F
100
AcDbEntity
  8
0
  6
Continuous
 62
     7
370
    15
100
AcDbLine
 10
359.7297436216
 20
441.8279621091
 30
0.0
 11
359.7297436216
 21
412.1973122742
 31
0.0
  0
LINE
  5
18B
330
1F
100
AcDbEntity
  8
0
  6
Continuous
 62
     7
370
    15
100
AcDbLine
 10
354.7297437333
 20
441.8279621091
 30
0.0
 11
359.7297436216
 21
441.8279621091
 31
0.0
  0
LINE
  5
18C
330
1F
100
AcDbEntity
  8
0
  6
Continuous
 62
     7
370
    15
100
AcDbLine
 10
354.7297437333
 20
412.1973122742
 30
0.0
 11
354.7297437333
 21
441.8279621091
 31
0.0
  0
LINE
  5
18D
330
1F
100
AcDbEntity
  8
0
  6
Continuous
 62
     7
370
    15
100
AcDbLine
 10
359.7297436216
 20
412.1973122742
 30
0.0
 11
354.7297437333
 21
412.1973122742
 31
0.0
  0
LINE
  5
18E
330
1F
100
AcDbEntity
  8
0
  6
Continuous
 62
     7
370
    15
100
AcDbLine
 10
351.7297432416
 20
441.8279621091
 30
0.0
 11
351.7297432416
 21
412.1973122742
 31
0.0
  0
LINE
  5
18F
330
1F
100
AcDbEntity
  8
0
  6
Continuous
 62
     7
370
    15
100
AcDbLine
 10
346.7297442847
 20
441.8279621091
 30
0.0
 11
351.7297432416
 21
441.8279621091
 31
0.0
  0
LINE
  5
190
330
1F
100
AcDbEntity
  8
0
  6
Continuous
 62
     7
370
    15
100
AcDbLine
 10
346.7297442847
 20
412.1973122742
 30
0.0
 11
346.7297442847
 21
441.8279621091
 31
0.0
  0
LINE
  5
191
330
1F
100
AcDbEntity
  8
0
  6
Continuous
 62
     7
370
    15
100
AcDbLine
 10
351.7297432416
 20
412.1973122742
 30
0.0
 11
346.7297442847
 21
412.1973122742
 31
0.0
  0
LINE
  5
192
330
1F
100
AcDbEntity
  8
0
  6
Continuous
 62
     7
370
    15
100
AcDbLine
 10
343.7297437929
 20
441.8279621091
 30
0.0
 11
343.7297437929
 21
412.1973122742
 31
0.0
  0
LINE
  5
193
330
1F
100
AcDbEntity
  8
0
  6
Continuous
 62
     7
370
    15
100
AcDbLine
 10
338.729744836
 20
441.8279621091
 30
0.0
 11
343.7297437929
 21
441.8279621091
 31
0.0
  0
LINE
  5
194
330
1F
100
AcDbEntity
  8
0
  6
Continuous
 62
     7
370
    15
100
AcDbLine
 10
338.729744836
 20
412.1973122742
 30
0.0
 11
338.729744836
 21
441.8279621091
 31
0.0
  0
LINE
  5
195
330
1F
100
AcDbEntity
  8
0
  6
Continuous
 62
     7
370
    15
100
AcDbLine
 10
343.7297437929
 20
412.1973122742
 30
0.0
 11
338.729744836
 21
412.1973122742
 31
0.0
  0
LINE
  5
196
330
1F
100
AcDbEntity
  8
0
  6
Continuous
 62
     7
370
    15
100
AcDbLine
 10
335.7297424816
 20
441.8279621091
 30
0.0
 11
335.7297424816
 21
412.1973122742
 31
0.0
  0
LINE
  5
197
330
1F
100
AcDbEntity
  8
0
  6
Continuous
 62
     7
370
    15
100
AcDbLine
 10
330.7297435247
 20
441.8279621091
 30
0.0
 11
335.7297424816
 21
441.8279621091
 31
0.0
  0
LINE
  5
198
330
1F
100
AcDbEntity
  8
0
  6
Continuous
 62
     7
370
    15
100
AcDbLine
 10
330.7297435247
 20
412.1973122742
 30
0.0
 11
330.7297435247
 21
441.8279621091
 31
0.0
  0
LINE
  5
199
330
1F
100
AcDbEntity
  8
0
  6
Continuous
 62
     7
370
    15
100
AcDbLine
 10
335.7297424816
 20
412.1973122742
 30
0.0
 11
330.7297435247
 21
412.1973122742
 31
0.0
  0
LINE
  5
19A
330
1F
100
AcDbEntity
  8
0
  6
Continuous
 62
     7
370
    15
100
AcDbLine
 10
327.7297448956
 20
441.8279621091
 30
0.0
 11
327.7297448956
 21
412.1973122742
 31
0.0
  0
LINE
  5
19B
330
1F
100
AcDbEntity
  8
0
  6
Continuous
 62
     7
370
    15
100
AcDbLine
 10
322.7297422134
 20
441.8279621091
 30
0.0
 11
327.7297448956
 21
441.8279621091
 31
0.0
  0
LINE
  5
19C
330
1F
100
AcDbEntity
  8
0
  6
Continuous
 62
     7
370
    15
100
AcDbLine
 10
322.7297422134
 20
412.1973122742
 30
0.0
 11
322.7297422134
 21
441.8279621091
 31
0.0
  0
LINE
  5
19D
330
1F
100
AcDbEntity
  8
0
  6
Continuous
 62
     7
370
    15
100
AcDbLine
 10
327.7297448956
 20
412.1973122742
 30
0.0
 11
322.7297422134
 21
412.1973122742
 31
0.0
  0
LINE
  5
19E
330
1F
100
AcDbEntity
  8
0
  6
Continuous
 62
     7
370
    15
100
AcDbLine
 10
319.7297435843
 20
441.8279621091
 30
0.0
 11
319.7297435843
 21
412.1973122742
 31
0.0
  0
LINE
  5
19F
330
1F
100
AcDbEntity
  8
0
  6
Continuous
 62
     7
370
    15
100
AcDbLine
 10
314.7297446274
 20
441.8279621091
 30
0.0
 11
319.7297435843
 21
441.8279621091
 31
0.0
  0
LINE
  5
1A0
330
1F
100
AcDbEntity
  8
0
  6
Continuous
 62
     7
370
    15
100
AcDbLine
 10
314.7297446274
 20
412.1973122742
 30
0.0
 11
314.7297446274
 21
441.8279621091
 31
0.0
  0
LINE
  5
1A1
330
1F
100
AcDbEntity
  8
0
  6
Continuous
 62
     7
370
    15
100
AcDbLine
 10
319.7297435843
 20
412.1973122742
 30
0.0
 11
314.7297446274
 21
412.1973122742
 31
0.0
  0
LINE
  5
1A2
330
1F
100
AcDbEntity
  8
0
  6
Continuous
 62
     7
370
    15
100
AcDbLine
 10
311.729742273
 20
441.8279621091
 30
0.0
 11
311.729742273
 21
412.1973122742
 31
0.0
  0
LINE
  5
1A3
330
1F
100
AcDbEntity
  8
0
  6
Continuous
 62
     7
370
    15
100
AcDbLine
 10
306.7297470414
 20
441.8279621091
 30
0.0
 11
311.729742273
 21
441.8279621091
 31
0.0
  0
LINE
  5
1A4
330
1F
100
AcDbEntity
  8
0
  6
Continuous
 62
     7
370
    15
100
AcDbLine
 10
306.7297470414
 20
412.1973122742
 30
0.0
 11
306.7297470414
 21
441.8279621091
 31
0.0
  0
LINE
  5
1A5
330
1F
100
AcDbEntity
  8
0
  6
Continuous
 62
     7
370
    15
100
AcDbLine
 10
311.729742273
 20
412.1973122742
 30
0.0
 11
306.7297470414
 21
412.1973122742
 31
0.0
  0
LINE
  5
1A6
330
1F
100
AcDbEntity
  8
0
  6
Continuous
 62
     7
370
    15
100
AcDbLine
 10
303.7297409617
 20
441.8279621091
 30
0.0
 11
303.7297409617
 21
412.1973122742
 31
0.0
  0
LINE
  5
1A7
330
1F
100
AcDbEntity
  8
0
  6
Continuous
 62
     7
370
    15
100
AcDbLine
 10
298.7297457301
 20
441.8279621091
 30
0.0
 11
303.7297409617
 21
441.8279621091
 31
0.0
  0
LINE
  5
1A8
330
1F
100
AcDbEntity
  8
0
  6
Continuous
 62
     7
370
    15
100
AcDbLine
 10
298.7297457301
 20
412.1973122742
 30
0.0
 11
298.7297457301
 21
441.8279621091
 31
0.0
  0
LINE
  5
1A9
330
1F
100
AcDbEntity
  8
0
  6
Continuous
 62
     7
370
    15
100
AcDbLine
 10
303.7297409617
 20
412.1973122742
 30
0.0
 11
298.7297457301
 21
412.1973122742
 31
0.0
  0
LINE
  5
1AA
330
1F
100
AcDbEntity
  8
0
  6
Continuous
 62
     7
370
    15
100
AcDbLine
 10
295.729747101
 20
441.8279621091
 30
0.0
 11
295.729747101
 21
412.1973122742
 31
0.0
  0
LINE
  5
1AB
330
1F
100
AcDbEntity
  8
0
  6
Continuous
 62
     7
370
    15
100
AcDbLine
 10
290.7297444188
 20
441.8279621091
 30
0.0
 11
295.729747101
 21
441.8279621091
 31
0.0
  0
LINE
  5
1AC
330
1F
100
AcDbEntity
  8
0
  6
Continuous
 62
     7
370
    15
100
AcDbLine
 10
290.7297444188
 20
412.1973122742
 30
0.0
 11
290.7297444188
 21
441.8279621091
 31
0.0
  0
LINE
  5
1AD
330
1F
100
AcDbEntity
  8
0
  6
Continuous
 62
     7
370
    15
100
AcDbLine
 10
295.729747101
 20
412.1973122742
 30
0.0
 11
290.7297444188
 21
412.1973122742
 31
0.0
  0
LINE
  5
1AE
330
1F
100
AcDbEntity
  8
0
  6
Continuous
 62
     7
370
    15
100
AcDbLine
 10
287.7297457897
 20
441.8279621091
 30
0.0
 11
287.7297457897
 21
412.1973122742
 31
0.0
  0
LINE
  5
1AF
330
1F
100
AcDbEntity
  8
0
  6
Continuous
 62
     7
370
    15
100
AcDbLine
 10
282.7297431075
 20
441.8279621091
 30
0.0
 11
287.7297457897
 21
441.8279621091
 31
0.0
  0
LINE
  5
1B0
330
1F
100
AcDbEntity
  8
0
  6
Continuous
 62
     7
370
    15
100
AcDbLine
 10
282.7297431075
 20
412.1973122742
 30
0.0
 11
282.7297431075
 21
441.8279621091
 31
0.0
  0
LINE
  5
1B1
330
1F
100
AcDbEntity
  8
0
  6
Continuous
 62
     7
370
    15
100
AcDbLine
 10
287.7297457897
 20
412.1973122742
 30
0.0
 11
282.7297431075
 21
412.1973122742
 31
0.0
  0
LINE
  5
1B2
330
1F
100
AcDbEntity
  8
0
  6
Continuous
 62
     7
370
    15
100
AcDbLine
 10
279.7297444784
 20
441.8279621091
 30
0.0
 11
279.7297444784
 21
412.1973122742
 31
0.0
  0
LINE
  5
1B3
330
1F
100
AcDbEntity
  8
0
  6
Continuous
 62
     7
370
    15
100
AcDbLine
 10
274.7297417962
 20
441.8279621091
 30
0.0
 11
279.7297444784
 21
441.8279621091
 31
0.0
  0
LINE
  5
1B4
330
1F
100
AcDbEntity
  8
0
  6
Continuous
 62
     7
370
    15
100
AcDbLine
 10
274.7297417962
 20
412.1973122742
 30
0.0
 11
274.7297417962
 21
441.8279621091
 31
0.0
  0
LINE
  5
1B5
330
1F
100
AcDbEntity
  8
0
  6
Continuous
 62
     7
370
    15
100
AcDbLine
 10
279.7297444784
 20
412.1973122742
 30
0.0
 11
274.7297417962
 21
412.1973122742
 31
0.0
  0
LINE
  5
1B6
330
1F
100
AcDbEntity
  8
0
  6
Continuous
 62
     7
370
    15
100
AcDbLine
 10
271.7297431671
 20
441.8279621091
 30
0.0
 11
271.7297431671
 21
412.1973122742
 31
0.0
  0
LINE
  5
1B7
330
1F
100
AcDbEntity
  8
0
  6
Continuous
 62
     7
370
    15
100
AcDbLine
 10
266.7297404849
 20
441.8279621091
 30
0.0
 11
271.7297431671
 21
441.8279621091
 31
0.0
  0
LINE
  5
1B8
330
1F
100
AcDbEntity
  8
0
  6
Continuous
 62
     7
370
    15
100
AcDbLine
 10
266.7297404849
 20
412.1973122742
 30
0.0
 11
266.7297404849
 21
441.8279621091
 31
0.0
  0
LINE
  5
1B9
330
1F
100
AcDbEntity
  8
0
  6
Continuous
 62
     7
370
    15
100
AcDbLine
 10
271.7297431671
 20
412.1973122742
 30
0.0
 11
266.7297404849
 21
412.1973122742
 31
0.0
  0
LINE
  5
1BA
330
1F
100
AcDbEntity
  8
0
  6
Continuous
 62
     7
370
    15
100
AcDbLine
 10
263.7297418558
 20
441.8279621091
 30
0.0
 11
263.7297418558
 21
412.1973122742
 31
0.0
  0
LINE
  5
1BB
330
1F
100
AcDbEntity
  8
0
  6
Continuous
 62
     7
370
    15
100
AcDbLine
 10
258.7297466242
 20
441.8279621091
 30
0.0
 11
263.7297418558
 21
441.8279621091
 31
0.0
  0
LINE
  5
1BC
330
1F
100
AcDbEntity
  8
0
  6
Continuous
 62
     7
370
    15
100
AcDbLine
 10
258.7297466242
 20
412.1973122742
 30
0.0
 11
258.7297466242
 21
441.8279621091
 31
0.0
  0
LINE
  5
1BD
330
1F
100
AcDbEntity
  8
0
  6
Continuous
 62
     7
370
    15
100
AcDbLine
 10
263.7297418558
 20
412.1973122742
 30
0.0
 11
258.7297466242
 21
412.1973122742
 31
0.0
  0
LINE
  5
1BE
330
1F
100
AcDbEntity
  8
0
  6
Continuous
 62
     7
370
    15
100
AcDbLine
 10
255.7297405445
 20
441.8279621091
 30
0.0
 11
255.7297405445
 21
412.1973122742
 31
0.0
  0
LINE
  5
1BF
330
1F
100
AcDbEntity
  8
0
  6
Continuous
 62
     7
370
    15
100
AcDbLine
 10
250.7297453129
 20
441.8279621091
 30
0.0
 11
255.7297405445
 21
441.8279621091
 31
0.0
  0
LINE
  5
1C0
330
1F
100
AcDbEntity
  8
0
  6
Continuous
 62
     7
370
    15
100
AcDbLine
 10
250.7297453129
 20
412.1973122742
 30
0.0
 11
250.7297453129
 21
441.8279621091
 31
0.0
  0
LINE
  5
1C1
330
1F
100
AcDbEntity
  8
0
  6
Continuous
 62
     7
370
    15
100
AcDbLine
 10
255.7297405445
 20
412.1973122742
 30
0.0
 11
250.7297453129
 21
412.1973122742
 31
0.0
  0
LINE
  5
1C2
330
1F
100
AcDbEntity
  8
0
  6
Continuous
 62
     7
370
    15
100
AcDbLine
 10
247.7297466838
 20
441.8279621091
 30
0.0
 11
247.7297466838
 21
412.1973122742
 31
0.0
  0
LINE
  5
1C3
330
1F
100
AcDbEntity
  8
0
  6
Continuous
 62
     7
370
    15
100
AcDbLine
 10
242.729736551
 20
441.8279621091
 30
0.0
 11
247.7297466838
 21
441.8279621091
 31
0.0
  0
LINE
  5
1C4
330
1F
100
AcDbEntity
  8
0
  6
Continuous
 62
     7
370
    15
100
AcDbLine
 10
242.729736551
 20
412.1973122742
 30
0.0
 11
242.729736551
 21
441.8279621091
 31
0.0
  0
LINE
  5
1C5
330
1F
100
AcDbEntity
  8
0
  6
Continuous
 62
     7
370
    15
100
AcDbLine
 10
247.7297466838
 20
412.1973122742
 30
0.0
 11
242.729736551
 21
412.1973122742
 31
0.0
  0
LINE
  5
1C6
330
1F
100
AcDbEntity
  8
0
  6
Continuous
 62
     7
370
    15
100
AcDbLine
 10
239.7297453725
 20
441.8279621091
 30
0.0
 11
239.7297453725
 21
412.1973122742
 31
0.0
  0
LINE
  5
1C7
330
1F
100
AcDbEntity
  8
0
  6
Continuous
 62
     7
370
    15
100
AcDbLine
 10
234.7297501408
 20
441.8279621091
 30
0.0
 11
239.7297453725
 21
441.8279621091
 31
0.0
  0
LINE
  5
1C8
330
1F
100
AcDbEntity
  8
0
  6
Continuous
 62
     7
370
    15
100
AcDbLine
 10
234.7297501408
 20
412.1973122742
 30
0.0
 11
234.7297501408
 21
441.8279621091
 31
0.0
  0
LINE
  5
1C9
330
1F
100
AcDbEntity
  8
0
  6
Continuous
 62
     7
370
    15
100
AcDbLine
 10
239.7297453725
 20
412.1973122742
 30
0.0
 11
234.7297501408
 21
412.1973122742
 31
0.0
  0
ARC
  5
1CA
330
1F
100
AcDbEntity
  8
0
  6
Continuous
 62
     7
370
    15
100
AcDbCircle
 10
568.3034882146
 20
448.1431029538
 30
0.0
 40
2.122669892451406
100
AcDbArc
 50
64.1277284226
 51
98.0907561586
  0
LINE
  5
1CB
330
1F
100
AcDbEntity
  8
0
  6
Continuous
 62
     7
370
    15
100
AcDbLine
 10
569.2297500216
 20
450.0530156579
 30
0.0
 11
569.2297500216
 21
405.1068852928
 31
0.0
  0
ARC
  5
1CC
330
1F
100
AcDbEntity
  8
0
  6
Continuous
 62
     7
370
    15
100
AcDbCircle
 10
568.3035016729
 20
403.1970586223
 30
0.0
 40
2.12258660945553
100
AcDbArc
 50
64.1270419045
 51
98.0914426767
  0
ARC
  5
1CD
330
1F
100
AcDbEntity
  8
0
  6
Continuous
 62
     7
370
    15
100
AcDbCircle
 10
568.1571685851
 20
404.132507745
 30
0.0
 40
1.082929000516785
100
AcDbArc
 50
64.1267019282
 51
98.091561375
  0
LINE
  5
1CE
330
1F
100
AcDbEntity
  8
0
  6
Continuous
 62
     7
370
    15
100
AcDbLine
 10
569.2297500216
 20
405.1068852928
 30
0.0
 11
568.629739865
 21
405.1068852928
 31
0.0
  0
LINE
  5
1CF
330
1F
100
AcDbEntity
  8
0
  6
Continuous
 62
     7
370
    15
100
AcDbLine
 10
568.629739865
 20
403.9557594147
 30
0.0
 11
568.004740461
 21
403.9557594147
 31
0.0
  0
LINE
  5
1D0
330
1F
100
AcDbEntity
  8
0
  6
Continuous
 62
     7
370
    15
100
AcDbLine
 10
568.629739865
 20
404.5195746508
 30
0.0
 11
568.004740461
 21
404.5195746508
 31
0.0
  0
LINE
  5
1D1
330
1F
100
AcDbEntity
  8
0
  6
Continuous
 62
     7
370
    15
100
AcDbLine
 10
568.629739865
 20
404.5195746508
 30
0.0
 11
568.629739865
 21
403.9557594147
 31
0.0
  0
LINE
  5
1D2
330
1F
100
AcDbEntity
  8
0
  6
Continuous
 62
     7
370
    15
100
AcDbLine
 10
568.629739865
 20
398.9872205343
 30
0.0
 11
568.004740461
 21
398.9872205343
 31
0.0
  0
LINE
  5
1D3
330
1F
100
AcDbEntity
  8
0
  6
Continuous
 62
     7
370
    15
100
AcDbLine
 10
225.8297484957
 20
398.9872205343
 30
0.0
 11
226.4547478997
 21
398.9872205343
 31
0.0
  0
LINE
  5
1D4
330
1F
100
AcDbEntity
  8
0
  6
Continuous
 62
     7
370
    15
100
AcDbLine
 10
225.8297484957
 20
398.9872205343
 30
0.0
 11
225.8297484957
 21
403.9557594147
 31
0.0
  0
LINE
  5
1D5
330
1F
100
AcDbEntity
  8
0
  6
Continuous
 62
     7
370
    15
100
AcDbLine
 10
226.4547478997
 20
403.9557594147
 30
0.0
 11
225.8297484957
 21
403.9557594147
 31
0.0
  0
LINE
  5
1D6
330
1F
100
AcDbEntity
  8
0
  6
Continuous
 62
     7
370
    15
100
AcDbLine
 10
568.629739865
 20
403.9557594147
 30
0.0
 11
568.629739865
 21
398.9872205343
 31
0.0
  0
LINE
  5
1D7
330
1F
100
AcDbEntity
  8
0
  6
Continuous
 62
     7
370
    15
100
AcDbLine
 10
225.8297484957
 20
404.5195746508
 30
0.0
 11
225.8297484957
 21
403.9557594147
 31
0.0
  0
LINE
  5
1D8
330
1F
100
AcDbEntity
  8
0
  6
Continuous
 62
     7
370
    15
100
AcDbLine
 10
226.4547478997
 20
404.5195746508
 30
0.0
 11
225.8297484957
 21
404.5195746508
 31
0.0
  0
LINE
  5
1D9
330
1F
100
AcDbEntity
  8
0
  6
Continuous
 62
     7
370
    15
100
AcDbLine
 10
569.2297500216
 20
404.5665617373
 30
0.0
 11
568.629739865
 21
404.5665617373
 31
0.0
  0
LINE
  5
1DA
330
1F
100
AcDbEntity
  8
0
  6
Continuous
 62
     7
370
    15
100
AcDbLine
 10
569.2297500216
 20
398.9833052542
 30
0.0
 11
569.2297500216
 21
404.5665617373
 31
0.0
  0
LINE
  5
1DB
330
1F
100
AcDbEntity
  8
0
  6
Continuous
 62
     7
370
    15
100
AcDbLine
 10
569.2297500216
 20
398.9833052542
 30
0.0
 11
568.629739865
 21
398.9833052542
 31
0.0
  0
LINE
  5
1DC
330
1F
100
AcDbEntity
  8
0
  6
Continuous
 62
     7
370
    15
100
AcDbLine
 10
568.629739865
 20
398.9833052542
 30
0.0
 11
568.629739865
 21
398.9872205343
 31
0.0
  0
LINE
  5
1DD
330
1F
100
AcDbEntity
  8
0
  6
Continuous
 62
     7
370
    15
100
AcDbLine
 10
568.629739865
 20
404.5195746508
 30
0.0
 11
568.629739865
 21
404.5665617373
 31
0.0
  0
LINE
  5
1DE
330
1F
100
AcDbEntity
  8
0
  6
Continuous
 62
     7
370
    15
100
AcDbLine
 10
569.2297500216
 20
404.5665617373
 30
0.0
 11
569.2297500216
 21
405.1068852928
 31
0.0
  0
LINE
  5
1DF
330
1F
100
AcDbEntity
  8
0
  6
Continuous
 62
     7
370
    15
100
AcDbLine
 10
568.629739865
 20
404.5665617373
 30
0.0
 11
568.629739865
 21
405.1068852928
 31
0.0
  0
LINE
  5
1E0
330
1F
100
AcDbEntity
  8
0
  6
Continuous
 62
     7
370
    15
100
AcDbLine
 10
225.2297383391
 20
404.5665617373
 30
0.0
 11
225.8297484957
 21
404.5665617373
 31
0.0
  0
LINE
  5
1E1
330
1F
100
AcDbEntity
  8
0
  6
Continuous
 62
     7
370
    15
100
AcDbLine
 10
225.8297484957
 20
404.5665617373
 30
0.0
 11
225.8297484957
 21
405.1068852928
 31
0.0
  0
LINE
  5
1E2
330
1F
100
AcDbEntity
  8
0
  6
Continuous
 62
     7
370
    15
100
AcDbLine
 10
225.2297383391
 20
404.5665617373
 30
0.0
 11
225.2297383391
 21
405.1068852928
 31
0.0
  0
LINE
  5
1E3
330
1F
100
AcDbEntity
  8
0
  6
Continuous
 62
     7
370
    15
100
AcDbLine
 10
225.2297383391
 20
398.9833052542
 30
0.0
 11
225.8297484957
 21
398.9833052542
 31
0.0
  0
LINE
  5
1E4
330
1F
100
AcDbEntity
  8
0
  6
Continuous
 62
     7
370
    15
100
AcDbLine
 10
225.8297484957
 20
398.9833052542
 30
0.0
 11
225.8297484957
 21
398.9872205343
 31
0.0
  0
LINE
  5
1E5
330
1F
100
AcDbEntity
  8
0
  6
Continuous
 62
     7
370
    15
100
AcDbLine
 10
225.8297484957
 20
404.5195746508
 30
0.0
 11
225.8297484957
 21
404.5665617373
 31
0.0
  0
LINE
  5
1E6
330
1F
100
AcDbEntity
  8
0
  6
Continuous
 62
     7
370
    15
100
AcDbLine
 10
225.2297383391
 20
398.9833052542
 30
0.0
 11
225.2297383391
 21
404.5665617373
 31
0.0
  0
LINE
  5
1E7
330
1F
100
AcDbEntity
  8
0
  6
Continuous
 62
     7
370
    15
100
AcDbLine
 10
330.7297435247
 20
441.7340996947
 30
0.0
 11
335.7297424816
 21
441.7340996947
 31
0.0
  0
LINE
  5
1E8
330
1F
100
AcDbEntity
  8
0
  6
Continuous
 62
     7
370
    15
100
AcDbLine
 10
322.7297422134
 20
441.7340996947
 30
0.0
 11
327.7297448956
 21
441.7340996947
 31
0.0
  0
LINE
  5
1E9
330
1F
100
AcDbEntity
  8
0
  6
Continuous
 62
     7
370
    15
100
AcDbLine
 10
314.7297446274
 20
441.7340996947
 30
0.0
 11
319.7297435843
 21
441.7340996947
 31
0.0
  0
LINE
  5
1EA
330
1F
100
AcDbEntity
  8
0
  6
Continuous
 62
     7
370
    15
100
AcDbLine
 10
290.7297444188
 20
441.7340996947
 30
0.0
 11
295.729747101
 21
441.7340996947
 31
0.0
  0
LINE
  5
1EB
330
1F
100
AcDbEntity
  8
0
  6
Continuous
 62
     7
370
    15
100
AcDbLine
 10
266.7297404849
 20
441.7340996947
 30
0.0
 11
271.7297431671
 21
441.7340996947
 31
0.0
  0
LINE
  5
1EC
330
1F
100
AcDbEntity
  8
0
  6
Continuous
 62
     7
370
    15
100
AcDbLine
 10
258.7297466242
 20
441.7340996947
 30
0.0
 11
263.7297418558
 21
441.7340996947
 31
0.0
  0
LINE
  5
1ED
330
1F
100
AcDbEntity
  8
0
  6
Continuous
 62
     7
370
    15
100
AcDbLine
 10
250.7297453129
 20
441.7340996947
 30
0.0
 11
255.7297405445
 21
441.7340996947
 31
0.0
  0
LINE
  5
1EE
330
1F
100
AcDbEntity
  8
0
  6
Continuous
 62
     7
370
    15
100
AcDbLine
 10
338.729744836
 20
441.7340996947
 30
0.0
 11
343.7297437929
 21
441.7340996947
 31
0.0
  0
LINE
  5
1EF
330
1F
100
AcDbEntity
  8
0
  6
Continuous
 62
     7
370
    15
100
AcDbLine
 10
234.7297501408
 20
441.7340996947
 30
0.0
 11
239.7297453725
 21
441.7340996947
 31
0.0
  0
LINE
  5
1F0
330
1F
100
AcDbEntity
  8
0
  6
Continuous
 62
     7
370
    15
100
AcDbLine
 10
482.7297460877
 20
441.7340996947
 30
0.0
 11
487.7297413193
 21
441.7340996947
 31
0.0
  0
LINE
  5
1F1
330
1F
100
AcDbEntity
  8
0
  6
Continuous
 62
     7
370
    15
100
AcDbLine
 10
282.7297431075
 20
441.7340996947
 30
0.0
 11
287.7297457897
 21
441.7340996947
 31
0.0
  0
LINE
  5
1F2
330
1F
100
AcDbEntity
  8
0
  6
Continuous
 62
     7
370
    15
100
AcDbLine
 10
466.7297434651
 20
441.7340996947
 30
0.0
 11
471.7297461473
 21
441.7340996947
 31
0.0
  0
LINE
  5
1F3
330
1F
100
AcDbEntity
  8
0
  6
Continuous
 62
     7
370
    15
100
AcDbLine
 10
458.7297421538
 20
441.7340996947
 30
0.0
 11
463.729744836
 21
441.7340996947
 31
0.0
  0
LINE
  5
1F4
330
1F
100
AcDbEntity
  8
0
  6
Continuous
 62
     7
370
    15
100
AcDbLine
 10
450.7297408425
 20
441.7340996947
 30
0.0
 11
455.7297435247
 21
441.7340996947
 31
0.0
  0
LINE
  5
1F5
330
1F
100
AcDbEntity
  8
0
  6
Continuous
 62
     7
370
    15
100
AcDbLine
 10
442.7297469818
 20
441.7340996947
 30
0.0
 11
447.7297422134
 21
441.7340996947
 31
0.0
  0
LINE
  5
1F6
330
1F
100
AcDbEntity
  8
0
  6
Continuous
 62
     7
370
    15
100
AcDbLine
 10
242.729736551
 20
441.7340996947
 30
0.0
 11
247.7297466838
 21
441.7340996947
 31
0.0
  0
LINE
  5
1F7
330
1F
100
AcDbEntity
  8
0
  6
Continuous
 62
     7
370
    15
100
AcDbLine
 10
426.7297443592
 20
441.7340996947
 30
0.0
 11
431.7297433161
 21
441.7340996947
 31
0.0
  0
LINE
  5
1F8
330
1F
100
AcDbEntity
  8
0
  6
Continuous
 62
     7
370
    15
100
AcDbLine
 10
418.7297430479
 20
441.7340996947
 30
0.0
 11
423.7297420048
 21
441.7340996947
 31
0.0
  0
LINE
  5
1F9
330
1F
100
AcDbEntity
  8
0
  6
Continuous
 62
     7
370
    15
100
AcDbLine
 10
410.7297417366
 20
441.7340996947
 30
0.0
 11
415.7297444188
 21
441.7340996947
 31
0.0
  0
LINE
  5
1FA
330
1F
100
AcDbEntity
  8
0
  6
Continuous
 62
     7
370
    15
100
AcDbLine
 10
274.7297417962
 20
441.7340996947
 30
0.0
 11
279.7297444784
 21
441.7340996947
 31
0.0
  0
LINE
  5
1FB
330
1F
100
AcDbEntity
  8
0
  6
Continuous
 62
     7
370
    15
100
AcDbLine
 10
394.7297428393
 20
441.7340996947
 30
0.0
 11
399.7297436588
 21
441.7340996947
 31
0.0
  0
LINE
  5
1FC
330
1F
100
AcDbEntity
  8
0
  6
Continuous
 62
     7
370
    15
100
AcDbLine
 10
386.7297433906
 20
441.7340996947
 30
0.0
 11
391.7297442102
 21
441.7340996947
 31
0.0
  0
LINE
  5
1FD
330
1F
100
AcDbEntity
  8
0
  6
Continuous
 62
     7
370
    15
100
AcDbLine
 10
378.7297434763
 20
441.7340996947
 30
0.0
 11
383.7297438302
 21
441.7340996947
 31
0.0
  0
LINE
  5
1FE
330
1F
100
AcDbEntity
  8
0
  6
Continuous
 62
     7
370
    15
100
AcDbLine
 10
370.729743562
 20
441.7340996947
 30
0.0
 11
375.7297435666
 21
441.7340996947
 31
0.0
  0
LINE
  5
1FF
330
1F
100
AcDbEntity
  8
0
  6
Continuous
 62
     7
370
    15
100
AcDbLine
 10
362.729743182
 20
441.7340996947
 30
0.0
 11
367.7297435359
 21
441.7340996947
 31
0.0
  0
LINE
  5
200
330
1F
100
AcDbEntity
  8
0
  6
Continuous
 62
     7
370
    15
100
AcDbLine
 10
354.7297437333
 20
441.7340996947
 30
0.0
 11
359.7297436216
 21
441.7340996947
 31
0.0
  0
LINE
  5
201
330
1F
100
AcDbEntity
  8
0
  6
Continuous
 62
     7
370
    15
100
AcDbLine
 10
346.7297442847
 20
441.7340996947
 30
0.0
 11
351.7297432416
 21
441.7340996947
 31
0.0
  0
LINE
  5
202
330
1F
100
AcDbEntity
  8
0
  6
Continuous
 62
     7
370
    15
100
AcDbLine
 10
530.7297390544
 20
441.7340996947
 30
0.0
 11
535.7297491872
 21
441.7340996947
 31
0.0
  0
LINE
  5
203
330
1F
100
AcDbEntity
  8
0
  6
Continuous
 62
     7
370
    15
100
AcDbLine
 10
522.7297377431
 20
441.7340996947
 30
0.0
 11
527.7297478759
 21
441.7340996947
 31
0.0
  0
LINE
  5
204
330
1F
100
AcDbEntity
  8
0
  6
Continuous
 62
     7
370
    15
100
AcDbLine
 10
514.7297364318
 20
441.7340996947
 30
0.0
 11
519.7297465646
 21
441.7340996947
 31
0.0
  0
LINE
  5
205
330
1F
100
AcDbEntity
  8
0
  6
Continuous
 62
     7
370
    15
100
AcDbLine
 10
506.7297500216
 20
441.7340996947
 30
0.0
 11
511.7297452532
 21
441.7340996947
 31
0.0
  0
LINE
  5
206
330
1F
100
AcDbEntity
  8
0
  6
Continuous
 62
     7
370
    15
100
AcDbLine
 10
306.7297470414
 20
441.7340996947
 30
0.0
 11
311.729742273
 21
441.7340996947
 31
0.0
  0
LINE
  5
207
330
1F
100
AcDbEntity
  8
0
  6
Continuous
 62
     7
370
    15
100
AcDbLine
 10
298.7297457301
 20
441.7340996947
 30
0.0
 11
303.7297409617
 21
441.7340996947
 31
0.0
  0
LINE
  5
208
330
1F
100
AcDbEntity
  8
0
  6
Continuous
 62
     7
370
    15
100
AcDbLine
 10
546.729741677
 20
441.7340996947
 30
0.0
 11
551.7297369086
 21
441.7340996947
 31
0.0
  0
LINE
  5
209
330
1F
100
AcDbEntity
  8
0
  6
Continuous
 62
     7
370
    15
100
AcDbLine
 10
538.7297403657
 20
441.7340996947
 30
0.0
 11
543.7297504985
 21
441.7340996947
 31
0.0
  0
LINE
  5
20A
330
1F
100
AcDbEntity
  8
0
  6
Continuous
 62
     7
370
    15
100
AcDbLine
 10
402.7297441506
 20
441.7340996947
 30
0.0
 11
407.7297431075
 21
441.7340996947
 31
0.0
  0
LINE
  5
20B
330
1F
100
AcDbEntity
  8
0
  6
Continuous
 62
     7
370
    15
100
AcDbLine
 10
490.7297399484
 20
441.7340996947
 30
0.0
 11
495.7297426306
 21
441.7340996947
 31
0.0
  0
LINE
  5
20C
330
1F
100
AcDbEntity
  8
0
  6
Continuous
 62
     7
370
    15
100
AcDbLine
 10
498.7297412597
 20
441.7340996947
 30
0.0
 11
503.7297439419
 21
441.7340996947
 31
0.0
  0
LINE
  5
20D
330
1F
100
AcDbEntity
  8
0
  6
Continuous
 62
     7
370
    15
100
AcDbLine
 10
474.7297447764
 20
441.7340996947
 30
0.0
 11
479.729740008
 21
441.7340996947
 31
0.0
  0
LINE
  5
20E
330
1F
100
AcDbEntity
  8
0
  6
Continuous
 62
     7
370
    15
100
AcDbLine
 10
434.7297419452
 20
441.7340996947
 30
0.0
 11
439.7297409021
 21
441.7340996947
 31
0.0
  0
LINE
  5
20F
330
1F
100
AcDbEntity
  8
0
  6
Continuous
 62
     7
370
    15
100
AcDbLine
 10
554.7297429883
 20
441.7340996947
 30
0.0
 11
559.7297382199
 21
441.7340996947
 31
0.0
  0
LINE
  5
210
330
1F
100
AcDbEntity
  8
0
  6
Continuous
 62
     7
370
    15
100
AcDbLine
 10
568.004740461
 20
450.2446445909
 30
0.0
 11
568.004740461
 21
451.2780103173
 31
0.0
  0
LINE
  5
211
330
1F
100
AcDbEntity
  8
0
  6
Continuous
 62
     7
370
    15
100
AcDbLine
 10
226.4547478997
 20
451.2780103173
 30
0.0
 11
226.4547478997
 21
450.2446445909
 31
0.0
  0
LINE
  5
212
330
1F
100
AcDbEntity
  8
0
  6
Continuous
 62
     7
370
    15
100
AcDbLine
 10
568.004740461
 20
451.2780103173
 30
0.0
 11
226.4547478997
 21
451.2780103173
 31
0.0
  0
LINE
  5
213
330
1F
100
AcDbEntity
  8
0
  6
Continuous
 62
     7
370
    15
100
AcDbLine
 10
569.2297500216
 20
450.6280142155
 30
0.0
 11
568.629739865
 21
450.6280142155
 31
0.0
  0
LINE
  5
214
330
1F
100
AcDbEntity
  8
0
  6
Continuous
 62
     7
370
    15
100
AcDbLine
 10
569.2297500216
 20
450.0530156579
 30
0.0
 11
569.2297500216
 21
450.6280142155
 31
0.0
  0
LINE
  5
215
330
1F
100
AcDbEntity
  8
0
  6
Continuous
 62
     7
370
    15
100
AcDbLine
 10
568.629739865
 20
450.2178225007
 30
0.0
 11
568.629739865
 21
450.6280142155
 31
0.0
  0
LINE
  5
216
330
1F
100
AcDbEntity
  8
0
  6
Continuous
 62
     7
370
    15
100
AcDbLine
 10
568.629739865
 20
450.6780150619
 30
0.0
 11
568.629739865
 21
451.2780103173
 31
0.0
  0
LINE
  5
217
330
1F
100
AcDbEntity
  8
0
  6
Continuous
 62
     7
370
    15
100
AcDbLine
 10
568.629739865
 20
451.2780103173
 30
0.0
 11
568.004740461
 21
451.2780103173
 31
0.0
  0
LINE
  5
218
330
1F
100
AcDbEntity
  8
0
  6
Continuous
 62
     7
370
    15
100
AcDbLine
 10
568.004740461
 20
450.6780150619
 30
0.0
 11
568.629739865
 21
450.6780150619
 31
0.0
  0
LINE
  5
219
330
1F
100
AcDbEntity
  8
0
  6
Continuous
 62
     7
370
    15
100
AcDbLine
 10
225.8297484957
 20
450.6780150619
 30
0.0
 11
225.8297484957
 21
451.2780103173
 31
0.0
  0
LINE
  5
21A
330
1F
100
AcDbEntity
  8
0
  6
Continuous
 62
     7
370
    15
100
AcDbLine
 10
225.8297484957
 20
451.2780103173
 30
0.0
 11
226.4547478997
 21
451.2780103173
 31
0.0
  0
LINE
  5
21B
330
1F
100
AcDbEntity
  8
0
  6
Continuous
 62
     7
370
    15
100
AcDbLine
 10
225.8297484957
 20
450.6780150619
 30
0.0
 11
226.4547478997
 21
450.6780150619
 31
0.0
  0
LINE
  5
21C
330
1F
100
AcDbEntity
  8
0
  6
Continuous
 62
     7
370
    15
100
AcDbLine
 10
225.2297383391
 20
450.6280142155
 30
0.0
 11
225.8297484957
 21
450.6280142155
 31
0.0
  0
LINE
  5
21D
330
1F
100
AcDbEntity
  8
0
  6
Continuous
 62
     7
370
    15
100
AcDbLine
 10
225.8297484957
 20
450.2178225007
 30
0.0
 11
225.8297484957
 21
450.6280142155
 31
0.0
  0
LINE
  5
21E
330
1F
100
AcDbEntity
  8
0
  6
Continuous
 62
     7
370
    15
100
AcDbLine
 10
225.2297383391
 20
450.0530156579
 30
0.0
 11
225.2297383391
 21
450.6280142155
 31
0.0
  0
LINE
  5
21F
330
1F
100
AcDbEntity
  8
0
  6
Continuous
 62
     7
370
    15
100
AcDbLine
 10
226.4547478997
 20
451.9030097213
 30
0.0
 11
226.4547478997
 21
451.2780103173
 31
0.0
  0
LINE
  5
220
330
1F
100
AcDbEntity
  8
0
  6
Continuous
 62
     7
370
    15
100
AcDbLine
 10
568.004740461
 20
451.2780103173
 30
0.0
 11
568.004740461
 21
451.9030097213
 31
0.0
  0
LINE
  5
221
330
1F
100
AcDbEntity
  8
0
  6
Continuous
 62
     7
370
    15
100
AcDbLine
 10
568.004740461
 20
398.3999136176
 30
0.0
 11
568.004740461
 21
398.9872205343
 31
0.0
  0
LINE
  5
222
330
1F
100
AcDbEntity
  8
0
  6
Continuous
 62
     7
370
    15
100
AcDbLine
 10
226.4547478997
 20
398.9872205343
 30
0.0
 11
226.4547478997
 21
398.3999136176
 31
0.0
  0
LINE
  5
223
330
1F
100
AcDbEntity
  8
0
  6
Continuous
 62
     7
370
    15
100
AcDbLine
 10
568.5943943106
 20
476.7780098405
 30
0.0
 11
568.5943943106
 21
476.178014585
 31
0.0
  0
SPLINE
  5
224
330
1F
100
AcDbEntity
  8
0
  6
Continuous
 62
     7
370
    15
100
AcDbSpline
210
0.0
220
0.0
230
1.0
 70
     8
 71
     3
 72
    11
 73
     7
 74
     0
 42
0.00000001
 43
0.00000001
 40
0.0
 40
0.0
 40
0.0
 40
0.0
 40
0.2500044524094457
 40
0.5000037990746017
 40
0.7500010340394768
 40
1.0
 40
1.0
 40
1.0
 40
1.0
 10
568.594394310637
 20
476.1780145850192
 30
0.0
 10
568.5452559246694
 20
476.1686180333861
 30
0.0
 10
568.4469801562686
 20
476.149825122022
 30
0.0
 10
568.2995552420848
 20
476.0053005130039
 30
0.0
 10
568.152162055679
 20
475.7986997117276
 30
0.0
 10
568.0538811059998
 20
475.6349102136336
 30
0.0
 10
568.0047404610352
 20
475.5530151810656
 30
0.0
  0
SPLINE
  5
225
330
1F
100
AcDbEntity
  8
0
  6
Continuous
 62
     7
370
    15
100
AcDbSpline
210
0.0
220
0.0
230
1.0
 70
     8
 71
     3
 72
    11
 73
     7
 74
     0
 42
0.00000001
 43
0.00000001
 40
0.0
 40
0.0
 40
0.0
 40
0.0
 40
0.2499958844165
 40
0.500001473184083
 40
0.7499999312195671
 40
1.0
 40
1.0
 40
1.0
 40
1.0
 10
568.594394310637
 20
476.7780098404895
 30
0.0
 10
568.5452550748861
 20
476.7595961604316
 30
0.0
 10
568.4469746958953
 20
476.7227680855328
 30
0.0
 10
568.2995576927653
 20
476.4395001265001
 30
0.0
 10
568.1521617309636
 20
476.0345678621744
 30
0.0
 10
568.0538809898817
 20
475.713533086173
 30
0.0
 10
568.0047404610352
 20
475.5530151810656
 30
0.0
  0
SPLINE
  5
226
330
1F
100
AcDbEntity
  8
0
  6
Continuous
 62
     7
370
    15
100
AcDbSpline
210
0.0
220
0.0
230
1.0
 70
     8
 71
     3
 72
    12
 73
     8
 74
     0
 42
0.00000001
 43
0.00000001
 40
0.0
 40
0.0
 40
0.0
 40
0.0
 40
0.3430637194613385
 40
0.5597585758553714
 40
0.7414551389261496
 40
0.9240556824227065
 40
0.9999999999999999
 40
0.9999999999999999
 40
0.9999999999999999
 40
0.9999999999999999
 10
568.0047404610352
 20
475.5530151810656
 30
0.0
 10
568.1000808721393
 20
475.6479995737276
 30
0.0
 10
568.2556426809626
 20
475.8029804864527
 30
0.0
 10
568.4459582749813
 20
475.9830509605716
 30
0.0
 10
568.5691956591498
 20
476.0848456935313
 30
0.0
 10
568.6241333248533
 20
476.1310397197529
 30
0.0
 10
568.6284669243624
 20
476.1400171281349
 30
0.0
 10
568.6297398649888
 20
476.1426541295062
 30
0.0
  0
LINE
  5
227
330
1F
100
AcDbEntity
  8
0
  6
Continuous
 62
     7
370
    15
100
AcDbLine
 10
569.2297500216
 20
476.1426541295
 30
0.0
 11
568.629739865
 21
476.1426541295
 31
0.0
  0
SPLINE
  5
228
330
1F
100
AcDbEntity
  8
0
  6
Continuous
 62
     7
370
    15
100
AcDbSpline
210
0.0
220
0.0
230
1.0
 70
     8
 71
     3
 72
    12
 73
     8
 74
     0
 42
0.00000001
 43
0.00000001
 40
0.0
 40
0.0
 40
0.0
 40
0.0
 40
0.2535077373464513
 40
0.5056325833492124
 40
0.7302913916095443
 40
0.9332251151953397
 40
1.0
 40
1.0
 40
1.0
 40
1.0
 10
568.0047404610352
 20
475.5530151810656
 30
0.0
 10
568.1579582206214
 20
475.6303755283519
 30
0.0
 10
568.4635579329038
 20
475.7846742202047
 30
0.0
 10
568.8578653818171
 20
475.9793872654375
 30
0.0
 10
569.125919687011
 20
476.0907021407197
 30
0.0
 10
569.2220205551921
 20
476.132979818627
 30
0.0
 10
569.2282161150816
 20
476.1407342701146
 30
0.0
 10
569.2297500216202
 20
476.1426541295062
 30
0.0
  0
CIRCLE
  5
229
330
1F
100
AcDbEntity
  8
0
  6
Continuous
 62
     7
370
    15
100
AcDbCircle
 10
455.9797435677
 20
457.1280121866
 30
0.0
 40
3.25
  0
CIRCLE
  5
22A
330
1F
100
AcDbEntity
  8
0
  6
Continuous
 62
     7
370
    15
100
AcDbCircle
 10
430.9797435677
 20
457.1280121866
 30
0.0
 40
3.25
  0
CIRCLE
  5
22B
330
1F
100
AcDbEntity
  8
0
  6
Continuous
 62
     7
370
    15
100
AcDbCircle
 10
405.9797435677
 20
457.1280121866
 30
0.0
 40
3.250000000000057
  0
CIRCLE
  5
22C
330
1F
100
AcDbEntity
  8
0
  6
Continuous
 62
     7
370
    15
100
AcDbCircle
 10
309.9797435677
 20
457.1280121866
 30
0.0
 40
3.250000000000057
  0
CIRCLE
  5
22D
330
1F
100
AcDbEntity
  8
0
  6
Continuous
 62
     7
370
    15
100
AcDbCircle
 10
284.9797435677
 20
457.1280121866
 30
0.0
 40
3.25
  0
CIRCLE
  5
22E
330
1F
100
AcDbEntity
  8
0
  6
Continuous
 62
     7
370
    15
100
AcDbCircle
 10
272.4797435677
 20
457.1280121866
 30
0.0
 40
3.25
  0
CIRCLE
  5
22F
330
1F
100
AcDbEntity
  8
0
  6
Continuous
 62
     7
370
    15
100
AcDbCircle
 10
297.4797435677
 20
457.1280121866
 30
0.0
 40
3.25
  0
CIRCLE
  5
230
330
1F
100
AcDbEntity
  8
0
  6
Continuous
 62
     7
370
    15
100
AcDbCircle
 10
322.4797435677
 20
457.1280121866
 30
0.0
 40
3.25
  0
CIRCLE
  5
231
330
1F
100
AcDbEntity
  8
0
  6
Continuous
 62
     7
370
    15
100
AcDbCircle
 10
418.4797435677
 20
457.1280121866
 30
0.0
 40
3.25
  0
CIRCLE
  5
232
330
1F
100
AcDbEntity
  8
0
  6
Continuous
 62
     7
370
    15
100
AcDbCircle
 10
443.4797435677
 20
457.1280121866
 30
0.0
 40
3.250000000000057
  0
SPLINE
  5
233
330
1F
100
AcDbEntity
  8
0
  6
Continuous
 62
     7
370
    15
100
AcDbSpline
210
0.0
220
0.0
230
1.0
 70
     8
 71
     3
 72
    11
 73
     7
 74
     0
 42
0.00000001
 43
0.00000001
 40
0.0
 40
0.0
 40
0.0
 40
0.0
 40
0.250000068780433
 40
0.4999985268159172
 40
0.7500041155835
 40
1.0
 40
1.0
 40
1.0
 40
1.0
 10
226.4547478996949
 20
475.5530151810656
 30
0.0
 10
226.4056073708483
 20
475.713533086173
 30
0.0
 10
226.3073266297664
 20
476.0345678621743
 30
0.0
 10
226.1599306679647
 20
476.4395001265001
 30
0.0
 10
226.0125136648347
 20
476.7227680855327
 30
0.0
 10
225.914233285844
 20
476.7595961604316
 30
0.0
 10
225.8650940500931
 20
476.7780098404895
 30
0.0
  0
LINE
  5
234
330
1F
100
AcDbEntity
  8
0
  6
Continuous
 62
     7
370
    15
100
AcDbLine
 10
568.5943943106
 20
476.7780098405
 30
0.0
 11
225.8650940501
 21
476.7780098405
 31
0.0
  0
LINE
  5
235
330
1F
100
AcDbEntity
  8
0
  6
Continuous
 62
     7
370
    15
100
AcDbLine
 10
569.2297500216
 20
476.1426541295
 30
0.0
 11
569.2297500216
 21
451.9030097213
 31
0.0
  0
LINE
  5
236
330
1F
100
AcDbEntity
  8
0
  6
Continuous
 62
     7
370
    15
100
AcDbLine
 10
569.2297500216
 20
451.9030097213
 30
0.0
 11
568.004740461
 21
451.9030097213
 31
0.0
  0
LINE
  5
237
330
1F
100
AcDbEntity
  8
0
  6
Continuous
 62
     7
370
    15
100
AcDbLine
 10
226.4547478997
 20
451.9030097213
 30
0.0
 11
225.2297383391
 21
451.9030097213
 31
0.0
  0
LINE
  5
238
330
1F
100
AcDbEntity
  8
0
  6
Continuous
 62
     7
370
    15
100
AcDbLine
 10
225.2297383391
 20
476.1426541295
 30
0.0
 11
225.2297383391
 21
451.9030097213
 31
0.0
  0
SPLINE
  5
239
330
1F
100
AcDbEntity
  8
0
  6
Continuous
 62
     7
370
    15
100
AcDbSpline
210
0.0
220
0.0
230
1.0
 70
     8
 71
     3
 72
    12
 73
     8
 74
     0
 42
0.00000001
 43
0.00000001
 40
0.0
 40
0.0
 40
0.0
 40
0.0
 40
0.1940863720539946
 40
0.3883166865067067
 40
0.586544106443303
 40
0.7945536846601227
 40
1.0
 40
1.0
 40
1.0
 40
1.0
 10
225.2297383391098
 20
476.1426541295062
 30
0.0
 10
225.2421383216159
 20
476.1345660534221
 30
0.0
 10
225.2669474829627
 20
476.1183839028057
 30
0.0
 10
225.4579085505412
 20
476.0393275342471
 30
0.0
 10
225.7380227971459
 20
475.9154347097652
 30
0.0
 10
226.080553631234
 20
475.7409327910459
 30
0.0
 10
226.3305330680599
 20
475.6153949560978
 30
0.0
 10
226.4547478996949
 20
475.5530151810656
 30
0.0
  0
SPLINE
  5
23A
330
1F
100
AcDbEntity
  8
0
  6
Continuous
 62
     7
370
    15
100
AcDbSpline
210
0.0
220
0.0
230
1.0
 70
     8
 71
     3
 72
    12
 73
     8
 74
     0
 42
0.00000001
 43
0.00000001
 40
0.0
 40
0.0
 40
0.0
 40
0.0
 40
0.1589063245186388
 40
0.3174961474099028
 40
0.4844578532846092
 40
0.7326372663193765
 40
0.9999999999999999
 40
0.9999999999999999
 40
0.9999999999999999
 40
0.9999999999999999
 10
225.8297484957413
 20
476.1426541295062
 30
0.0
 10
225.8352187208956
 20
476.1354057911873
 30
0.0
 10
225.8461482758848
 20
476.1209235514253
 30
0.0
 10
225.9272431606815
 20
476.0546472869012
 30
0.0
 10
226.0577296153039
 20
475.9440858537725
 30
0.0
 10
226.2370460307934
 20
475.7678625504187
 30
0.0
 10
226.3804025120822
 20
475.6263857544682
 30
0.0
 10
226.4547478996949
 20
475.5530151810656
 30
0.0
  0
LWPOLYLINE
  5
23B
330
1F
100
AcDbEntity
  8
0
  6
Continuous
 62
     7
370
    15
100
AcDbPolyline
 90
        2
 70
   128
 43
0.0
 10
226.4547478997
 20
475.5530151811
 10
226.4547478997
 20
475.5530151811
  0
LINE
  5
23C
330
1F
100
AcDbEntity
  8
0
  6
Continuous
 62
     7
370
    15
100
AcDbLine
 10
225.2297383391
 20
476.1426541295
 30
0.0
 11
225.8297484957
 21
476.1426541295
 31
0.0
  0
SPLINE
  5
23D
330
1F
100
AcDbEntity
  8
0
  6
Continuous
 62
     7
370
    15
100
AcDbSpline
210
0.0
220
0.0
230
1.0
 70
     8
 71
     3
 72
    11
 73
     7
 74
     0
 42
0.00000001
 43
0.00000001
 40
0.0
 40
0.0
 40
0.0
 40
0.0
 40
0.2499989659605231
 40
0.4999962009253983
 40
0.7499955475905542
 40
1.0
 40
1.0
 40
1.0
 40
1.0
 10
226.4547478996949
 20
475.5530151810656
 30
0.0
 10
226.4056072547301
 20
475.6349102136337
 30
0.0
 10
226.3073263050511
 20
475.7986997117275
 30
0.0
 10
226.1599331186452
 20
476.005300513004
 30
0.0
 10
226.0125082044615
 20
476.149825122022
 30
0.0
 10
225.9142324360606
 20
476.1686180333861
 30
0.0
 10
225.8650940500931
 20
476.1780145850192
 30
0.0
  0
LINE
  5
23E
330
1F
100
AcDbEntity
  8
0
  6
Continuous
 62
     7
370
    15
100
AcDbLine
 10
225.8650940501
 20
476.178014585
 30
0.0
 11
225.8650940501
 21
476.7780098405
 31
0.0
  0
SPLINE
  5
23F
330
1F
100
AcDbEntity
  8
0
  6
Continuous
 62
     7
370
    15
100
AcDbSpline
210
0.0
220
0.0
230
1.0
 70
     8
 71
     3
 72
    12
 73
     8
 74
     0
 42
0.00000001
 43
0.00000001
 40
0.0
 40
0.0
 40
0.0
 40
0.0
 40
0.2535115155368639
 40
0.5056291613965656
 40
0.7302924576054329
 40
0.9332179721164576
 40
1.0
 40
1.0
 40
1.0
 40
1.0
 10
226.4547478996949
 20
237.0010483350764
 30
0.0
 10
226.3015241226632
 20
236.9236888768774
 30
0.0
 10
225.995919031224
 20
236.7693953021165
 30
0.0
 10
225.6016166339789
 20
236.5746715009385
 30
0.0
 10
225.3335760574526
 20
236.463362598423
 30
0.0
 10
225.237465351859
 20
236.4210888150817
 30
0.0
 10
225.2312718950546
 20
236.4133244605029
 30
0.0
 10
225.2297383391098
 20
236.4114019360553
 30
0.0
  0
LINE
  5
240
330
1F
100
AcDbEntity
  8
0
  6
Continuous
 62
     7
370
    15
100
AcDbLine
 10
225.2297383391
 20
236.4114019361
 30
0.0
 11
225.2297383391
 21
398.3999136176
 31
0.0
  0
LINE
  5
241
330
1F
100
AcDbEntity
  8
0
  6
Continuous
 62
     7
370
    15
100
AcDbLine
 10
225.2297383391
 20
398.3999136176
 30
0.0
 11
226.4547478997
 21
398.3999136176
 31
0.0
  0
SPLINE
  5
242
330
1F
100
AcDbEntity
  8
0
  6
Continuous
 62
     7
370
    15
100
AcDbSpline
210
0.0
220
0.0
230
1.0
 70
     8
 71
     3
 72
    11
 73
     7
 74
     0
 42
0.00000001
 43
0.00000001
 40
0.0
 40
0.0
 40
0.0
 40
0.0
 40
0.2500009427213303
 40
0.5000013631429351
 40
0.7500025474053317
 40
1.0
 40
1.0
 40
1.0
 40
1.0
 10
225.8650940500931
 20
235.7760536756526
 30
0.0
 10
225.9142326178488
 20
235.7944618899991
 30
0.0
 10
226.0125096507003
 20
235.8312782802339
 30
0.0
 10
226.1599342053129
 20
236.1145741142827
 30
0.0
 10
226.3073242957732
 20
236.5194885131256
 30
0.0
 10
226.4056069428937
 20
236.8405291931064
 30
0.0
 10
226.4547478996949
 20
237.0010483350764
 30
0.0
  0
SPLINE
  5
243
330
1F
100
AcDbEntity
  8
0
  6
Continuous
 62
     7
370
    15
100
AcDbSpline
210
0.0
220
0.0
230
1.0
 70
     8
 71
     3
 72
    12
 73
     8
 74
     0
 42
0.00000001
 43
0.00000001
 40
0.0
 40
0.0
 40
0.0
 40
0.0
 40
0.224574706678914
 40
0.449189092449297
 40
0.6738041255964017
 40
0.8984178112376086
 40
1.0
 40
1.0
 40
1.0
 40
1.0
 10
568.0047404610352
 20
237.0010483350764
 30
0.0
 10
568.0488953806816
 20
236.856987562007
 30
0.0
 10
568.137213021508
 20
236.5688405624201
 30
0.0
 10
568.2697329033997
 20
236.1894363207027
 30
0.0
 10
568.4021412511257
 20
235.9118748308075
 30
0.0
 10
568.5106566891183
 20
235.7892238323669
 30
0.0
 10
568.5745095815962
 20
235.779181122945
 30
0.0
 10
568.594394310637
 20
235.7760536756526
 30
0.0
  0
LINE
  5
244
330
1F
100
AcDbEntity
  8
0
  6
Continuous
 62
     7
370
    15
100
AcDbLine
 10
225.8650940501
 20
235.7760536757
 30
0.0
 11
568.5943943106
 21
235.7760536757
 31
0.0
  0
SPLINE
  5
245
330
1F
100
AcDbEntity
  8
0
  6
Continuous
 62
     7
370
    15
100
AcDbSpline
210
0.0
220
0.0
230
1.0
 70
     8
 71
     3
 72
    12
 73
     8
 74
     0
 42
0.00000001
 43
0.00000001
 40
0.0
 40
0.0
 40
0.0
 40
0.0
 40
0.3430626304388654
 40
0.5597567989561132
 40
0.7414435412774737
 40
0.9240552433151695
 40
1.0
 40
1.0
 40
1.0
 40
1.0
 10
226.4547478996949
 20
237.0010483350764
 30
0.0
 10
226.3594070212411
 20
236.9060634518952
 30
0.0
 10
226.2038444498683
 20
236.7510817388163
 30
0.0
 10
226.0135351627025
 20
236.5710176388598
 30
0.0
 10
225.8902854863051
 20
236.4692098410652
 30
0.0
 10
225.8353560273328
 20
236.4230300930349
 30
0.0
 10
225.8310216230207
 20
236.4140419789365
 30
0.0
 10
225.8297484957413
 20
236.4114019360553
 30
0.0
  0
LINE
  5
246
330
1F
100
AcDbEntity
  8
0
  6
Continuous
 62
     7
370
    15
100
AcDbLine
 10
225.2297383391
 20
236.4114019361
 30
0.0
 11
225.8297484957
 21
236.4114019361
 31
0.0
  0
LINE
  5
247
330
1F
100
AcDbEntity
  8
0
  6
Continuous
 62
     7
370
    15
100
AcDbLine
 10
225.8650940501
 20
235.7760536757
 30
0.0
 11
225.8650940501
 21
236.3760489311
 31
0.0
  0
SPLINE
  5
248
330
1F
100
AcDbEntity
  8
0
  6
Continuous
 62
     7
370
    15
100
AcDbSpline
210
0.0
220
0.0
230
1.0
 70
     8
 71
     3
 72
    11
 73
     7
 74
     0
 42
0.00000001
 43
0.00000001
 40
0.0
 40
0.0
 40
0.0
 40
0.0
 40
0.2500042436289397
 40
0.5000033815178534
 40
0.7499957563710604
 40
1.0
 40
1.0
 40
1.0
 40
1.0
 10
225.8650940500931
 20
236.3760489311229
 30
0.0
 10
225.9142325369434
 20
236.3854453713456
 30
0.0
 10
226.0125085071078
 20
236.4042380598912
 30
0.0
 10
226.1599309938057
 20
236.5487634436966
 30
0.0
 10
226.3073300946516
 20
236.7553575474533
 30
0.0
 10
226.4056078537174
 20
236.9191501098485
 30
0.0
 10
226.4547478996949
 20
237.0010483350764
 30
0.0
  0
SPLINE
  5
249
330
1F
100
AcDbEntity
  8
0
  6
Continuous
 62
     7
370
    15
100
AcDbSpline
210
0.0
220
0.0
230
1.0
 70
     8
 71
     3
 72
    13
 73
     9
 74
     0
 42
0.00000001
 43
0.00000001
 40
0.0
 40
0.0
 40
0.0
 40
0.0
 40
0.1199043949003857
 40
0.2404153561235751
 40
0.36390091534571
 40
0.4925458475878615
 40
0.7155899829130704
 40
1.0
 40
1.0
 40
1.0
 40
1.0
 10
568.6297398649888
 20
236.4114019360553
 30
0.0
 10
568.6266648422886
 20
236.4162378350088
 30
0.0
 10
568.6204992411185
 20
236.4259340965181
 30
0.0
 10
568.5729995268687
 20
236.465855505707
 30
0.0
 10
568.5027827647028
 20
236.5243288865822
 30
0.0
 10
568.3913180092594
 20
236.6203081300944
 30
0.0
 10
568.2254205333184
 20
236.7831630123911
 30
0.0
 10
568.0840010533769
 20
236.9227915194068
 30
0.0
 10
568.0047404610352
 20
237.0010483350764
 30
0.0
  0
SPLINE
  5
24A
330
1F
100
AcDbEntity
  8
0
  6
Continuous
 62
     7
370
    15
100
AcDbSpline
210
0.0
220
0.0
230
1.0
 70
     8
 71
     3
 72
    13
 73
     9
 74
     0
 42
0.00000001
 43
0.00000001
 40
0.0
 40
0.0
 40
0.0
 40
0.0
 40
0.1349788458422585
 40
0.2677699038604416
 40
0.3991330780254245
 40
0.5298518076129938
 40
0.7417577640653894
 40
1.0
 40
1.0
 40
1.0
 40
1.0
 10
569.2297500216202
 20
236.4114019360553
 30
0.0
 10
569.2238202461926
 20
236.416192999589
 30
0.0
 10
569.2120568073647
 20
236.4256974712995
 30
0.0
 10
569.1205567674335
 20
236.4649894647514
 30
0.0
 10
568.9844450023503
 20
236.5228457339917
 30
0.0
 10
568.7715091335137
 20
236.6160858805632
 30
0.0
 10
568.4463454183937
 20
236.7784797976872
 30
0.0
 10
568.1613062905051
 20
236.9221392850542
 30
0.0
 10
568.0047404610352
 20
237.0010483350764
 30
0.0
  0
LINE
  5
24B
330
1F
100
AcDbEntity
  8
0
  6
Continuous
 62
     7
370
    15
100
AcDbLine
 10
569.2297500216
 20
236.4114019361
 30
0.0
 11
568.629739865
 21
236.4114019361
 31
0.0
  0
SPLINE
  5
24C
330
1F
100
AcDbEntity
  8
0
  6
Continuous
 62
     7
370
    15
100
AcDbSpline
210
0.0
220
0.0
230
1.0
 70
     8
 71
     3
 72
    11
 73
     7
 74
     0
 42
0.00000001
 43
0.00000001
 40
0.0
 40
0.0
 40
0.0
 40
0.0
 40
0.2726961069713225
 40
0.5235756720322131
 40
0.7744171307670121
 40
1.0
 40
1.0
 40
1.0
 40
1.0
 10
568.0047404610352
 20
237.0010483350764
 30
0.0
 10
568.0583993158712
 20
236.9116349936577
 30
0.0
 10
568.1614241492407
 20
236.7399616579365
 30
0.0
 10
568.3135674236665
 20
236.5320100045817
 30
0.0
 10
568.4565818306593
 20
236.3998885428302
 30
0.0
 10
568.5501096725685
 20
236.3837095477543
 30
0.0
 10
568.594394310637
 20
236.3760489311228
 30
0.0
  0
LINE
  5
24D
330
1F
100
AcDbEntity
  8
0
  6
Continuous
 62
     7
370
    15
100
AcDbLine
 10
568.5943943106
 20
236.3760489311
 30
0.0
 11
568.5943943106
 21
235.7760536757
 31
0.0
  0
LINE
  5
24E
330
1F
100
AcDbEntity
  8
0
  6
Continuous
 62
     7
370
    15
100
AcDbLine
 10
568.004740461
 20
398.3999136176
 30
0.0
 11
569.2297500216
 21
398.3999136176
 31
0.0
  0
LINE
  5
24F
330
1F
100
AcDbEntity
  8
0
  6
Continuous
 62
     7
370
    15
100
AcDbLine
 10
569.2297500216
 20
236.4114019361
 30
0.0
 11
569.2297500216
 21
398.3999136176
 31
0.0
  0
LINE
  5
250
330
1F
100
AcDbEntity
  8
0
  6
Continuous
 62
     7
370
    15
100
AcDbLine
 10
569.2297500216
 20
450.6780150619
 30
0.0
 11
568.629739865
 21
450.6780150619
 31
0.0
  0
LINE
  5
251
330
1F
100
AcDbEntity
  8
0
  6
Continuous
 62
     7
370
    15
100
AcDbLine
 10
569.2297500216
 20
450.6780150619
 30
0.0
 11
569.2297500216
 21
451.9030097213
 31
0.0
  0
LINE
  5
252
330
1F
100
AcDbEntity
  8
0
  6
Continuous
 62
     7
370
    15
100
AcDbLine
 10
568.629739865
 20
451.2780103173
 30
0.0
 11
568.629739865
 21
451.9030097213
 31
0.0
  0
LINE
  5
253
330
1F
100
AcDbEntity
  8
0
  6
Continuous
 62
     7
370
    15
100
AcDbLine
 10
225.2297383391
 20
450.6780150619
 30
0.0
 11
225.8297484957
 21
450.6780150619
 31
0.0
  0
LINE
  5
254
330
1F
100
AcDbEntity
  8
0
  6
Continuous
 62
     7
370
    15
100
AcDbLine
 10
225.8297484957
 20
451.2780103173
 30
0.0
 11
225.8297484957
 21
451.9030097213
 31
0.0
  0
LINE
  5
255
330
1F
100
AcDbEntity
  8
0
  6
Continuous
 62
     7
370
    15
100
AcDbLine
 10
225.2297383391
 20
450.6780150619
 30
0.0
 11
225.2297383391
 21
451.9030097213
 31
0.0
  0
LINE
  5
256
330
1F
100
AcDbEntity
  8
0
  6
Continuous
 62
     7
370
    15
100
AcDbLine
 10
225.2297383391
 20
398.9499154773
 30
0.0
 11
225.8297484957
 21
398.9499154773
 31
0.0
  0
LINE
  5
257
330
1F
100
AcDbEntity
  8
0
  6
Continuous
 62
     7
370
    15
100
AcDbLine
 10
225.8297484957
 20
398.9499154773
 30
0.0
 11
225.8297484957
 21
398.3999136176
 31
0.0
  0
LINE
  5
258
330
1F
100
AcDbEntity
  8
0
  6
Continuous
 62
     7
370
    15
100
AcDbLine
 10
225.2297383391
 20
398.9499154773
 30
0.0
 11
225.2297383391
 21
398.3999136176
 31
0.0
  0
LINE
  5
259
330
1F
100
AcDbEntity
  8
0
  6
Continuous
 62
     7
370
    15
100
AcDbLine
 10
568.5297381722
 20
476.0613757458
 30
0.0
 11
568.5297381722
 21
476.178014585
 31
0.0
  0
LINE
  5
25A
330
1F
100
AcDbEntity
  8
0
  6
Continuous
 62
     7
370
    15
100
AcDbLine
 10
225.9297501885
 20
476.178014585
 30
0.0
 11
225.9297501885
 21
476.062277266
 31
0.0
  0
LINE
  5
25B
330
1F
100
AcDbEntity
  8
0
  6
Continuous
 62
     7
370
    15
100
AcDbLine
 10
225.9297501885
 20
236.4926877704
 30
0.0
 11
225.9297501885
 21
236.3760489311
 31
0.0
  0
LINE
  5
25C
330
1F
100
AcDbEntity
  8
0
  6
Continuous
 62
     7
370
    15
100
AcDbLine
 10
568.5297381722
 20
236.3760489311
 30
0.0
 11
568.5297381722
 21
236.4918980088
 31
0.0
  0
LINE
  5
25D
330
1F
100
AcDbEntity
  8
0
  6
Continuous
 62
     7
370
    15
100
AcDbLine
 10
526.7297458493
 20
418.6155180719
 30
0.0
 11
526.7297458493
 21
423.3780111458
 31
0.0
  0
LINE
  5
25E
330
1F
100
AcDbEntity
  8
0
  6
Continuous
 62
     7
370
    15
100
AcDbLine
 10
526.7297458493
 20
424.8780104604
 30
0.0
 11
526.7297458493
 21
429.8780131426
 31
0.0
  0
LINE
  5
25F
330
1F
100
AcDbEntity
  8
0
  6
Continuous
 62
     7
370
    15
100
AcDbLine
 10
526.7297458493
 20
431.3780087318
 30
0.0
 11
526.7297458493
 21
436.3780114141
 31
0.0
  0
LINE
  5
260
330
1F
100
AcDbEntity
  8
0
  6
Continuous
 62
     7
370
    15
100
AcDbLine
 10
526.7297458493
 20
437.8780144539
 30
0.0
 11
526.7297458493
 21
441.7340996947
 31
0.0
  0
LINE
  5
261
330
1F
100
AcDbEntity
  8
0
  6
Continuous
 62
     7
370
    15
100
AcDbLine
 10
239.7297453725
 20
439.7280085173
 30
0.0
 11
234.7297501408
 21
439.7280085173
 31
0.0
  0
LINE
  5
262
330
1F
100
AcDbEntity
  8
0
  6
Continuous
 62
     7
370
    15
100
AcDbLine
 10
239.7297453725
 20
440.1280152884
 30
0.0
 11
234.7297501408
 21
440.1280152884
 31
0.0
  0
LINE
  5
263
330
1F
100
AcDbEntity
  8
0
  6
Continuous
 62
     7
370
    15
100
AcDbLine
 10
244.1797387444
 20
440.1280152884
 30
0.0
 11
244.1797387444
 21
439.7280085173
 31
0.0
  0
LINE
  5
264
330
1F
100
AcDbEntity
  8
0
  6
Continuous
 62
     7
370
    15
100
AcDbLine
 10
244.1797387444
 20
439.7280085173
 30
0.0
 11
242.729736551
 21
439.7280085173
 31
0.0
  0
LINE
  5
265
330
1F
100
AcDbEntity
  8
0
  6
Continuous
 62
     7
370
    15
100
AcDbLine
 10
244.1797387444
 20
440.1280152884
 30
0.0
 11
242.729736551
 21
440.1280152884
 31
0.0
  0
LINE
  5
266
330
1F
100
AcDbEntity
  8
0
  6
Continuous
 62
     7
370
    15
100
AcDbLine
 10
490.7297399484
 20
440.1280152884
 30
0.0
 11
495.7297426306
 21
440.1280152884
 31
0.0
  0
LINE
  5
267
330
1F
100
AcDbEntity
  8
0
  6
Continuous
 62
     7
370
    15
100
AcDbLine
 10
498.7297412597
 20
440.1280152884
 30
0.0
 11
503.7297439419
 21
440.1280152884
 31
0.0
  0
LINE
  5
268
330
1F
100
AcDbEntity
  8
0
  6
Continuous
 62
     7
370
    15
100
AcDbLine
 10
506.7297500216
 20
440.1280152884
 30
0.0
 11
511.654747709
 21
440.1280152884
 31
0.0
  0
LINE
  5
269
330
1F
100
AcDbEntity
  8
0
  6
Continuous
 62
     7
370
    15
100
AcDbLine
 10
490.7297399484
 20
439.7280085173
 30
0.0
 11
495.7297426306
 21
439.7280085173
 31
0.0
  0
LINE
  5
26A
330
1F
100
AcDbEntity
  8
0
  6
Continuous
 62
     7
370
    15
100
AcDbLine
 10
498.7297412597
 20
439.7280085173
 30
0.0
 11
503.7297439419
 21
439.7280085173
 31
0.0
  0
LINE
  5
26B
330
1F
100
AcDbEntity
  8
0
  6
Continuous
 62
     7
370
    15
100
AcDbLine
 10
506.7297500216
 20
439.7280085173
 30
0.0
 11
511.654747709
 21
439.7280085173
 31
0.0
  0
LINE
  5
26C
330
1F
100
AcDbEntity
  8
0
  6
Continuous
 62
     7
370
    15
100
AcDbLine
 10
511.7297452532
 20
439.7234934654
 30
0.0
 11
511.654747709
 21
439.7280085173
 31
0.0
  0
LINE
  5
26D
330
1F
100
AcDbEntity
  8
0
  6
Continuous
 62
     7
370
    15
100
AcDbLine
 10
511.7297452532
 20
440.1252660241
 30
0.0
 11
511.654747709
 21
440.1280152884
 31
0.0
  0
LINE
  5
26E
330
1F
100
AcDbEntity
  8
0
  6
Continuous
 62
     7
370
    15
100
AcDbLine
 10
487.679740473
 20
440.1280152884
 30
0.0
 11
487.679740473
 21
439.7280085173
 31
0.0
  0
LINE
  5
26F
330
1F
100
AcDbEntity
  8
0
  6
Continuous
 62
     7
370
    15
100
AcDbLine
 10
487.679740473
 20
440.1280152884
 30
0.0
 11
487.7297413193
 21
440.1280152884
 31
0.0
  0
LINE
  5
270
330
1F
100
AcDbEntity
  8
0
  6
Continuous
 62
     7
370
    15
100
AcDbLine
 10
487.679740473
 20
439.7280085173
 30
0.0
 11
487.7297413193
 21
439.7280085173
 31
0.0
  0
LINE
  5
271
330
1F
100
AcDbEntity
  8
0
  6
Continuous
 62
     7
370
    15
100
AcDbLine
 10
231.6797506654
 20
235.620500454
 30
0.0
 11
231.6797506654
 21
235.7760536757
 31
0.0
  0
LINE
  5
272
330
1F
100
AcDbEntity
  8
0
  6
Continuous
 62
     7
370
    15
100
AcDbLine
 10
236.6547417485
 20
193.8757318344
 30
0.0
 11
236.2297457301
 21
193.8757318344
 31
0.0
  0
LINE
  5
273
330
1F
100
AcDbEntity
  8
0
  6
Continuous
 62
     7
370
    15
100
AcDbLine
 10
256.6297408783
 20
193.8757318344
 30
0.0
 11
255.6047421538
 21
193.8757318344
 31
0.0
  0
LINE
  5
274
330
1F
100
AcDbEntity
  8
0
  6
Continuous
 62
     7
370
    15
100
AcDbLine
 10
256.6297408783
 20
207.6204884138
 30
0.0
 11
256.6297408783
 21
193.8757318344
 31
0.0
  0
LINE
  5
275
330
1F
100
AcDbEntity
  8
0
  6
Continuous
 62
     7
370
    15
100
AcDbLine
 10
236.6547417485
 20
193.8757318344
 30
0.0
 11
255.6047421538
 21
193.8757318344
 31
0.0
  0
ARC
  5
276
330
1F
100
AcDbEntity
  8
0
  6
Continuous
 62
     7
370
    15
100
AcDbCircle
 10
248.229743568
 20
206.3780121866
 30
0.0
 40
2.950000000000013
100
AcDbArc
 50
155.0908430438
 51
24.9091569562
  0
LINE
  5
277
330
1F
100
AcDbEntity
  8
0
  6
Continuous
 62
     7
370
    15
100
AcDbLine
 10
477.8547417962
 20
193.8757318344
 30
0.0
 11
476.8297430717
 21
193.8757318344
 31
0.0
  0
LINE
  5
278
330
1F
100
AcDbEntity
  8
0
  6
Continuous
 62
     7
370
    15
100
AcDbLine
 10
476.8297430717
 20
193.8757318344
 30
0.0
 11
476.8297430717
 21
207.6204884138
 31
0.0
  0
LWPOLYLINE
  5
279
330
1F
100
AcDbEntity
  8
0
  6
Continuous
 62
     7
370
    15
100
AcDbPolyline
 90
        3
 70
   128
 43
0.0
 10
482.2797459208
 20
206.3780146923
 10
482.3724236929
 20
207.1116435614
 10
482.5541657054
 20
207.6204884138
  0
ARC
  5
27A
330
1F
100
AcDbEntity
  8
0
  6
Continuous
 62
     7
370
    15
100
AcDbCircle
 10
485.229743568
 20
206.3780121866
 30
0.0
 40
2.949999999999989
100
AcDbArc
 50
180.0
 51
24.9091569562
  0
LINE
  5
27B
330
1F
100
AcDbEntity
  8
0
  6
Continuous
 62
     7
370
    15
100
AcDbLine
 10
496.8047422015
 20
193.8757318344
 30
0.0
 11
477.8547417962
 21
193.8757318344
 31
0.0
  0
LINE
  5
27C
330
1F
100
AcDbEntity
  8
0
  6
Continuous
 62
     7
370
    15
100
AcDbLine
 10
497.2297456705
 20
193.8757318344
 30
0.0
 11
496.8047422015
 21
193.8757318344
 31
0.0
  0
LINE
  5
27D
330
1F
100
AcDbEntity
  8
0
  6
Continuous
 62
     7
370
    15
100
AcDbLine
 10
256.2297415578
 20
184.2380929079
 30
0.0
 11
256.6297408783
 21
184.2380929079
 31
0.0
  0
LINE
  5
27E
330
1F
100
AcDbEntity
  8
0
  6
Continuous
 62
     7
370
    15
100
AcDbLine
 10
256.2297415578
 20
184.2380929079
 30
0.0
 11
256.2297415578
 21
193.8757318344
 31
0.0
  0
LINE
  5
27F
330
1F
100
AcDbEntity
  8
0
  6
Continuous
 62
     7
370
    15
100
AcDbLine
 10
256.6297408783
 20
184.2380929079
 30
0.0
 11
256.6297408783
 21
193.8757318344
 31
0.0
  0
LINE
  5
280
330
1F
100
AcDbEntity
  8
0
  6
Continuous
 62
     7
370
    15
100
AcDbLine
 10
477.2297423922
 20
184.2380929079
 30
0.0
 11
476.8297430717
 21
184.2380929079
 31
0.0
  0
LINE
  5
281
330
1F
100
AcDbEntity
  8
0
  6
Continuous
 62
     7
370
    15
100
AcDbLine
 10
477.2297423922
 20
193.8757318344
 30
0.0
 11
477.2297423922
 21
184.2380929079
 31
0.0
  0
LINE
  5
282
330
1F
100
AcDbEntity
  8
0
  6
Continuous
 62
     7
370
    15
100
AcDbLine
 10
476.8297430717
 20
193.8757318344
 30
0.0
 11
476.8297430717
 21
184.2380929079
 31
0.0
  0
LINE
  5
283
330
1F
100
AcDbEntity
  8
0
  6
Continuous
 62
     7
370
    15
100
AcDbLine
 10
476.8297430717
 20
184.2380929079
 30
0.0
 11
476.8297430717
 21
183.5998016682
 31
0.0
  0
LINE
  5
284
330
1F
100
AcDbEntity
  8
0
  6
Continuous
 62
     7
370
    15
100
AcDbLine
 10
256.6297408783
 20
183.5998016682
 30
0.0
 11
256.6297408783
 21
184.2380929079
 31
0.0
  0
LINE
  5
285
330
1F
100
AcDbEntity
  8
0
  6
Continuous
 62
     7
370
    15
100
AcDbLine
 10
256.6297408783
 20
193.1594777193
 30
0.0
 11
257.2797444307
 21
193.1594777193
 31
0.0
  0
LINE
  5
286
330
1F
100
AcDbEntity
  8
0
  6
Continuous
 62
     7
370
    15
100
AcDbLine
 10
476.1797469699
 20
193.1594777193
 30
0.0
 11
476.8297430717
 21
193.1594777193
 31
0.0
  0
LINE
  5
287
330
1F
100
AcDbEntity
  8
0
  6
Continuous
 62
     7
370
    15
100
AcDbLine
 10
256.6297408783
 20
193.7507408943
 30
0.0
 11
257.2547402822
 21
193.7507408943
 31
0.0
  0
LINE
  5
288
330
1F
100
AcDbEntity
  8
0
  6
Continuous
 62
     7
370
    15
100
AcDbLine
 10
476.2047436678
 20
193.7507408943
 30
0.0
 11
476.8297430717
 21
193.7507408943
 31
0.0
  0
LINE
  5
289
330
1F
100
AcDbEntity
  8
0
  6
Continuous
 62
     7
370
    15
100
AcDbLine
 10
476.1797469699
 20
193.7007325974
 30
0.0
 11
476.1797469699
 21
193.1594777193
 31
0.0
  0
LINE
  5
28A
330
1F
100
AcDbEntity
  8
0
  6
Continuous
 62
     7
370
    15
100
AcDbLine
 10
257.2797444307
 20
193.7007325974
 30
0.0
 11
257.2797444307
 21
193.1594777193
 31
0.0
  0
LINE
  5
28B
330
1F
100
AcDbEntity
  8
0
  6
Continuous
 62
     7
370
    15
100
AcDbLine
 10
476.1797469699
 20
193.7507408943
 30
0.0
 11
476.2047436678
 21
193.7507408943
 31
0.0
  0
LINE
  5
28C
330
1F
100
AcDbEntity
  8
0
  6
Continuous
 62
     7
370
    15
100
AcDbLine
 10
476.1797469699
 20
193.7507408943
 30
0.0
 11
476.1797469699
 21
193.7007325974
 31
0.0
  0
LINE
  5
28D
330
1F
100
AcDbEntity
  8
0
  6
Continuous
 62
     7
370
    15
100
AcDbLine
 10
257.2797444307
 20
193.7507408943
 30
0.0
 11
257.2797444307
 21
193.7007325974
 31
0.0
  0
LINE
  5
28E
330
1F
100
AcDbEntity
  8
0
  6
Continuous
 62
     7
370
    15
100
AcDbLine
 10
257.2797444307
 20
193.7507408943
 30
0.0
 11
257.2547402822
 21
193.7507408943
 31
0.0
  0
LINE
  5
28F
330
1F
100
AcDbEntity
  8
0
  6
Continuous
 62
     7
370
    15
100
AcDbLine
 10
541.9986080968
 20
206.6205012884
 30
0.0
 11
541.9986080968
 21
207.6204884138
 31
0.0
  0
LINE
  5
290
330
1F
100
AcDbEntity
  8
0
  6
Continuous
 62
     7
370
    15
100
AcDbLine
 10
539.4608807408
 20
207.6204884138
 30
0.0
 11
539.4608807408
 21
206.6205012884
 31
0.0
  0
LWPOLYLINE
  5
291
330
1F
100
AcDbEntity
  8
0
  6
Continuous
 62
     7
370
    15
100
AcDbPolyline
 90
        3
 70
   128
 43
0.0
 10
376.9704716404
 20
476.7780098405
 10
376.999894216
 20
476.8563675966
 10
377.0090996411
 20
476.8780115333
  0
LWPOLYLINE
  5
292
330
1F
100
AcDbEntity
  8
0
  6
Continuous
 62
     7
370
    15
100
AcDbPolyline
 90
        3
 70
   128
 43
0.0
 10
379.3003876352
 20
476.8780115333
 10
379.3095928275
 20
476.8563675966
 10
379.3390156359
 20
476.7780098405
  0
LWPOLYLINE
  5
293
330
1F
100
AcDbEntity
  8
0
  6
Continuous
 62
     7
370
    15
100
AcDbPolyline
 90
        3
 70
   128
 43
0.0
 10
397.6204712533
 20
476.7780098405
 10
397.6498935961
 20
476.8563675966
 10
397.6590987884
 20
476.8780115333
  0
LWPOLYLINE
  5
294
330
1F
100
AcDbEntity
  8
0
  6
Continuous
 62
     7
370
    15
100
AcDbPolyline
 90
        3
 70
   128
 43
0.0
 10
399.9503870153
 20
476.8780115333
 10
399.9595922076
 20
476.8563675966
 10
399.989016413
 20
476.7780098405
  0
LINE
  5
295
330
1F
100
AcDbEntity
  8
0
  6
Continuous
 62
     7
370
    15
100
AcDbLine
 10
376.1547436596
 20
476.7780098405
 30
0.0
 11
376.1547436596
 21
476.8780115333
 31
0.0
  0
ARC
  5
296
330
1F
100
AcDbEntity
  8
0
  6
Continuous
 62
     7
370
    15
100
AcDbCircle
 10
376.654743568
 20
476.8780121866
 30
0.0
 40
0.1499999999999827
100
AcDbArc
 50
180.0
 51
221.8103148963
  0
LINE
  5
297
330
1F
100
AcDbEntity
  8
0
  6
Continuous
 62
     7
370
    15
100
AcDbLine
 10
380.1547433839
 20
476.8780115333
 30
0.0
 11
380.1547433839
 21
476.7780098405
 31
0.0
  0
ARC
  5
298
330
1F
100
AcDbEntity
  8
0
  6
Continuous
 62
     7
370
    15
100
AcDbCircle
 10
379.654743568
 20
476.8780121866
 30
0.0
 40
0.1500000000000341
100
AcDbArc
 50
318.1896851037
 51
0.0
  0
LINE
  5
299
330
1F
100
AcDbEntity
  8
0
  6
Continuous
 62
     7
370
    15
100
AcDbLine
 10
396.8047444367
 20
476.7780098405
 30
0.0
 11
396.8047444367
 21
476.8780115333
 31
0.0
  0
ARC
  5
29A
330
1F
100
AcDbEntity
  8
0
  6
Continuous
 62
     7
370
    15
100
AcDbCircle
 10
397.304743568
 20
476.8780121866
 30
0.0
 40
0.1500000000000341
100
AcDbArc
 50
180.0
 51
221.8103148963
  0
LINE
  5
29B
330
1F
100
AcDbEntity
  8
0
  6
Continuous
 62
     7
370
    15
100
AcDbLine
 10
400.8047432297
 20
476.8780115333
 30
0.0
 11
400.8047432297
 21
476.7780098405
 31
0.0
  0
ARC
  5
29C
330
1F
100
AcDbEntity
  8
0
  6
Continuous
 62
     7
370
    15
100
AcDbCircle
 10
400.304743568
 20
476.8780121866
 30
0.0
 40
0.1500000000000251
100
AcDbArc
 50
318.1896851037
 51
0.0
  0
LWPOLYLINE
  5
29D
330
1F
100
AcDbEntity
  8
0
  6
Continuous
 62
     7
370
    15
100
AcDbPolyline
 90
        3
 70
   128
 43
0.0
 10
420.4704706215
 20
476.7780098405
 10
420.4998929643
 20
476.8563675966
 10
420.5090981566
 20
476.8780115333
  0
LWPOLYLINE
  5
29E
330
1F
100
AcDbEntity
  8
0
  6
Continuous
 62
     7
370
    15
100
AcDbPolyline
 90
        3
 70
   128
 43
0.0
 10
422.8003863835
 20
476.8780115333
 10
422.8095915758
 20
476.8563675966
 10
422.8390139186
 20
476.7780098405
  0
LWPOLYLINE
  5
29F
330
1F
100
AcDbEntity
  8
0
  6
Continuous
 62
     7
370
    15
100
AcDbPolyline
 90
        3
 70
   128
 43
0.0
 10
441.1204737269
 20
476.7780098405
 10
441.1498960697
 20
476.8563675966
 10
441.1590975367
 20
476.8780115333
  0
LWPOLYLINE
  5
2A0
330
1F
100
AcDbEntity
  8
0
  6
Continuous
 62
     7
370
    15
100
AcDbPolyline
 90
        3
 70
   128
 43
0.0
 10
443.4503894889
 20
476.8780115333
 10
443.4595909559
 20
476.8563675966
 10
443.4890132987
 20
476.7780098405
  0
LINE
  5
2A1
330
1F
100
AcDbEntity
  8
0
  6
Continuous
 62
     7
370
    15
100
AcDbLine
 10
419.6547438049
 20
476.7780098405
 30
0.0
 11
419.6547438049
 21
476.8780115333
 31
0.0
  0
ARC
  5
2A2
330
1F
100
AcDbEntity
  8
0
  6
Continuous
 62
     7
370
    15
100
AcDbCircle
 10
420.154743568
 20
476.8780121866
 30
0.0
 40
0.1499999999999872
100
AcDbArc
 50
180.0
 51
221.8103148963
  0
LINE
  5
2A3
330
1F
100
AcDbEntity
  8
0
  6
Continuous
 62
     7
370
    15
100
AcDbLine
 10
423.6547444605
 20
476.8780115333
 30
0.0
 11
423.6547444605
 21
476.7780098405
 31
0.0
  0
ARC
  5
2A4
330
1F
100
AcDbEntity
  8
0
  6
Continuous
 62
     7
370
    15
100
AcDbCircle
 10
423.154743568
 20
476.8780121866
 30
0.0
 40
0.1500000000000909
100
AcDbArc
 50
318.1896851038
 51
0.0
  0
LINE
  5
2A5
330
1F
100
AcDbEntity
  8
0
  6
Continuous
 62
     7
370
    15
100
AcDbLine
 10
440.3047469103
 20
476.7780098405
 30
0.0
 11
440.3047469103
 21
476.8780115333
 31
0.0
  0
ARC
  5
2A6
330
1F
100
AcDbEntity
  8
0
  6
Continuous
 62
     7
370
    15
100
AcDbCircle
 10
440.804743568
 20
476.8780121866
 30
0.0
 40
0.1500000000000341
100
AcDbArc
 50
180.0
 51
221.8103148962
  0
LINE
  5
2A7
330
1F
100
AcDbEntity
  8
0
  6
Continuous
 62
     7
370
    15
100
AcDbLine
 10
444.3047401153
 20
476.8780115333
 30
0.0
 11
444.3047401153
 21
476.7780098405
 31
0.0
  0
ARC
  5
2A8
330
1F
100
AcDbEntity
  8
0
  6
Continuous
 62
     7
370
    15
100
AcDbCircle
 10
443.804743568
 20
476.8780121866
 30
0.0
 40
0.1499999999999917
100
AcDbArc
 50
318.1896851037
 51
0.0
  0
LWPOLYLINE
  5
2A9
330
1F
100
AcDbEntity
  8
0
  6
Continuous
 62
     7
370
    15
100
AcDbPolyline
 90
        3
 70
   128
 43
0.0
 10
289.9704706513
 20
476.7780098405
 10
289.9998929941
 20
476.8563675966
 10
290.0091019117
 20
476.8780115333
  0
LWPOLYLINE
  5
2AA
330
1F
100
AcDbEntity
  8
0
  6
Continuous
 62
     7
370
    15
100
AcDbPolyline
 90
        3
 70
   128
 43
0.0
 10
292.3003864133
 20
476.8780115333
 10
292.3095953309
 20
476.8563675966
 10
292.3390176737
 20
476.7780098405
  0
LWPOLYLINE
  5
2AB
330
1F
100
AcDbEntity
  8
0
  6
Continuous
 62
     7
370
    15
100
AcDbPolyline
 90
        3
 70
   128
 43
0.0
 10
310.6204700314
 20
476.7780098405
 10
310.6498923742
 20
476.8563675966
 10
310.6591012918
 20
476.8780115333
  0
LWPOLYLINE
  5
2AC
330
1F
100
AcDbEntity
  8
0
  6
Continuous
 62
     7
370
    15
100
AcDbPolyline
 90
        3
 70
   128
 43
0.0
 10
312.9503857934
 20
476.8780115333
 10
312.959594711
 20
476.8563675966
 10
312.9890170538
 20
476.7780098405
  0
LINE
  5
2AD
330
1F
100
AcDbEntity
  8
0
  6
Continuous
 62
     7
370
    15
100
AcDbLine
 10
289.1547438347
 20
476.7780098405
 30
0.0
 11
289.1547438347
 21
476.8780115333
 31
0.0
  0
ARC
  5
2AE
330
1F
100
AcDbEntity
  8
0
  6
Continuous
 62
     7
370
    15
100
AcDbCircle
 10
289.654743568
 20
476.8780121866
 30
0.0
 40
0.1500000000000027
100
AcDbArc
 50
180.0
 51
221.8103148965
  0
LINE
  5
2AF
330
1F
100
AcDbEntity
  8
0
  6
Continuous
 62
     7
370
    15
100
AcDbLine
 10
293.1547444903
 20
476.8780115333
 30
0.0
 11
293.1547444903
 21
476.7780098405
 31
0.0
  0
ARC
  5
2B0
330
1F
100
AcDbEntity
  8
0
  6
Continuous
 62
     7
370
    15
100
AcDbCircle
 10
292.654743568
 20
476.8780121866
 30
0.0
 40
0.1500000000000072
100
AcDbArc
 50
318.1896851036
 51
0.0
  0
LINE
  5
2B1
330
1F
100
AcDbEntity
  8
0
  6
Continuous
 62
     7
370
    15
100
AcDbLine
 10
309.8047432148
 20
476.7780098405
 30
0.0
 11
309.8047432148
 21
476.8780115333
 31
0.0
  0
ARC
  5
2B2
330
1F
100
AcDbEntity
  8
0
  6
Continuous
 62
     7
370
    15
100
AcDbCircle
 10
310.304743568
 20
476.8780121866
 30
0.0
 40
0.1500000000000341
100
AcDbArc
 50
180.0
 51
221.8103148964
  0
LINE
  5
2B3
330
1F
100
AcDbEntity
  8
0
  6
Continuous
 62
     7
370
    15
100
AcDbLine
 10
313.8047438704
 20
476.8780115333
 30
0.0
 11
313.8047438704
 21
476.7780098405
 31
0.0
  0
ARC
  5
2B4
330
1F
100
AcDbEntity
  8
0
  6
Continuous
 62
     7
370
    15
100
AcDbCircle
 10
313.304743568
 20
476.8780121866
 30
0.0
 40
0.1499999999999773
100
AcDbArc
 50
318.1896851036
 51
0.0
  0
LWPOLYLINE
  5
2B5
330
1F
100
AcDbEntity
  8
0
  6
Continuous
 62
     7
370
    15
100
AcDbPolyline
 90
        3
 70
   128
 43
0.0
 10
333.4704731249
 20
476.7780098405
 10
333.4998954677
 20
476.8563675966
 10
333.50910066
 20
476.8780115333
  0
LWPOLYLINE
  5
2B6
330
1F
100
AcDbEntity
  8
0
  6
Continuous
 62
     7
370
    15
100
AcDbPolyline
 90
        3
 70
   128
 43
0.0
 10
335.8003888869
 20
476.8780115333
 10
335.8095940792
 20
476.8563675966
 10
335.839016422
 20
476.7780098405
  0
LWPOLYLINE
  5
2B7
330
1F
100
AcDbEntity
  8
0
  6
Continuous
 62
     7
370
    15
100
AcDbPolyline
 90
        3
 70
   128
 43
0.0
 10
354.120472505
 20
476.7780098405
 10
354.1498948478
 20
476.8563675966
 10
354.1591000401
 20
476.8780115333
  0
LWPOLYLINE
  5
2B8
330
1F
100
AcDbEntity
  8
0
  6
Continuous
 62
     7
370
    15
100
AcDbPolyline
 90
        3
 70
   128
 43
0.0
 10
356.450388267
 20
476.8780115333
 10
356.4595934593
 20
476.8563675966
 10
356.4890158021
 20
476.7780098405
  0
LINE
  5
2B9
330
1F
100
AcDbEntity
  8
0
  6
Continuous
 62
     7
370
    15
100
AcDbLine
 10
332.654742583
 20
476.7780098405
 30
0.0
 11
332.654742583
 21
476.8780115333
 31
0.0
  0
ARC
  5
2BA
330
1F
100
AcDbEntity
  8
0
  6
Continuous
 62
     7
370
    15
100
AcDbCircle
 10
333.154743568
 20
476.8780121866
 30
0.0
 40
0.1499999999999773
100
AcDbArc
 50
180.0
 51
221.8103148964
  0
LINE
  5
2BB
330
1F
100
AcDbEntity
  8
0
  6
Continuous
 62
     7
370
    15
100
AcDbLine
 10
336.6547432386
 20
476.8780115333
 30
0.0
 11
336.6547432386
 21
476.7780098405
 31
0.0
  0
ARC
  5
2BC
330
1F
100
AcDbEntity
  8
0
  6
Continuous
 62
     7
370
    15
100
AcDbCircle
 10
336.154743568
 20
476.8780121866
 30
0.0
 40
0.1500000000000341
100
AcDbArc
 50
318.1896851036
 51
0.0
  0
LINE
  5
2BD
330
1F
100
AcDbEntity
  8
0
  6
Continuous
 62
     7
370
    15
100
AcDbLine
 10
353.3047438257
 20
476.7780098405
 30
0.0
 11
353.3047438257
 21
476.8780115333
 31
0.0
  0
ARC
  5
2BE
330
1F
100
AcDbEntity
  8
0
  6
Continuous
 62
     7
370
    15
100
AcDbCircle
 10
353.804743568
 20
476.8780121866
 30
0.0
 40
0.1500000000000341
100
AcDbArc
 50
180.0
 51
221.8103148964
  0
LINE
  5
2BF
330
1F
100
AcDbEntity
  8
0
  6
Continuous
 62
     7
370
    15
100
AcDbLine
 10
357.3047444814
 20
476.8780115333
 30
0.0
 11
357.3047444814
 21
476.7780098405
 31
0.0
  0
ARC
  5
2C0
330
1F
100
AcDbEntity
  8
0
  6
Continuous
 62
     7
370
    15
100
AcDbCircle
 10
356.804743568
 20
476.8780121866
 30
0.0
 40
0.1500000000000341
100
AcDbArc
 50
318.1896851036
 51
0.0
  0
LWPOLYLINE
  5
2C1
330
1F
100
AcDbEntity
  8
0
  6
Continuous
 62
     7
370
    15
100
AcDbPolyline
 90
        3
 70
   128
 43
0.0
 10
246.4704644524
 20
476.7780098405
 10
246.4998942458
 20
476.8563675966
 10
246.5091031634
 20
476.8780115333
  0
LWPOLYLINE
  5
2C2
330
1F
100
AcDbEntity
  8
0
  6
Continuous
 62
     7
370
    15
100
AcDbPolyline
 90
        3
 70
   128
 43
0.0
 10
248.8003802144
 20
476.8780115333
 10
248.809589132
 20
476.8563675966
 10
248.8390189254
 20
476.7780098405
  0
LWPOLYLINE
  5
2C3
330
1F
100
AcDbEntity
  8
0
  6
Continuous
 62
     7
370
    15
100
AcDbPolyline
 90
        3
 70
   128
 43
0.0
 10
267.1204712831
 20
476.7780098405
 10
267.1498936259
 20
476.8563675966
 10
267.1591025435
 20
476.8780115333
  0
LWPOLYLINE
  5
2C4
330
1F
100
AcDbEntity
  8
0
  6
Continuous
 62
     7
370
    15
100
AcDbPolyline
 90
        3
 70
   128
 43
0.0
 10
269.4503870451
 20
476.8780115333
 10
269.4595959627
 20
476.8563675966
 10
269.4890183055
 20
476.7780098405
  0
LINE
  5
2C5
330
1F
100
AcDbEntity
  8
0
  6
Continuous
 62
     7
370
    15
100
AcDbLine
 10
245.6547450864
 20
476.7780098405
 30
0.0
 11
245.6547450864
 21
476.8780115333
 31
0.0
  0
ARC
  5
2C6
330
1F
100
AcDbEntity
  8
0
  6
Continuous
 62
     7
370
    15
100
AcDbCircle
 10
246.154743568
 20
476.8780121866
 30
0.0
 40
0.150000000000015
100
AcDbArc
 50
180.0
 51
221.8103148965
  0
LINE
  5
2C7
330
1F
100
AcDbEntity
  8
0
  6
Continuous
 62
     7
370
    15
100
AcDbLine
 10
249.654745742
 20
476.8780115333
 30
0.0
 11
249.654745742
 21
476.7780098405
 31
0.0
  0
ARC
  5
2C8
330
1F
100
AcDbEntity
  8
0
  6
Continuous
 62
     7
370
    15
100
AcDbCircle
 10
249.154743568
 20
476.8780121866
 30
0.0
 40
0.1500000000000573
100
AcDbArc
 50
318.1896851035
 51
0.0
  0
LINE
  5
2C9
330
1F
100
AcDbEntity
  8
0
  6
Continuous
 62
     7
370
    15
100
AcDbLine
 10
266.3047444665
 20
476.7780098405
 30
0.0
 11
266.3047444665
 21
476.8780115333
 31
0.0
  0
ARC
  5
2CA
330
1F
100
AcDbEntity
  8
0
  6
Continuous
 62
     7
370
    15
100
AcDbCircle
 10
266.804743568
 20
476.8780121866
 30
0.0
 40
0.1500000000000406
100
AcDbArc
 50
180.0
 51
221.8103148965
  0
LINE
  5
2CB
330
1F
100
AcDbEntity
  8
0
  6
Continuous
 62
     7
370
    15
100
AcDbLine
 10
270.3047451221
 20
476.8780115333
 30
0.0
 11
270.3047451221
 21
476.7780098405
 31
0.0
  0
ARC
  5
2CC
330
1F
100
AcDbEntity
  8
0
  6
Continuous
 62
     7
370
    15
100
AcDbCircle
 10
269.804743568
 20
476.8780121866
 30
0.0
 40
0.1499999999999773
100
AcDbArc
 50
318.1896851035
 51
0.0
  0
LWPOLYLINE
  5
2CD
330
1F
100
AcDbEntity
  8
0
  6
Continuous
 62
     7
370
    15
100
AcDbPolyline
 90
        3
 70
   128
 43
0.0
 10
463.9704730951
 20
476.7780098405
 10
463.9998954379
 20
476.8563675966
 10
464.0090969049
 20
476.8780115333
  0
LWPOLYLINE
  5
2CE
330
1F
100
AcDbEntity
  8
0
  6
Continuous
 62
     7
370
    15
100
AcDbPolyline
 90
        3
 70
   128
 43
0.0
 10
466.3003888571
 20
476.8780115333
 10
466.3095903241
 20
476.8563675966
 10
466.3390126669
 20
476.7780098405
  0
LWPOLYLINE
  5
2CF
330
1F
100
AcDbEntity
  8
0
  6
Continuous
 62
     7
370
    15
100
AcDbPolyline
 90
        3
 70
   128
 43
0.0
 10
484.6204724752
 20
476.7780098405
 10
484.649894818
 20
476.8563675966
 10
484.659096285
 20
476.8780115333
  0
LWPOLYLINE
  5
2D0
330
1F
100
AcDbEntity
  8
0
  6
Continuous
 62
     7
370
    15
100
AcDbPolyline
 90
        3
 70
   128
 43
0.0
 10
486.9503882372
 20
476.8780115333
 10
486.9595897042
 20
476.8563675966
 10
486.989012047
 20
476.7780098405
  0
LINE
  5
2D1
330
1F
100
AcDbEntity
  8
0
  6
Continuous
 62
     7
370
    15
100
AcDbLine
 10
463.1547462784
 20
476.7780098405
 30
0.0
 11
463.1547462784
 21
476.8780115333
 31
0.0
  0
ARC
  5
2D2
330
1F
100
AcDbEntity
  8
0
  6
Continuous
 62
     7
370
    15
100
AcDbCircle
 10
463.654743568
 20
476.8780121866
 30
0.0
 40
0.1499999999999773
100
AcDbArc
 50
180.0
 51
221.8103148962
  0
LINE
  5
2D3
330
1F
100
AcDbEntity
  8
0
  6
Continuous
 62
     7
370
    15
100
AcDbLine
 10
467.1547469341
 20
476.8780115333
 30
0.0
 11
467.1547469341
 21
476.7780098405
 31
0.0
  0
ARC
  5
2D4
330
1F
100
AcDbEntity
  8
0
  6
Continuous
 62
     7
370
    15
100
AcDbCircle
 10
466.654743568
 20
476.8780121866
 30
0.0
 40
0.1500000000000006
100
AcDbArc
 50
318.1896851038
 51
0.0
  0
LINE
  5
2D5
330
1F
100
AcDbEntity
  8
0
  6
Continuous
 62
     7
370
    15
100
AcDbLine
 10
483.8047456586
 20
476.7780098405
 30
0.0
 11
483.8047456586
 21
476.8780115333
 31
0.0
  0
ARC
  5
2D6
330
1F
100
AcDbEntity
  8
0
  6
Continuous
 62
     7
370
    15
100
AcDbCircle
 10
484.304743568
 20
476.8780121866
 30
0.0
 40
0.1500000000000909
100
AcDbArc
 50
180.0
 51
221.8103148962
  0
LINE
  5
2D7
330
1F
100
AcDbEntity
  8
0
  6
Continuous
 62
     7
370
    15
100
AcDbLine
 10
487.8047463142
 20
476.8780115333
 30
0.0
 11
487.8047463142
 21
476.7780098405
 31
0.0
  0
ARC
  5
2D8
330
1F
100
AcDbEntity
  8
0
  6
Continuous
 62
     7
370
    15
100
AcDbCircle
 10
487.304743568
 20
476.8780121866
 30
0.0
 40
0.1499999999999773
100
AcDbArc
 50
318.1896851038
 51
0.0
  0
LINE
  5
2D9
330
1F
100
AcDbEntity
  8
0
  6
Continuous
 62
     7
370
    15
100
AcDbLine
 10
523.4797429883
 20
421.6155204263
 30
0.0
 11
523.4797429883
 21
418.6155180719
 31
0.0
  0
LINE
  5
2DA
330
1F
100
AcDbEntity
  8
0
  6
Continuous
 62
     7
370
    15
100
AcDbLine
 10
523.4797429883
 20
425.36551685
 30
0.0
 11
523.4797429883
 21
421.6155204263
 31
0.0
  0
LINE
  5
2DB
330
1F
100
AcDbEntity
  8
0
  6
Continuous
 62
     7
370
    15
100
AcDbLine
 10
530.9797507369
 20
418.6155180719
 30
0.0
 11
530.7297390544
 21
418.6155180719
 31
0.0
  0
LINE
  5
2DC
330
1F
100
AcDbEntity
  8
0
  6
Continuous
 62
     7
370
    15
100
AcDbLine
 10
527.7297478759
 20
418.6155180719
 30
0.0
 11
523.4797429883
 21
418.6155180719
 31
0.0
  0
LINE
  5
2DD
330
1F
100
AcDbEntity
  8
0
  6
Continuous
 62
     7
370
    15
100
AcDbLine
 10
530.9797507369
 20
418.6155180719
 30
0.0
 11
530.9797507369
 21
418.3655175653
 31
0.0
  0
LINE
  5
2DE
330
1F
100
AcDbEntity
  8
0
  6
Continuous
 62
     7
370
    15
100
AcDbLine
 10
530.9797507369
 20
418.3655175653
 30
0.0
 11
530.7297390544
 21
418.3655175653
 31
0.0
  0
LINE
  5
2DF
330
1F
100
AcDbEntity
  8
0
  6
Continuous
 62
     7
370
    15
100
AcDbLine
 10
526.9797426306
 20
417.365519264
 30
0.0
 11
527.7297478759
 21
417.365519264
 31
0.0
  0
LINE
  5
2E0
330
1F
100
AcDbEntity
  8
0
  6
Continuous
 62
     7
370
    15
100
AcDbLine
 10
526.9797426306
 20
417.365519264
 30
0.0
 11
526.9797426306
 21
416.4129327323
 31
0.0
  0
LINE
  5
2E1
330
1F
100
AcDbEntity
  8
0
  6
Continuous
 62
     7
370
    15
100
AcDbLine
 10
430.7297450148
 20
460.0280094233
 30
0.0
 11
433.268206253
 21
459.435703167
 31
0.0
  0
LINE
  5
2E2
330
1F
100
AcDbEntity
  8
0
  6
Continuous
 62
     7
370
    15
100
AcDbLine
 10
404.5126028948
 20
460.0280094233
 30
0.0
 11
407.4468818151
 21
460.0280094233
 31
0.0
  0
LINE
  5
2E3
330
1F
100
AcDbEntity
  8
0
  6
Continuous
 62
     7
370
    15
100
AcDbLine
 10
417.0126040124
 20
460.0280094233
 30
0.0
 11
419.9468847954
 21
460.0280094233
 31
0.0
  0
LINE
  5
2E4
330
1F
100
AcDbEntity
  8
0
  6
Continuous
 62
     7
370
    15
100
AcDbLine
 10
429.5126032674
 20
460.0280094233
 30
0.0
 11
430.7297450148
 21
460.0280094233
 31
0.0
  0
LINE
  5
2E5
330
1F
100
AcDbEntity
  8
0
  6
Continuous
 62
     7
370
    15
100
AcDbLine
 10
444.7547402822
 20
458.2780096021
 30
0.0
 11
445.2297445976
 21
458.2780096021
 31
0.0
  0
LINE
  5
2E6
330
1F
100
AcDbEntity
  8
0
  6
Continuous
 62
     7
370
    15
100
AcDbLine
 10
308.512603923
 20
460.0280094233
 30
0.0
 11
310.5547410094
 21
460.0280094233
 31
0.0
  0
LINE
  5
2E7
330
1F
100
AcDbEntity
  8
0
  6
Continuous
 62
     7
370
    15
100
AcDbLine
 10
321.0126031779
 20
460.0280094233
 30
0.0
 11
323.9468839609
 21
460.0280094233
 31
0.0
  0
LINE
  5
2E8
330
1F
100
AcDbEntity
  8
0
  6
Continuous
 62
     7
370
    15
100
AcDbLine
 10
296.9294321381
 20
458.6780089226
 30
0.0
 11
297.9068887078
 21
458.9080455985
 31
0.0
  0
LINE
  5
2E9
330
1F
100
AcDbEntity
  8
0
  6
Continuous
 62
     7
370
    15
100
AcDbLine
 10
286.05688928
 20
458.2780096021
 30
0.0
 11
286.05688928
 21
458.6780089226
 31
0.0
  0
LINE
  5
2EA
330
1F
100
AcDbEntity
  8
0
  6
Continuous
 62
     7
370
    15
100
AcDbLine
 10
286.05688928
 20
458.6780089226
 30
0.0
 11
286.3068935119
 21
458.6780089226
 31
0.0
  0
LINE
  5
2EB
330
1F
100
AcDbEntity
  8
0
  6
Continuous
 62
     7
370
    15
100
AcDbLine
 10
286.3068935119
 20
458.2780096021
 30
0.0
 11
286.05688928
 21
458.2780096021
 31
0.0
  0
LINE
  5
2EC
330
1F
100
AcDbEntity
  8
0
  6
Continuous
 62
     7
370
    15
100
AcDbLine
 10
300.5194794976
 20
458.2780096021
 30
0.0
 11
294.4400068962
 21
458.2780096021
 31
0.0
  0
LINE
  5
2ED
330
1F
100
AcDbEntity
  8
0
  6
Continuous
 62
     7
370
    15
100
AcDbLine
 10
288.0194839679
 20
458.2780096021
 30
0.0
 11
286.3068935119
 21
458.2780096021
 31
0.0
  0
LINE
  5
2EE
330
1F
100
AcDbEntity
  8
0
  6
Continuous
 62
     7
370
    15
100
AcDbLine
 10
300.3363144242
 20
458.6780089226
 30
0.0
 11
294.6231719696
 21
458.6780089226
 31
0.0
  0
LINE
  5
2EF
330
1F
100
AcDbEntity
  8
0
  6
Continuous
 62
     7
370
    15
100
AcDbLine
 10
287.836311444
 20
458.6780089226
 30
0.0
 11
286.3068935119
 21
458.6780089226
 31
0.0
  0
LINE
  5
2F0
330
1F
100
AcDbEntity
  8
0
  6
Continuous
 62
     7
370
    15
100
AcDbLine
 10
297.9068887078
 20
459.3030157771
 30
0.0
 11
297.9068887078
 21
458.6780089226
 31
0.0
  0
LINE
  5
2F1
330
1F
100
AcDbEntity
  8
0
  6
Continuous
 62
     7
370
    15
100
AcDbLine
 10
297.9068887078
 20
460.349822351
 30
0.0
 11
297.9068887078
 21
459.3030157771
 31
0.0
  0
LINE
  5
2F2
330
1F
100
AcDbEntity
  8
0
  6
Continuous
 62
     7
370
    15
100
AcDbLine
 10
531.6297393882
 20
416.8119299498
 30
0.0
 11
531.8797361695
 21
416.8119299498
 31
0.0
  0
LINE
  5
2F3
330
1F
100
AcDbEntity
  8
0
  6
Continuous
 62
     7
370
    15
100
AcDbLine
 10
531.6297393882
 20
416.8119299498
 30
0.0
 11
530.7297390544
 21
416.8119299498
 31
0.0
  0
LINE
  5
2F4
330
1F
100
AcDbEntity
  8
0
  6
Continuous
 62
     7
370
    15
100
AcDbLine
 10
531.8797361695
 20
416.4119306293
 30
0.0
 11
531.6297393882
 21
416.4119306293
 31
0.0
  0
LINE
  5
2F5
330
1F
100
AcDbEntity
  8
0
  6
Continuous
 62
     7
370
    15
100
AcDbLine
 10
531.6297393882
 20
416.4119306293
 30
0.0
 11
530.7297390544
 21
416.4119306293
 31
0.0
  0
LINE
  5
2F6
330
1F
100
AcDbEntity
  8
0
  6
Continuous
 62
     7
370
    15
100
AcDbLine
 10
531.6297393882
 20
416.4119306293
 30
0.0
 11
531.6297393882
 21
416.8119299498
 31
0.0
  0
LINE
  5
2F7
330
1F
100
AcDbEntity
  8
0
  6
Continuous
 62
     7
370
    15
100
AcDbLine
 10
531.8797361695
 20
416.8119299498
 30
0.0
 11
531.8797361695
 21
416.4119306293
 31
0.0
  0
LINE
  5
2F8
330
1F
100
AcDbEntity
  8
0
  6
Continuous
 62
     7
370
    15
100
AcDbLine
 10
526.3547432267
 20
415.6883712199
 30
0.0
 11
522.7297377431
 21
415.6883712199
 31
0.0
  0
LINE
  5
2F9
330
1F
100
AcDbEntity
  8
0
  6
Continuous
 62
     7
370
    15
100
AcDbLine
 10
522.7297377431
 20
412.5483687308
 30
0.0
 11
526.3547432267
 21
412.5483687308
 31
0.0
  0
LINE
  5
2FA
330
1F
100
AcDbEntity
  8
0
  6
Continuous
 62
     7
370
    15
100
AcDbLine
 10
526.3547432267
 20
415.6883712199
 30
0.0
 11
527.167154535
 21
415.6883712199
 31
0.0
  0
LINE
  5
2FB
330
1F
100
AcDbEntity
  8
0
  6
Continuous
 62
     7
370
    15
100
AcDbLine
 10
527.167154535
 20
412.5483687308
 30
0.0
 11
526.3547432267
 21
412.5483687308
 31
0.0
  0
LINE
  5
2FC
330
1F
100
AcDbEntity
  8
0
  6
Continuous
 62
     7
370
    15
100
AcDbLine
 10
527.3797494017
 20
415.6883712199
 30
0.0
 11
527.3797494017
 21
412.5483687308
 31
0.0
  0
LINE
  5
2FD
330
1F
100
AcDbEntity
  8
0
  6
Continuous
 62
     7
370
    15
100
AcDbLine
 10
531.8797361695
 20
416.8119299498
 30
0.0
 11
531.8797361695
 21
416.8956632998
 31
0.0
  0
LINE
  5
2FE
330
1F
100
AcDbEntity
  8
0
  6
Continuous
 62
     7
370
    15
100
AcDbLine
 10
527.3797494017
 20
416.4129327323
 30
0.0
 11
527.3797494017
 21
415.6883712199
 31
0.0
  0
LINE
  5
2FF
330
1F
100
AcDbEntity
  8
0
  6
Continuous
 62
     7
370
    15
100
AcDbLine
 10
527.3797494017
 20
416.4129327323
 30
0.0
 11
527.3797494017
 21
417.1880613353
 31
0.0
  0
LINE
  5
300
330
1F
100
AcDbEntity
  8
0
  6
Continuous
 62
     7
370
    15
100
AcDbLine
 10
527.3797494017
 20
412.5483687308
 30
0.0
 11
527.3797494017
 21
412.1973122742
 31
0.0
  0
LINE
  5
301
330
1F
100
AcDbEntity
  8
0
  6
Continuous
 62
     7
370
    15
100
AcDbLine
 10
526.9797426306
 20
412.5483687308
 30
0.0
 11
526.9797426306
 21
412.1973122742
 31
0.0
  0
LINE
  5
302
330
1F
100
AcDbEntity
  8
0
  6
Continuous
 62
     7
370
    15
100
AcDbLine
 10
527.167154535
 20
412.5483687308
 30
0.0
 11
527.3797494017
 21
412.5483687308
 31
0.0
  0
LINE
  5
303
330
1F
100
AcDbEntity
  8
0
  6
Continuous
 62
     7
370
    15
100
AcDbLine
 10
527.167154535
 20
415.6883712199
 30
0.0
 11
527.3797494017
 21
415.6883712199
 31
0.0
  0
LINE
  5
304
330
1F
100
AcDbEntity
  8
0
  6
Continuous
 62
     7
370
    15
100
AcDbLine
 10
526.9797426306
 20
416.4129327323
 30
0.0
 11
526.9797426306
 21
415.6883712199
 31
0.0
  0
LINE
  5
305
330
1F
100
AcDbEntity
  8
0
  6
Continuous
 62
     7
370
    15
100
AcDbLine
 10
526.9797426306
 20
416.4129327323
 30
0.0
 11
527.3797494017
 21
416.4129327323
 31
0.0
  0
ARC
  5
306
330
1F
100
AcDbEntity
  8
0
  6
Continuous
 62
     7
370
    15
100
AcDbCircle
 10
528.004743568
 20
416.5905188597
 30
0.0
 40
1.024999999999906
100
AcDbArc
 50
142.4281306803
 51
144.3405032852
  0
LINE
  5
307
330
1F
100
AcDbEntity
  8
0
  6
Continuous
 62
     7
370
    15
100
AcDbLine
 10
527.1719378077
 20
417.1880613353
 30
0.0
 11
526.9797426306
 21
417.1880613353
 31
0.0
  0
LINE
  5
308
330
1F
100
AcDbEntity
  8
0
  6
Continuous
 62
     7
370
    15
100
AcDbLine
 10
531.8797361695
 20
416.8956632998
 30
0.0
 11
531.8797361695
 21
417.1869288471
 31
0.0
  0
LINE
  5
309
330
1F
100
AcDbEntity
  8
0
  6
Continuous
 62
     7
370
    15
100
AcDbLine
 10
531.3752573573
 20
417.4781943944
 30
0.0
 11
531.8797361695
 21
417.1869288471
 31
0.0
  0
ARC
  5
30A
330
1F
100
AcDbEntity
  8
0
  6
Continuous
 62
     7
370
    15
100
AcDbCircle
 10
530.8627562699
 20
416.5905188597
 30
0.0
 40
1.024999999999977
100
AcDbArc
 50
60.0
 51
90.0
  0
LINE
  5
30B
330
1F
100
AcDbEntity
  8
0
  6
Continuous
 62
     7
370
    15
100
AcDbLine
 10
530.7297390544
 20
417.6155197706
 30
0.0
 11
530.8627617203
 21
417.6155197706
 31
0.0
  0
ARC
  5
30C
330
1F
100
AcDbEntity
  8
0
  6
Continuous
 62
     7
370
    15
100
AcDbCircle
 10
528.004743568
 20
416.5905188597
 30
0.0
 40
0.625
100
AcDbArc
 50
116.1038811702
 51
180.0
  0
LINE
  5
30D
330
1F
100
AcDbEntity
  8
0
  6
Continuous
 62
     7
370
    15
100
AcDbLine
 10
527.3797494017
 20
417.2155204501
 30
0.0
 11
527.1923374974
 21
417.2155204501
 31
0.0
  0
LINE
  5
30E
330
1F
100
AcDbEntity
  8
0
  6
Continuous
 62
     7
370
    15
100
AcDbLine
 10
527.3797494017
 20
417.2155204501
 30
0.0
 11
527.3797494017
 21
417.1880613353
 31
0.0
  0
LWPOLYLINE
  5
30F
330
1F
100
AcDbEntity
  8
0
  6
Continuous
 62
     7
370
    15
100
AcDbPolyline
 90
        3
 70
   128
 43
0.0
 10
527.3339283311
 20
417.365519264
 10
527.2689741694
 20
417.3041562822
 10
527.1923374974
 20
417.2155204501
  0
SPLINE
  5
310
330
1F
100
AcDbEntity
  8
0
  6
Continuous
 62
     7
370
    15
100
AcDbSpline
210
0.0
220
0.0
230
1.0
 70
     8
 71
     3
 72
    12
 73
     8
 74
     0
 42
0.00000001
 43
0.00000001
 40
0.0
 40
0.0
 40
0.0
 40
0.0
 40
0.2303360728618685
 40
0.4607658184640033
 40
0.6911893282126561
 40
0.9216196197107785
 40
1.0
 40
1.0
 40
1.0
 40
1.0
 10
215.3797429644303
 20
234.5954942789088
 30
0.0
 10
215.4277431365001
 20
234.7191232750602
 30
0.0
 10
215.5237630012802
 20
234.9664315446238
 30
0.0
 10
215.6678271047014
 20
235.2896676863381
 30
0.0
 10
215.8118136973235
 20
235.5216309868374
 30
0.0
 10
215.9244313228461
 20
235.6126852468757
 30
0.0
 10
215.9884847346991
 20
235.6189183954308
 30
0.0
 10
216.0047423683838
 20
235.62050045395
 30
0.0
  0
LINE
  5
311
330
1F
100
AcDbEntity
  8
0
  6
Continuous
 62
     7
370
    15
100
AcDbLine
 10
578.4547459923
 20
235.620500454
 30
0.0
 11
578.3995073878
 21
235.620500454
 31
0.0
  0
LINE
  5
312
330
1F
100
AcDbEntity
  8
0
  6
Continuous
 62
     7
370
    15
100
AcDbLine
 10
570.5052447163
 20
235.620500454
 30
0.0
 11
223.9547502839
 21
235.620500454
 31
0.0
  0
SPLINE
  5
313
330
1F
100
AcDbEntity
  8
0
  6
Continuous
 62
     7
370
    15
100
AcDbSpline
210
0.0
220
0.0
230
1.0
 70
     8
 71
     3
 72
    12
 73
     8
 74
     0
 42
0.00000001
 43
0.00000001
 40
0.0
 40
0.0
 40
0.0
 40
0.0
 40
0.2303382583533961
 40
0.4607618249144415
 40
0.6911860674310215
 40
0.9216118024855984
 40
1.0
 40
1.0
 40
1.0
 40
1.0
 10
578.4547459923463
 20
235.62050045395
 30
0.0
 10
578.5027455297364
 20
235.6074387739132
 30
0.0
 10
578.5987623816528
 20
235.5813105763085
 30
0.0
 10
578.7428339627315
 20
235.3786684505414
 30
0.0
 10
578.8868122891938
 20
235.0842737793434
 30
0.0
 10
578.9994415275511
 20
234.8023554875874
 30
0.0
 10
579.0634880592771
 20
234.6373728638238
 30
0.0
 10
579.0797453962998
 20
234.5954942789088
 30
0.0
  0
LINE
  5
314
330
1F
100
AcDbEntity
  8
0
  6
Continuous
 62
     7
370
    15
100
AcDbLine
 10
215.3797429644
 20
220.5204981651
 30
0.0
 11
215.3797429644
 21
234.5954942789
 31
0.0
  0
LINE
  5
315
330
1F
100
AcDbEntity
  8
0
  6
Continuous
 62
     7
370
    15
100
AcDbLine
 10
579.0797453963
 20
234.5954942789
 30
0.0
 11
579.0797453963
 21
220.5204981651
 31
0.0
  0
LINE
  5
316
330
1F
100
AcDbEntity
  8
0
  6
Continuous
 62
     7
370
    15
100
AcDbLine
 10
215.3797429644
 20
207.6204884138
 30
0.0
 11
215.3797429644
 21
220.5204981651
 31
0.0
  0
LINE
  5
317
330
1F
100
AcDbEntity
  8
0
  6
Continuous
 62
     7
370
    15
100
AcDbLine
 10
579.0797453963
 20
207.6204884138
 30
0.0
 11
215.3797429644
 21
207.6204884138
 31
0.0
  0
LINE
  5
318
330
1F
100
AcDbEntity
  8
0
  6
Continuous
 62
     7
370
    15
100
AcDbLine
 10
579.0797453963
 20
220.5204981651
 30
0.0
 11
579.0797453963
 21
207.6204884138
 31
0.0
  0
LINE
  5
319
330
1F
100
AcDbEntity
  8
0
  6
Continuous
 62
     7
370
    15
100
AcDbLine
 10
579.0797453963
 20
234.5954942789
 30
0.0
 11
579.4797372662
 21
234.5954942789
 31
0.0
  0
SPLINE
  5
31A
330
1F
100
AcDbEntity
  8
0
  6
Continuous
 62
     7
370
    15
100
AcDbSpline
210
0.0
220
0.0
230
1.0
 70
     8
 71
     3
 72
    10
 73
     6
 74
     0
 42
0.00000001
 43
0.00000001
 40
0.0
 40
0.0
 40
0.0
 40
0.0
 40
0.494300397064194
 40
0.9885910221448913
 40
1.0
 40
1.0
 40
1.0
 40
1.0
 10
579.0797453962998
 20
234.5954942789088
 30
0.0
 10
579.0691112429707
 20
234.675560167062
 30
0.0
 10
579.0478431465427
 20
234.8356903605201
 30
0.0
 10
578.9628993773983
 20
234.9935450911449
 30
0.0
 10
578.8935697959045
 20
235.0395248228029
 30
0.0
 10
578.8920056664185
 20
235.0405621614466
 30
0.0
  0
SPLINE
  5
31B
330
1F
100
AcDbEntity
  8
0
  6
Continuous
 62
     7
370
    15
100
AcDbSpline
210
0.0
220
0.0
230
1.0
 70
     8
 71
     3
 72
    11
 73
     7
 74
     0
 42
0.00000001
 43
0.00000001
 40
0.0
 40
0.0
 40
0.0
 40
0.0
 40
0.2500047952808973
 40
0.5000055415842936
 40
0.7500062878876897
 40
0.9999999999999999
 40
0.9999999999999999
 40
0.9999999999999999
 40
0.9999999999999999
 10
579.4797372662263
 20
234.5954942789088
 30
0.0
 10
579.4643306086269
 20
234.7298099337561
 30
0.0
 10
579.4335175429484
 20
234.9984390681281
 30
0.0
 10
579.1964866313202
 20
235.3372501101499
 30
0.0
 10
578.8576818189707
 20
235.5742769953647
 30
0.0
 10
578.5890566748334
 20
235.6050927789325
 30
0.0
 10
578.4547459923463
 20
235.62050045395
 30
0.0
  0
LINE
  5
31C
330
1F
100
AcDbEntity
  8
0
  6
Continuous
 62
     7
370
    15
100
AcDbLine
 10
579.4797372662
 20
220.4404491272
 30
0.0
 11
579.4797372662
 21
234.5954942789
 31
0.0
  0
LINE
  5
31D
330
1F
100
AcDbEntity
  8
0
  6
Continuous
 62
     7
370
    15
100
AcDbLine
 10
215.3797429644
 20
234.5954942789
 30
0.0
 11
214.9797361933
 21
234.5954942789
 31
0.0
  0
SPLINE
  5
31E
330
1F
100
AcDbEntity
  8
0
  6
Continuous
 62
     7
370
    15
100
AcDbSpline
210
0.0
220
0.0
230
1.0
 70
     8
 71
     3
 72
    11
 73
     7
 74
     0
 42
0.00000001
 43
0.00000001
 40
0.0
 40
0.0
 40
0.0
 40
0.0
 40
0.2499933179560462
 40
0.4999936700920879
 40
0.7499940222281296
 40
0.9999999999999999
 40
0.9999999999999999
 40
0.9999999999999999
 40
0.9999999999999999
 10
216.0047423683838
 20
235.62050045395
 30
0.0
 10
215.8704317740462
 20
235.6050927634062
 30
0.0
 10
215.6018068062104
 20
235.5742769487854
 30
0.0
 10
215.2630006715712
 20
235.3372502964733
 30
0.0
 10
215.0259742864233
 20
234.998437657159
 30
0.0
 10
214.9951490066425
 20
234.7298097457813
 30
0.0
 10
214.9797361933426
 20
234.5954942789088
 30
0.0
  0
SPLINE
  5
31F
330
1F
100
AcDbEntity
  8
0
  6
Continuous
 62
     7
370
    15
100
AcDbSpline
210
0.0
220
0.0
230
1.0
 70
     8
 71
     3
 72
    10
 73
     6
 74
     0
 42
0.00000001
 43
0.00000001
 40
0.0
 40
0.0
 40
0.0
 40
0.0
 40
0.0114089778551088
 40
0.505699602935806
 40
1.0
 40
1.0
 40
1.0
 40
1.0
 10
215.5674826943116
 20
235.0405621614466
 30
0.0
 10
215.5659185648257
 20
235.0395248228029
 30
0.0
 10
215.4965889833319
 20
234.9935450911451
 30
0.0
 10
215.4116452141873
 20
234.8356903605201
 30
0.0
 10
215.3903771177593
 20
234.675560167062
 30
0.0
 10
215.3797429644303
 20
234.5954942789088
 30
0.0
  0
LINE
  5
320
330
1F
100
AcDbEntity
  8
0
  6
Continuous
 62
     7
370
    15
100
AcDbLine
 10
214.9797361933
 20
234.5954942789
 30
0.0
 11
214.9797361933
 21
220.545263895
 31
0.0
  0
LINE
  5
321
330
1F
100
AcDbEntity
  8
0
  6
Continuous
 62
     7
370
    15
100
AcDbLine
 10
579.4797372662
 20
208.0454993334
 30
0.0
 11
579.0797453963
 21
208.0454993334
 31
0.0
  0
LINE
  5
322
330
1F
100
AcDbEntity
  8
0
  6
Continuous
 62
     7
370
    15
100
AcDbLine
 10
579.4797372662
 20
208.0454993334
 30
0.0
 11
579.4797372662
 21
220.4404491272
 31
0.0
  0
LINE
  5
323
330
1F
100
AcDbEntity
  8
0
  6
Continuous
 62
     7
370
    15
100
AcDbLine
 10
214.9797361933
 20
208.0454993334
 30
0.0
 11
215.3797429644
 21
208.0454993334
 31
0.0
  0
LINE
  5
324
330
1F
100
AcDbEntity
  8
0
  6
Continuous
 62
     7
370
    15
100
AcDbLine
 10
214.9797361933
 20
220.545263895
 30
0.0
 11
214.9797361933
 21
208.0454993334
 31
0.0
  0
LINE
  5
325
330
1F
100
AcDbEntity
  8
0
  6
Continuous
 62
     7
370
    15
100
AcDbLine
 10
561.9797390544
 20
235.620500454
 30
0.0
 11
561.9797390544
 21
235.7792127218
 31
0.0
  0
LINE
  5
326
330
1F
100
AcDbEntity
  8
0
  6
Continuous
 62
     7
370
    15
100
AcDbLine
 10
232.4797493064
 20
235.7760536757
 30
0.0
 11
232.4797493064
 21
235.620500454
 31
0.0
  0
LWPOLYLINE
  5
327
330
1F
100
AcDbEntity
  8
0
  6
Continuous
 62
     7
370
    15
100
AcDbPolyline
 90
        3
 70
   128
 43
0.0
 10
579.0797453963
 20
207.8330981817
 10
579.1795235717
 20
207.9207170095
 10
579.2857837521
 20
208.0454993334
  0
LWPOLYLINE
  5
328
330
1F
100
AcDbEntity
  8
0
  6
Continuous
 62
     7
370
    15
100
AcDbPolyline
 90
        3
 70
   128
 43
0.0
 10
215.1737046086
 20
208.0454993334
 10
215.2799647891
 20
207.9207170095
 10
215.3797429644
 20
207.8330981817
  0
ARC
  5
329
330
1F
100
AcDbEntity
  8
0
  6
Continuous
 62
     7
370
    15
100
AcDbCircle
 10
477.0443304049
 20
149.4786259587
 30
0.0
 40
9.31484794226489
100
AcDbArc
 50
180.4305787819
 51
209.5808396771
  0
LWPOLYLINE
  5
32A
330
1F
100
AcDbEntity
  8
0
  6
Continuous
 62
     7
370
    15
100
AcDbPolyline
 90
       16
 70
   128
 43
0.0
 10
502.7297419154
 20
150.1648146
 10
502.6399624192
 20
151.4167058554
 10
502.3715180003
 20
152.6557523098
 10
501.9271802746
 20
153.8692432728
 10
501.3115089976
 20
155.0447064724
 10
500.5308073603
 20
156.1701166716
 10
499.5931070887
 20
157.233895668
 10
498.5080119812
 20
158.2251358118
 10
497.2866681062
 20
159.1336596098
 10
495.9415998899
 20
159.9501538363
 10
494.486613258
 20
160.6662440386
 10
492.9366391741
 20
161.2745690432
 10
491.3075846278
 20
161.7689001646
 10
489.6161612713
 20
162.1441561069
 10
487.8797289573
 20
162.3964774694
 10
487.2297403061
 20
162.458093771
  0
LWPOLYLINE
  5
32B
330
1F
100
AcDbEntity
  8
0
  6
Continuous
 62
     7
370
    15
100
AcDbPolyline
 90
       48
 70
   128
 43
0.0
 10
483.229747101
 20
162.458093771
 10
482.5797584497
 20
162.3964774694
 10
480.8433261358
 20
162.1441561069
 10
479.1519027793
 20
161.7689001646
 10
477.5228482329
 20
161.2745690432
 10
475.972874149
 20
160.6662440386
 10
474.5178875171
 20
159.9501538363
 10
473.1728193008
 20
159.1336596098
 10
471.9514754259
 20
158.2251358118
 10
470.8663803183
 20
157.233895668
 10
469.9286800467
 20
156.1701166716
 10
469.1479784095
 20
155.0447064724
 10
468.5323071324
 20
153.8692432728
 10
468.0879694068
 20
152.6557523098
 10
467.8195324384
 20
151.4167058554
 10
467.7297454917
 20
150.1648146
 10
467.8195324384
 20
148.9129084435
 10
468.0879694068
 20
147.673861989
 10
468.5323071324
 20
146.4603859272
 10
469.1479784095
 20
145.2849078264
 10
469.9286800467
 20
144.1594976273
 10
470.8663803183
 20
143.0957186308
 10
471.9514754259
 20
142.104478487
 10
473.1728193008
 20
141.195954689
 10
474.5178875171
 20
140.3794604626
 10
475.972874149
 20
139.6633702602
 10
477.5228482329
 20
139.0550452557
 10
479.1519027793
 20
138.5607141342
 10
480.8433261358
 20
138.1854581919
 10
482.5797584497
 20
137.9331368294
 10
484.3433853828
 20
137.8063279476
 10
486.1161020242
 20
137.8063279476
 10
487.8797289573
 20
137.9331368294
 10
489.6161612713
 20
138.1854581919
 10
491.3075846278
 20
138.5607141342
 10
492.9366391741
 20
139.0550452557
 10
494.486613258
 20
139.6633702602
 10
495.9415998899
 20
140.3794604626
 10
497.2866681062
 20
141.195954689
 10
498.5080119812
 20
142.104478487
 10
499.5931070887
 20
143.0957186308
 10
500.5308073603
 20
144.1594976273
 10
501.3115089976
 20
145.2849078264
 10
501.9271802746
 20
146.4603859272
 10
502.3715180003
 20
147.673861989
 10
502.6399624192
 20
148.9129084435
 10
502.7297419154
 20
150.1648146
 10
502.7297419154
 20
150.1648146
  0
LWPOLYLINE
  5
32C
330
1F
100
AcDbEntity
  8
0
  6
Continuous
 62
     7
370
    15
100
AcDbPolyline
 90
        3
 70
   128
 43
0.0
 10
487.479744538
 20
150.1648146
 10
487.3886015856
 20
150.6130415287
 10
487.2297403061
 20
150.8936750975
  0
LWPOLYLINE
  5
32D
330
1F
100
AcDbEntity
  8
0
  6
Continuous
 62
     7
370
    15
100
AcDbPolyline
 90
       15
 70
   128
 43
0.0
 10
483.229747101
 20
150.8936750975
 10
483.0708858215
 20
150.6130415287
 10
482.9797428691
 20
150.1648146
 10
483.0708858215
 20
149.7165727701
 10
483.3369237029
 20
149.3046599712
 10
483.7563094341
 20
148.9624250021
 10
484.2950609171
 20
148.7175989237
 10
484.9095326506
 20
148.5900151815
 10
485.5499547564
 20
148.5900151815
 10
486.16442649
 20
148.7175989237
 10
486.703177973
 20
148.9624250021
 10
487.1225637042
 20
149.3046599712
 10
487.3886015856
 20
149.7165727701
 10
487.479744538
 20
150.1648146
 10
487.479744538
 20
150.1648146
  0
LINE
  5
32E
330
1F
100
AcDbEntity
  8
0
  6
Continuous
 62
     7
370
    15
100
AcDbLine
 10
483.1084218466
 20
149.6344822731
 30
0.0
 11
483.229747101
 21
149.8330104437
 31
0.0
  0
LINE
  5
32F
330
1F
100
AcDbEntity
  8
0
  6
Continuous
 62
     7
370
    15
100
AcDbLine
 10
487.2297403061
 20
149.8330104437
 30
0.0
 11
487.3510655605
 21
149.6344822731
 31
0.0
  0
ARC
  5
330
330
1F
100
AcDbEntity
  8
0
  6
Continuous
 62
     7
370
    15
100
AcDbCircle
 10
240.0444185591
 20
149.4786505156
 30
0.0
 40
9.314939735498097
100
AcDbArc
 50
180.4307255916
 51
209.5806928673
  0
LWPOLYLINE
  5
331
330
1F
100
AcDbEntity
  8
0
  6
Continuous
 62
     7
370
    15
100
AcDbPolyline
 90
       16
 70
   128
 43
0.0
 10
265.7297459089
 20
150.1648146
 10
265.6399589621
 20
151.4167058554
 10
265.3715145432
 20
152.6557523098
 10
264.9271842682
 20
153.8692432728
 10
264.3115055405
 20
155.0447064724
 10
263.5308113538
 20
156.1701166716
 10
262.5931036317
 20
157.233895668
 10
261.5080085241
 20
158.2251358118
 10
260.2866646492
 20
159.1336596098
 10
258.9415964328
 20
159.9501538363
 10
257.4866172516
 20
160.6662440386
 10
255.9366431677
 20
161.2745690432
 10
254.3075886213
 20
161.7689001646
 10
252.6161652648
 20
162.1441561069
 10
250.8797329508
 20
162.3964774694
 10
250.2297442996
 20
162.458093771
  0
LWPOLYLINE
  5
332
330
1F
100
AcDbEntity
  8
0
  6
Continuous
 62
     7
370
    15
100
AcDbPolyline
 90
       48
 70
   128
 43
0.0
 10
246.2297361933
 20
162.458093771
 10
245.5797624432
 20
162.3964774694
 10
243.8433301293
 20
162.1441561069
 10
242.1518993222
 20
161.7689001646
 10
240.5228447758
 20
161.2745690432
 10
238.9728706919
 20
160.6662440386
 10
237.5178915106
 20
159.9501538363
 10
236.1728232943
 20
159.1336596098
 10
234.9514794194
 20
158.2251358118
 10
233.8663768613
 20
157.233895668
 10
232.9286765897
 20
156.1701166716
 10
232.1479749524
 20
155.0447064724
 10
231.5323036753
 20
153.8692432728
 10
231.0879659497
 20
152.6557523098
 10
230.819536432
 20
151.4167058554
 10
230.7297420346
 20
150.1648146
 10
230.819536432
 20
148.9129084435
 10
231.0879659497
 20
147.673861989
 10
231.5323036753
 20
146.4603859272
 10
232.1479749524
 20
145.2849078264
 10
232.9286765897
 20
144.1594976273
 10
233.8663768613
 20
143.0957186308
 10
234.9514794194
 20
142.104478487
 10
236.1728232943
 20
141.195954689
 10
237.5178915106
 20
140.3794604626
 10
238.9728706919
 20
139.6633702602
 10
240.5228447758
 20
139.0550452557
 10
242.1518993222
 20
138.5607141342
 10
243.8433301293
 20
138.1854581919
 10
245.5797624432
 20
137.9331368294
 10
247.3433893763
 20
137.8063279476
 10
249.1161060178
 20
137.8063279476
 10
250.8797329508
 20
137.9331368294
 10
252.6161652648
 20
138.1854581919
 10
254.3075886213
 20
138.5607141342
 10
255.9366431677
 20
139.0550452557
 10
257.4866172516
 20
139.6633702602
 10
258.9415964328
 20
140.3794604626
 10
260.2866646492
 20
141.195954689
 10
261.5080085241
 20
142.104478487
 10
262.5931036317
 20
143.0957186308
 10
263.5308113538
 20
144.1594976273
 10
264.3115055405
 20
145.2849078264
 10
264.9271842682
 20
146.4603859272
 10
265.3715145432
 20
147.673861989
 10
265.6399589621
 20
148.9129084435
 10
265.7297459089
 20
150.1648146
 10
265.7297459089
 20
150.1648146
  0
LWPOLYLINE
  5
333
330
1F
100
AcDbEntity
  8
0
  6
Continuous
 62
     7
370
    15
100
AcDbPolyline
 90
        3
 70
   128
 43
0.0
 10
250.4797410809
 20
150.1648146
 10
250.3886055791
 20
150.6130415287
 10
250.2297442996
 20
150.8936750975
  0
LWPOLYLINE
  5
334
330
1F
100
AcDbEntity
  8
0
  6
Continuous
 62
     7
370
    15
100
AcDbPolyline
 90
       15
 70
   128
 43
0.0
 10
246.2297361933
 20
150.8936750975
 10
246.070889815
 20
150.6130415287
 10
245.979739412
 20
150.1648146
 10
246.070889815
 20
149.7165727701
 10
246.3369202458
 20
149.3046599712
 10
246.7563134276
 20
148.9624250021
 10
247.2950649106
 20
148.7175989237
 10
247.9095291936
 20
148.5900151815
 10
248.5499512994
 20
148.5900151815
 10
249.1644304835
 20
148.7175989237
 10
249.7031819665
 20
148.9624250021
 10
250.1225676977
 20
149.3046599712
 10
250.3886055791
 20
149.7165727701
 10
250.4797410809
 20
150.1648146
 10
250.4797410809
 20
150.1648146
  0
LINE
  5
335
330
1F
100
AcDbEntity
  8
0
  6
Continuous
 62
     7
370
    15
100
AcDbLine
 10
246.1084258401
 20
149.6344822731
 30
0.0
 11
246.2297361933
 21
149.8330104437
 31
0.0
  0
LINE
  5
336
330
1F
100
AcDbEntity
  8
0
  6
Continuous
 62
     7
370
    15
100
AcDbLine
 10
250.2297442996
 20
149.8330104437
 30
0.0
 11
250.3510621034
 21
149.6344822731
 31
0.0
  0
LINE
  5
337
330
1F
100
AcDbEntity
  8
0
  6
Continuous
 62
     7
370
    15
100
AcDbLine
 10
530.7297390544
 20
207.6204884138
 30
0.0
 11
530.7297390544
 21
206.8204897728
 31
0.0
  0
SPLINE
  5
338
330
1F
100
AcDbEntity
  8
0
  6
Continuous
 62
     7
370
    15
100
AcDbSpline
210
0.0
220
0.0
230
1.0
 70
    24
 71
     3
 72
    11
 73
     7
 74
     0
 42
0.00000001
 43
0.00000001
 40
0.0
 40
0.0
 40
0.0
 40
0.0
 40
0.2833530474391862
 40
0.5581151100035676
 40
0.7754843306094952
 40
1.0
 40
1.0
 40
1.0
 40
1.0
 10
530.7297390543656
 20
206.8204897727977
 30
0.0
 10
530.749526514792
 20
206.8204897727977
 30
0.0
 10
530.7885014993648
 20
206.8204897727976
 30
0.0
 10
531.056346428474
 20
206.8204897727977
 30
0.0
 10
531.3823554520678
 20
206.8204897727976
 30
0.0
 10
531.6134747944299
 20
206.8204897727977
 30
0.0
 10
531.7309033714967
 20
206.8204897727977
 30
0.0
  0
LINE
  5
339
330
1F
100
AcDbEntity
  8
0
  6
Continuous
 62
     7
370
    15
100
AcDbLine
 10
550.7297497832
 20
207.6204884138
 30
0.0
 11
550.7297497832
 21
206.8204897728
 31
0.0
  0
SPLINE
  5
33A
330
1F
100
AcDbEntity
  8
0
  6
Continuous
 62
     7
370
    15
100
AcDbSpline
210
0.0
220
0.0
230
1.0
 70
    24
 71
     3
 72
    11
 73
     7
 74
     0
 42
0.00000001
 43
0.00000001
 40
0.0
 40
0.0
 40
0.0
 40
0.0
 40
0.2833085338588806
 40
0.5580338794292393
 40
0.7754282086604883
 40
1.0
 40
1.0
 40
1.0
 40
1.0
 10
549.7305673205094
 20
206.8204897727977
 30
0.0
 10
549.8791293642881
 20
206.8204897727976
 30
0.0
 10
550.1717525779154
 20
206.8204897727977
 30
0.0
 10
550.4963125282079
 20
206.8204897727976
 30
0.0
 10
550.6938795856912
 20
206.8204897727976
 30
0.0
 10
550.7176642973401
 20
206.8204897727976
 30
0.0
 10
550.7297497832017
 20
206.8204897727977
 30
0.0
  0
LINE
  5
33B
330
1F
100
AcDbEntity
  8
0
  6
Continuous
 62
     7
370
    15
100
AcDbLine
 10
531.7309033715
 20
206.8204897728
 30
0.0
 11
536.9282793843
 21
206.8204897728
 31
0.0
  0
LINE
  5
33C
330
1F
100
AcDbEntity
  8
0
  6
Continuous
 62
     7
370
    15
100
AcDbLine
 10
544.5312094533
 20
206.8204897728
 30
0.0
 11
549.7305673205
 21
206.8204897728
 31
0.0
  0
LINE
  5
33D
330
1F
100
AcDbEntity
  8
0
  6
Continuous
 62
     7
370
    15
100
AcDbLine
 10
530.7297390544
 20
206.8204897728
 30
0.0
 11
530.8924448334
 21
206.6205012884
 31
0.0
  0
SPLINE
  5
33E
330
1F
100
AcDbEntity
  8
0
  6
Continuous
 62
     7
370
    15
100
AcDbSpline
210
0.0
220
0.0
230
1.0
 70
    24
 71
     3
 72
    13
 73
     9
 74
     0
 42
0.00000001
 43
0.00000001
 40
0.0
 40
0.0
 40
0.0
 40
0.0
 40
0.1275381713189043
 40
0.2545919670367883
 40
0.4999423881025458
 40
0.7453273900136951
 40
0.8725056558925288
 40
1.0
 40
1.0
 40
1.0
 40
1.0
 10
531.7309033714967
 20
206.8204897727977
 30
0.0
 10
531.6643209913238
 20
206.8204897727976
 30
0.0
 10
531.5314091033542
 20
206.8204897727977
 30
0.0
 10
531.281231010254
 20
206.8204897727977
 30
0.0
 10
531.0067697392958
 20
206.8204897727977
 30
0.0
 10
530.8227598424207
 20
206.8204897727976
 30
0.0
 10
530.7415180986459
 20
206.8204897727977
 30
0.0
 10
530.7336686498177
 20
206.8204897727976
 30
0.0
 10
530.7297390543656
 20
206.8204897727977
 30
0.0
  0
LINE
  5
33F
330
1F
100
AcDbEntity
  8
0
  6
Continuous
 62
     7
370
    15
100
AcDbLine
 10
550.5670440041
 20
206.6205012884
 30
0.0
 11
550.7297497832
 21
206.8204897728
 31
0.0
  0
SPLINE
  5
340
330
1F
100
AcDbEntity
  8
0
  6
Continuous
 62
     7
370
    15
100
AcDbSpline
210
0.0
220
0.0
230
1.0
 70
    24
 71
     3
 72
    13
 73
     9
 74
     0
 42
0.00000001
 43
0.00000001
 40
0.0
 40
0.0
 40
0.0
 40
0.0
 40
0.1275699557979315
 40
0.2546453654147783
 40
0.5000115803121844
 40
0.7453699216445435
 40
0.8725246800667521
 40
0.9999999999999999
 40
0.9999999999999999
 40
0.9999999999999999
 40
0.9999999999999999
 10
550.7297497832017
 20
206.8204897727977
 30
0.0
 10
550.725966508852
 20
206.8204897727977
 30
0.0
 10
550.7184146266459
 20
206.8204897727976
 30
0.0
 10
550.6376780225573
 20
206.8204897727977
 30
0.0
 10
550.4542717447049
 20
206.8204897727976
 30
0.0
 10
550.1801234991539
 20
206.8204897727977
 30
0.0
 10
549.9300398629572
 20
206.8204897727977
 30
0.0
 10
549.7971139494771
 20
206.8204897727977
 30
0.0
 10
549.7305673205094
 20
206.8204897727977
 30
0.0
  0
LINE
  5
341
330
1F
100
AcDbEntity
  8
0
  6
Continuous
 62
     7
370
    15
100
AcDbLine
 10
540.7297444188
 20
206.6205012884
 30
0.0
 11
556.9797438227
 21
206.6205012884
 31
0.0
  0
LINE
  5
342
330
1F
100
AcDbEntity
  8
0
  6
Continuous
 62
     7
370
    15
100
AcDbLine
 10
524.4797450148
 20
206.6205012884
 30
0.0
 11
540.7297444188
 21
206.6205012884
 31
0.0
  0
LINE
  5
343
330
1F
100
AcDbEntity
  8
0
  6
Continuous
 62
     7
370
    15
100
AcDbLine
 10
532.8150373542
 20
201.6204911556
 30
0.0
 11
548.6444514834
 21
201.6204911556
 31
0.0
  0
LINE
  5
344
330
1F
100
AcDbEntity
  8
0
  6
Continuous
 62
     7
370
    15
100
AcDbLine
 10
528.6970865571
 20
205.0128448095
 30
0.0
 11
528.9810430848
 21
204.8457282867
 31
0.0
  0
SPLINE
  5
345
330
1F
100
AcDbEntity
  8
0
  6
Continuous
 62
     7
370
    15
100
AcDbSpline
210
0.0
220
0.0
230
1.0
 70
     8
 71
     3
 72
    12
 73
     8
 74
     0
 42
0.00000001
 43
0.00000001
 40
0.0
 40
0.0
 40
0.0
 40
0.0
 40
0.3119136573561533
 40
0.4652887277748765
 40
0.6252462345096571
 40
0.9371651507249693
 40
1.0
 40
1.0
 40
1.0
 40
1.0
 10
529.5901578509049
 20
203.4883070077906
 30
0.0
 10
529.6103157765127
 20
203.4032901217155
 30
0.0
 10
529.6403858146128
 20
203.2764684907019
 30
0.0
 10
529.6275321002554
 20
203.1250367720102
 30
0.0
 10
529.5888376559512
 20
202.9975135201286
 30
0.0
 10
529.5365675459046
 20
202.8950201497148
 30
0.0
 10
529.4721526409616
 20
202.8794104314125
 30
0.0
 10
529.4613522135453
 20
202.8767931547175
 30
0.0
  0
SPLINE
  5
346
330
1F
100
AcDbEntity
  8
0
  6
Continuous
 62
     7
370
    15
100
AcDbSpline
210
0.0
220
0.0
230
1.0
 70
     8
 71
     3
 72
    13
 73
     9
 74
     0
 42
0.00000001
 43
0.00000001
 40
0.0
 40
0.0
 40
0.0
 40
0.0
 40
0.2492150039010649
 40
0.3716577360924405
 40
0.4997832776379058
 40
0.626294510221402
 40
0.7503503651249839
 40
1.0
 40
1.0
 40
1.0
 40
1.0
 10
528.945757135077
 20
204.142348774911
 30
0.0
 10
529.0070258595124
 20
204.1334879451338
 30
0.0
 10
529.098396744333
 20
204.1202736687726
 30
0.0
 10
529.2284408537288
 20
204.0348502628812
 30
0.0
 10
529.3222044664492
 20
203.9517037874014
 30
0.0
 10
529.4096389355325
 20
203.851645888323
 30
0.0
 10
529.5118722386849
 20
203.7003737844268
 30
0.0
 10
529.5588049771837
 20
203.5732383595394
 30
0.0
 10
529.5901578509049
 20
203.4883070077906
 30
0.0
  0
LINE
  5
347
330
1F
100
AcDbEntity
  8
0
  6
Continuous
 62
     7
370
    15
100
AcDbLine
 10
528.9810430848
 20
204.8457282867
 30
0.0
 11
528.9457571351
 21
204.1423487749
 31
0.0
  0
LINE
  5
348
330
1F
100
AcDbEntity
  8
0
  6
Continuous
 62
     7
370
    15
100
AcDbLine
 10
552.6804011904
 20
204.9728351917
 30
0.0
 11
553.0795436942
 21
204.9769926157
 31
0.0
  0
LINE
  5
349
330
1F
100
AcDbEntity
  8
0
  6
Continuous
 62
     7
370
    15
100
AcDbLine
 10
552.4081420743
 20
204.6034652081
 30
0.0
 11
552.6804011904
 21
204.9728351917
 31
0.0
  0
LINE
  5
34A
330
1F
100
AcDbEntity
  8
0
  6
Continuous
 62
     7
370
    15
100
AcDbLine
 10
552.1818530404
 20
202.9036450472
 30
0.0
 11
552.7033042752
 21
204.6032416906
 31
0.0
  0
SPLINE
  5
34B
330
1F
100
AcDbEntity
  8
0
  6
Continuous
 62
     7
370
    15
100
AcDbSpline
210
0.0
220
0.0
230
1.0
 70
     8
 71
     3
 72
    13
 73
     9
 74
     0
 42
0.00000001
 43
0.00000001
 40
0.0
 40
0.0
 40
0.0
 40
0.0
 40
0.1575886460878375
 40
0.313091634123948
 40
0.4686465784215515
 40
0.6266370317994772
 40
0.9410513366488383
 40
0.9999999999999999
 40
0.9999999999999999
 40
0.9999999999999999
 40
0.9999999999999999
 10
540.696023091002
 20
205.0250637617121
 30
0.0
 10
540.7633830478616
 20
205.0218456773124
 30
0.0
 10
540.8972114643828
 20
205.0154520992948
 30
0.0
 10
541.0860542974751
 20
204.9466200321781
 30
0.0
 10
541.2439374963996
 20
204.8297858242707
 30
0.0
 10
541.3916665109173
 20
204.6223426002968
 30
0.0
 10
541.4616295886353
 20
204.417050971956
 30
0.0
 10
541.4703551915803
 20
204.2698526982338
 30
0.0
 10
541.4717328392701
 20
204.2466121997844
 30
0.0
  0
SPLINE
  5
34C
330
1F
100
AcDbEntity
  8
0
  6
Continuous
 62
     7
370
    15
100
AcDbSpline
210
0.0
220
0.0
230
1.0
 70
     8
 71
     3
 72
    12
 73
     8
 74
     0
 42
0.00000001
 43
0.00000001
 40
0.0
 40
0.0
 40
0.0
 40
0.0
 40
0.1252220262480922
 40
0.2503854848053702
 40
0.5001403999992433
 40
0.7499131051385136
 40
1.0
 40
1.0
 40
1.0
 40
1.0
 10
540.1091557585435
 20
204.7440725650798
 30
0.0
 10
540.1261264833448
 20
204.7654777155668
 30
0.0
 10
540.1600599955568
 20
204.8082780051215
 30
0.0
 10
540.240020596086
 20
204.8845568311238
 30
0.0
 10
540.3587330659794
 20
204.960999418295
 30
0.0
 10
540.523045231806
 20
205.0161814811598
 30
0.0
 10
540.6383396482731
 20
205.022101761119
 30
0.0
 10
540.696023091002
 20
205.0250637617121
 30
0.0
  0
SPLINE
  5
34D
330
1F
100
AcDbEntity
  8
0
  6
Continuous
 62
     7
370
    15
100
AcDbSpline
210
0.0
220
0.0
230
1.0
 70
     8
 71
     3
 72
     9
 73
     5
 74
     0
 42
0.00000001
 43
0.00000001
 40
0.0
 40
0.0
 40
0.0
 40
0.0
 40
0.1720417177257977
 40
1.0
 40
1.0
 40
1.0
 40
1.0
 10
539.9488937699036
 20
204.2565065708171
 30
0.0
 10
539.9503514797402
 20
204.2860780438113
 30
0.0
 10
539.9588244818465
 20
204.4579635224332
 30
0.0
 10
540.0410644750426
 20
204.6144818879895
 30
0.0
 10
540.1091557585435
 20
204.7440725650797
 30
0.0
  0
SPLINE
  5
34E
330
1F
100
AcDbEntity
  8
0
  6
Continuous
 62
     7
370
    15
100
AcDbSpline
210
0.0
220
0.0
230
1.0
 70
     8
 71
     3
 72
    13
 73
     9
 74
     0
 42
0.00000001
 43
0.00000001
 40
0.0
 40
0.0
 40
0.0
 40
0.0
 40
0.1254913758007221
 40
0.2493159822428219
 40
0.37317217498134
 40
0.4989613335910461
 40
0.7492681211783646
 40
1.0
 40
1.0
 40
1.0
 40
1.0
 10
540.6960081898408
 20
205.0232160177241
 30
0.0
 10
540.7633803481175
 20
205.0199895400488
 30
0.0
 10
540.8972298314736
 20
205.0135794385922
 30
0.0
 10
541.0862341665423
 20
204.9447885294608
 30
0.0
 10
541.2437855199672
 20
204.8279177540497
 30
0.0
 10
541.3934705920627
 20
204.6206258923079
 30
0.0
 10
541.482776014847
 20
204.3153652825021
 30
0.0
 10
541.4904519656839
 20
204.0667159370097
 30
0.0
 10
541.4942931973176
 20
203.9422857847224
 30
0.0
  0
SPLINE
  5
34F
330
1F
100
AcDbEntity
  8
0
  6
Continuous
 62
     7
370
    15
100
AcDbSpline
210
0.0
220
0.0
230
1.0
 70
     8
 71
     3
 72
    13
 73
     9
 74
     0
 42
0.00000001
 43
0.00000001
 40
0.0
 40
0.0
 40
0.0
 40
0.0
 40
0.2505152194495086
 40
0.5001083871292623
 40
0.6271558297042276
 40
0.7499821052175282
 40
0.8748485466978777
 40
0.9999999999999999
 40
0.9999999999999999
 40
0.9999999999999999
 40
0.9999999999999999
 10
541.4942931973176
 20
203.9422857847224
 30
0.0
 10
541.4919740095994
 20
203.8183956364219
 30
0.0
 10
541.4873441702159
 20
203.5710713325973
 30
0.0
 10
541.4017725443221
 20
203.2639985484191
 30
0.0
 10
541.2610449156463
 20
203.0498522446574
 30
0.0
 10
541.1091116847831
 20
202.9233849415542
 30
0.0
 10
540.9205100520672
 20
202.8526594900366
 30
0.0
 10
540.7871251602434
 20
202.845435994455
 30
0.0
 10
540.7203566872315
 20
202.8418201293956
 30
0.0
  0
SPLINE
  5
350
330
1F
100
AcDbEntity
  8
0
  6
Continuous
 62
     7
370
    15
100
AcDbSpline
210
0.0
220
0.0
230
1.0
 70
     8
 71
     3
 72
    13
 73
     9
 74
     0
 42
0.00000001
 43
0.00000001
 40
0.0
 40
0.0
 40
0.0
 40
0.0
 40
0.1251683320259856
 40
0.2500869543338711
 40
0.3698835442122066
 40
0.4999885286016076
 40
0.7494562429718169
 40
1.0
 40
1.0
 40
1.0
 40
1.0
 10
540.7203566872315
 20
202.8418201293956
 30
0.0
 10
540.6539815900969
 20
202.8446719579329
 30
0.0
 10
540.5213638135608
 20
202.8503699256348
 30
0.0
 10
540.334815738772
 20
202.9170274292381
 30
0.0
 10
540.177272697283
 20
203.0344984425406
 30
0.0
 10
540.0256860702164
 20
203.2409405344079
 30
0.0
 10
539.9339947971515
 20
203.5469091848163
 30
0.0
 10
539.9269848868481
 20
203.7924162097922
 30
0.0
 10
539.9234723889069
 20
203.9154338922511
 30
0.0
  0
SPLINE
  5
351
330
1F
100
AcDbEntity
  8
0
  6
Continuous
 62
     7
370
    15
100
AcDbSpline
210
0.0
220
0.0
230
1.0
 70
     8
 71
     3
 72
     9
 73
     5
 74
     0
 42
0.00000001
 43
0.00000001
 40
0.0
 40
0.0
 40
0.0
 40
0.0
 40
0.5016033138039737
 40
1.0
 40
1.0
 40
1.0
 40
1.0
 10
539.9234723889069
 20
203.9154338922511
 30
0.0
 10
539.9237693521899
 20
204.0600709103107
 30
0.0
 10
539.9243613803422
 20
204.3484203172609
 30
0.0
 10
540.0475601732962
 20
204.6112276274328
 30
0.0
 10
540.108962043448
 20
204.7422099199305
 30
0.0
  0
SPLINE
  5
352
330
1F
100
AcDbEntity
  8
0
  6
Continuous
 62
     7
370
    15
100
AcDbSpline
210
0.0
220
0.0
230
1.0
 70
     8
 71
     3
 72
    12
 73
     8
 74
     0
 42
0.00000001
 43
0.00000001
 40
0.0
 40
0.0
 40
0.0
 40
0.0
 40
0.2499964002920614
 40
0.4997518100412515
 40
0.7495683344287958
 40
0.8747644589329551
 40
1.0
 40
1.0
 40
1.0
 40
1.0
 10
540.108962043448
 20
204.7422099199305
 30
0.0
 10
540.1442394591127
 20
204.7842315090335
 30
0.0
 10
540.2147602838584
 20
204.8682341794339
 30
0.0
 10
540.3590021828379
 20
204.95921156734
 30
0.0
 10
540.4955480589462
 20
205.0042305822551
 30
0.0
 10
540.6095761433046
 20
205.0203651383211
 30
0.0
 10
540.6671944847257
 20
205.0222656248811
 30
0.0
 10
540.6960081898408
 20
205.0232160177241
 30
0.0
  0
SPLINE
  5
353
330
1F
100
AcDbEntity
  8
0
  6
Continuous
 62
     7
370
    15
100
AcDbSpline
210
0.0
220
0.0
230
1.0
 70
     8
 71
     3
 72
    11
 73
     7
 74
     0
 42
0.00000001
 43
0.00000001
 40
0.0
 40
0.0
 40
0.0
 40
0.0
 40
0.2526474592399122
 40
0.4983529950273153
 40
0.7492460110976784
 40
1.0
 40
1.0
 40
1.0
 40
1.0
 10
540.7167506062226
 20
203.2090741481791
 30
0.0
 10
540.7425269119185
 20
203.210881684478
 30
0.0
 10
540.7933712749806
 20
203.2144470919073
 30
0.0
 10
540.8629741974713
 20
203.2464888346567
 30
0.0
 10
540.9208993227747
 20
203.2934756961355
 30
0.0
 10
540.9485267557326
 20
203.3335526740002
 30
0.0
 10
540.9623366438584
 20
203.3535856094371
 30
0.0
  0
SPLINE
  5
354
330
1F
100
AcDbEntity
  8
0
  6
Continuous
 62
     7
370
    15
100
AcDbSpline
210
0.0
220
0.0
230
1.0
 70
     8
 71
     3
 72
     9
 73
     5
 74
     0
 42
0.00000001
 43
0.00000001
 40
0.0
 40
0.0
 40
0.0
 40
0.0
 40
0.4986271131848417
 40
1.0
 40
1.0
 40
1.0
 40
1.0
 10
540.9623366438584
 20
203.3535856094371
 30
0.0
 10
540.9985934129493
 20
203.4466552071212
 30
0.0
 10
541.0713066050969
 20
203.6333069058018
 30
0.0
 10
541.0704545387637
 20
203.8313827989549
 30
0.0
 10
541.0700273358063
 20
203.9306926813136
 30
0.0
  0
SPLINE
  5
355
330
1F
100
AcDbEntity
  8
0
  6
Continuous
 62
     7
370
    15
100
AcDbSpline
210
0.0
220
0.0
230
1.0
 70
     8
 71
     3
 72
    13
 73
     9
 74
     0
 42
0.00000001
 43
0.00000001
 40
0.0
 40
0.0
 40
0.0
 40
0.0
 40
0.5002178069496293
 40
0.6253725983988103
 40
0.7503512182224675
 40
0.8754802969182651
 40
0.9379597916076478
 40
1.0
 40
1.0
 40
1.0
 40
1.0
 10
541.0700273358063
 20
203.9306926813136
 30
0.0
 10
541.067026493027
 20
204.0779730627206
 30
0.0
 10
541.0632748376078
 20
204.262103082752
 30
0.0
 10
540.9869867088385
 20
204.4704428095705
 30
0.0
 10
540.9209702577134
 20
204.5623764021277
 30
0.0
 10
540.8424315819368
 20
204.6206000834982
 30
0.0
 10
540.7674060508238
 20
204.6448571377985
 30
0.0
 10
540.7281755327846
 20
204.6466795532327
 30
0.0
 10
540.708629473372
 20
204.6475875463496
 30
0.0
  0
SPLINE
  5
356
330
1F
100
AcDbEntity
  8
0
  6
Continuous
 62
     7
370
    15
100
AcDbSpline
210
0.0
220
0.0
230
1.0
 70
     8
 71
     3
 72
    13
 73
     9
 74
     0
 42
0.00000001
 43
0.00000001
 40
0.0
 40
0.0
 40
0.0
 40
0.0
 40
0.1244913654786799
 40
0.1870679007082467
 40
0.2496417073254785
 40
0.3744674533604308
 40
0.4996617048562316
 40
1.0
 40
1.0
 40
1.0
 40
1.0
 10
540.708629473372
 20
204.6475875463496
 30
0.0
 10
540.667663062298
 20
204.6434220277776
 30
0.0
 10
540.6061045719586
 20
204.6371626794958
 30
0.0
 10
540.5353880029537
 20
204.5981703370972
 30
0.0
 10
540.4736352077315
 20
204.5484543329349
 30
0.0
 10
540.4236503191452
 20
204.463957994421
 30
0.0
 10
540.3497158839733
 20
204.2477619554127
 30
0.0
 10
540.3493456710294
 20
204.0564396572841
 30
0.0
 10
540.3490495526032
 20
203.9034086551677
 30
0.0
  0
SPLINE
  5
357
330
1F
100
AcDbEntity
  8
0
  6
Continuous
 62
     7
370
    15
100
AcDbSpline
210
0.0
220
0.0
230
1.0
 70
     8
 71
     3
 72
    12
 73
     8
 74
     0
 42
0.00000001
 43
0.00000001
 40
0.0
 40
0.0
 40
0.0
 40
0.0
 40
0.5003331437443181
 40
0.6307993691558845
 40
0.7506472023525326
 40
0.8753548484868893
 40
1.0
 40
1.0
 40
1.0
 40
1.0
 10
540.3490495526032
 20
203.9034086551677
 30
0.0
 10
540.3518708097561
 20
203.7590927729781
 30
0.0
 10
540.3554277342863
 20
203.5771452674359
 30
0.0
 10
540.4382141393032
 20
203.3743447575208
 30
0.0
 10
540.5068312158023
 20
203.2872756776723
 30
0.0
 10
540.600528751674
 20
203.2203168460433
 30
0.0
 10
540.6780164615519
 20
203.2128210879199
 30
0.0
 10
540.7167506062226
 20
203.2090741481791
 30
0.0
  0
SPLINE
  5
358
330
1F
100
AcDbEntity
  8
0
  6
Continuous
 62
     7
370
    15
100
AcDbSpline
210
0.0
220
0.0
230
1.0
 70
     8
 71
     3
 72
     9
 73
     5
 74
     0
 42
0.00000001
 43
0.00000001
 40
0.0
 40
0.0
 40
0.0
 40
0.0
 40
0.4993116733166463
 40
1.0
 40
1.0
 40
1.0
 40
1.0
 10
540.6960081898408
 20
205.0232160177241
 30
0.0
 10
540.6960143969484
 20
205.0235241864479
 30
0.0
 10
540.6960268282775
 20
205.0241413735481
 30
0.0
 10
540.6960243379032
 20
205.0247560169405
 30
0.0
 10
540.696023091002
 20
205.0250637617121
 30
0.0
  0
SPLINE
  5
359
330
1F
100
AcDbEntity
  8
0
  6
Continuous
 62
     7
370
    15
100
AcDbSpline
210
0.0
220
0.0
230
1.0
 70
     8
 71
     3
 72
     9
 73
     5
 74
     0
 42
0.00000001
 43
0.00000001
 40
0.0
 40
0.0
 40
0.0
 40
0.0
 40
0.5004977030625298
 40
1.0
 40
1.0
 40
1.0
 40
1.0
 10
540.108962043448
 20
204.7422099199305
 30
0.0
 10
540.1089905854315
 20
204.7425239337384
 30
0.0
 10
540.1090476126335
 20
204.7431513368331
 30
0.0
 10
540.1091197338367
 20
204.7437656928421
 30
0.0
 10
540.1091557585435
 20
204.7440725650798
 30
0.0
  0
LINE
  5
35A
330
1F
100
AcDbEntity
  8
0
  6
Continuous
 62
     7
370
    15
100
AcDbLine
 10
541.0699230277
 20
203.9325404253
 30
0.0
 11
541.0542619073
 21
204.0766942587
 31
0.0
  0
SPLINE
  5
35B
330
1F
100
AcDbEntity
  8
0
  6
Continuous
 62
     7
370
    15
100
AcDbSpline
210
0.0
220
0.0
230
1.0
 70
     8
 71
     3
 72
     9
 73
     5
 74
     0
 42
0.00000001
 43
0.00000001
 40
0.0
 40
0.0
 40
0.0
 40
0.0
 40
0.500031209038259
 40
1.0
 40
1.0
 40
1.0
 40
1.0
 10
541.069923027678
 20
203.9325404253016
 30
0.0
 10
541.0699441372687
 20
203.9322324775825
 30
0.0
 10
541.0699863538152
 20
203.9316166205849
 30
0.0
 10
541.070013675711
 20
203.9310006482548
 30
0.0
 10
541.0700273358063
 20
203.9306926813136
 30
0.0
  0
SPLINE
  5
35C
330
1F
100
AcDbEntity
  8
0
  6
Continuous
 62
     7
370
    15
100
AcDbSpline
210
0.0
220
0.0
230
1.0
 70
     8
 71
     3
 72
     9
 73
     5
 74
     0
 42
0.00000001
 43
0.00000001
 40
0.0
 40
0.0
 40
0.0
 40
0.0
 40
0.4987546774531255
 40
1.0
 40
1.0
 40
1.0
 40
1.0
 10
540.3491687618928
 20
203.9052713003169
 30
0.0
 10
540.3491488690584
 20
203.9049641939007
 30
0.0
 10
540.3491089840503
 20
203.9043484474626
 30
0.0
 10
540.3490693959521
 20
203.9037224389876
 30
0.0
 10
540.3490495526032
 20
203.9034086551677
 30
0.0
  0
LINE
  5
35D
330
1F
100
AcDbEntity
  8
0
  6
Continuous
 62
     7
370
    15
100
AcDbLine
 10
540.3673034751
 20
204.109908947
 30
0.0
 11
540.3491687619
 21
203.9052713003
 31
0.0
  0
SPLINE
  5
35E
330
1F
100
AcDbEntity
  8
0
  6
Continuous
 62
     7
370
    15
100
AcDbSpline
210
0.0
220
0.0
230
1.0
 70
     8
 71
     3
 72
     9
 73
     5
 74
     0
 42
0.00000001
 43
0.00000001
 40
0.0
 40
0.0
 40
0.0
 40
0.0
 40
0.4986257085952997
 40
0.9999999999999999
 40
0.9999999999999999
 40
0.9999999999999999
 40
0.9999999999999999
 10
540.9622770392136
 20
203.3554482545863
 30
0.0
 10
540.9985151829101
 20
203.4485192235106
 30
0.0
 10
541.0711912264269
 20
203.6351741980135
 30
0.0
 10
541.0703465344961
 20
203.8332368856394
 30
0.0
 10
541.069923027678
 20
203.9325404253016
 30
0.0
  0
SPLINE
  5
35F
330
1F
100
AcDbEntity
  8
0
  6
Continuous
 62
     7
370
    15
100
AcDbSpline
210
0.0
220
0.0
230
1.0
 70
     8
 71
     3
 72
    11
 73
     7
 74
     0
 42
0.00000001
 43
0.00000001
 40
0.0
 40
0.0
 40
0.0
 40
0.0
 40
0.2526410646582986
 40
0.4983038261380683
 40
0.749203018122579
 40
1.0
 40
1.0
 40
1.0
 40
1.0
 10
540.7167506062226
 20
203.2109367933284
 30
0.0
 10
540.7425224723763
 20
203.2127436883905
 30
0.0
 10
540.7933543493259
 20
203.2163075695202
 30
0.0
 10
540.8629331194096
 20
203.248355677804
 30
0.0
 10
540.9208402764423
 20
203.2953426612818
 30
0.0
 10
540.948466661056
 20
203.3354157781714
 30
0.0
 10
540.9622770392136
 20
203.3554482545863
 30
0.0
  0
SPLINE
  5
360
330
1F
100
AcDbEntity
  8
0
  6
Continuous
 62
     7
370
    15
100
AcDbSpline
210
0.0
220
0.0
230
1.0
 70
     8
 71
     3
 72
    12
 73
     8
 74
     0
 42
0.00000001
 43
0.00000001
 40
0.0
 40
0.0
 40
0.0
 40
0.0
 40
0.5003737059306955
 40
0.6308448684107246
 40
0.750695678186528
 40
0.8753919439335767
 40
1.0
 40
1.0
 40
1.0
 40
1.0
 10
540.3491687618928
 20
203.9052713003169
 30
0.0
 10
540.3519862539848
 20
203.7609542208468
 30
0.0
 10
540.355538399925
 20
203.5790068324675
 30
0.0
 10
540.4383102683236
 20
203.3762145417612
 30
0.0
 10
540.5068788654197
 20
203.2891181753178
 30
0.0
 10
540.6005703005521
 20
203.2221900068449
 30
0.0
 10
540.6780329736989
 20
203.2146869795852
 30
0.0
 10
540.7167506062226
 20
203.2109367933284
 30
0.0
  0
SPLINE
  5
361
330
1F
100
AcDbEntity
  8
0
  6
Continuous
 62
     7
370
    15
100
AcDbSpline
210
0.0
220
0.0
230
1.0
 70
     8
 71
     3
 72
     9
 73
     5
 74
     0
 42
0.00000001
 43
0.00000001
 40
0.0
 40
0.0
 40
0.0
 40
0.0
 40
0.500136455019948
 40
1.0
 40
1.0
 40
1.0
 40
1.0
 10
540.9622770392136
 20
203.3554482545863
 30
0.0
 10
540.9622869719648
 20
203.3551415820807
 30
0.0
 10
540.962306832047
 20
203.3545284044118
 30
0.0
 10
540.9623267083961
 20
203.3538998172461
 30
0.0
 10
540.9623366438584
 20
203.3535856094371
 30
0.0
  0
SPLINE
  5
362
330
1F
100
AcDbEntity
  8
0
  6
Continuous
 62
     7
370
    15
100
AcDbSpline
210
0.0
220
0.0
230
1.0
 70
    24
 71
     3
 72
     9
 73
     5
 74
     0
 42
0.00000001
 43
0.00000001
 40
0.0
 40
0.0
 40
0.0
 40
0.0
 40
0.4987539699909042
 40
1.0
 40
1.0
 40
1.0
 40
1.0
 10
540.7167506062226
 20
203.2109367933283
 30
0.0
 10
540.7167506062226
 20
203.2106296866912
 30
0.0
 10
540.7167506062226
 20
203.2100139389367
 30
0.0
 10
540.7167506062226
 20
203.2093879317808
 30
0.0
 10
540.7167506062226
 20
203.2090741481791
 30
0.0
  0
SPLINE
  5
363
330
1F
100
AcDbEntity
  8
0
  6
Continuous
 62
     7
370
    15
100
AcDbSpline
210
0.0
220
0.0
230
1.0
 70
     8
 71
     3
 72
    10
 73
     6
 74
     0
 42
0.00000001
 43
0.00000001
 40
0.0
 40
0.0
 40
0.0
 40
0.0
 40
0.2120872613749677
 40
0.4882584797315221
 40
0.9999999999999999
 40
0.9999999999999999
 40
0.9999999999999999
 40
0.9999999999999999
 10
548.6599188887315
 20
201.6139644470225
 30
0.0
 10
548.6592933587671
 20
201.6150531954409
 30
0.0
 10
548.6578532896773
 20
201.6175596668059
 30
0.0
 10
548.6524672787856
 20
201.6200738000772
 30
0.0
 10
548.6476077192206
 20
201.6203268210254
 30
0.0
 10
548.6444514834122
 20
201.6204911556254
 30
0.0
  0
LINE
  5
364
330
1F
100
AcDbEntity
  8
0
  6
Continuous
 62
     7
370
    15
100
AcDbLine
 10
541.479749664
 20
191.9153201666
 30
0.0
 11
541.479749664
 21
192.5892400827
 31
0.0
  0
LINE
  5
365
330
1F
100
AcDbEntity
  8
0
  6
Continuous
 62
     7
370
    15
100
AcDbLine
 10
540.8623051488
 20
201.2861090984
 30
0.0
 11
541.479749664
 21
192.5892400827
 31
0.0
  0
SPLINE
  5
366
330
1F
100
AcDbEntity
  8
0
  6
Continuous
 62
     7
370
    15
100
AcDbSpline
210
0.0
220
0.0
230
1.0
 70
     8
 71
     3
 72
    12
 73
     8
 74
     0
 42
0.00000001
 43
0.00000001
 40
0.0
 40
0.0
 40
0.0
 40
0.0
 40
0.2239136158449165
 40
0.4477732973277979
 40
0.6716484771422975
 40
0.8955881929907908
 40
1.0
 40
1.0
 40
1.0
 40
1.0
 10
540.7375675284104
 20
201.3925182905207
 30
0.0
 10
540.7516234325078
 20
201.3912679445339
 30
0.0
 10
540.779731855039
 20
201.3887675537327
 30
0.0
 10
540.8171718611769
 20
201.3691717584183
 30
0.0
 10
540.8454834025962
 20
201.3403404129394
 30
0.0
 10
540.859280854703
 20
201.3106377229254
 30
0.0
 10
540.8615754843354
 20
201.2920270628971
 30
0.0
 10
540.8623051487641
 20
201.2861090984355
 30
0.0
  0
ELLIPSE
  5
367
330
1F
100
AcDbEntity
  8
0
  6
Continuous
 62
     7
370
    15
100
AcDbEllipse
 10
540.729743568
 20
209.3753790014
 30
0.0
 11
17.3721711984424
 21
0.0
 31
0.0
210
0.0
220
0.0
230
1.0
 40
0.4595202192
 41
4.711938703004841
 42
4.712839257764557
  0
SPLINE
  5
368
330
1F
100
AcDbEntity
  8
0
  6
Continuous
 62
     7
370
    15
100
AcDbSpline
210
0.0
220
0.0
230
1.0
 70
     8
 71
     3
 72
    12
 73
     8
 74
     0
 42
0.00000001
 43
0.00000001
 40
0.0
 40
0.0
 40
0.0
 40
0.0
 40
0.2239053215960365
 40
0.4477657141564026
 40
0.6717178848480646
 40
0.8955511907493175
 40
0.9999999999999999
 40
0.9999999999999999
 40
0.9999999999999999
 40
0.9999999999999999
 10
540.5971836888032
 20
201.2861090984355
 30
0.0
 10
540.5994693124718
 20
201.2988094274183
 30
0.0
 10
540.6040401011741
 20
201.3242075369249
 30
0.0
 10
540.6279580382252
 20
201.3569524302304
 30
0.0
 10
540.6614417372967
 20
201.3807579994413
 30
0.0
 10
540.6948732303105
 20
201.3913633699047
 30
0.0
 10
540.7153926802359
 20
201.3922395258743
 30
0.0
 10
540.7219213091569
 20
201.3925182905207
 30
0.0
  0
LINE
  5
369
330
1F
100
AcDbEntity
  8
0
  6
Continuous
 62
     7
370
    15
100
AcDbLine
 10
540.5971836888
 20
201.2861090984
 30
0.0
 11
539.9797391736
 21
192.5892400827
 31
0.0
  0
LINE
  5
36A
330
1F
100
AcDbEntity
  8
0
  6
Continuous
 62
     7
370
    15
100
AcDbLine
 10
539.9797391736
 20
192.5892400827
 30
0.0
 11
539.9797391736
 21
191.9153201666
 31
0.0
  0
SPLINE
  5
36B
330
1F
100
AcDbEntity
  8
0
  6
Continuous
 62
     7
370
    15
100
AcDbSpline
210
0.0
220
0.0
230
1.0
 70
     8
 71
     3
 72
    11
 73
     7
 74
     0
 42
0.00000001
 43
0.00000001
 40
0.0
 40
0.0
 40
0.0
 40
0.0
 40
0.3707365379801983
 40
0.7442377951607063
 40
0.9440428693881061
 40
0.9999999999999999
 40
0.9999999999999999
 40
0.9999999999999999
 40
0.9999999999999999
 10
532.815037354155
 20
201.6204911556254
 30
0.0
 10
532.8127408350445
 20
201.620407523282
 30
0.0
 10
532.808130670833
 20
201.620239634918
 30
0.0
 10
532.8028427073418
 20
201.6183385152787
 30
0.0
 10
532.800306832179
 20
201.6156815473184
 30
0.0
 10
532.799702227693
 20
201.6142726858599
 30
0.0
 10
532.7995699488358
 20
201.6139644470225
 30
0.0
  0
SPLINE
  5
36C
330
1F
100
AcDbEntity
  8
0
  6
Continuous
 62
     7
370
    15
100
AcDbSpline
210
0.0
220
0.0
230
1.0
 70
     8
 71
     3
 72
    11
 73
     7
 74
     0
 42
0.00000001
 43
0.00000001
 40
0.0
 40
0.0
 40
0.0
 40
0.0
 40
0.2499719089489917
 40
0.4999713339990974
 40
0.7499631013761341
 40
1.0
 40
1.0
 40
1.0
 40
1.0
 10
540.8623051487641
 20
201.3395595636378
 30
0.0
 10
540.8595667642253
 20
201.3537525672911
 30
0.0
 10
540.8540896937152
 20
201.3821401369177
 30
0.0
 10
540.8248885861296
 20
201.4171723995603
 30
0.0
 10
540.7846878925998
 20
201.4415203309488
 30
0.0
 10
540.7532752615468
 20
201.4446746006081
 30
0.0
 10
540.7375675284104
 20
201.4462518777858
 30
0.0
  0
SPLINE
  5
36D
330
1F
100
AcDbEntity
  8
0
  6
Continuous
 62
     7
370
    15
100
AcDbSpline
210
0.0
220
0.0
230
1.0
 70
     8
 71
     3
 72
    11
 73
     7
 74
     0
 42
0.00000001
 43
0.00000001
 40
0.0
 40
0.0
 40
0.0
 40
0.0
 40
0.2500301612603729
 40
0.5000151924899996
 40
0.7500547463646053
 40
1.0
 40
1.0
 40
1.0
 40
1.0
 10
540.7219213091569
 20
201.4462518777858
 30
0.0
 10
540.7062131775498
 20
201.4446748306826
 30
0.0
 10
540.6747997496271
 20
201.4415210211308
 30
0.0
 10
540.6346025202354
 20
201.4171681177516
 30
0.0
 10
540.6053786838412
 20
201.3821467074982
 30
0.0
 10
540.5999150103215
 20
201.3537534932125
 30
0.0
 10
540.5971836888032
 20
201.3395595636378
 30
0.0
  0
SPLINE
  5
36E
330
1F
100
AcDbEntity
  8
0
  6
Continuous
 62
     7
370
    15
100
AcDbSpline
210
0.0
220
0.0
230
1.0
 70
     8
 71
     3
 72
    14
 73
    10
 74
     0
 42
0.00000001
 43
0.00000001
 40
0.0
 40
0.0
 40
0.0
 40
0.0
 40
0.0450041039533867
 40
0.1924488165060769
 40
0.4101091964531936
 40
0.6281141224126765
 40
0.8446484415717542
 40
0.9597514274578631
 40
1.0
 40
1.0
 40
1.0
 40
1.0
 10
540.4634457670884
 20
192.6578301277171
 30
0.0
 10
540.4534742198845
 20
192.6634714673726
 30
0.0
 10
540.4108333873924
 20
192.6875952482026
 30
0.0
 10
540.3028576315174
 20
192.6955969355375
 30
0.0
 10
540.1677580837829
 20
192.6934687821185
 30
0.0
 10
540.0499782831915
 20
192.6704658425255
 30
0.0
 10
539.9937149905231
 20
192.6504444786321
 30
0.0
 10
539.980453745317
 20
192.652482094546
 30
0.0
 10
539.9798862107597
 20
192.6650969774472
 30
0.0
 10
539.9797391735749
 20
192.6683652486811
 30
0.0
  0
SPLINE
  5
36F
330
1F
100
AcDbEntity
  8
0
  6
Continuous
 62
     7
370
    15
100
AcDbSpline
210
0.0
220
0.0
230
1.0
 70
     8
 71
     3
 72
    15
 73
    11
 74
     0
 42
0.00000001
 43
0.00000001
 40
0.0
 40
0.0
 40
0.0
 40
0.0
 40
0.0802964146405841
 40
0.2296476774074172
 40
0.4389322582090222
 40
0.6497404155226559
 40
0.8665158849613196
 40
0.946280086987465
 40
0.9895238392531022
 40
1.0
 40
1.0
 40
1.0
 40
1.0
 10
541.4797496639924
 20
192.6683652486811
 30
0.0
 10
541.479149620206
 20
192.6628636077178
 30
0.0
 10
541.4774334954888
 20
192.6471289192537
 30
0.0
 10
541.4510445764624
 20
192.6570374448613
 30
0.0
 10
541.3774571647558
 20
192.6782130544279
 30
0.0
 10
541.2514231435647
 20
192.6963370302381
 30
0.0
 10
541.126397157839
 20
192.6959537849887
 30
0.0
 10
541.041607618617
 20
192.6795461983876
 30
0.0
 10
541.0087132841936
 20
192.6677553012372
 30
0.0
 10
540.9981107233399
 20
192.6594498173203
 30
0.0
 10
540.9960430704789
 20
192.6578301277171
 30
0.0
  0
SPLINE
  5
370
330
1F
100
AcDbEntity
  8
0
  6
Continuous
 62
     7
370
    15
100
AcDbSpline
210
0.0
220
0.0
230
1.0
 70
     8
 71
     3
 72
     9
 73
     5
 74
     0
 42
0.00000001
 43
0.00000001
 40
0.0
 40
0.0
 40
0.0
 40
0.0
 40
0.1372104469133672
 40
1.0
 40
1.0
 40
1.0
 40
1.0
 10
540.9797412001328
 20
192.6433014955531
 30
0.0
 10
540.9804862154466
 20
192.6439671675705
 30
0.0
 10
540.9859159427783
 20
192.6488186350237
 30
0.0
 10
540.9913524815886
 20
192.653656268281
 30
0.0
 10
540.9960430704789
 20
192.6578301277171
 30
0.0
  0
SPLINE
  5
371
330
1F
100
AcDbEntity
  8
0
  6
Continuous
 62
     7
370
    15
100
AcDbSpline
210
0.0
220
0.0
230
1.0
 70
     8
 71
     3
 72
     9
 73
     5
 74
     0
 42
0.00000001
 43
0.00000001
 40
0.0
 40
0.0
 40
0.0
 40
0.0
 40
0.8627895530866329
 40
1.0
 40
1.0
 40
1.0
 40
1.0
 10
540.4634457670884
 20
192.6578301277171
 30
0.0
 10
540.4681363559788
 20
192.653656268281
 30
0.0
 10
540.4735728947891
 20
192.6488186350237
 30
0.0
 10
540.4790026221207
 20
192.6439671675705
 30
0.0
 10
540.4797476374345
 20
192.6433014955531
 30
0.0
  0
SPLINE
  5
372
330
1F
100
AcDbEntity
  8
0
  6
Continuous
 62
     7
370
    15
100
AcDbSpline
210
0.0
220
0.0
230
1.0
 70
     8
 71
     3
 72
    12
 73
     8
 74
     0
 42
0.00000001
 43
0.00000001
 40
0.0
 40
0.0
 40
0.0
 40
0.0
 40
0.0304696481620016
 40
0.0888065586183976
 40
0.3925473549310844
 40
0.6962707247988028
 40
1.0
 40
1.0
 40
1.0
 40
1.0
 10
548.6466568552689
 20
201.3921457614909
 30
0.0
 10
548.6485031118515
 20
201.3920196254982
 30
0.0
 10
548.653884194447
 20
201.3916519906843
 30
0.0
 10
548.6755993733874
 20
201.3936048747115
 30
0.0
 10
548.699479469111
 20
201.4180399115781
 30
0.0
 10
548.7004316924811
 20
201.494861226368
 30
0.0
 10
548.6734232441686
 20
201.57426311617
 30
0.0
 10
548.6599188887315
 20
201.6139644470225
 30
0.0
  0
SPLINE
  5
373
330
1F
100
AcDbEntity
  8
0
  6
Continuous
 62
     7
370
    15
100
AcDbSpline
210
0.0
220
0.0
230
1.0
 70
     8
 71
     3
 72
    12
 73
     8
 74
     0
 42
0.00000001
 43
0.00000001
 40
0.0
 40
0.0
 40
0.0
 40
0.0
 40
0.0304696481620016
 40
0.0888065586183976
 40
0.3925473549310844
 40
0.6962707247988028
 40
1.0
 40
1.0
 40
1.0
 40
1.0
 10
532.8128319822983
 20
201.3921457614909
 30
0.0
 10
532.8109857257158
 20
201.3920196254982
 30
0.0
 10
532.8056046431202
 20
201.3916519906843
 30
0.0
 10
532.7838894641797
 20
201.3936048747115
 30
0.0
 10
532.7600093684564
 20
201.4180399115781
 30
0.0
 10
532.759057145086
 20
201.494861226368
 30
0.0
 10
532.7860655933986
 20
201.57426311617
 30
0.0
 10
532.7995699488358
 20
201.6139644470225
 30
0.0
  0
SPLINE
  5
374
330
1F
100
AcDbEntity
  8
0
  6
Continuous
 62
     7
370
    15
100
AcDbSpline
210
0.0
220
0.0
230
1.0
 70
     8
 71
     3
 72
     9
 73
     5
 74
     0
 42
0.00000001
 43
0.00000001
 40
0.0
 40
0.0
 40
0.0
 40
0.0
 40
0.4684470778953263
 40
0.9999999999999999
 40
0.9999999999999999
 40
0.9999999999999999
 40
0.9999999999999999
 10
532.8128319822983
 20
201.3921457614909
 30
0.0
 10
532.7018655042673
 20
201.4554837618345
 30
0.0
 10
532.4649839369202
 20
201.5906922055038
 30
0.0
 10
532.2443657090256
 20
201.6101488953064
 30
0.0
 10
532.1270954453187
 20
201.6204911556254
 30
0.0
  0
SPLINE
  5
375
330
1F
100
AcDbEntity
  8
0
  6
Continuous
 62
     7
370
    15
100
AcDbSpline
210
0.0
220
0.0
230
1.0
 70
     8
 71
     3
 72
     9
 73
     5
 74
     0
 42
0.00000001
 43
0.00000001
 40
0.0
 40
0.0
 40
0.0
 40
0.0
 40
0.5315605998250044
 40
0.9999999999999999
 40
0.9999999999999999
 40
0.9999999999999999
 40
0.9999999999999999
 10
549.3323784910874
 20
201.6204911556254
 30
0.0
 10
549.2151077722993
 20
201.6101495630233
 30
0.0
 10
548.9944918748331
 20
201.5906944103926
 30
0.0
 10
548.7576179394683
 20
201.4554837582689
 30
0.0
 10
548.6466568552689
 20
201.3921457614909
 30
0.0
  0
LINE
  5
376
330
1F
100
AcDbEntity
  8
0
  6
Continuous
 62
     7
370
    15
100
AcDbLine
 10
534.9168014371
 20
192.0538562622
 30
0.0
 11
534.9162798964
 21
192.0588928547
 31
0.0
  0
LINE
  5
377
330
1F
100
AcDbEntity
  8
0
  6
Continuous
 62
     7
370
    15
100
AcDbLine
 10
532.1270954453
 20
201.6204911556
 30
0.0
 11
526.8182587468
 21
201.6204911556
 31
0.0
  0
LINE
  5
378
330
1F
100
AcDbEntity
  8
0
  6
Continuous
 62
     7
370
    15
100
AcDbLine
 10
554.6412300908
 20
201.6204911556
 30
0.0
 11
549.3323784911
 21
201.6204911556
 31
0.0
  0
SPLINE
  5
379
330
1F
100
AcDbEntity
  8
0
  6
Continuous
 62
     7
370
    15
100
AcDbSpline
210
0.0
220
0.0
230
1.0
 70
     8
 71
     3
 72
     9
 73
     5
 74
     0
 42
0.00000001
 43
0.00000001
 40
0.0
 40
0.0
 40
0.0
 40
0.0
 40
0.4994352125615459
 40
1.0
 40
1.0
 40
1.0
 40
1.0
 10
529.5867156826691
 20
203.4864592638026
 30
0.0
 10
529.5872859781714
 20
203.4867673946719
 30
0.0
 10
529.5884278590157
 20
203.4873843533114
 30
0.0
 10
529.5895807528484
 20
203.4879992247832
 30
0.0
 10
529.5901578509049
 20
203.4883070077906
 30
0.0
  0
SPLINE
  5
37A
330
1F
100
AcDbEntity
  8
0
  6
Continuous
 62
     7
370
    15
100
AcDbSpline
210
0.0
220
0.0
230
1.0
 70
     8
 71
     3
 72
    13
 73
     9
 74
     0
 42
0.00000001
 43
0.00000001
 40
0.0
 40
0.0
 40
0.0
 40
0.0
 40
0.2492567817220318
 40
0.371696136743708
 40
0.4998409914214832
 40
0.6263360956864804
 40
0.7503949618673257
 40
1.0
 40
1.0
 40
1.0
 40
1.0
 10
528.9421659552293
 20
204.140501030923
 30
0.0
 10
529.0034531455669
 20
204.1316320110524
 30
0.0
 10
529.094845691531
 20
204.118406371213
 30
0.0
 10
529.2249321681419
 20
204.0330042609608
 30
0.0
 10
529.3187046786152
 20
203.9498459318408
 30
0.0
 10
529.4061753734268
 20
203.8497973029947
 30
0.0
 10
529.5084071520301
 20
203.6985196206617
 30
0.0
 10
529.5553548969069
 20
203.5713846144104
 30
0.0
 10
529.5867156826691
 20
203.4864592638026
 30
0.0
  0
LINE
  5
37B
330
1F
100
AcDbEntity
  8
0
  6
Continuous
 62
     7
370
    15
100
AcDbLine
 10
528.9421659552
 20
204.1405010309
 30
0.0
 11
528.9457571351
 21
204.1423487749
 31
0.0
  0
LINE
  5
37C
330
1F
100
AcDbEntity
  8
0
  6
Continuous
 62
     7
370
    15
100
AcDbLine
 10
528.6935102784
 20
205.0109821644
 30
0.0
 11
528.9775264107
 21
204.8438805428
 31
0.0
  0
LINE
  5
37D
330
1F
100
AcDbEntity
  8
0
  6
Continuous
 62
     7
370
    15
100
AcDbLine
 10
528.9775264107
 20
204.8438805428
 30
0.0
 11
528.9421659552
 21
204.1405010309
 31
0.0
  0
SPLINE
  5
37E
330
1F
100
AcDbEntity
  8
0
  6
Continuous
 62
     7
370
    15
100
AcDbSpline
210
0.0
220
0.0
230
1.0
 70
     8
 71
     3
 72
    12
 73
     8
 74
     0
 42
0.00000001
 43
0.00000001
 40
0.0
 40
0.0
 40
0.0
 40
0.0
 40
0.2496793874753065
 40
0.3724395337198781
 40
0.5005058439224589
 40
0.7502285672388946
 40
1.0
 40
1.0
 40
1.0
 40
1.0
 10
529.5867156826691
 20
203.4864592638026
 30
0.0
 10
529.6069139326638
 20
203.4013485629563
 30
0.0
 10
529.6370430790305
 20
203.2743913877634
 30
0.0
 10
529.6238654653142
 20
203.1235645600851
 30
0.0
 10
529.586422153524
 20
202.993474562567
 30
0.0
 10
529.5002694416959
 20
202.8624285707548
 30
0.0
 10
529.3883485609235
 20
202.845839060263
 30
0.0
 10
529.3323826634125
 20
202.8375434961329
 30
0.0
  0
SPLINE
  5
37F
330
1F
100
AcDbEntity
  8
0
  6
Continuous
 62
     7
370
    15
100
AcDbSpline
210
0.0
220
0.0
230
1.0
 70
     8
 71
     3
 72
    12
 73
     8
 74
     0
 42
0.00000001
 43
0.00000001
 40
0.0
 40
0.0
 40
0.0
 40
0.0
 40
0.2497822121063319
 40
0.3752315841457075
 40
0.5006688820694448
 40
0.7505411348512803
 40
1.0
 40
1.0
 40
1.0
 40
1.0
 10
529.3323826634125
 20
202.8375434961329
 30
0.0
 10
529.2720807613022
 20
202.8459037143782
 30
0.0
 10
529.1814931327233
 20
202.8584627269255
 30
0.0
 10
529.0557488544183
 20
202.9421138919679
 30
0.0
 10
528.9370936979584
 20
203.0536474231444
 30
0.0
 10
528.7969803339247
 20
203.2317626562377
 30
0.0
 10
528.7320354905055
 20
203.4021140444218
 30
0.0
 10
528.6995899521546
 20
203.4872192230235
 30
0.0
  0
SPLINE
  5
380
330
1F
100
AcDbEntity
  8
0
  6
Continuous
 62
     7
370
    15
100
AcDbSpline
210
0.0
220
0.0
230
1.0
 70
     8
 71
     3
 72
     9
 73
     5
 74
     0
 42
0.00000001
 43
0.00000001
 40
0.0
 40
0.0
 40
0.0
 40
0.0
 40
0.4986038905021588
 40
1.0
 40
1.0
 40
1.0
 40
1.0
 10
528.6995899521546
 20
203.4872192230235
 30
0.0
 10
528.6809070200865
 20
203.573412198653
 30
0.0
 10
528.6434365301361
 20
203.7462808370079
 30
0.0
 10
528.6511222736459
 20
203.8986540846356
 30
0.0
 10
528.6549758755402
 20
203.9750534381877
 30
0.0
  0
LINE
  5
381
330
1F
100
AcDbEntity
  8
0
  6
Continuous
 62
     7
370
    15
100
AcDbLine
 10
528.6549758755
 20
203.9750534382
 30
0.0
 11
528.6935102784
 21
205.0109821644
 31
0.0
  0
SPLINE
  5
382
330
1F
100
AcDbEntity
  8
0
  6
Continuous
 62
     7
370
    15
100
AcDbSpline
210
0.0
220
0.0
230
1.0
 70
     8
 71
     3
 72
    12
 73
     8
 74
     0
 42
0.00000001
 43
0.00000001
 40
0.0
 40
0.0
 40
0.0
 40
0.0
 40
0.2495411667459063
 40
0.4992479675812716
 40
0.7489443047371077
 40
0.874391526807005
 40
0.9999999999999999
 40
0.9999999999999999
 40
0.9999999999999999
 40
0.9999999999999999
 10
529.2144846760468
 20
203.2062429275523
 30
0.0
 10
529.2381378748456
 20
203.2101566271646
 30
0.0
 10
529.2854599723619
 20
203.2179866241253
 30
0.0
 10
529.3260268866402
 20
203.2867344089071
 30
0.0
 10
529.3361943155081
 20
203.3644680849684
 30
0.0
 10
529.3273052835698
 20
203.4349070761609
 30
0.0
 10
529.31739055629
 20
203.4710655332741
 30
0.0
 10
529.312430008574
 20
203.4891563739787
 30
0.0
  0
SPLINE
  5
383
330
1F
100
AcDbEntity
  8
0
  6
Continuous
 62
     7
370
    15
100
AcDbSpline
210
0.0
220
0.0
230
1.0
 70
     8
 71
     3
 72
    14
 73
    10
 74
     0
 42
0.00000001
 43
0.00000001
 40
0.0
 40
0.0
 40
0.0
 40
0.0
 40
0.2492340018381742
 40
0.3753882321802053
 40
0.4994111419562531
 40
0.6261541106222488
 40
0.7496669390730587
 40
0.874733489976735
 40
0.9999999999999999
 40
0.9999999999999999
 40
0.9999999999999999
 40
0.9999999999999999
 10
529.312430008574
 20
203.4891563739787
 30
0.0
 10
529.2992003655146
 20
203.5253169089573
 30
0.0
 10
529.2792743029236
 20
203.5797807429454
 30
0.0
 10
529.236506546491
 20
203.6445898956949
 30
0.0
 10
529.2001129008293
 20
203.6875411478897
 30
0.0
 10
529.1607781531129
 20
203.7228651088558
 30
0.0
 10
529.1198495098641
 20
203.7491925322042
 30
0.0
 10
529.079307722666
 20
203.7643950658879
 30
0.0
 10
529.0540179646727
 20
203.7665506309403
 30
0.0
 10
529.0413629852967
 20
203.7676292743693
 30
0.0
  0
SPLINE
  5
384
330
1F
100
AcDbEntity
  8
0
  6
Continuous
 62
     7
370
    15
100
AcDbSpline
210
0.0
220
0.0
230
1.0
 70
     8
 71
     3
 72
    13
 73
     9
 74
     0
 42
0.00000001
 43
0.00000001
 40
0.0
 40
0.0
 40
0.0
 40
0.0
 40
0.2493454413138617
 40
0.3715495185336597
 40
0.4999449621638554
 40
0.7493044799845838
 40
0.8745614390213613
 40
1.0
 40
1.0
 40
1.0
 40
1.0
 10
529.0413629852967
 20
203.7676292743693
 30
0.0
 10
529.0181332132693
 20
203.764210198735
 30
0.0
 10
528.9835185414835
 20
203.7591154358267
 30
0.0
 10
528.9536269992669
 20
203.7221801193405
 30
0.0
 10
528.9329882541506
 20
203.6749106012258
 30
0.0
 10
528.9267877588657
 20
203.6127080278018
 30
0.0
 10
528.936411252085
 20
203.5439791547333
 30
0.0
 10
528.9462753422534
 20
203.508581603828
 30
0.0
 10
528.9512109600739
 20
203.490870007516
 30
0.0
  0
SPLINE
  5
385
330
1F
100
AcDbEntity
  8
0
  6
Continuous
 62
     7
370
    15
100
AcDbSpline
210
0.0
220
0.0
230
1.0
 70
     8
 71
     3
 72
    11
 73
     7
 74
     0
 42
0.00000001
 43
0.00000001
 40
0.0
 40
0.0
 40
0.0
 40
0.0
 40
0.2504040295450604
 40
0.5003881253252159
 40
0.7504447161801322
 40
1.0
 40
1.0
 40
1.0
 40
1.0
 10
528.9512109600739
 20
203.490870007516
 30
0.0
 10
528.9641806413965
 20
203.4549576537027
 30
0.0
 10
528.9900982535645
 20
203.3831931719838
 30
0.0
 10
529.0584935889314
 20
203.2915502360302
 30
0.0
 10
529.1371639851991
 20
203.2199000500446
 30
0.0
 10
529.188728358874
 20
203.2107922554841
 30
0.0
 10
529.2144846760468
 20
203.2062429275523
 30
0.0
  0
LINE
  5
386
330
1F
100
AcDbEntity
  8
0
  6
Continuous
 62
     7
370
    15
100
AcDbLine
 10
528.6935102784
 20
205.0109821644
 30
0.0
 11
528.6970865571
 21
205.0128448095
 31
0.0
  0
LINE
  5
387
330
1F
100
AcDbEntity
  8
0
  6
Continuous
 62
     7
370
    15
100
AcDbLine
 10
528.9775264107
 20
204.8438805428
 30
0.0
 11
528.9810430848
 21
204.8457282867
 31
0.0
  0
LINE
  5
388
330
1F
100
AcDbEntity
  8
0
  6
Continuous
 62
     7
370
    15
100
AcDbLine
 10
552.683962568
 20
204.9709874477
 30
0.0
 11
553.083224281
 21
204.9751448717
 31
0.0
  0
LINE
  5
389
330
1F
100
AcDbEntity
  8
0
  6
Continuous
 62
     7
370
    15
100
AcDbLine
 10
553.083224281
 20
204.9751448717
 30
0.0
 11
552.4478834712
 21
202.9059249249
 31
0.0
  0
LINE
  5
38A
330
1F
100
AcDbEntity
  8
0
  6
Continuous
 62
     7
370
    15
100
AcDbLine
 10
552.4478834712
 20
202.9059249249
 30
0.0
 11
552.1854442202
 21
202.9017973032
 31
0.0
  0
LINE
  5
38B
330
1F
100
AcDbEntity
  8
0
  6
Continuous
 62
     7
370
    15
100
AcDbLine
 10
552.1854442202
 20
202.9017973032
 30
0.0
 11
552.7069103562
 21
204.6013790455
 31
0.0
  0
LINE
  5
38C
330
1F
100
AcDbEntity
  8
0
  6
Continuous
 62
     7
370
    15
100
AcDbLine
 10
552.7069103562
 20
204.6013790455
 30
0.0
 11
552.4116438472
 21
204.6016174641
 31
0.0
  0
LINE
  5
38D
330
1F
100
AcDbEntity
  8
0
  6
Continuous
 62
     7
370
    15
100
AcDbLine
 10
552.4116438472
 20
204.6016174641
 30
0.0
 11
552.683962568
 21
204.9709874477
 31
0.0
  0
LINE
  5
38E
330
1F
100
AcDbEntity
  8
0
  6
Continuous
 62
     7
370
    15
100
AcDbLine
 10
552.683962568
 20
204.9709874477
 30
0.0
 11
552.6804011904
 21
204.9728351917
 31
0.0
  0
LINE
  5
38F
330
1F
100
AcDbEntity
  8
0
  6
Continuous
 62
     7
370
    15
100
AcDbLine
 10
552.4116438472
 20
204.6016174641
 30
0.0
 11
552.4081420743
 21
204.6034652081
 31
0.0
  0
LINE
  5
390
330
1F
100
AcDbEntity
  8
0
  6
Continuous
 62
     7
370
    15
100
AcDbLine
 10
553.083224281
 20
204.9751448717
 30
0.0
 11
553.0795436942
 21
204.9769926157
 31
0.0
  0
ARC
  5
391
330
1F
100
AcDbEntity
  8
0
  6
Continuous
 62
     7
370
    15
100
AcDbCircle
 10
540.479743568
 20
191.8704954607
 30
0.0
 40
0.5
100
AcDbArc
 50
90.0
 51
180.0
  0
ARC
  5
392
330
1F
100
AcDbEntity
  8
0
  6
Continuous
 62
     7
370
    15
100
AcDbCircle
 10
540.979743568
 20
191.8704954607
 30
0.0
 40
0.5
100
AcDbArc
 50
0.0
 51
90.0
  0
LINE
  5
393
330
1F
100
AcDbEntity
  8
0
  6
Continuous
 62
     7
370
    15
100
AcDbLine
 10
539.9797391736
 20
191.6205006924
 30
0.0
 11
535.4123395526
 21
191.6205006924
 31
0.0
  0
SPLINE
  5
394
330
1F
100
AcDbEntity
  8
0
  6
Continuous
 62
     7
370
    15
100
AcDbSpline
210
0.0
220
0.0
230
1.0
 70
    24
 71
     3
 72
    11
 73
     7
 74
     0
 42
0.00000001
 43
0.00000001
 40
0.0
 40
0.0
 40
0.0
 40
0.0
 40
0.2933310612744693
 40
0.5866064297340927
 40
0.8805033334926564
 40
1.0
 40
1.0
 40
1.0
 40
1.0
 10
539.9797391735749
 20
191.9153201665889
 30
0.0
 10
539.9797391735748
 20
191.866288548165
 30
0.0
 10
539.9797391735748
 20
191.768234620624
 30
0.0
 10
539.9797391735749
 20
191.667691075528
 30
0.0
 10
539.9797391735748
 20
191.6246909927983
 30
0.0
 10
539.9797391735749
 20
191.6214403360296
 30
0.0
 10
539.9797391735749
 20
191.6205006923686
 30
0.0
  0
LINE
  5
395
330
1F
100
AcDbEntity
  8
0
  6
Continuous
 62
     7
370
    15
100
AcDbLine
 10
546.047149285
 20
191.6205006924
 30
0.0
 11
541.479749664
 21
191.6205006924
 31
0.0
  0
SPLINE
  5
396
330
1F
100
AcDbEntity
  8
0
  6
Continuous
 62
     7
370
    15
100
AcDbSpline
210
0.0
220
0.0
230
1.0
 70
    24
 71
     3
 72
    11
 73
     7
 74
     0
 42
0.00000001
 43
0.00000001
 40
0.0
 40
0.0
 40
0.0
 40
0.0
 40
0.294731980655085
 40
0.5894742008860638
 40
0.8837717785491088
 40
1.0
 40
1.0
 40
1.0
 40
1.0
 10
541.4797496639924
 20
191.6205006923686
 30
0.0
 10
541.4797496639924
 20
191.6260403623135
 30
0.0
 10
541.4797496639924
 20
191.6371198946625
 30
0.0
 10
541.4797496639924
 20
191.7238576723165
 30
0.0
 10
541.4797496639924
 20
191.8252778699161
 30
0.0
 10
541.4797496639924
 20
191.8954523429196
 30
0.0
 10
541.4797496639924
 20
191.9153201665889
 30
0.0
  0
SPLINE
  5
397
330
1F
100
AcDbEntity
  8
0
  6
Continuous
 62
     7
370
    15
100
AcDbSpline
210
0.0
220
0.0
230
1.0
 70
     8
 71
     3
 72
    11
 73
     7
 74
     0
 42
0.00000001
 43
0.00000001
 40
0.0
 40
0.0
 40
0.0
 40
0.0
 40
0.2504411701344633
 40
0.5004200917614334
 40
0.7504593935255286
 40
1.0
 40
1.0
 40
1.0
 40
1.0
 10
528.9548617445664
 20
203.4927326526652
 30
0.0
 10
528.9678334779991
 20
203.4568216736426
 30
0.0
 10
528.9937530024572
 20
203.3850659978162
 30
0.0
 10
529.062106327575
 20
203.2934129358239
 30
0.0
 10
529.1407722923962
 20
203.2217664476599
 30
0.0
 10
529.192325155254
 20
203.2126462288903
 30
0.0
 10
529.2180758558945
 20
203.2080906715403
 30
0.0
  0
SPLINE
  5
398
330
1F
100
AcDbEntity
  8
0
  6
Continuous
 62
     7
370
    15
100
AcDbSpline
210
0.0
220
0.0
230
1.0
 70
     8
 71
     3
 72
    13
 73
     9
 74
     0
 42
0.00000001
 43
0.00000001
 40
0.0
 40
0.0
 40
0.0
 40
0.0
 40
0.2493054048812307
 40
0.3715195156184278
 40
0.4998834982441933
 40
0.7492629067314802
 40
0.8745704423925573
 40
0.9999999999999999
 40
0.9999999999999999
 40
0.9999999999999999
 40
0.9999999999999999
 10
529.0449541651444
 20
203.7694770183573
 30
0.0
 10
529.0217371749113
 20
203.7660676274449
 30
0.0
 10
528.9871387875652
 20
203.7609868901824
 30
0.0
 10
528.9572475542718
 20
203.7240249115498
 30
0.0
 10
528.9366272401601
 20
203.6767741618506
 30
0.0
 10
528.9304424831196
 20
203.6145642082517
 30
0.0
 10
528.9400586705416
 20
203.5458340940855
 30
0.0
 10
528.9499257859378
 20
203.5104388748679
 30
0.0
 10
528.9548617445664
 20
203.4927326526652
 30
0.0
  0
LINE
  5
399
330
1F
100
AcDbEntity
  8
0
  6
Continuous
 62
     7
370
    15
100
AcDbLine
 10
552.1854442202
 20
202.9017973032
 30
0.0
 11
552.1818530404
 21
202.9036450472
 31
0.0
  0
SPLINE
  5
39A
330
1F
100
AcDbEntity
  8
0
  6
Continuous
 62
     7
370
    15
100
AcDbSpline
210
0.0
220
0.0
230
1.0
 70
     8
 71
     3
 72
     9
 73
     5
 74
     0
 42
0.00000001
 43
0.00000001
 40
0.0
 40
0.0
 40
0.0
 40
0.0
 40
0.5006324227982005
 40
1.0
 40
1.0
 40
1.0
 40
1.0
 10
529.2180758558945
 20
203.2080906715403
 30
0.0
 10
529.2174739769671
 20
203.2077829094615
 30
0.0
 10
529.2162717397567
 20
203.2071681628635
 30
0.0
 10
529.2150798614362
 20
203.2065510791508
 30
0.0
 10
529.2144846760468
 20
203.2062429275523
 30
0.0
  0
SPLINE
  5
39B
330
1F
100
AcDbEntity
  8
0
  6
Continuous
 62
     7
370
    15
100
AcDbSpline
210
0.0
220
0.0
230
1.0
 70
     8
 71
     3
 72
     9
 73
     5
 74
     0
 42
0.00000001
 43
0.00000001
 40
0.0
 40
0.0
 40
0.0
 40
0.0
 40
0.5016386213316012
 40
1.0
 40
1.0
 40
1.0
 40
1.0
 10
528.9548617445664
 20
203.4927326526652
 30
0.0
 10
528.954250550627
 20
203.492418990391
 30
0.0
 10
528.9530321557238
 20
203.4917937150218
 30
0.0
 10
528.9518166975067
 20
203.4911772365681
 30
0.0
 10
528.9512109600739
 20
203.490870007516
 30
0.0
  0
LINE
  5
39C
330
1F
100
AcDbEntity
  8
0
  6
Continuous
 62
     7
370
    15
100
AcDbLine
 10
540.9797412001
 20
192.3704910364
 30
0.0
 11
540.4797476374
 21
192.3704910364
 31
0.0
  0
LINE
  5
39D
330
1F
100
AcDbEntity
  8
0
  6
Continuous
 62
     7
370
    15
100
AcDbLine
 10
542.1344768845
 20
206.6205012884
 30
0.0
 11
542.1344768845
 21
207.6204884138
 31
0.0
  0
LINE
  5
39E
330
1F
100
AcDbEntity
  8
0
  6
Continuous
 62
     7
370
    15
100
AcDbLine
 10
539.325011953
 20
207.6204884138
 30
0.0
 11
539.325011953
 21
206.6205012884
 31
0.0
  0
SPLINE
  5
39F
330
1F
100
AcDbEntity
  8
0
  6
Continuous
 62
     7
370
    15
100
AcDbSpline
210
0.0
220
0.0
230
1.0
 70
     8
 71
     3
 72
    15
 73
    11
 74
     0
 42
0.00000001
 43
0.00000001
 40
0.0
 40
0.0
 40
0.0
 40
0.0
 40
0.8894582367535683
 40
0.9507998751874674
 40
0.9815033113683448
 40
0.9897589181454758
 40
0.9940550903285551
 40
0.9969182832649387
 40
0.9987012866347561
 40
1.0
 40
1.0
 40
1.0
 40
1.0
 10
544.2846697413163
 20
206.620501288415
 30
0.0
 10
544.273309744393
 20
206.9202536265778
 30
0.0
 10
544.2611663033516
 20
207.2406784356757
 30
0.0
 10
544.2091535370173
 20
207.5666498437163
 30
0.0
 10
544.2010511153316
 20
207.599565797877
 30
0.0
 10
544.1951660264754
 20
207.6129276995944
 30
0.0
 10
544.1922922401455
 20
207.6172795954729
 30
0.0
 10
544.1901225821165
 20
207.6194005470278
 30
0.0
 10
544.1883056727006
 20
207.6203492745236
 30
0.0
 10
544.187266605931
 20
207.6204471616861
 30
0.0
 10
544.1868287169175
 20
207.6204884138118
 30
0.0
  0
SPLINE
  5
3A0
330
1F
100
AcDbEntity
  8
0
  6
Continuous
 62
     7
370
    15
100
AcDbSpline
210
0.0
220
0.0
230
1.0
 70
     8
 71
     3
 72
    15
 73
    11
 74
     0
 42
0.00000001
 43
0.00000001
 40
0.0
 40
0.0
 40
0.0
 40
0.0
 40
0.0012987107919194
 40
0.0031014061651943
 40
0.0058920763810608
 40
0.010262010875156
 40
0.018464958120945
 40
0.049172383297241
 40
0.1104993598083934
 40
1.0
 40
1.0
 40
1.0
 40
1.0
 10
537.2726601206498
 20
207.6204884138118
 30
0.0
 10
537.2722220548901
 20
207.6204474458779
 30
0.0
 10
537.2711759252543
 20
207.6203496117769
 30
0.0
 10
537.269381290282
 20
207.6193965527413
 30
0.0
 10
537.2671881329042
 20
207.6172952175952
 30
0.0
 10
537.2643313153667
 20
207.6129452027881
 30
0.0
 10
537.2584513084779
 20
207.5995804330408
 30
0.0
 10
537.250323564649
 20
207.5666861407097
 30
0.0
 10
537.198378707597
 20
207.2407041089484
 30
0.0
 10
537.1862063524627
 20
206.9202688998976
 30
0.0
 10
537.174819096251
 20
206.620501288415
 30
0.0
  0
LINE
  5
3A1
330
1F
100
AcDbEntity
  8
0
  6
Continuous
 62
     7
370
    15
100
AcDbLine
 10
536.9247925126
 20
206.6205012884
 30
0.0
 11
536.9422417723
 21
207.6204884138
 31
0.0
  0
LINE
  5
3A2
330
1F
100
AcDbEntity
  8
0
  6
Continuous
 62
     7
370
    15
100
AcDbLine
 10
544.534696325
 20
206.6205012884
 30
0.0
 11
544.5172470652
 21
207.6204884138
 31
0.0
  0
LINE
  5
3A3
330
1F
100
AcDbEntity
  8
0
  6
Continuous
 62
     7
370
    15
100
AcDbLine
 10
539.9797391736
 20
191.6205006924
 30
0.0
 11
541.479749664
 21
191.6205006924
 31
0.0
  0
LINE
  5
3A4
330
1F
100
AcDbEntity
  8
0
  6
Continuous
 62
     7
370
    15
100
AcDbLine
 10
234.7297501408
 20
200.7543313589
 30
0.0
 11
235.1297420108
 21
200.7543313589
 31
0.0
  0
LINE
  5
3A5
330
1F
100
AcDbEntity
  8
0
  6
Continuous
 62
     7
370
    15
100
AcDbLine
 10
234.7297501408
 20
200.7543313589
 30
0.0
 11
234.7297501408
 21
207.6204884138
 31
0.0
  0
LINE
  5
3A6
330
1F
100
AcDbEntity
  8
0
  6
Continuous
 62
     7
370
    15
100
AcDbLine
 10
235.1297420108
 20
200.7543313589
 30
0.0
 11
235.1297420108
 21
207.6204884138
 31
0.0
  0
LINE
  5
3A7
330
1F
100
AcDbEntity
  8
0
  6
Continuous
 62
     7
370
    15
100
AcDbLine
 10
498.7297412597
 20
200.7419633951
 30
0.0
 11
498.3297419392
 21
200.7419633951
 31
0.0
  0
LINE
  5
3A8
330
1F
100
AcDbEntity
  8
0
  6
Continuous
 62
     7
370
    15
100
AcDbLine
 10
498.3297419392
 20
207.6204884138
 30
0.0
 11
498.3297419392
 21
200.7419633951
 31
0.0
  0
LINE
  5
3A9
330
1F
100
AcDbEntity
  8
0
  6
Continuous
 62
     7
370
    15
100
AcDbLine
 10
498.7297412597
 20
207.6204884138
 30
0.0
 11
498.7297412597
 21
200.7419633951
 31
0.0
  0
LINE
  5
3AA
330
1F
100
AcDbEntity
  8
0
  6
Continuous
 62
     7
370
    15
100
AcDbLine
 10
498.2943889343
 20
200.7157522526
 30
0.0
 11
497.2297456705
 21
200.7157522526
 31
0.0
  0
LINE
  5
3AB
330
1F
100
AcDbEntity
  8
0
  6
Continuous
 62
     7
370
    15
100
AcDbLine
 10
236.2297457301
 20
200.7157522526
 30
0.0
 11
235.1651024663
 21
200.7157522526
 31
0.0
  0
LINE
  5
3AC
330
1F
100
AcDbEntity
  8
0
  6
Continuous
 62
     7
370
    15
100
AcDbLine
 10
498.2943889343
 20
200.3324198809
 30
0.0
 11
497.2297456705
 21
200.3324198809
 31
0.0
  0
LINE
  5
3AD
330
1F
100
AcDbEntity
  8
0
  6
Continuous
 62
     7
370
    15
100
AcDbLine
 10
236.2297457301
 20
200.3324198809
 30
0.0
 11
235.1651024663
 21
200.3324198809
 31
0.0
  0
LINE
  5
3AE
330
1F
100
AcDbEntity
  8
0
  6
Continuous
 62
     7
370
    15
100
AcDbLine
 10
235.1651024663
 20
200.3324198809
 30
0.0
 11
235.1651024663
 21
200.7157522526
 31
0.0
  0
LINE
  5
3AF
330
1F
100
AcDbEntity
  8
0
  6
Continuous
 62
     7
370
    15
100
AcDbLine
 10
498.2943889343
 20
200.3324198809
 30
0.0
 11
498.2943889343
 21
200.7157522526
 31
0.0
  0
LINE
  5
3B0
330
1F
100
AcDbEntity
  8
0
  6
Continuous
 62
     7
370
    15
100
AcDbLine
 10
235.1651024663
 20
205.2002120104
 30
0.0
 11
235.1651024663
 21
200.7157522526
 31
0.0
  0
LINE
  5
3B1
330
1F
100
AcDbEntity
  8
0
  6
Continuous
 62
     7
370
    15
100
AcDbLine
 10
498.2943889343
 20
205.2002120104
 30
0.0
 11
498.2943889343
 21
200.7157522526
 31
0.0
  0
SPLINE
  5
3B2
330
1F
100
AcDbEntity
  8
0
  6
Continuous
 62
     7
370
    15
100
AcDbSpline
210
0.0
220
0.0
230
1.0
 70
     8
 71
     3
 72
    11
 73
     7
 74
     0
 42
0.00000001
 43
0.00000001
 40
0.0
 40
0.0
 40
0.0
 40
0.0
 40
0.3570991119074303
 40
0.6484719539809112
 40
0.9413599400859147
 40
1.0
 40
1.0
 40
1.0
 40
1.0
 10
235.7547414147095
 20
205.7904470052729
 30
0.0
 10
235.6640115814844
 20
205.7117792969855
 30
0.0
 10
235.4992512942867
 20
205.56892315199
 30
0.0
 10
235.2843521626791
 20
205.3913548957466
 30
0.0
 10
235.1809070166682
 20
205.2892329663566
 30
0.0
 10
235.1522668891834
 20
205.2460153528722
 30
0.0
 10
235.1474892937378
 20
205.2388060178767
 30
0.0
  0
SPLINE
  5
3B3
330
1F
100
AcDbEntity
  8
0
  6
Continuous
 62
     7
370
    15
100
AcDbSpline
210
0.0
220
0.0
230
1.0
 70
     8
 71
     3
 72
    11
 73
     7
 74
     0
 42
0.00000001
 43
0.00000001
 40
0.0
 40
0.0
 40
0.0
 40
0.0
 40
0.1929468857871578
 40
0.4207728239124174
 40
0.6887126106102582
 40
0.9999999999999999
 40
0.9999999999999999
 40
0.9999999999999999
 40
0.9999999999999999
 10
498.3119946562485
 20
205.2388060178767
 30
0.0
 10
498.291698583714
 20
205.2577114210437
 30
0.0
 10
498.2474375130064
 20
205.2989397613995
 30
0.0
 10
498.1115020582094
 20
205.4192955125889
 30
0.0
 10
497.9229175298917
 20
205.5827300170318
 30
0.0
 10
497.7810075702764
 20
205.7178376606219
 30
0.0
 10
497.7047425352769
 20
205.7904470052729
 30
0.0
  0
SPLINE
  5
3B4
330
1F
100
AcDbEntity
  8
0
  6
Continuous
 62
     7
370
    15
100
AcDbSpline
210
0.0
220
0.0
230
1.0
 70
     8
 71
     3
 72
    11
 73
     7
 74
     0
 42
0.00000001
 43
0.00000001
 40
0.0
 40
0.0
 40
0.0
 40
0.0
 40
0.2499964182472533
 40
0.5000003570596255
 40
0.7500066954290515
 40
1.0
 40
1.0
 40
1.0
 40
1.0
 10
235.165102466269
 20
205.2002120103846
 30
0.0
 10
235.2142356365402
 20
205.2248994473415
 30
0.0
 10
235.3125034551407
 20
205.2742750639197
 30
0.0
 10
235.4599230486013
 20
205.4165379862649
 30
0.0
 10
235.6073382113047
 20
205.5925637608597
 30
0.0
 10
235.7056078674598
 20
205.7244870701106
 30
0.0
 10
235.7547414147095
 20
205.7904470052729
 30
0.0
  0
SPLINE
  5
3B5
330
1F
100
AcDbEntity
  8
0
  6
Continuous
 62
     7
370
    15
100
AcDbSpline
210
0.0
220
0.0
230
1.0
 70
     8
 71
     3
 72
    11
 73
     7
 74
     0
 42
0.00000001
 43
0.00000001
 40
0.0
 40
0.0
 40
0.0
 40
0.0
 40
0.2499967026693166
 40
0.500001908378953
 40
0.7500001837249134
 40
1.0
 40
1.0
 40
1.0
 40
1.0
 10
497.7047425352769
 20
205.7904470052729
 30
0.0
 10
497.7538788220661
 20
205.7244872784847
 30
0.0
 10
497.8521530668981
 20
205.5925655814457
 30
0.0
 10
497.999569168239
 20
205.4165396731938
 30
0.0
 10
498.1469794596254
 20
205.274272570119
 30
0.0
 10
498.2452523417857
 20
205.2248989143505
 30
0.0
 10
498.294388934298
 20
205.2002120103846
 30
0.0
  0
ARC
  5
3B6
330
1F
100
AcDbEntity
  8
0
  6
Continuous
 62
     7
370
    15
100
AcDbCircle
 10
485.229743568
 20
206.3780121866
 30
0.0
 40
2.000000000000007
100
AcDbArc
 50
180.0
 51
38.4068621893
  0
ARC
  5
3B7
330
1F
100
AcDbEntity
  8
0
  6
Continuous
 62
     7
370
    15
100
AcDbCircle
 10
485.229743568
 20
206.3780121866
 30
0.0
 40
2.0
100
AcDbArc
 50
141.5931378107
 51
180.0
  0
ARC
  5
3B8
330
1F
100
AcDbEntity
  8
0
  6
Continuous
 62
     7
370
    15
100
AcDbCircle
 10
248.229743568
 20
206.3780121866
 30
0.0
 40
2.000000000000028
100
AcDbArc
 50
141.5931378108
 51
0.0
  0
ARC
  5
3B9
330
1F
100
AcDbEntity
  8
0
  6
Continuous
 62
     7
370
    15
100
AcDbCircle
 10
248.229743568
 20
206.3780121866
 30
0.0
 40
2.000000000000028
100
AcDbArc
 50
0.0
 51
38.4068621892
  0
LINE
  5
3BA
330
1F
100
AcDbEntity
  8
0
  6
Continuous
 62
     7
370
    15
100
AcDbLine
 10
306.9400098764
 20
458.2780096021
 30
0.0
 11
310.5547410094
 21
458.2780096021
 31
0.0
  0
LINE
  5
3BB
330
1F
100
AcDbEntity
  8
0
  6
Continuous
 62
     7
370
    15
100
AcDbLine
 10
319.4400054061
 20
458.2780096021
 30
0.0
 11
325.5194817328
 21
458.2780096021
 31
0.0
  0
LINE
  5
3BC
330
1F
100
AcDbEntity
  8
0
  6
Continuous
 62
     7
370
    15
100
AcDbLine
 10
294.2766231143
 20
457.6780143466
 30
0.0
 11
300.6828707301
 21
457.6780143466
 31
0.0
  0
LINE
  5
3BD
330
1F
100
AcDbEntity
  8
0
  6
Continuous
 62
     7
370
    15
100
AcDbLine
 10
306.7766186439
 20
457.6780143466
 30
0.0
 11
310.5547410094
 21
457.6780143466
 31
0.0
  0
LINE
  5
3BE
330
1F
100
AcDbEntity
  8
0
  6
Continuous
 62
     7
370
    15
100
AcDbLine
 10
313.0547423505
 20
457.6780143466
 30
0.0
 11
313.1828662597
 21
457.6780143466
 31
0.0
  0
LINE
  5
3BF
330
1F
100
AcDbEntity
  8
0
  6
Continuous
 62
     7
370
    15
100
AcDbLine
 10
319.2766216242
 20
457.6780143466
 30
0.0
 11
325.6828655147
 21
457.6780143466
 31
0.0
  0
ARC
  5
3C0
330
1F
100
AcDbEntity
  8
0
  6
Continuous
 62
     7
370
    15
100
AcDbCircle
 10
288.704743568
 20
457.0530121866
 30
0.0
 40
1.225000000000028
100
AcDbArc
 50
120.7150382101
 51
179.9999999999
  0
ARC
  5
3C1
330
1F
100
AcDbEntity
  8
0
  6
Continuous
 62
     7
370
    15
100
AcDbCircle
 10
288.704743568
 20
457.0530121866
 30
0.0
 40
0.6250000000000066
100
AcDbArc
 50
141.6420912125
 51
179.9999999999
  0
LINE
  5
3C2
330
1F
100
AcDbEntity
  8
0
  6
Continuous
 62
     7
370
    15
100
AcDbLine
 10
287.4797415578
 20
455.0513568606
 30
0.0
 11
287.4797415578
 21
457.0530149426
 31
0.0
  0
LINE
  5
3C3
330
1F
100
AcDbEntity
  8
0
  6
Continuous
 62
     7
370
    15
100
AcDbLine
 10
288.0797442638
 20
456.152053484
 30
0.0
 11
288.0797442638
 21
457.0530149426
 31
0.0
  0
LINE
  5
3C4
330
1F
100
AcDbEntity
  8
0
  6
Continuous
 62
     7
370
    15
100
AcDbLine
 10
445.3797471368
 20
457.0530149426
 30
0.0
 11
445.3797471368
 21
454.5030090299
 31
0.0
  0
LINE
  5
3C5
330
1F
100
AcDbEntity
  8
0
  6
Continuous
 62
     7
370
    15
100
AcDbLine
 10
445.9797423922
 20
457.0530149426
 30
0.0
 11
445.9797423922
 21
455.0513568606
 31
0.0
  0
ARC
  5
3C6
330
1F
100
AcDbEntity
  8
0
  6
Continuous
 62
     7
370
    15
100
AcDbCircle
 10
444.754743568
 20
457.0530121866
 30
0.0
 40
0.625
100
AcDbArc
 50
0.0000000001
 51
90.0
  0
ARC
  5
3C7
330
1F
100
AcDbEntity
  8
0
  6
Continuous
 62
     7
370
    15
100
AcDbCircle
 10
444.754743568
 20
457.0530121866
 30
0.0
 40
1.225000000000023
100
AcDbArc
 50
0.0000000001
 51
90.0
  0
LINE
  5
3C8
330
1F
100
AcDbEntity
  8
0
  6
Continuous
 62
     7
370
    15
100
AcDbLine
 10
402.9400069856
 20
458.2780096021
 30
0.0
 11
409.019479587
 21
458.2780096021
 31
0.0
  0
LINE
  5
3C9
330
1F
100
AcDbEntity
  8
0
  6
Continuous
 62
     7
370
    15
100
AcDbLine
 10
415.4400062405
 20
458.2780096021
 30
0.0
 11
420.4047453248
 21
458.2780096021
 31
0.0
  0
LINE
  5
3CA
330
1F
100
AcDbEntity
  8
0
  6
Continuous
 62
     7
370
    15
100
AcDbLine
 10
427.9400054955
 20
458.2780096021
 30
0.0
 11
434.0194818222
 21
458.2780096021
 31
0.0
  0
LINE
  5
3CB
330
1F
100
AcDbEntity
  8
0
  6
Continuous
 62
     7
370
    15
100
AcDbLine
 10
440.4400047504
 20
458.2780096021
 30
0.0
 11
441.0547447049
 21
458.2780096021
 31
0.0
  0
LINE
  5
3CC
330
1F
100
AcDbEntity
  8
0
  6
Continuous
 62
     7
370
    15
100
AcDbLine
 10
443.5547423207
 20
458.2780096021
 30
0.0
 11
444.7547402822
 21
458.2780096021
 31
0.0
  0
LINE
  5
3CD
330
1F
100
AcDbEntity
  8
0
  6
Continuous
 62
     7
370
    15
100
AcDbLine
 10
402.7766194784
 20
457.6780143466
 30
0.0
 11
409.1828670942
 21
457.6780143466
 31
0.0
  0
LINE
  5
3CE
330
1F
100
AcDbEntity
  8
0
  6
Continuous
 62
     7
370
    15
100
AcDbLine
 10
415.2766187333
 20
457.6780143466
 30
0.0
 11
420.4047453248
 21
457.6780143466
 31
0.0
  0
LINE
  5
3CF
330
1F
100
AcDbEntity
  8
0
  6
Continuous
 62
     7
370
    15
100
AcDbLine
 10
427.7766217136
 20
457.6780143466
 30
0.0
 11
434.1828656041
 21
457.6780143466
 31
0.0
  0
LINE
  5
3D0
330
1F
100
AcDbEntity
  8
0
  6
Continuous
 62
     7
370
    15
100
AcDbLine
 10
440.2766209685
 20
457.6780143466
 30
0.0
 11
441.0547447049
 21
457.6780143466
 31
0.0
  0
LINE
  5
3D1
330
1F
100
AcDbEntity
  8
0
  6
Continuous
 62
     7
370
    15
100
AcDbLine
 10
443.5547423207
 20
457.6780143466
 30
0.0
 11
444.7547402822
 21
457.6780143466
 31
0.0
  0
LINE
  5
3D2
330
1F
100
AcDbEntity
  8
0
  6
Continuous
 62
     7
370
    15
100
AcDbLine
 10
480.4258477532
 20
487.2780162182
 30
0.0
 11
479.9258467399
 21
487.2780162182
 31
0.0
  0
LINE
  5
3D3
330
1F
100
AcDbEntity
  8
0
  6
Continuous
 62
     7
370
    15
100
AcDbLine
 10
480.4258477532
 20
487.2780162182
 30
0.0
 11
480.4258477532
 21
486.8780094471
 31
0.0
  0
LINE
  5
3D4
330
1F
100
AcDbEntity
  8
0
  6
Continuous
 62
     7
370
    15
100
AcDbLine
 10
479.9258467399
 20
487.2780162182
 30
0.0
 11
275.9258505546
 21
487.2780162182
 31
0.0
  0
LINE
  5
3D5
330
1F
100
AcDbEntity
  8
0
  6
Continuous
 62
     7
370
    15
100
AcDbLine
 10
275.4258495413
 20
487.2780162182
 30
0.0
 11
275.4258495413
 21
486.8780094471
 31
0.0
  0
LINE
  5
3D6
330
1F
100
AcDbEntity
  8
0
  6
Continuous
 62
     7
370
    15
100
AcDbLine
 10
275.9258505546
 20
487.2780162182
 30
0.0
 11
275.4258495413
 21
487.2780162182
 31
0.0
  0
LINE
  5
3D7
330
1F
100
AcDbEntity
  8
0
  6
Continuous
 62
     7
370
    15
100
AcDbLine
 10
570.4802405678
 20
235.7792127218
 30
0.0
 11
568.5943943106
 21
235.7792127218
 31
0.0
  0
LINE
  5
3D8
330
1F
100
AcDbEntity
  8
0
  6
Continuous
 62
     7
370
    15
100
AcDbLine
 10
579.2589020573
 20
235.2204936829
 30
0.0
 11
579.4797372662
 21
235.2204936829
 31
0.0
  0
LINE
  5
3D9
330
1F
100
AcDbEntity
  8
0
  6
Continuous
 62
     7
370
    15
100
AcDbLine
 10
579.4797372662
 20
235.2204936829
 30
0.0
 11
579.4797372662
 21
234.5954942789
 31
0.0
  0
LINE
  5
3DA
330
1F
100
AcDbEntity
  8
0
  6
Continuous
 62
     7
370
    15
100
AcDbLine
 10
500.7297378623
 20
417.4152258124
 30
0.0
 11
500.3297459923
 21
417.4152258124
 31
0.0
  0
LINE
  5
3DB
330
1F
100
AcDbEntity
  8
0
  6
Continuous
 62
     7
370
    15
100
AcDbLine
 10
500.7297378623
 20
417.4152258124
 30
0.0
 11
500.7297378623
 21
412.1973122742
 31
0.0
  0
LINE
  5
3DC
330
1F
100
AcDbEntity
  8
0
  6
Continuous
 62
     7
370
    15
100
AcDbLine
 10
500.3297459923
 20
417.4152258124
 30
0.0
 11
500.3297459923
 21
412.1973122742
 31
0.0
  0
SPLINE
  5
3DD
330
1F
100
AcDbEntity
  8
0
  6
Continuous
 62
     7
370
    15
100
AcDbSpline
210
0.0
220
0.0
230
1.0
 70
     8
 71
     3
 72
    11
 73
     7
 74
     0
 42
0.00000001
 43
0.00000001
 40
0.0
 40
0.0
 40
0.0
 40
0.0
 40
0.2627731582368777
 40
0.5895711844409339
 40
0.7842053694799261
 40
1.0
 40
1.0
 40
1.0
 40
1.0
 10
511.7297452532487
 20
436.4383164134036
 30
0.0
 10
511.6739161404892
 20
436.4866065469984
 30
0.0
 10
511.5486551117116
 20
436.5949527397805
 30
0.0
 10
511.2532201405027
 20
436.6736055369387
 30
0.0
 10
510.9399455159427
 20
436.7200552343905
 30
0.0
 10
510.7530246483025
 20
436.7348689808361
 30
0.0
 10
510.6547456824021
 20
436.7426577296267
 30
0.0
  0
LINE
  5
3DE
330
1F
100
AcDbEntity
  8
0
  6
Continuous
 62
     7
370
    15
100
AcDbLine
 10
510.6547456824
 20
436.7426577296
 30
0.0
 11
506.7297500216
 21
436.7426577296
 31
0.0
  0
SPLINE
  5
3DF
330
1F
100
AcDbEntity
  8
0
  6
Continuous
 62
     7
370
    15
100
AcDbSpline
210
0.0
220
0.0
230
1.0
 70
     8
 71
     3
 72
    11
 73
     7
 74
     0
 42
0.00000001
 43
0.00000001
 40
0.0
 40
0.0
 40
0.0
 40
0.0
 40
0.3278403025463693
 40
0.6557315642661353
 40
0.9836256286870056
 40
1.0
 40
1.0
 40
1.0
 40
1.0
 10
510.6547456824021
 20
437.37801344061
 30
0.0
 10
510.7996573850785
 20
437.3635305788671
 30
0.0
 10
511.0895033153634
 20
437.3345626041797
 30
0.0
 10
511.4561816794311
 20
437.0988297964146
 30
0.0
 10
511.6788686252434
 20
436.8822784416141
 30
0.0
 10
511.7274352867615
 20
436.7396442957269
 30
0.0
 10
511.7297452532487
 20
436.7328602161418
 30
0.0
  0
SPLINE
  5
3E0
330
1F
100
AcDbEntity
  8
0
  6
Continuous
 62
     7
370
    15
100
AcDbSpline
210
0.0
220
0.0
230
1.0
 70
     8
 71
     3
 72
     9
 73
     5
 74
     0
 42
0.00000001
 43
0.00000001
 40
0.0
 40
0.0
 40
0.0
 40
0.0
 40
0.9830605713015726
 40
1.0
 40
1.0
 40
1.0
 40
1.0
 10
510.6547456824021
 20
436.7780107345591
 30
0.0
 10
510.7486403653233
 20
436.7754662727879
 30
0.0
 10
510.8441529773253
 20
436.7728779665882
 30
0.0
 10
510.9170380860134
 20
436.7196651129917
 30
0.0
 10
510.9182727181153
 20
436.7187637176524
 30
0.0
  0
LINE
  5
3E1
330
1F
100
AcDbEntity
  8
0
  6
Continuous
 62
     7
370
    15
100
AcDbLine
 10
510.6547456824
 20
436.7780107346
 30
0.0
 11
510.6547456824
 21
437.3780134406
 31
0.0
  0
LINE
  5
3E2
330
1F
100
AcDbEntity
  8
0
  6
Continuous
 62
     7
370
    15
100
AcDbLine
 10
510.6547456824
 20
436.7780107346
 30
0.0
 11
507.6047462069
 21
436.7780107346
 31
0.0
  0
LINE
  5
3E3
330
1F
100
AcDbEntity
  8
0
  6
Continuous
 62
     7
370
    15
100
AcDbLine
 10
510.6547456824
 20
437.3780134406
 30
0.0
 11
507.6047462069
 21
437.3780134406
 31
0.0
  0
LINE
  5
3E4
330
1F
100
AcDbEntity
  8
0
  6
Continuous
 62
     7
370
    15
100
AcDbLine
 10
506.979746803
 20
438.0030128446
 30
0.0
 11
506.979746803
 21
439.7280085173
 31
0.0
  0
LINE
  5
3E5
330
1F
100
AcDbEntity
  8
0
  6
Continuous
 62
     7
370
    15
100
AcDbLine
 10
506.979746803
 20
440.1280152884
 30
0.0
 11
506.979746803
 21
441.7340996947
 31
0.0
  0
ARC
  5
3E6
330
1F
100
AcDbEntity
  8
0
  6
Continuous
 62
     7
370
    15
100
AcDbCircle
 10
507.604743568
 20
438.0030121866
 30
0.0
 40
0.6250000000001137
100
AcDbArc
 50
180.0
 51
270.0
  0
ARC
  5
3E7
330
1F
100
AcDbEntity
  8
0
  6
Continuous
 62
     7
370
    15
100
AcDbCircle
 10
507.604743568
 20
438.0030121866
 30
0.0
 40
1.225000000000035
100
AcDbArc
 50
224.4153085757
 51
270.0
  0
LINE
  5
3E8
330
1F
100
AcDbEntity
  8
0
  6
Continuous
 62
     7
370
    15
100
AcDbLine
 10
245.9187340581
 20
440.3780120697
 30
0.0
 11
245.9187340581
 21
439.9780127492
 31
0.0
  0
LINE
  5
3E9
330
1F
100
AcDbEntity
  8
0
  6
Continuous
 62
     7
370
    15
100
AcDbLine
 10
487.2389864766
 20
440.3780120697
 30
0.0
 11
487.2389864766
 21
439.9780127492
 31
0.0
  0
LINE
  5
3EA
330
1F
100
AcDbEntity
  8
0
  6
Continuous
 62
     7
370
    15
100
AcDbLine
 10
245.9187340581
 20
439.9780127492
 30
0.0
 11
247.7297466838
 21
439.9780127492
 31
0.0
  0
LINE
  5
3EB
330
1F
100
AcDbEntity
  8
0
  6
Continuous
 62
     7
370
    15
100
AcDbLine
 10
250.7297453129
 20
439.9780127492
 30
0.0
 11
255.7297405445
 21
439.9780127492
 31
0.0
  0
LINE
  5
3EC
330
1F
100
AcDbEntity
  8
0
  6
Continuous
 62
     7
370
    15
100
AcDbLine
 10
258.7297466242
 20
439.9780127492
 30
0.0
 11
263.7297418558
 21
439.9780127492
 31
0.0
  0
LINE
  5
3ED
330
1F
100
AcDbEntity
  8
0
  6
Continuous
 62
     7
370
    15
100
AcDbLine
 10
266.7297404849
 20
439.9780127492
 30
0.0
 11
271.7297431671
 21
439.9780127492
 31
0.0
  0
LINE
  5
3EE
330
1F
100
AcDbEntity
  8
0
  6
Continuous
 62
     7
370
    15
100
AcDbLine
 10
274.7297417962
 20
439.9780127492
 30
0.0
 11
279.7297444784
 21
439.9780127492
 31
0.0
  0
LINE
  5
3EF
330
1F
100
AcDbEntity
  8
0
  6
Continuous
 62
     7
370
    15
100
AcDbLine
 10
282.7297431075
 20
439.9780127492
 30
0.0
 11
287.7297457897
 21
439.9780127492
 31
0.0
  0
LINE
  5
3F0
330
1F
100
AcDbEntity
  8
0
  6
Continuous
 62
     7
370
    15
100
AcDbLine
 10
290.7297444188
 20
439.9780127492
 30
0.0
 11
295.729747101
 21
439.9780127492
 31
0.0
  0
LINE
  5
3F1
330
1F
100
AcDbEntity
  8
0
  6
Continuous
 62
     7
370
    15
100
AcDbLine
 10
298.7297457301
 20
439.9780127492
 30
0.0
 11
303.7297409617
 21
439.9780127492
 31
0.0
  0
LINE
  5
3F2
330
1F
100
AcDbEntity
  8
0
  6
Continuous
 62
     7
370
    15
100
AcDbLine
 10
306.7297470414
 20
439.9780127492
 30
0.0
 11
311.729742273
 21
439.9780127492
 31
0.0
  0
LINE
  5
3F3
330
1F
100
AcDbEntity
  8
0
  6
Continuous
 62
     7
370
    15
100
AcDbLine
 10
314.7297446274
 20
439.9780127492
 30
0.0
 11
319.7297435843
 21
439.9780127492
 31
0.0
  0
LINE
  5
3F4
330
1F
100
AcDbEntity
  8
0
  6
Continuous
 62
     7
370
    15
100
AcDbLine
 10
322.7297422134
 20
439.9780127492
 30
0.0
 11
327.7297448956
 21
439.9780127492
 31
0.0
  0
LINE
  5
3F5
330
1F
100
AcDbEntity
  8
0
  6
Continuous
 62
     7
370
    15
100
AcDbLine
 10
330.7297435247
 20
439.9780127492
 30
0.0
 11
335.7297424816
 21
439.9780127492
 31
0.0
  0
LINE
  5
3F6
330
1F
100
AcDbEntity
  8
0
  6
Continuous
 62
     7
370
    15
100
AcDbLine
 10
338.729744836
 20
439.9780127492
 30
0.0
 11
343.7297437929
 21
439.9780127492
 31
0.0
  0
LINE
  5
3F7
330
1F
100
AcDbEntity
  8
0
  6
Continuous
 62
     7
370
    15
100
AcDbLine
 10
346.7297442847
 20
439.9780127492
 30
0.0
 11
351.7297432416
 21
439.9780127492
 31
0.0
  0
LINE
  5
3F8
330
1F
100
AcDbEntity
  8
0
  6
Continuous
 62
     7
370
    15
100
AcDbLine
 10
354.7297437333
 20
439.9780127492
 30
0.0
 11
359.7297436216
 21
439.9780127492
 31
0.0
  0
LINE
  5
3F9
330
1F
100
AcDbEntity
  8
0
  6
Continuous
 62
     7
370
    15
100
AcDbLine
 10
362.729743182
 20
439.9780127492
 30
0.0
 11
367.7297435359
 21
439.9780127492
 31
0.0
  0
LINE
  5
3FA
330
1F
100
AcDbEntity
  8
0
  6
Continuous
 62
     7
370
    15
100
AcDbLine
 10
370.729743562
 20
439.9780127492
 30
0.0
 11
375.7297435666
 21
439.9780127492
 31
0.0
  0
LINE
  5
3FB
330
1F
100
AcDbEntity
  8
0
  6
Continuous
 62
     7
370
    15
100
AcDbLine
 10
378.7297434763
 20
439.9780127492
 30
0.0
 11
383.7297438302
 21
439.9780127492
 31
0.0
  0
LINE
  5
3FC
330
1F
100
AcDbEntity
  8
0
  6
Continuous
 62
     7
370
    15
100
AcDbLine
 10
386.7297433906
 20
439.9780127492
 30
0.0
 11
391.7297442102
 21
439.9780127492
 31
0.0
  0
LINE
  5
3FD
330
1F
100
AcDbEntity
  8
0
  6
Continuous
 62
     7
370
    15
100
AcDbLine
 10
394.7297428393
 20
439.9780127492
 30
0.0
 11
399.7297436588
 21
439.9780127492
 31
0.0
  0
LINE
  5
3FE
330
1F
100
AcDbEntity
  8
0
  6
Continuous
 62
     7
370
    15
100
AcDbLine
 10
402.7297441506
 20
439.9780127492
 30
0.0
 11
407.7297431075
 21
439.9780127492
 31
0.0
  0
LINE
  5
3FF
330
1F
100
AcDbEntity
  8
0
  6
Continuous
 62
     7
370
    15
100
AcDbLine
 10
410.7297417366
 20
439.9780127492
 30
0.0
 11
415.7297444188
 21
439.9780127492
 31
0.0
  0
LINE
  5
400
330
1F
100
AcDbEntity
  8
0
  6
Continuous
 62
     7
370
    15
100
AcDbLine
 10
418.7297430479
 20
439.9780127492
 30
0.0
 11
423.7297420048
 21
439.9780127492
 31
0.0
  0
LINE
  5
401
330
1F
100
AcDbEntity
  8
0
  6
Continuous
 62
     7
370
    15
100
AcDbLine
 10
426.7297443592
 20
439.9780127492
 30
0.0
 11
431.7297433161
 21
439.9780127492
 31
0.0
  0
LINE
  5
402
330
1F
100
AcDbEntity
  8
0
  6
Continuous
 62
     7
370
    15
100
AcDbLine
 10
434.7297419452
 20
439.9780127492
 30
0.0
 11
439.7297409021
 21
439.9780127492
 31
0.0
  0
LINE
  5
403
330
1F
100
AcDbEntity
  8
0
  6
Continuous
 62
     7
370
    15
100
AcDbLine
 10
442.7297469818
 20
439.9780127492
 30
0.0
 11
447.7297422134
 21
439.9780127492
 31
0.0
  0
LINE
  5
404
330
1F
100
AcDbEntity
  8
0
  6
Continuous
 62
     7
370
    15
100
AcDbLine
 10
450.7297408425
 20
439.9780127492
 30
0.0
 11
455.7297435247
 21
439.9780127492
 31
0.0
  0
LINE
  5
405
330
1F
100
AcDbEntity
  8
0
  6
Continuous
 62
     7
370
    15
100
AcDbLine
 10
458.7297421538
 20
439.9780127492
 30
0.0
 11
463.729744836
 21
439.9780127492
 31
0.0
  0
LINE
  5
406
330
1F
100
AcDbEntity
  8
0
  6
Continuous
 62
     7
370
    15
100
AcDbLine
 10
466.7297434651
 20
439.9780127492
 30
0.0
 11
471.7297461473
 21
439.9780127492
 31
0.0
  0
LINE
  5
407
330
1F
100
AcDbEntity
  8
0
  6
Continuous
 62
     7
370
    15
100
AcDbLine
 10
474.7297447764
 20
439.9780127492
 30
0.0
 11
479.729740008
 21
439.9780127492
 31
0.0
  0
LINE
  5
408
330
1F
100
AcDbEntity
  8
0
  6
Continuous
 62
     7
370
    15
100
AcDbLine
 10
482.7297460877
 20
439.9780127492
 30
0.0
 11
487.2389864766
 21
439.9780127492
 31
0.0
  0
LINE
  5
409
330
1F
100
AcDbEntity
  8
0
  6
Continuous
 62
     7
370
    15
100
AcDbLine
 10
487.2389864766
 20
439.9780127492
 30
0.0
 11
487.679740473
 21
439.9780127492
 31
0.0
  0
ARC
  5
40A
330
1F
100
AcDbEntity
  8
0
  6
Continuous
 62
     7
370
    15
100
AcDbCircle
 10
242.3171860708
 20
439.5090376447
 30
0.0
 40
4.071317604374946
100
AcDbArc
 50
357.8037273602
 51
6.6145844954
  0
ARC
  5
40B
330
1F
100
AcDbEntity
  8
0
  6
Continuous
 62
     7
370
    15
100
AcDbCircle
 10
474.7013944137
 20
439.3733722113
 30
0.0
 40
13.00437197240255
100
AcDbArc
 50
359.9103011219
 51
1.5626808417
  0
LWPOLYLINE
  5
40C
330
1F
100
AcDbEntity
  8
0
  6
Continuous
 62
     7
370
    15
100
AcDbPolyline
 90
        3
 70
   128
 43
0.0
 10
487.7211806022
 20
439.3530133452
 10
487.720420643
 20
439.5529794779
 10
487.7184387886
 20
439.7280085173
  0
ARC
  5
40D
330
1F
100
AcDbEntity
  8
0
  6
Continuous
 62
     7
370
    15
100
AcDbCircle
 10
486.6888138429
 20
440.1488818712
 30
0.0
 40
1.018923531335103
100
AcDbArc
 50
358.8265550093
 51
12.995514517
  0
LINE
  5
40E
330
1F
100
AcDbEntity
  8
0
  6
Continuous
 62
     7
370
    15
100
AcDbLine
 10
500.1964551055
 20
412.1973122742
 30
0.0
 11
500.1964551055
 21
438.9780107226
 31
0.0
  0
LINE
  5
40F
330
1F
100
AcDbEntity
  8
0
  6
Continuous
 62
     7
370
    15
100
AcDbLine
 10
500.2118778073
 20
438.9780107226
 30
0.0
 11
500.1964551055
 21
438.9780107226
 31
0.0
  0
LINE
  5
410
330
1F
100
AcDbEntity
  8
0
  6
Continuous
 62
     7
370
    15
100
AcDbLine
 10
500.2118778073
 20
412.1973122742
 30
0.0
 11
500.2118778073
 21
438.9780107226
 31
0.0
  0
LINE
  5
411
330
1F
100
AcDbEntity
  8
0
  6
Continuous
 62
     7
370
    15
100
AcDbLine
 10
246.3855129325
 20
438.9780107226
 30
0.0
 11
242.729736551
 21
438.9780107226
 31
0.0
  0
LINE
  5
412
330
1F
100
AcDbEntity
  8
0
  6
Continuous
 62
     7
370
    15
100
AcDbLine
 10
237.429736241
 20
438.9780107226
 30
0.0
 11
234.7297501408
 21
438.9780107226
 31
0.0
  0
LINE
  5
413
330
1F
100
AcDbEntity
  8
0
  6
Continuous
 62
     7
370
    15
100
AcDbLine
 10
246.3855129325
 20
439.3530133452
 30
0.0
 11
246.3855129325
 21
438.9780107226
 31
0.0
  0
LINE
  5
414
330
1F
100
AcDbEntity
  8
0
  6
Continuous
 62
     7
370
    15
100
AcDbLine
 10
487.7057504498
 20
438.9780107226
 30
0.0
 11
487.7057504498
 21
439.3530133452
 31
0.0
  0
LINE
  5
415
330
1F
100
AcDbEntity
  8
0
  6
Continuous
 62
     7
370
    15
100
AcDbLine
 10
500.1964551055
 20
438.9780107226
 30
0.0
 11
498.7297412597
 21
438.9780107226
 31
0.0
  0
LINE
  5
416
330
1F
100
AcDbEntity
  8
0
  6
Continuous
 62
     7
370
    15
100
AcDbLine
 10
495.7297426306
 20
438.9780107226
 30
0.0
 11
494.4297429764
 21
438.9780107226
 31
0.0
  0
LINE
  5
417
330
1F
100
AcDbEntity
  8
0
  6
Continuous
 62
     7
370
    15
100
AcDbLine
 10
490.929743334
 20
438.9780107226
 30
0.0
 11
490.7297399484
 21
438.9780107226
 31
0.0
  0
LINE
  5
418
330
1F
100
AcDbEntity
  8
0
  6
Continuous
 62
     7
370
    15
100
AcDbLine
 10
487.7297413193
 20
438.9780107226
 30
0.0
 11
487.7057504498
 21
438.9780107226
 31
0.0
  0
LINE
  5
419
330
1F
100
AcDbEntity
  8
0
  6
Continuous
 62
     7
370
    15
100
AcDbLine
 10
487.7211806022
 20
438.9780107226
 30
0.0
 11
487.7211806022
 21
439.3530133452
 31
0.0
  0
LINE
  5
41A
330
1F
100
AcDbEntity
  8
0
  6
Continuous
 62
     7
370
    15
100
AcDbLine
 10
509.8478776061
 20
487.1280062284
 30
0.0
 11
515.0478762232
 21
487.1280062284
 31
0.0
  0
LINE
  5
41B
330
1F
100
AcDbEntity
  8
0
  6
Continuous
 62
     7
370
    15
100
AcDbLine
 10
569.2297500216
 20
477.9030102577
 30
0.0
 11
569.2297500216
 21
476.8780115333
 31
0.0
  0
LINE
  5
41C
330
1F
100
AcDbEntity
  8
0
  6
Continuous
 62
     7
370
    15
100
AcDbLine
 10
569.2297500216
 20
476.8780115333
 30
0.0
 11
225.2297383391
 21
476.8780115333
 31
0.0
  0
LINE
  5
41D
330
1F
100
AcDbEntity
  8
0
  6
Continuous
 62
     7
370
    15
100
AcDbLine
 10
225.2297383391
 20
476.8780115333
 30
0.0
 11
225.2297383391
 21
477.9030102577
 31
0.0
  0
LINE
  5
41E
330
1F
100
AcDbEntity
  8
0
  6
Continuous
 62
     7
370
    15
100
AcDbLine
 10
225.2297383391
 20
477.9030102577
 30
0.0
 11
225.2297383391
 21
485.8530107226
 31
0.0
  0
LINE
  5
41F
330
1F
100
AcDbEntity
  8
0
  6
Continuous
 62
     7
370
    15
100
AcDbLine
 10
569.2297500216
 20
485.8530107226
 30
0.0
 11
569.2297500216
 21
477.9030102577
 31
0.0
  0
LINE
  5
420
330
1F
100
AcDbEntity
  8
0
  6
Continuous
 62
     7
370
    15
100
AcDbLine
 10
569.2297500216
 20
486.8780094471
 30
0.0
 11
569.2297500216
 21
485.8530107226
 31
0.0
  0
LINE
  5
421
330
1F
100
AcDbEntity
  8
0
  6
Continuous
 62
     7
370
    15
100
AcDbLine
 10
225.2297383391
 20
485.8530107226
 30
0.0
 11
225.2297383391
 21
486.8780094471
 31
0.0
  0
LINE
  5
422
330
1F
100
AcDbEntity
  8
0
  6
Continuous
 62
     7
370
    15
100
AcDbLine
 10
226.2967061841
 20
486.8780094471
 30
0.0
 11
568.1632888161
 21
486.8780094471
 31
0.0
  0
LINE
  5
423
330
1F
100
AcDbEntity
  8
0
  6
Continuous
 62
     7
370
    15
100
AcDbLine
 10
216.4797466838
 20
486.8780094471
 30
0.0
 11
216.4797466838
 21
486.8744778719
 31
0.0
  0
LINE
  5
424
330
1F
100
AcDbEntity
  8
0
  6
Continuous
 62
     7
370
    15
100
AcDbLine
 10
223.9547502839
 20
486.4780175772
 30
0.0
 11
225.2297383391
 21
486.4780175772
 31
0.0
  0
LINE
  5
425
330
1F
100
AcDbEntity
  8
0
  6
Continuous
 62
     7
370
    15
100
AcDbLine
 10
577.979741677
 20
486.8780094471
 30
0.0
 11
577.979741677
 21
486.4780175772
 31
0.0
  0
LINE
  5
426
330
1F
100
AcDbEntity
  8
0
  6
Continuous
 62
     7
370
    15
100
AcDbLine
 10
569.2297500216
 20
486.4780175772
 30
0.0
 11
577.979741677
 21
486.4780175772
 31
0.0
  0
LINE
  5
427
330
1F
100
AcDbEntity
  8
0
  6
Continuous
 62
     7
370
    15
100
AcDbLine
 10
577.979741677
 20
485.8530107226
 30
0.0
 11
577.979741677
 21
486.4780175772
 31
0.0
  0
LINE
  5
428
330
1F
100
AcDbEntity
  8
0
  6
Continuous
 62
     7
370
    15
100
AcDbLine
 10
577.979741677
 20
485.8530107226
 30
0.0
 11
577.979741677
 21
485.7780131783
 31
0.0
  0
LINE
  5
429
330
1F
100
AcDbEntity
  8
0
  6
Continuous
 62
     7
370
    15
100
AcDbLine
 10
500.0443887555
 20
441.4030107942
 30
0.0
 11
500.0443887555
 21
441.7340996947
 31
0.0
  0
LINE
  5
42A
330
1F
100
AcDbEntity
  8
0
  6
Continuous
 62
     7
370
    15
100
AcDbLine
 10
499.454749807
 20
440.3780120697
 30
0.0
 11
498.7297412597
 21
440.3780120697
 31
0.0
  0
LINE
  5
42B
330
1F
100
AcDbEntity
  8
0
  6
Continuous
 62
     7
370
    15
100
AcDbLine
 10
495.7297426306
 20
440.3780120697
 30
0.0
 11
490.7297399484
 21
440.3780120697
 31
0.0
  0
LINE
  5
42C
330
1F
100
AcDbEntity
  8
0
  6
Continuous
 62
     7
370
    15
100
AcDbLine
 10
487.7297413193
 20
440.3780120697
 30
0.0
 11
482.7297460877
 21
440.3780120697
 31
0.0
  0
LINE
  5
42D
330
1F
100
AcDbEntity
  8
0
  6
Continuous
 62
     7
370
    15
100
AcDbLine
 10
479.729740008
 20
440.3780120697
 30
0.0
 11
474.7297447764
 21
440.3780120697
 31
0.0
  0
LINE
  5
42E
330
1F
100
AcDbEntity
  8
0
  6
Continuous
 62
     7
370
    15
100
AcDbLine
 10
471.7297461473
 20
440.3780120697
 30
0.0
 11
466.7297434651
 21
440.3780120697
 31
0.0
  0
LINE
  5
42F
330
1F
100
AcDbEntity
  8
0
  6
Continuous
 62
     7
370
    15
100
AcDbLine
 10
463.729744836
 20
440.3780120697
 30
0.0
 11
458.7297421538
 21
440.3780120697
 31
0.0
  0
LINE
  5
430
330
1F
100
AcDbEntity
  8
0
  6
Continuous
 62
     7
370
    15
100
AcDbLine
 10
455.7297435247
 20
440.3780120697
 30
0.0
 11
450.7297408425
 21
440.3780120697
 31
0.0
  0
LINE
  5
431
330
1F
100
AcDbEntity
  8
0
  6
Continuous
 62
     7
370
    15
100
AcDbLine
 10
447.7297422134
 20
440.3780120697
 30
0.0
 11
442.7297469818
 21
440.3780120697
 31
0.0
  0
LINE
  5
432
330
1F
100
AcDbEntity
  8
0
  6
Continuous
 62
     7
370
    15
100
AcDbLine
 10
439.7297409021
 20
440.3780120697
 30
0.0
 11
434.7297419452
 21
440.3780120697
 31
0.0
  0
LINE
  5
433
330
1F
100
AcDbEntity
  8
0
  6
Continuous
 62
     7
370
    15
100
AcDbLine
 10
431.7297433161
 20
440.3780120697
 30
0.0
 11
426.7297443592
 21
440.3780120697
 31
0.0
  0
LINE
  5
434
330
1F
100
AcDbEntity
  8
0
  6
Continuous
 62
     7
370
    15
100
AcDbLine
 10
423.7297420048
 20
440.3780120697
 30
0.0
 11
418.7297430479
 21
440.3780120697
 31
0.0
  0
LINE
  5
435
330
1F
100
AcDbEntity
  8
0
  6
Continuous
 62
     7
370
    15
100
AcDbLine
 10
415.7297444188
 20
440.3780120697
 30
0.0
 11
410.7297417366
 21
440.3780120697
 31
0.0
  0
LINE
  5
436
330
1F
100
AcDbEntity
  8
0
  6
Continuous
 62
     7
370
    15
100
AcDbLine
 10
407.7297431075
 20
440.3780120697
 30
0.0
 11
402.7297441506
 21
440.3780120697
 31
0.0
  0
LINE
  5
437
330
1F
100
AcDbEntity
  8
0
  6
Continuous
 62
     7
370
    15
100
AcDbLine
 10
399.7297436588
 20
440.3780120697
 30
0.0
 11
394.7297428393
 21
440.3780120697
 31
0.0
  0
LINE
  5
438
330
1F
100
AcDbEntity
  8
0
  6
Continuous
 62
     7
370
    15
100
AcDbLine
 10
391.7297442102
 20
440.3780120697
 30
0.0
 11
386.7297433906
 21
440.3780120697
 31
0.0
  0
LINE
  5
439
330
1F
100
AcDbEntity
  8
0
  6
Continuous
 62
     7
370
    15
100
AcDbLine
 10
383.7297438302
 20
440.3780120697
 30
0.0
 11
378.7297434763
 21
440.3780120697
 31
0.0
  0
LINE
  5
43A
330
1F
100
AcDbEntity
  8
0
  6
Continuous
 62
     7
370
    15
100
AcDbLine
 10
375.7297435666
 20
440.3780120697
 30
0.0
 11
370.729743562
 21
440.3780120697
 31
0.0
  0
LINE
  5
43B
330
1F
100
AcDbEntity
  8
0
  6
Continuous
 62
     7
370
    15
100
AcDbLine
 10
367.7297435359
 20
440.3780120697
 30
0.0
 11
362.729743182
 21
440.3780120697
 31
0.0
  0
LINE
  5
43C
330
1F
100
AcDbEntity
  8
0
  6
Continuous
 62
     7
370
    15
100
AcDbLine
 10
359.7297436216
 20
440.3780120697
 30
0.0
 11
354.7297437333
 21
440.3780120697
 31
0.0
  0
LINE
  5
43D
330
1F
100
AcDbEntity
  8
0
  6
Continuous
 62
     7
370
    15
100
AcDbLine
 10
351.7297432416
 20
440.3780120697
 30
0.0
 11
346.7297442847
 21
440.3780120697
 31
0.0
  0
LINE
  5
43E
330
1F
100
AcDbEntity
  8
0
  6
Continuous
 62
     7
370
    15
100
AcDbLine
 10
343.7297437929
 20
440.3780120697
 30
0.0
 11
338.729744836
 21
440.3780120697
 31
0.0
  0
LINE
  5
43F
330
1F
100
AcDbEntity
  8
0
  6
Continuous
 62
     7
370
    15
100
AcDbLine
 10
335.7297424816
 20
440.3780120697
 30
0.0
 11
330.7297435247
 21
440.3780120697
 31
0.0
  0
LINE
  5
440
330
1F
100
AcDbEntity
  8
0
  6
Continuous
 62
     7
370
    15
100
AcDbLine
 10
327.7297448956
 20
440.3780120697
 30
0.0
 11
322.7297422134
 21
440.3780120697
 31
0.0
  0
LINE
  5
441
330
1F
100
AcDbEntity
  8
0
  6
Continuous
 62
     7
370
    15
100
AcDbLine
 10
319.7297435843
 20
440.3780120697
 30
0.0
 11
314.7297446274
 21
440.3780120697
 31
0.0
  0
LINE
  5
442
330
1F
100
AcDbEntity
  8
0
  6
Continuous
 62
     7
370
    15
100
AcDbLine
 10
311.729742273
 20
440.3780120697
 30
0.0
 11
306.7297470414
 21
440.3780120697
 31
0.0
  0
LINE
  5
443
330
1F
100
AcDbEntity
  8
0
  6
Continuous
 62
     7
370
    15
100
AcDbLine
 10
303.7297409617
 20
440.3780120697
 30
0.0
 11
298.7297457301
 21
440.3780120697
 31
0.0
  0
LINE
  5
444
330
1F
100
AcDbEntity
  8
0
  6
Continuous
 62
     7
370
    15
100
AcDbLine
 10
295.729747101
 20
440.3780120697
 30
0.0
 11
290.7297444188
 21
440.3780120697
 31
0.0
  0
LINE
  5
445
330
1F
100
AcDbEntity
  8
0
  6
Continuous
 62
     7
370
    15
100
AcDbLine
 10
287.7297457897
 20
440.3780120697
 30
0.0
 11
282.7297431075
 21
440.3780120697
 31
0.0
  0
LINE
  5
446
330
1F
100
AcDbEntity
  8
0
  6
Continuous
 62
     7
370
    15
100
AcDbLine
 10
279.7297444784
 20
440.3780120697
 30
0.0
 11
274.7297417962
 21
440.3780120697
 31
0.0
  0
LINE
  5
447
330
1F
100
AcDbEntity
  8
0
  6
Continuous
 62
     7
370
    15
100
AcDbLine
 10
271.7297431671
 20
440.3780120697
 30
0.0
 11
266.7297404849
 21
440.3780120697
 31
0.0
  0
LINE
  5
448
330
1F
100
AcDbEntity
  8
0
  6
Continuous
 62
     7
370
    15
100
AcDbLine
 10
263.7297418558
 20
440.3780120697
 30
0.0
 11
258.7297466242
 21
440.3780120697
 31
0.0
  0
LINE
  5
449
330
1F
100
AcDbEntity
  8
0
  6
Continuous
 62
     7
370
    15
100
AcDbLine
 10
255.7297405445
 20
440.3780120697
 30
0.0
 11
250.7297453129
 21
440.3780120697
 31
0.0
  0
LINE
  5
44A
330
1F
100
AcDbEntity
  8
0
  6
Continuous
 62
     7
370
    15
100
AcDbLine
 10
247.7297466838
 20
440.3780120697
 30
0.0
 11
242.729736551
 21
440.3780120697
 31
0.0
  0
LINE
  5
44B
330
1F
100
AcDbEntity
  8
0
  6
Continuous
 62
     7
370
    15
100
AcDbLine
 10
239.7297453725
 20
440.3780120697
 30
0.0
 11
234.7297501408
 21
440.3780120697
 31
0.0
  0
SPLINE
  5
44C
330
1F
100
AcDbEntity
  8
0
  6
Continuous
 62
     7
370
    15
100
AcDbSpline
210
0.0
220
0.0
230
1.0
 70
     8
 71
     3
 72
    12
 73
     8
 74
     0
 42
0.00000001
 43
0.00000001
 40
0.0
 40
0.0
 40
0.0
 40
0.0
 40
0.2286623517925038
 40
0.4574120159850278
 40
0.6861548439828337
 40
0.9148997804817876
 40
1.0
 40
1.0
 40
1.0
 40
1.0
 10
499.4547498070435
 20
440.3780120697032
 30
0.0
 10
499.4997042138102
 20
440.3908818433954
 30
0.0
 10
499.5896301927281
 20
440.4166263049725
 30
0.0
 10
499.7245695566001
 20
440.6164241227131
 30
0.0
 10
499.8594011492114
 20
440.9071077906004
 30
0.0
 10
499.9663150870926
 20
441.1898597632971
 30
0.0
 10
500.027734630067
 20
441.3575429165303
 30
0.0
 10
500.0443887554841
 20
441.4030107941638
 30
0.0
  0
SPLINE
  5
44D
330
1F
100
AcDbEntity
  8
0
  6
Continuous
 62
     7
370
    15
100
AcDbSpline
210
0.0
220
0.0
230
1.0
 70
     8
 71
     3
 72
    13
 73
     9
 74
     0
 42
0.00000001
 43
0.00000001
 40
0.0
 40
0.0
 40
0.0
 40
0.0
 40
0.1330479367523584
 40
0.2602263432462688
 40
0.3825070430841514
 40
0.5009891744728219
 40
0.7078672105234658
 40
1.0
 40
1.0
 40
1.0
 40
1.0
 10
500.4797410809235
 20
441.4030107941638
 30
0.0
 10
500.4747220061325
 20
441.3260929718063
 30
0.0
 10
500.4649052775816
 20
441.1756506265048
 30
0.0
 10
500.3902699738355
 20
440.9677208554114
 30
0.0
 10
500.2841818526477
 20
440.7893974931405
 30
0.0
 10
500.1198055467393
 20
440.608958501309
 30
0.0
 10
499.8500962749
 20
440.4256882148699
 30
0.0
 10
499.6007329942605
 20
440.3956166676737
 30
0.0
 10
499.4547498070435
 20
440.3780120697032
 30
0.0
  0
SPLINE
  5
44E
330
1F
100
AcDbEntity
  8
0
  6
Continuous
 62
     7
370
    15
100
AcDbSpline
210
0.0
220
0.0
230
1.0
 70
     8
 71
     3
 72
    12
 73
     8
 74
     0
 42
0.00000001
 43
0.00000001
 40
0.0
 40
0.0
 40
0.0
 40
0.0
 40
0.2477451151100305
 40
0.488422233486881
 40
0.7265724652173859
 40
0.9669171483577067
 40
1.0
 40
1.0
 40
1.0
 40
1.0
 10
500.0797492109971
 20
441.4030107941638
 30
0.0
 10
500.0766269796318
 20
441.356034965983
 30
0.0
 10
500.0704715920021
 20
441.2634234974995
 30
0.0
 10
500.0245770645168
 20
441.1352604561888
 30
0.0
 10
499.9583546976299
 20
441.0291170275636
 30
0.0
 10
499.9038573807621
 20
440.9595842912216
 30
0.0
 10
499.8701321761788
 20
440.9378751053478
 30
0.0
 10
499.8660516583161
 20
440.9352484431277
 30
0.0
  0
LINE
  5
44F
330
1F
100
AcDbEntity
  8
0
  6
Continuous
 62
     7
370
    15
100
AcDbLine
 10
500.4797410809
 20
441.4030107942
 30
0.0
 11
500.079749211
 21
441.4030107942
 31
0.0
  0
LINE
  5
450
330
1F
100
AcDbEntity
  8
0
  6
Continuous
 62
     7
370
    15
100
AcDbLine
 10
500.4797410809
 20
441.4030107942
 30
0.0
 11
500.4797410809
 21
441.7340996947
 31
0.0
  0
LINE
  5
451
330
1F
100
AcDbEntity
  8
0
  6
Continuous
 62
     7
370
    15
100
AcDbLine
 10
500.079749211
 20
441.4030107942
 30
0.0
 11
500.079749211
 21
441.7340996947
 31
0.0
  0
SPLINE
  5
452
330
1F
100
AcDbEntity
  8
0
  6
Continuous
 62
     7
370
    15
100
AcDbSpline
210
0.0
220
0.0
230
1.0
 70
     8
 71
     3
 72
    11
 73
     7
 74
     0
 42
0.00000001
 43
0.00000001
 40
0.0
 40
0.0
 40
0.0
 40
0.0
 40
0.3180845703144219
 40
0.6361627183068026
 40
0.9542408662991834
 40
1.0
 40
1.0
 40
1.0
 40
1.0
 10
578.4552526318269
 20
236.553015121461
 30
0.0
 10
578.4496728555953
 20
236.4181005455602
 30
0.0
 10
578.438513415791
 20
236.1482741177664
 30
0.0
 10
578.4218062597068
 20
235.8184474360651
 30
0.0
 10
578.4098381881956
 20
235.6246615039017
 30
0.0
 10
578.4034808816733
 20
235.5981456956142
 30
0.0
 10
578.402681335135
 20
235.5948108520518
 30
0.0
  0
LINE
  5
453
330
1F
100
AcDbEntity
  8
0
  6
Continuous
 62
     7
370
    15
100
AcDbLine
 10
570.5052447163
 20
235.60941399
 30
0.0
 11
570.5052447163
 21
236.5530151215
 31
0.0
  0
LINE
  5
454
330
1F
100
AcDbEntity
  8
0
  6
Continuous
 62
     7
370
    15
100
AcDbLine
 10
570.5052447163
 20
485.7780131783
 30
0.0
 11
578.4552526318
 21
485.7780131783
 31
0.0
  0
LINE
  5
455
330
1F
100
AcDbEntity
  8
0
  6
Continuous
 62
     7
370
    15
100
AcDbLine
 10
570.5052447163
 20
236.5530151215
 30
0.0
 11
570.5052447163
 21
236.6030085173
 31
0.0
  0
LINE
  5
456
330
1F
100
AcDbEntity
  8
0
  6
Continuous
 62
     7
370
    15
100
AcDbLine
 10
569.4802385413
 20
236.6030085173
 30
0.0
 11
569.4802385413
 21
485.7780131783
 31
0.0
  0
LINE
  5
457
330
1F
100
AcDbEntity
  8
0
  6
Continuous
 62
     7
370
    15
100
AcDbLine
 10
569.4802385413
 20
485.7780131783
 30
0.0
 11
570.5052447163
 21
485.7780131783
 31
0.0
  0
LINE
  5
458
330
1F
100
AcDbEntity
  8
0
  6
Continuous
 62
     7
370
    15
100
AcDbLine
 10
570.5052447163
 20
236.6030085173
 30
0.0
 11
569.4802385413
 21
236.6030085173
 31
0.0
  0
LINE
  5
459
330
1F
100
AcDbEntity
  8
0
  6
Continuous
 62
     7
370
    15
100
AcDbLine
 10
578.4552526318
 20
485.7780131783
 30
0.0
 11
579.4802439057
 21
485.7780131783
 31
0.0
  0
LINE
  5
45A
330
1F
100
AcDbEntity
  8
0
  6
Continuous
 62
     7
370
    15
100
AcDbLine
 10
579.4802439057
 20
485.7780131783
 30
0.0
 11
579.4802439057
 21
236.5530151215
 31
0.0
  0
LINE
  5
45B
330
1F
100
AcDbEntity
  8
0
  6
Continuous
 62
     7
370
    15
100
AcDbLine
 10
578.4552526318
 20
236.5530151215
 30
0.0
 11
579.4802439057
 21
236.5530151215
 31
0.0
  0
LINE
  5
45C
330
1F
100
AcDbEntity
  8
0
  6
Continuous
 62
     7
370
    15
100
AcDbLine
 10
579.0802520358
 20
485.8180153456
 30
0.0
 11
579.4802439057
 21
485.8180153456
 31
0.0
  0
LINE
  5
45D
330
1F
100
AcDbEntity
  8
0
  6
Continuous
 62
     7
370
    15
100
AcDbLine
 10
579.0802520358
 20
486.2530100431
 30
0.0
 11
579.0802520358
 21
485.8180153456
 31
0.0
  0
LINE
  5
45E
330
1F
100
AcDbEntity
  8
0
  6
Continuous
 62
     7
370
    15
100
AcDbLine
 10
579.4802439057
 20
486.2530100431
 30
0.0
 11
579.4802439057
 21
485.8180153456
 31
0.0
  0
ARC
  5
45F
330
1F
100
AcDbEntity
  8
0
  6
Continuous
 62
     7
370
    15
100
AcDbCircle
 10
578.4552453471
 20
486.2530121866
 30
0.0
 40
1.025000000000091
100
AcDbArc
 50
0.0
 51
90.0
  0
ARC
  5
460
330
1F
100
AcDbEntity
  8
0
  6
Continuous
 62
     7
370
    15
100
AcDbCircle
 10
578.4552453471
 20
486.2530121866
 30
0.0
 40
0.6249999999995453
100
AcDbArc
 50
0.0
 51
90.0
  0
LINE
  5
461
330
1F
100
AcDbEntity
  8
0
  6
Continuous
 62
     7
370
    15
100
AcDbLine
 10
578.4552526318
 20
486.8780094471
 30
0.0
 11
569.4802385413
 21
486.8780094471
 31
0.0
  0
LINE
  5
462
330
1F
100
AcDbEntity
  8
0
  6
Continuous
 62
     7
370
    15
100
AcDbLine
 10
578.4552526318
 20
487.2780162182
 30
0.0
 11
569.4802385413
 21
487.2780162182
 31
0.0
  0
LINE
  5
463
330
1F
100
AcDbEntity
  8
0
  6
Continuous
 62
     7
370
    15
100
AcDbLine
 10
566.9802409255
 20
487.2780162182
 30
0.0
 11
566.9802409255
 21
486.8780094471
 31
0.0
  0
LINE
  5
464
330
1F
100
AcDbEntity
  8
0
  6
Continuous
 62
     7
370
    15
100
AcDbLine
 10
569.4802385413
 20
486.8780094471
 30
0.0
 11
568.1632888161
 21
486.8780094471
 31
0.0
  0
LINE
  5
465
330
1F
100
AcDbEntity
  8
0
  6
Continuous
 62
     7
370
    15
100
AcDbLine
 10
569.4802385413
 20
487.2780162182
 30
0.0
 11
566.9802409255
 21
487.2780162182
 31
0.0
  0
LINE
  5
466
330
1F
100
AcDbEntity
  8
0
  6
Continuous
 62
     7
370
    15
100
AcDbLine
 10
578.4552526318
 20
235.6203961458
 30
0.0
 11
578.4552526318
 21
235.9280157175
 31
0.0
  0
ARC
  5
467
330
1F
100
AcDbEntity
  8
0
  6
Continuous
 62
     7
370
    15
100
AcDbCircle
 10
578.4552453471
 20
236.5530121866
 30
0.0
 40
0.625
100
AcDbArc
 50
270.0
 51
360.0
  0
ARC
  5
468
330
1F
100
AcDbEntity
  8
0
  6
Continuous
 62
     7
370
    15
100
AcDbCircle
 10
578.4552453471
 20
236.5530121866
 30
0.0
 40
1.024999999999989
100
AcDbArc
 50
283.1971780827
 51
360.0
  0
LINE
  5
469
330
1F
100
AcDbEntity
  8
0
  6
Continuous
 62
     7
370
    15
100
AcDbLine
 10
570.4802405678
 20
235.620500454
 30
0.0
 11
570.4802405678
 21
235.9280157175
 31
0.0
  0
LINE
  5
46A
330
1F
100
AcDbEntity
  8
0
  6
Continuous
 62
     7
370
    15
100
AcDbLine
 10
570.5052447163
 20
235.9280157175
 30
0.0
 11
570.4802405678
 21
235.9280157175
 31
0.0
  0
LINE
  5
46B
330
1F
100
AcDbEntity
  8
0
  6
Continuous
 62
     7
370
    15
100
AcDbLine
 10
569.4802385413
 20
236.4780101266
 30
0.0
 11
569.4802385413
 21
236.6030085173
 31
0.0
  0
LINE
  5
46C
330
1F
100
AcDbEntity
  8
0
  6
Continuous
 62
     7
370
    15
100
AcDbLine
 10
569.8802453124
 20
236.4780101266
 30
0.0
 11
569.8802453124
 21
236.6030085173
 31
0.0
  0
LINE
  5
46D
330
1F
100
AcDbEntity
  8
0
  6
Continuous
 62
     7
370
    15
100
AcDbLine
 10
569.8802453124
 20
236.4780101266
 30
0.0
 11
569.4802385413
 21
236.4780101266
 31
0.0
  0
LINE
  5
46E
330
1F
100
AcDbEntity
  8
0
  6
Continuous
 62
     7
370
    15
100
AcDbLine
 10
579.0802520358
 20
485.8180153456
 30
0.0
 11
579.0802520358
 21
485.7780131783
 31
0.0
  0
LINE
  5
46F
330
1F
100
AcDbEntity
  8
0
  6
Continuous
 62
     7
370
    15
100
AcDbLine
 10
579.4802439057
 20
485.8180153456
 30
0.0
 11
579.4802439057
 21
485.7780131783
 31
0.0
  0
LINE
  5
470
330
1F
100
AcDbEntity
  8
0
  6
Continuous
 62
     7
370
    15
100
AcDbLine
 10
569.4802385413
 20
485.7780131783
 30
0.0
 11
569.2297500216
 21
485.7780131783
 31
0.0
  0
LINE
  5
471
330
1F
100
AcDbEntity
  8
0
  6
Continuous
 62
     7
370
    15
100
AcDbLine
 10
569.2297500216
 20
236.4780101266
 30
0.0
 11
569.4802385413
 21
236.4780101266
 31
0.0
  0
LINE
  5
472
330
1F
100
AcDbEntity
  8
0
  6
Continuous
 62
     7
370
    15
100
AcDbLine
 10
568.5584229075
 20
236.4780101266
 30
0.0
 11
568.5297381722
 21
236.4780101266
 31
0.0
  0
LINE
  5
473
330
1F
100
AcDbEntity
  8
0
  6
Continuous
 62
     7
370
    15
100
AcDbLine
 10
564.4802433097
 20
476.7780098405
 30
0.0
 11
564.4802433097
 21
476.8780115333
 31
0.0
  0
LINE
  5
474
330
1F
100
AcDbEntity
  8
0
  6
Continuous
 62
     7
370
    15
100
AcDbLine
 10
578.4552526318
 20
236.4780101266
 30
0.0
 11
579.0757220828
 21
236.4780101266
 31
0.0
  0
LINE
  5
475
330
1F
100
AcDbEntity
  8
0
  6
Continuous
 62
     7
370
    15
100
AcDbLine
 10
579.4802439057
 20
236.4780101266
 30
0.0
 11
579.4802439057
 21
236.5530151215
 31
0.0
  0
LINE
  5
476
330
1F
100
AcDbEntity
  8
0
  6
Continuous
 62
     7
370
    15
100
AcDbLine
 10
579.477502092
 20
236.4780101266
 30
0.0
 11
579.4802439057
 21
236.4780101266
 31
0.0
  0
LINE
  5
477
330
1F
100
AcDbEntity
  8
0
  6
Continuous
 62
     7
370
    15
100
AcDbLine
 10
223.9547502839
 20
235.5952578869
 30
0.0
 11
223.9547502839
 21
236.5030142751
 31
0.0
  0
LINE
  5
478
330
1F
100
AcDbEntity
  8
0
  6
Continuous
 62
     7
370
    15
100
AcDbLine
 10
216.0047423684
 20
236.5030142751
 30
0.0
 11
216.0047423684
 21
235.6048989382
 31
0.0
  0
LINE
  5
479
330
1F
100
AcDbEntity
  8
0
  6
Continuous
 62
     7
370
    15
100
AcDbLine
 10
216.0047423684
 20
486.2280133452
 30
0.0
 11
216.0047423684
 21
486.8744778719
 31
0.0
  0
LINE
  5
47A
330
1F
100
AcDbEntity
  8
0
  6
Continuous
 62
     7
370
    15
100
AcDbLine
 10
216.0047423684
 20
486.8744778719
 30
0.0
 11
223.9547502839
 21
486.8744778719
 31
0.0
  0
LINE
  5
47B
330
1F
100
AcDbEntity
  8
0
  6
Continuous
 62
     7
370
    15
100
AcDbLine
 10
223.9547502839
 20
486.8744778719
 30
0.0
 11
223.9547502839
 21
486.2280133452
 31
0.0
  0
LINE
  5
47C
330
1F
100
AcDbEntity
  8
0
  6
Continuous
 62
     7
370
    15
100
AcDbLine
 10
216.0047423684
 20
486.2280133452
 30
0.0
 11
214.9797361933
 21
486.2280133452
 31
0.0
  0
LINE
  5
47D
330
1F
100
AcDbEntity
  8
0
  6
Continuous
 62
     7
370
    15
100
AcDbLine
 10
214.9797361933
 20
236.5030142751
 30
0.0
 11
216.0047423684
 21
236.5030142751
 31
0.0
  0
LINE
  5
47E
330
1F
100
AcDbEntity
  8
0
  6
Continuous
 62
     7
370
    15
100
AcDbLine
 10
214.9797361933
 20
236.5030142751
 30
0.0
 11
214.9797361933
 21
486.2280133452
 31
0.0
  0
LINE
  5
47F
330
1F
100
AcDbEntity
  8
0
  6
Continuous
 62
     7
370
    15
100
AcDbLine
 10
223.9547502839
 20
486.2280133452
 30
0.0
 11
224.9797415578
 21
486.2280133452
 31
0.0
  0
LINE
  5
480
330
1F
100
AcDbEntity
  8
0
  6
Continuous
 62
     7
370
    15
100
AcDbLine
 10
224.9797415578
 20
486.2280133452
 30
0.0
 11
224.9797415578
 21
236.5030142751
 31
0.0
  0
LINE
  5
481
330
1F
100
AcDbEntity
  8
0
  6
Continuous
 62
     7
370
    15
100
AcDbLine
 10
224.9797415578
 20
236.5030142751
 30
0.0
 11
223.9547502839
 21
236.5030142751
 31
0.0
  0
LINE
  5
482
330
1F
100
AcDbEntity
  8
0
  6
Continuous
 62
     7
370
    15
100
AcDbLine
 10
215.3797429644
 20
486.2530100431
 30
0.0
 11
214.9797361933
 21
486.2530100431
 31
0.0
  0
LINE
  5
483
330
1F
100
AcDbEntity
  8
0
  6
Continuous
 62
     7
370
    15
100
AcDbLine
 10
216.0047423684
 20
486.8780094471
 30
0.0
 11
216.0047423684
 21
487.2780162182
 31
0.0
  0
SPLINE
  5
484
330
1F
100
AcDbEntity
  8
0
  6
Continuous
 62
     7
370
    15
100
AcDbSpline
210
0.0
220
0.0
230
1.0
 70
     8
 71
     3
 72
    11
 73
     7
 74
     0
 42
0.00000001
 43
0.00000001
 40
0.0
 40
0.0
 40
0.0
 40
0.0
 40
0.2547151790727483
 40
0.5096003751624161
 40
0.7644898806309236
 40
1.0
 40
1.0
 40
1.0
 40
1.0
 10
216.0047423683838
 20
486.8780094470988
 30
0.0
 10
215.921289041727
 20
486.8682468210361
 30
0.0
 10
215.7543266850756
 20
486.8487150525636
 30
0.0
 10
215.5451362841932
 20
486.6987519694773
 30
0.0
 10
215.4054743407134
 20
486.4906594288988
 30
0.0
 10
215.3880911090148
 20
486.3301116878793
 30
0.0
 10
215.3797429644302
 20
486.2530100431453
 30
0.0
  0
SPLINE
  5
485
330
1F
100
AcDbEntity
  8
0
  6
Continuous
 62
     7
370
    15
100
AcDbSpline
210
0.0
220
0.0
230
1.0
 70
     8
 71
     3
 72
    12
 73
     8
 74
     0
 42
0.00000001
 43
0.00000001
 40
0.0
 40
0.0
 40
0.0
 40
0.0
 40
0.2303371527135108
 40
0.4607665250208555
 40
0.6911896614848201
 40
0.9216125771808338
 40
0.9999999999999999
 40
0.9999999999999999
 40
0.9999999999999999
 40
0.9999999999999999
 10
216.0047423683838
 20
487.2780162181865
 30
0.0
 10
215.8811135762678
 20
487.2649538866747
 30
0.0
 10
215.6338064950403
 20
487.2388239939135
 30
0.0
 10
215.3105685001612
 20
487.03618716685
 30
0.0
 10
215.0786091403103
 20
486.7417961806404
 30
0.0
 10
214.9875494378321
 20
486.4598561398227
 30
0.0
 10
214.9813179692736
 20
486.2948856272986
 30
0.0
 10
214.9797361933426
 20
486.2530100431453
 30
0.0
  0
LINE
  5
486
330
1F
100
AcDbEntity
  8
0
  6
Continuous
 62
     7
370
    15
100
AcDbLine
 10
216.0047423684
 20
487.2780162182
 30
0.0
 11
225.1126599156
 21
487.2780162182
 31
0.0
  0
LINE
  5
487
330
1F
100
AcDbEntity
  8
0
  6
Continuous
 62
     7
370
    15
100
AcDbLine
 10
225.1126599156
 20
486.8780094471
 30
0.0
 11
225.1126599156
 21
487.2780162182
 31
0.0
  0
LINE
  5
488
330
1F
100
AcDbEntity
  8
0
  6
Continuous
 62
     7
370
    15
100
AcDbLine
 10
225.1126599156
 20
486.8780094471
 30
0.0
 11
216.0047423684
 21
486.8780094471
 31
0.0
  0
LINE
  5
489
330
1F
100
AcDbEntity
  8
0
  6
Continuous
 62
     7
370
    15
100
AcDbLine
 10
227.4797391736
 20
487.2780162182
 30
0.0
 11
227.4797391736
 21
486.8780094471
 31
0.0
  0
LINE
  5
48A
330
1F
100
AcDbEntity
  8
0
  6
Continuous
 62
     7
370
    15
100
AcDbLine
 10
227.4797391736
 20
487.2780162182
 30
0.0
 11
225.1126599156
 21
487.2780162182
 31
0.0
  0
LINE
  5
48B
330
1F
100
AcDbEntity
  8
0
  6
Continuous
 62
     7
370
    15
100
AcDbLine
 10
226.2967061841
 20
486.8780094471
 30
0.0
 11
225.1126599156
 21
486.8780094471
 31
0.0
  0
SPLINE
  5
48C
330
1F
100
AcDbEntity
  8
0
  6
Continuous
 62
     7
370
    15
100
AcDbSpline
210
0.0
220
0.0
230
1.0
 70
     8
 71
     3
 72
    11
 73
     7
 74
     0
 42
0.00000001
 43
0.00000001
 40
0.0
 40
0.0
 40
0.0
 40
0.0
 40
0.2641562328566311
 40
0.5284328816790101
 40
0.7926965000532794
 40
1.0
 40
1.0
 40
1.0
 40
1.0
 10
214.9797361933426
 20
236.503014275075
 30
0.0
 10
214.9930282828042
 20
236.3778582519859
 30
0.0
 10
215.0196185209437
 20
236.1274891532701
 30
0.0
 10
215.2270472497803
 20
235.805382426066
 30
0.0
 10
215.5029931566403
 20
235.5780822457226
 30
0.0
 10
215.7216532977192
 20
235.5286634701523
 30
0.0
 10
215.8177774988846
 20
235.5069387044917
 30
0.0
  0
SPLINE
  5
48D
330
1F
100
AcDbEntity
  8
0
  6
Continuous
 62
     7
370
    15
100
AcDbSpline
210
0.0
220
0.0
230
1.0
 70
     8
 71
     3
 72
    11
 73
     7
 74
     0
 42
0.00000001
 43
0.00000001
 40
0.0
 40
0.0
 40
0.0
 40
0.0
 40
0.2604941386778087
 40
0.5212272302072404
 40
0.7819580848276881
 40
1.0
 40
1.0
 40
1.0
 40
1.0
 10
215.3797429644303
 20
236.503014275075
 30
0.0
 10
215.3899653768632
 20
236.4176576699174
 30
0.0
 10
215.4104195788098
 20
236.2468661614713
 30
0.0
 10
215.5670314960574
 20
236.0346805435175
 30
0.0
 10
215.7767820197908
 20
235.90094983772
 30
0.0
 10
215.9334107617701
 20
235.8851863860368
 30
0.0
 10
216.0047423683838
 20
235.8780074205409
 30
0.0
  0
LINE
  5
48E
330
1F
100
AcDbEntity
  8
0
  6
Continuous
 62
     7
370
    15
100
AcDbLine
 10
224.5762032115
 20
235.620500454
 30
0.0
 11
224.5762032115
 21
235.8780074205
 31
0.0
  0
LINE
  5
48F
330
1F
100
AcDbEntity
  8
0
  6
Continuous
 62
     7
370
    15
100
AcDbLine
 10
223.9547502839
 20
235.8780074205
 30
0.0
 11
224.5762032115
 21
235.8780074205
 31
0.0
  0
LINE
  5
490
330
1F
100
AcDbEntity
  8
0
  6
Continuous
 62
     7
370
    15
100
AcDbLine
 10
224.9797415578
 20
236.5030142751
 30
0.0
 11
224.9797415578
 21
235.8815538969
 31
0.0
  0
LINE
  5
491
330
1F
100
AcDbEntity
  8
0
  6
Continuous
 62
     7
370
    15
100
AcDbLine
 10
224.5797496878
 20
236.5030142751
 30
0.0
 11
224.5797496878
 21
235.8815538969
 31
0.0
  0
LINE
  5
492
330
1F
100
AcDbEntity
  8
0
  6
Continuous
 62
     7
370
    15
100
AcDbLine
 10
224.9797415578
 20
235.8815538969
 30
0.0
 11
224.5797496878
 21
235.8815538969
 31
0.0
  0
LINE
  5
493
330
1F
100
AcDbEntity
  8
0
  6
Continuous
 62
     7
370
    15
100
AcDbLine
 10
215.3797429644
 20
486.2280133452
 30
0.0
 11
215.3797429644
 21
486.2530100431
 31
0.0
  0
LINE
  5
494
330
1F
100
AcDbEntity
  8
0
  6
Continuous
 62
     7
370
    15
100
AcDbLine
 10
214.9797361933
 20
486.2280133452
 30
0.0
 11
214.9797361933
 21
486.2530100431
 31
0.0
  0
LINE
  5
495
330
1F
100
AcDbEntity
  8
0
  6
Continuous
 62
     7
370
    15
100
AcDbLine
 10
225.2297383391
 20
486.2280133452
 30
0.0
 11
224.9797415578
 21
486.2280133452
 31
0.0
  0
LINE
  5
496
330
1F
100
AcDbEntity
  8
0
  6
Continuous
 62
     7
370
    15
100
AcDbLine
 10
224.9797415578
 20
235.8815538969
 30
0.0
 11
225.6047409617
 21
235.8815538969
 31
0.0
  0
LINE
  5
497
330
1F
100
AcDbEntity
  8
0
  6
Continuous
 62
     7
370
    15
100
AcDbLine
 10
229.9797367894
 20
476.8780115333
 30
0.0
 11
229.9797367894
 21
476.7780098405
 31
0.0
  0
LINE
  5
498
330
1F
100
AcDbEntity
  8
0
  6
Continuous
 62
     7
370
    15
100
AcDbLine
 10
225.8650940501
 20
235.8815538969
 30
0.0
 11
225.6047409617
 21
235.8815538969
 31
0.0
  0
LINE
  5
499
330
1F
100
AcDbEntity
  8
0
  6
Continuous
 62
     7
370
    15
100
AcDbLine
 10
224.5762032115
 20
235.8780074205
 30
0.0
 11
224.9085289084
 21
235.8780074205
 31
0.0
  0
ARC
  5
49A
330
1F
100
AcDbEntity
  8
0
  6
Continuous
 62
     7
370
    15
100
AcDbCircle
 10
224.9085338125
 20
236.5030121866
 30
0.0
 40
0.6250000000000284
100
AcDbArc
 50
270.0
 51
276.5422363834
  0
LINE
  5
49B
330
1F
100
AcDbEntity
  8
0
  6
Continuous
 62
     7
370
    15
100
AcDbLine
 10
225.642485603
 20
235.620500454
 30
0.0
 11
226.3162565076
 21
235.7760536757
 31
0.0
  0
LINE
  5
49C
330
1F
100
AcDbEntity
  8
0
  6
Continuous
 62
     7
370
    15
100
AcDbLine
 10
223.9547502839
 20
235.8791250076
 30
0.0
 11
224.9403130852
 21
235.8788269844
 31
0.0
  0
LINE
  5
49D
330
1F
100
AcDbEntity
  8
0
  6
Continuous
 62
     7
370
    15
100
AcDbLine
 10
500.7297378623
 20
441.7340996947
 30
0.0
 11
500.7297378623
 21
440.1280152884
 31
0.0
  0
LINE
  5
49E
330
1F
100
AcDbEntity
  8
0
  6
Continuous
 62
     7
370
    15
100
AcDbLine
 10
500.7297378623
 20
439.7280085173
 30
0.0
 11
500.7297378623
 21
417.4152258124
 31
0.0
  0
SPLINE
  5
49F
330
1F
100
AcDbEntity
  8
0
  6
Continuous
 62
     7
370
    15
100
AcDbSpline
210
0.0
220
0.0
230
1.0
 70
     8
 71
     3
 72
    12
 73
     8
 74
     0
 42
0.00000001
 43
0.00000001
 40
0.0
 40
0.0
 40
0.0
 40
0.0
 40
0.0552621708563819
 40
0.1142693843757151
 40
0.249605923484512
 40
0.6306658391414224
 40
0.9999999999999999
 40
0.9999999999999999
 40
0.9999999999999999
 40
0.9999999999999999
 10
500.2557170235352
 20
436.5982431259166
 30
0.0
 10
500.2708978377059
 20
436.59944910987
 30
0.0
 10
500.3022882493154
 20
436.6019428056801
 30
0.0
 10
500.3653866891756
 20
436.6145159720342
 30
0.0
 10
500.4874368995104
 20
436.6580836615148
 30
0.0
 10
500.6021242980038
 20
436.7499887270666
 30
0.0
 10
500.6517952834715
 20
436.8321198402665
 30
0.0
 10
500.6762426935868
 20
436.8725437011729
 30
0.0
  0
LINE
  5
4A0
330
1F
100
AcDbEntity
  8
0
  6
Continuous
 62
     7
370
    15
100
AcDbLine
 10
500.2557170235
 20
436.5982431259
 30
0.0
 11
500.2297442996
 21
436.5975725737
 31
0.0
  0
LINE
  5
4A1
330
1F
100
AcDbEntity
  8
0
  6
Continuous
 62
     7
370
    15
100
AcDbLine
 10
500.2118778073
 20
436.5975725737
 30
0.0
 11
500.2297442996
 21
436.5975725737
 31
0.0
  0
LWPOLYLINE
  5
4A2
330
1F
100
AcDbEntity
  8
0
  6
Continuous
 62
     7
370
    15
100
AcDbPolyline
 90
        3
 70
   128
 43
0.0
 10
253.173796519
 20
476.8780115333
 10
252.9797461473
 20
476.865509459
 10
252.7856883251
 20
476.8780115333
  0
LINE
  5
4A3
330
1F
100
AcDbEntity
  8
0
  6
Continuous
 62
     7
370
    15
100
AcDbLine
 10
254.6230983578
 20
476.8780115333
 30
0.0
 11
254.525905534
 21
476.7780098405
 31
0.0
  0
LINE
  5
4A4
330
1F
100
AcDbEntity
  8
0
  6
Continuous
 62
     7
370
    15
100
AcDbLine
 10
251.4335793101
 20
476.7780098405
 30
0.0
 11
251.3363864862
 21
476.8780115333
 31
0.0
  0
LWPOLYLINE
  5
4A5
330
1F
100
AcDbEntity
  8
0
  6
Continuous
 62
     7
370
    15
100
AcDbPolyline
 90
        3
 70
   128
 43
0.0
 10
254.7887471163
 20
476.8780115333
 10
254.7557559454
 20
476.8390897002
 10
254.7009345733
 20
476.7780098405
  0
LWPOLYLINE
  5
4A6
330
1F
100
AcDbEntity
  8
0
  6
Continuous
 62
     7
370
    15
100
AcDbPolyline
 90
        3
 70
   128
 43
0.0
 10
251.2585502707
 20
476.7780098405
 10
251.2037288987
 20
476.8390897002
 10
251.1707377278
 20
476.8780115333
  0
LINE
  5
4A7
330
1F
100
AcDbEntity
  8
0
  6
Continuous
 62
     7
370
    15
100
AcDbLine
 10
255.8063995682
 20
476.8780115333
 30
0.0
 11
255.7510268532
 21
476.7780098405
 31
0.0
  0
LINE
  5
4A8
330
1F
100
AcDbEntity
  8
0
  6
Continuous
 62
     7
370
    15
100
AcDbLine
 10
250.2084654414
 20
476.7780098405
 30
0.0
 11
250.1530852758
 21
476.8780115333
 31
0.0
  0
LINE
  5
4A9
330
1F
100
AcDbEntity
  8
0
  6
Continuous
 62
     7
370
    15
100
AcDbLine
 10
543.1230944239
 20
476.8780115333
 30
0.0
 11
543.0259090506
 21
476.7780098405
 31
0.0
  0
LINE
  5
4AA
330
1F
100
AcDbEntity
  8
0
  6
Continuous
 62
     7
370
    15
100
AcDbLine
 10
539.9335753762
 20
476.7780098405
 30
0.0
 11
539.8363900029
 21
476.8780115333
 31
0.0
  0
LWPOLYLINE
  5
4AB
330
1F
100
AcDbEntity
  8
0
  6
Continuous
 62
     7
370
    15
100
AcDbPolyline
 90
        3
 70
   128
 43
0.0
 10
541.6737925851
 20
476.8780115333
 10
541.479749664
 20
476.865509459
 10
541.2856918418
 20
476.8780115333
  0
LWPOLYLINE
  5
4AC
330
1F
100
AcDbEntity
  8
0
  6
Continuous
 62
     7
370
    15
100
AcDbPolyline
 90
        3
 70
   128
 43
0.0
 10
543.2887506329
 20
476.8780115333
 10
543.255759462
 20
476.8390897002
 10
543.20093809
 20
476.7780098405
  0
LWPOLYLINE
  5
4AD
330
1F
100
AcDbEntity
  8
0
  6
Continuous
 62
     7
370
    15
100
AcDbPolyline
 90
        3
 70
   128
 43
0.0
 10
539.7585463368
 20
476.7780098405
 10
539.7037249648
 20
476.8390897002
 10
539.6707337939
 20
476.8780115333
  0
LINE
  5
4AE
330
1F
100
AcDbEntity
  8
0
  6
Continuous
 62
     7
370
    15
100
AcDbLine
 10
544.3063956343
 20
476.8780115333
 30
0.0
 11
544.2510229193
 21
476.7780098405
 31
0.0
  0
LINE
  5
4AF
330
1F
100
AcDbEntity
  8
0
  6
Continuous
 62
     7
370
    15
100
AcDbLine
 10
538.7084615075
 20
476.7780098405
 30
0.0
 11
538.6530887925
 21
476.8780115333
 31
0.0
  0
ARC
  5
4B0
330
1F
100
AcDbEntity
  8
0
  6
Continuous
 62
     7
370
    15
100
AcDbCircle
 10
405.729743568
 20
461.6280121866
 30
0.0
 40
3.250000000000038
100
AcDbArc
 50
227.0777163636
 51
254.3815017243
  0
LINE
  5
4B1
330
1F
100
AcDbEntity
  8
0
  6
Continuous
 62
     7
370
    15
100
AcDbLine
 10
559.7297382199
 20
416.8780128744
 30
0.0
 11
557.2297406041
 21
416.8780128744
 31
0.0
  0
LINE
  5
4B2
330
1F
100
AcDbEntity
  8
0
  6
Continuous
 62
     7
370
    15
100
AcDbLine
 10
557.2297406041
 20
416.8780128744
 30
0.0
 11
557.2297406041
 21
412.1973122742
 31
0.0
  0
LINE
  5
4B3
330
1F
100
AcDbEntity
  8
0
  6
Continuous
 62
     7
370
    15
100
AcDbLine
 10
555.7297450148
 20
416.8780128744
 30
0.0
 11
554.7297429883
 21
416.8780128744
 31
0.0
  0
LINE
  5
4B4
330
1F
100
AcDbEntity
  8
0
  6
Continuous
 62
     7
370
    15
100
AcDbLine
 10
551.7297369086
 20
416.8780128744
 30
0.0
 11
550.7297497832
 21
416.8780128744
 31
0.0
  0
LINE
  5
4B5
330
1F
100
AcDbEntity
  8
0
  6
Continuous
 62
     7
370
    15
100
AcDbLine
 10
550.7297497832
 20
416.8780128744
 30
0.0
 11
550.7297497832
 21
412.1973122742
 31
0.0
  0
LINE
  5
4B6
330
1F
100
AcDbEntity
  8
0
  6
Continuous
 62
     7
370
    15
100
AcDbLine
 10
555.7297450148
 20
412.1973122742
 30
0.0
 11
555.7297450148
 21
416.8780128744
 31
0.0
  0
LINE
  5
4B7
330
1F
100
AcDbEntity
  8
0
  6
Continuous
 62
     7
370
    15
100
AcDbLine
 10
549.2297392928
 20
412.1973122742
 30
0.0
 11
549.2297392928
 21
416.8780128744
 31
0.0
  0
LINE
  5
4B8
330
1F
100
AcDbEntity
  8
0
  6
Continuous
 62
     7
370
    15
100
AcDbLine
 10
549.2297392928
 20
416.8780128744
 30
0.0
 11
546.729741677
 21
416.8780128744
 31
0.0
  0
LINE
  5
4B9
330
1F
100
AcDbEntity
  8
0
  6
Continuous
 62
     7
370
    15
100
AcDbLine
 10
542.7297484719
 20
412.1973122742
 30
0.0
 11
542.7297484719
 21
416.8780128744
 31
0.0
  0
LINE
  5
4BA
330
1F
100
AcDbEntity
  8
0
  6
Continuous
 62
     7
370
    15
100
AcDbLine
 10
542.7297484719
 20
416.8780128744
 30
0.0
 11
538.7297403657
 21
416.8780128744
 31
0.0
  0
LINE
  5
4BB
330
1F
100
AcDbEntity
  8
0
  6
Continuous
 62
     7
370
    15
100
AcDbLine
 10
535.7297491872
 20
416.8780128744
 30
0.0
 11
531.8797361695
 21
416.8780128744
 31
0.0
  0
LINE
  5
4BC
330
1F
100
AcDbEntity
  8
0
  6
Continuous
 62
     7
370
    15
100
AcDbLine
 10
531.2297475182
 20
416.4119306293
 30
0.0
 11
531.2297475182
 21
412.1973122742
 31
0.0
  0
LINE
  5
4BD
330
1F
100
AcDbEntity
  8
0
  6
Continuous
 62
     7
370
    15
100
AcDbLine
 10
559.7297382199
 20
423.3780111458
 30
0.0
 11
557.2297406041
 21
423.3780111458
 31
0.0
  0
LINE
  5
4BE
330
1F
100
AcDbEntity
  8
0
  6
Continuous
 62
     7
370
    15
100
AcDbLine
 10
557.2297406041
 20
423.3780111458
 30
0.0
 11
557.2297406041
 21
418.3780121889
 31
0.0
  0
LINE
  5
4BF
330
1F
100
AcDbEntity
  8
0
  6
Continuous
 62
     7
370
    15
100
AcDbLine
 10
557.2297406041
 20
418.3780121889
 30
0.0
 11
559.7297382199
 21
418.3780121889
 31
0.0
  0
LINE
  5
4C0
330
1F
100
AcDbEntity
  8
0
  6
Continuous
 62
     7
370
    15
100
AcDbLine
 10
555.7297450148
 20
423.3780111458
 30
0.0
 11
554.7297429883
 21
423.3780111458
 31
0.0
  0
LINE
  5
4C1
330
1F
100
AcDbEntity
  8
0
  6
Continuous
 62
     7
370
    15
100
AcDbLine
 10
551.7297369086
 20
423.3780111458
 30
0.0
 11
550.7297497832
 21
423.3780111458
 31
0.0
  0
LINE
  5
4C2
330
1F
100
AcDbEntity
  8
0
  6
Continuous
 62
     7
370
    15
100
AcDbLine
 10
550.7297497832
 20
423.3780111458
 30
0.0
 11
550.7297497832
 21
418.3780121889
 31
0.0
  0
LINE
  5
4C3
330
1F
100
AcDbEntity
  8
0
  6
Continuous
 62
     7
370
    15
100
AcDbLine
 10
550.7297497832
 20
418.3780121889
 30
0.0
 11
551.7297369086
 21
418.3780121889
 31
0.0
  0
LINE
  5
4C4
330
1F
100
AcDbEntity
  8
0
  6
Continuous
 62
     7
370
    15
100
AcDbLine
 10
554.7297429883
 20
418.3780121889
 30
0.0
 11
555.7297450148
 21
418.3780121889
 31
0.0
  0
LINE
  5
4C5
330
1F
100
AcDbEntity
  8
0
  6
Continuous
 62
     7
370
    15
100
AcDbLine
 10
555.7297450148
 20
418.3780121889
 30
0.0
 11
555.7297450148
 21
423.3780111458
 31
0.0
  0
LINE
  5
4C6
330
1F
100
AcDbEntity
  8
0
  6
Continuous
 62
     7
370
    15
100
AcDbLine
 10
549.2297392928
 20
418.3780121889
 30
0.0
 11
549.2297392928
 21
423.3780111458
 31
0.0
  0
LINE
  5
4C7
330
1F
100
AcDbEntity
  8
0
  6
Continuous
 62
     7
370
    15
100
AcDbLine
 10
549.2297392928
 20
423.3780111458
 30
0.0
 11
546.729741677
 21
423.3780111458
 31
0.0
  0
LINE
  5
4C8
330
1F
100
AcDbEntity
  8
0
  6
Continuous
 62
     7
370
    15
100
AcDbLine
 10
546.729741677
 20
418.3780121889
 30
0.0
 11
549.2297392928
 21
418.3780121889
 31
0.0
  0
LINE
  5
4C9
330
1F
100
AcDbEntity
  8
0
  6
Continuous
 62
     7
370
    15
100
AcDbLine
 10
542.7297484719
 20
418.3780121889
 30
0.0
 11
542.7297484719
 21
423.3780111458
 31
0.0
  0
LINE
  5
4CA
330
1F
100
AcDbEntity
  8
0
  6
Continuous
 62
     7
370
    15
100
AcDbLine
 10
542.7297484719
 20
423.3780111458
 30
0.0
 11
538.7297403657
 21
423.3780111458
 31
0.0
  0
LINE
  5
4CB
330
1F
100
AcDbEntity
  8
0
  6
Continuous
 62
     7
370
    15
100
AcDbLine
 10
538.7297403657
 20
418.3780121889
 30
0.0
 11
542.7297484719
 21
418.3780121889
 31
0.0
  0
LINE
  5
4CC
330
1F
100
AcDbEntity
  8
0
  6
Continuous
 62
     7
370
    15
100
AcDbLine
 10
535.7297491872
 20
423.3780111458
 30
0.0
 11
531.2297475182
 21
423.3780111458
 31
0.0
  0
LINE
  5
4CD
330
1F
100
AcDbEntity
  8
0
  6
Continuous
 62
     7
370
    15
100
AcDbLine
 10
531.2297475182
 20
423.3780111458
 30
0.0
 11
531.2297475182
 21
418.3780121889
 31
0.0
  0
LINE
  5
4CE
330
1F
100
AcDbEntity
  8
0
  6
Continuous
 62
     7
370
    15
100
AcDbLine
 10
531.2297475182
 20
418.3780121889
 30
0.0
 11
535.7297491872
 21
418.3780121889
 31
0.0
  0
LINE
  5
4CF
330
1F
100
AcDbEntity
  8
0
  6
Continuous
 62
     7
370
    15
100
AcDbLine
 10
527.7297478759
 20
423.3780111458
 30
0.0
 11
524.7297417962
 21
423.3780111458
 31
0.0
  0
LINE
  5
4D0
330
1F
100
AcDbEntity
  8
0
  6
Continuous
 62
     7
370
    15
100
AcDbLine
 10
524.7297417962
 20
423.3780111458
 30
0.0
 11
524.7297417962
 21
418.6155180719
 31
0.0
  0
LINE
  5
4D1
330
1F
100
AcDbEntity
  8
0
  6
Continuous
 62
     7
370
    15
100
AcDbLine
 10
559.7297382199
 20
429.8780131426
 30
0.0
 11
557.2297406041
 21
429.8780131426
 31
0.0
  0
LINE
  5
4D2
330
1F
100
AcDbEntity
  8
0
  6
Continuous
 62
     7
370
    15
100
AcDbLine
 10
557.2297406041
 20
429.8780131426
 30
0.0
 11
557.2297406041
 21
424.8780104604
 31
0.0
  0
LINE
  5
4D3
330
1F
100
AcDbEntity
  8
0
  6
Continuous
 62
     7
370
    15
100
AcDbLine
 10
557.2297406041
 20
424.8780104604
 30
0.0
 11
559.7297382199
 21
424.8780104604
 31
0.0
  0
LINE
  5
4D4
330
1F
100
AcDbEntity
  8
0
  6
Continuous
 62
     7
370
    15
100
AcDbLine
 10
555.7297450148
 20
429.8780131426
 30
0.0
 11
554.7297429883
 21
429.8780131426
 31
0.0
  0
LINE
  5
4D5
330
1F
100
AcDbEntity
  8
0
  6
Continuous
 62
     7
370
    15
100
AcDbLine
 10
551.7297369086
 20
429.8780131426
 30
0.0
 11
550.7297497832
 21
429.8780131426
 31
0.0
  0
LINE
  5
4D6
330
1F
100
AcDbEntity
  8
0
  6
Continuous
 62
     7
370
    15
100
AcDbLine
 10
550.7297497832
 20
429.8780131426
 30
0.0
 11
550.7297497832
 21
424.8780104604
 31
0.0
  0
LINE
  5
4D7
330
1F
100
AcDbEntity
  8
0
  6
Continuous
 62
     7
370
    15
100
AcDbLine
 10
550.7297497832
 20
424.8780104604
 30
0.0
 11
551.7297369086
 21
424.8780104604
 31
0.0
  0
LINE
  5
4D8
330
1F
100
AcDbEntity
  8
0
  6
Continuous
 62
     7
370
    15
100
AcDbLine
 10
554.7297429883
 20
424.8780104604
 30
0.0
 11
555.7297450148
 21
424.8780104604
 31
0.0
  0
LINE
  5
4D9
330
1F
100
AcDbEntity
  8
0
  6
Continuous
 62
     7
370
    15
100
AcDbLine
 10
555.7297450148
 20
424.8780104604
 30
0.0
 11
555.7297450148
 21
429.8780131426
 31
0.0
  0
LINE
  5
4DA
330
1F
100
AcDbEntity
  8
0
  6
Continuous
 62
     7
370
    15
100
AcDbLine
 10
549.2297392928
 20
424.8780104604
 30
0.0
 11
549.2297392928
 21
429.8780131426
 31
0.0
  0
LINE
  5
4DB
330
1F
100
AcDbEntity
  8
0
  6
Continuous
 62
     7
370
    15
100
AcDbLine
 10
549.2297392928
 20
429.8780131426
 30
0.0
 11
546.729741677
 21
429.8780131426
 31
0.0
  0
LINE
  5
4DC
330
1F
100
AcDbEntity
  8
0
  6
Continuous
 62
     7
370
    15
100
AcDbLine
 10
546.729741677
 20
424.8780104604
 30
0.0
 11
549.2297392928
 21
424.8780104604
 31
0.0
  0
LINE
  5
4DD
330
1F
100
AcDbEntity
  8
0
  6
Continuous
 62
     7
370
    15
100
AcDbLine
 10
542.7297484719
 20
424.8780104604
 30
0.0
 11
542.7297484719
 21
429.8780131426
 31
0.0
  0
LINE
  5
4DE
330
1F
100
AcDbEntity
  8
0
  6
Continuous
 62
     7
370
    15
100
AcDbLine
 10
542.7297484719
 20
429.8780131426
 30
0.0
 11
538.7297403657
 21
429.8780131426
 31
0.0
  0
LINE
  5
4DF
330
1F
100
AcDbEntity
  8
0
  6
Continuous
 62
     7
370
    15
100
AcDbLine
 10
538.7297403657
 20
424.8780104604
 30
0.0
 11
542.7297484719
 21
424.8780104604
 31
0.0
  0
LINE
  5
4E0
330
1F
100
AcDbEntity
  8
0
  6
Continuous
 62
     7
370
    15
100
AcDbLine
 10
535.7297491872
 20
429.8780131426
 30
0.0
 11
531.2297475182
 21
429.8780131426
 31
0.0
  0
LINE
  5
4E1
330
1F
100
AcDbEntity
  8
0
  6
Continuous
 62
     7
370
    15
100
AcDbLine
 10
531.2297475182
 20
429.8780131426
 30
0.0
 11
531.2297475182
 21
424.8780104604
 31
0.0
  0
LINE
  5
4E2
330
1F
100
AcDbEntity
  8
0
  6
Continuous
 62
     7
370
    15
100
AcDbLine
 10
531.2297475182
 20
424.8780104604
 30
0.0
 11
535.7297491872
 21
424.8780104604
 31
0.0
  0
LINE
  5
4E3
330
1F
100
AcDbEntity
  8
0
  6
Continuous
 62
     7
370
    15
100
AcDbLine
 10
527.7297478759
 20
429.8780131426
 30
0.0
 11
524.7297417962
 21
429.8780131426
 31
0.0
  0
LINE
  5
4E4
330
1F
100
AcDbEntity
  8
0
  6
Continuous
 62
     7
370
    15
100
AcDbLine
 10
524.7297417962
 20
429.8780131426
 30
0.0
 11
524.7297417962
 21
424.8780104604
 31
0.0
  0
LINE
  5
4E5
330
1F
100
AcDbEntity
  8
0
  6
Continuous
 62
     7
370
    15
100
AcDbLine
 10
524.7297417962
 20
424.8780104604
 30
0.0
 11
527.7297478759
 21
424.8780104604
 31
0.0
  0
LINE
  5
4E6
330
1F
100
AcDbEntity
  8
0
  6
Continuous
 62
     7
370
    15
100
AcDbLine
 10
559.7297382199
 20
436.3780114141
 30
0.0
 11
557.2297406041
 21
436.3780114141
 31
0.0
  0
LINE
  5
4E7
330
1F
100
AcDbEntity
  8
0
  6
Continuous
 62
     7
370
    15
100
AcDbLine
 10
557.2297406041
 20
436.3780114141
 30
0.0
 11
557.2297406041
 21
431.3780087318
 31
0.0
  0
LINE
  5
4E8
330
1F
100
AcDbEntity
  8
0
  6
Continuous
 62
     7
370
    15
100
AcDbLine
 10
557.2297406041
 20
431.3780087318
 30
0.0
 11
559.7297382199
 21
431.3780087318
 31
0.0
  0
LINE
  5
4E9
330
1F
100
AcDbEntity
  8
0
  6
Continuous
 62
     7
370
    15
100
AcDbLine
 10
555.7297450148
 20
436.3780114141
 30
0.0
 11
554.7297429883
 21
436.3780114141
 31
0.0
  0
LINE
  5
4EA
330
1F
100
AcDbEntity
  8
0
  6
Continuous
 62
     7
370
    15
100
AcDbLine
 10
551.7297369086
 20
436.3780114141
 30
0.0
 11
550.7297497832
 21
436.3780114141
 31
0.0
  0
LINE
  5
4EB
330
1F
100
AcDbEntity
  8
0
  6
Continuous
 62
     7
370
    15
100
AcDbLine
 10
550.7297497832
 20
436.3780114141
 30
0.0
 11
550.7297497832
 21
431.3780087318
 31
0.0
  0
LINE
  5
4EC
330
1F
100
AcDbEntity
  8
0
  6
Continuous
 62
     7
370
    15
100
AcDbLine
 10
550.7297497832
 20
431.3780087318
 30
0.0
 11
551.7297369086
 21
431.3780087318
 31
0.0
  0
LINE
  5
4ED
330
1F
100
AcDbEntity
  8
0
  6
Continuous
 62
     7
370
    15
100
AcDbLine
 10
554.7297429883
 20
431.3780087318
 30
0.0
 11
555.7297450148
 21
431.3780087318
 31
0.0
  0
LINE
  5
4EE
330
1F
100
AcDbEntity
  8
0
  6
Continuous
 62
     7
370
    15
100
AcDbLine
 10
555.7297450148
 20
431.3780087318
 30
0.0
 11
555.7297450148
 21
436.3780114141
 31
0.0
  0
LINE
  5
4EF
330
1F
100
AcDbEntity
  8
0
  6
Continuous
 62
     7
370
    15
100
AcDbLine
 10
549.2297392928
 20
431.3780087318
 30
0.0
 11
549.2297392928
 21
436.3780114141
 31
0.0
  0
LINE
  5
4F0
330
1F
100
AcDbEntity
  8
0
  6
Continuous
 62
     7
370
    15
100
AcDbLine
 10
549.2297392928
 20
436.3780114141
 30
0.0
 11
546.729741677
 21
436.3780114141
 31
0.0
  0
LINE
  5
4F1
330
1F
100
AcDbEntity
  8
0
  6
Continuous
 62
     7
370
    15
100
AcDbLine
 10
546.729741677
 20
431.3780087318
 30
0.0
 11
549.2297392928
 21
431.3780087318
 31
0.0
  0
LINE
  5
4F2
330
1F
100
AcDbEntity
  8
0
  6
Continuous
 62
     7
370
    15
100
AcDbLine
 10
542.7297484719
 20
431.3780087318
 30
0.0
 11
542.7297484719
 21
436.3780114141
 31
0.0
  0
LINE
  5
4F3
330
1F
100
AcDbEntity
  8
0
  6
Continuous
 62
     7
370
    15
100
AcDbLine
 10
542.7297484719
 20
436.3780114141
 30
0.0
 11
538.7297403657
 21
436.3780114141
 31
0.0
  0
LINE
  5
4F4
330
1F
100
AcDbEntity
  8
0
  6
Continuous
 62
     7
370
    15
100
AcDbLine
 10
538.7297403657
 20
431.3780087318
 30
0.0
 11
542.7297484719
 21
431.3780087318
 31
0.0
  0
LINE
  5
4F5
330
1F
100
AcDbEntity
  8
0
  6
Continuous
 62
     7
370
    15
100
AcDbLine
 10
535.7297491872
 20
436.3780114141
 30
0.0
 11
531.2297475182
 21
436.3780114141
 31
0.0
  0
LINE
  5
4F6
330
1F
100
AcDbEntity
  8
0
  6
Continuous
 62
     7
370
    15
100
AcDbLine
 10
531.2297475182
 20
436.3780114141
 30
0.0
 11
531.2297475182
 21
431.3780087318
 31
0.0
  0
LINE
  5
4F7
330
1F
100
AcDbEntity
  8
0
  6
Continuous
 62
     7
370
    15
100
AcDbLine
 10
531.2297475182
 20
431.3780087318
 30
0.0
 11
535.7297491872
 21
431.3780087318
 31
0.0
  0
LINE
  5
4F8
330
1F
100
AcDbEntity
  8
0
  6
Continuous
 62
     7
370
    15
100
AcDbLine
 10
527.7297478759
 20
436.3780114141
 30
0.0
 11
524.7297417962
 21
436.3780114141
 31
0.0
  0
LINE
  5
4F9
330
1F
100
AcDbEntity
  8
0
  6
Continuous
 62
     7
370
    15
100
AcDbLine
 10
524.7297417962
 20
436.3780114141
 30
0.0
 11
524.7297417962
 21
431.3780087318
 31
0.0
  0
LINE
  5
4FA
330
1F
100
AcDbEntity
  8
0
  6
Continuous
 62
     7
370
    15
100
AcDbLine
 10
524.7297417962
 20
431.3780087318
 30
0.0
 11
527.7297478759
 21
431.3780087318
 31
0.0
  0
LINE
  5
4FB
330
1F
100
AcDbEntity
  8
0
  6
Continuous
 62
     7
370
    15
100
AcDbLine
 10
557.2297406041
 20
441.7340996947
 30
0.0
 11
557.2297406041
 21
437.8780144539
 31
0.0
  0
LINE
  5
4FC
330
1F
100
AcDbEntity
  8
0
  6
Continuous
 62
     7
370
    15
100
AcDbLine
 10
557.2297406041
 20
437.8780144539
 30
0.0
 11
559.7297382199
 21
437.8780144539
 31
0.0
  0
LINE
  5
4FD
330
1F
100
AcDbEntity
  8
0
  6
Continuous
 62
     7
370
    15
100
AcDbLine
 10
550.7297497832
 20
441.7340996947
 30
0.0
 11
550.7297497832
 21
437.8780144539
 31
0.0
  0
LINE
  5
4FE
330
1F
100
AcDbEntity
  8
0
  6
Continuous
 62
     7
370
    15
100
AcDbLine
 10
550.7297497832
 20
437.8780144539
 30
0.0
 11
551.7297369086
 21
437.8780144539
 31
0.0
  0
LINE
  5
4FF
330
1F
100
AcDbEntity
  8
0
  6
Continuous
 62
     7
370
    15
100
AcDbLine
 10
554.7297429883
 20
437.8780144539
 30
0.0
 11
555.7297450148
 21
437.8780144539
 31
0.0
  0
LINE
  5
500
330
1F
100
AcDbEntity
  8
0
  6
Continuous
 62
     7
370
    15
100
AcDbLine
 10
555.7297450148
 20
437.8780144539
 30
0.0
 11
555.7297450148
 21
441.7340996947
 31
0.0
  0
LINE
  5
501
330
1F
100
AcDbEntity
  8
0
  6
Continuous
 62
     7
370
    15
100
AcDbLine
 10
549.2297392928
 20
437.8780144539
 30
0.0
 11
549.2297392928
 21
441.7340996947
 31
0.0
  0
LINE
  5
502
330
1F
100
AcDbEntity
  8
0
  6
Continuous
 62
     7
370
    15
100
AcDbLine
 10
546.729741677
 20
437.8780144539
 30
0.0
 11
549.2297392928
 21
437.8780144539
 31
0.0
  0
LINE
  5
503
330
1F
100
AcDbEntity
  8
0
  6
Continuous
 62
     7
370
    15
100
AcDbLine
 10
542.7297484719
 20
437.8780144539
 30
0.0
 11
542.7297484719
 21
441.7340996947
 31
0.0
  0
LINE
  5
504
330
1F
100
AcDbEntity
  8
0
  6
Continuous
 62
     7
370
    15
100
AcDbLine
 10
538.7297403657
 20
437.8780144539
 30
0.0
 11
542.7297484719
 21
437.8780144539
 31
0.0
  0
LINE
  5
505
330
1F
100
AcDbEntity
  8
0
  6
Continuous
 62
     7
370
    15
100
AcDbLine
 10
531.2297475182
 20
441.7340996947
 30
0.0
 11
531.2297475182
 21
437.8780144539
 31
0.0
  0
LINE
  5
506
330
1F
100
AcDbEntity
  8
0
  6
Continuous
 62
     7
370
    15
100
AcDbLine
 10
531.2297475182
 20
437.8780144539
 30
0.0
 11
535.7297491872
 21
437.8780144539
 31
0.0
  0
LINE
  5
507
330
1F
100
AcDbEntity
  8
0
  6
Continuous
 62
     7
370
    15
100
AcDbLine
 10
524.7297417962
 20
441.7340996947
 30
0.0
 11
524.7297417962
 21
437.8780144539
 31
0.0
  0
LINE
  5
508
330
1F
100
AcDbEntity
  8
0
  6
Continuous
 62
     7
370
    15
100
AcDbLine
 10
524.7297417962
 20
437.8780144539
 30
0.0
 11
527.7297478759
 21
437.8780144539
 31
0.0
  0
LINE
  5
509
330
1F
100
AcDbEntity
  8
0
  6
Continuous
 62
     7
370
    15
100
AcDbLine
 10
492.6797431552
 20
439.2280149546
 30
0.0
 11
494.9547406875
 21
439.2280149546
 31
0.0
  0
LINE
  5
50A
330
1F
100
AcDbEntity
  8
0
  6
Continuous
 62
     7
370
    15
100
AcDbLine
 10
490.7297399484
 20
439.2280149546
 30
0.0
 11
492.6797431552
 21
439.2280149546
 31
0.0
  0
LINE
  5
50B
330
1F
100
AcDbEntity
  8
0
  6
Continuous
 62
     7
370
    15
100
AcDbLine
 10
492.6797431552
 20
436.7780107346
 30
0.0
 11
494.4297429764
 21
436.7780107346
 31
0.0
  0
LINE
  5
50C
330
1F
100
AcDbEntity
  8
0
  6
Continuous
 62
     7
370
    15
100
AcDbLine
 10
490.929743334
 20
436.7780107346
 30
0.0
 11
492.6797431552
 21
436.7780107346
 31
0.0
  0
LINE
  5
50D
330
1F
100
AcDbEntity
  8
0
  6
Continuous
 62
     7
370
    15
100
AcDbLine
 10
492.6797431552
 20
436.4780131068
 30
0.0
 11
494.3047445857
 21
436.4780131068
 31
0.0
  0
LINE
  5
50E
330
1F
100
AcDbEntity
  8
0
  6
Continuous
 62
     7
370
    15
100
AcDbLine
 10
491.0547417247
 20
436.4780131068
 30
0.0
 11
492.6797431552
 21
436.4780131068
 31
0.0
  0
LINE
  5
50F
330
1F
100
AcDbEntity
  8
0
  6
Continuous
 62
     7
370
    15
100
AcDbLine
 10
239.1797435128
 20
439.2280149546
 30
0.0
 11
239.7297453725
 21
439.2280149546
 31
0.0
  0
LINE
  5
510
330
1F
100
AcDbEntity
  8
0
  6
Continuous
 62
     7
370
    15
100
AcDbLine
 10
236.9047385298
 20
439.2280149546
 30
0.0
 11
239.1797435128
 21
439.2280149546
 31
0.0
  0
LINE
  5
511
330
1F
100
AcDbEntity
  8
0
  6
Continuous
 62
     7
370
    15
100
AcDbLine
 10
239.1797435128
 20
436.7780107346
 30
0.0
 11
239.7297453725
 21
436.7780107346
 31
0.0
  0
LINE
  5
512
330
1F
100
AcDbEntity
  8
0
  6
Continuous
 62
     7
370
    15
100
AcDbLine
 10
237.429736241
 20
436.7780107346
 30
0.0
 11
239.1797435128
 21
436.7780107346
 31
0.0
  0
LINE
  5
513
330
1F
100
AcDbEntity
  8
0
  6
Continuous
 62
     7
370
    15
100
AcDbLine
 10
239.1797435128
 20
436.4780131068
 30
0.0
 11
239.7297453725
 21
436.4780131068
 31
0.0
  0
LINE
  5
514
330
1F
100
AcDbEntity
  8
0
  6
Continuous
 62
     7
370
    15
100
AcDbLine
 10
237.5547420823
 20
436.4780131068
 30
0.0
 11
239.1797435128
 21
436.4780131068
 31
0.0
  0
LINE
  5
515
330
1F
100
AcDbEntity
  8
0
  6
Continuous
 62
     7
370
    15
100
AcDbLine
 10
499.1047438823
 20
476.8780115333
 30
0.0
 11
498.7636861049
 21
476.7780098405
 31
0.0
  0
LINE
  5
516
330
1F
100
AcDbEntity
  8
0
  6
Continuous
 62
     7
370
    15
100
AcDbLine
 10
498.1957954013
 20
476.7780098405
 30
0.0
 11
497.8547450744
 21
476.8780115333
 31
0.0
  0
LWPOLYLINE
  5
517
330
1F
100
AcDbEntity
  8
0
  6
Continuous
 62
     7
370
    15
100
AcDbPolyline
 90
        3
 70
   128
 43
0.0
 10
499.3811380707
 20
476.8780115333
 10
499.3126523339
 20
476.838933238
 10
499.1886150681
 20
476.7780098405
  0
LWPOLYLINE
  5
518
330
1F
100
AcDbEntity
  8
0
  6
Continuous
 62
     7
370
    15
100
AcDbPolyline
 90
        3
 70
   128
 43
0.0
 10
497.7708738887
 20
476.7780098405
 10
497.6468366229
 20
476.838933238
 10
497.5783583366
 20
476.8780115333
  0
LINE
  5
519
330
1F
100
AcDbEntity
  8
0
  6
Continuous
 62
     7
370
    15
100
AcDbLine
 10
500.3851634108
 20
476.8780115333
 30
0.0
 11
500.3214162432
 21
476.8003913846
 31
0.0
  0
LINE
  5
51A
330
1F
100
AcDbEntity
  8
0
  6
Continuous
 62
     7
370
    15
100
AcDbLine
 10
496.6574889266
 20
476.7780098405
 30
0.0
 11
496.574325546
 21
476.8780115333
 31
0.0
  0
LINE
  5
51B
330
1F
100
AcDbEntity
  8
0
  6
Continuous
 62
     7
370
    15
100
AcDbLine
 10
296.6047432863
 20
476.8780115333
 30
0.0
 11
296.2636855089
 21
476.7780098405
 31
0.0
  0
LINE
  5
51C
330
1F
100
AcDbEntity
  8
0
  6
Continuous
 62
     7
370
    15
100
AcDbLine
 10
295.6957948052
 20
476.7780098405
 30
0.0
 11
295.3547444784
 21
476.8780115333
 31
0.0
  0
LWPOLYLINE
  5
51D
330
1F
100
AcDbEntity
  8
0
  6
Continuous
 62
     7
370
    15
100
AcDbPolyline
 90
        3
 70
   128
 43
0.0
 10
296.8811300241
 20
476.8780115333
 10
296.8126517379
 20
476.838933238
 10
296.6886144721
 20
476.7780098405
  0
LWPOLYLINE
  5
51E
330
1F
100
AcDbEntity
  8
0
  6
Continuous
 62
     7
370
    15
100
AcDbPolyline
 90
        3
 70
   128
 43
0.0
 10
295.2708732926
 20
476.7780098405
 10
295.1468360268
 20
476.838933238
 10
295.0783577406
 20
476.8780115333
  0
LINE
  5
51F
330
1F
100
AcDbEntity
  8
0
  6
Continuous
 62
     7
370
    15
100
AcDbLine
 10
297.8851628148
 20
476.8780115333
 30
0.0
 11
297.8214081966
 21
476.8003913846
 31
0.0
  0
LINE
  5
520
330
1F
100
AcDbEntity
  8
0
  6
Continuous
 62
     7
370
    15
100
AcDbLine
 10
294.1574883305
 20
476.7780098405
 30
0.0
 11
294.0743249499
 21
476.8780115333
 31
0.0
  0
LINE
  5
521
330
1F
100
AcDbEntity
  8
0
  6
Continuous
 62
     7
370
    15
100
AcDbLine
 10
569.479746803
 20
468.2780149665
 30
0.0
 11
569.479746803
 21
464.2780143108
 31
0.0
  0
LINE
  5
522
330
1F
100
AcDbEntity
  8
0
  6
Continuous
 62
     7
370
    15
100
AcDbLine
 10
569.479746803
 20
370.7760497268
 30
0.0
 11
569.479746803
 21
366.7760500025
 31
0.0
  0
LINE
  5
523
330
1F
100
AcDbEntity
  8
0
  6
Continuous
 62
     7
370
    15
100
AcDbLine
 10
569.479746803
 20
273.2760477152
 30
0.0
 11
569.479746803
 21
269.2760470595
 31
0.0
  0
ENDSEC
  0
SECTION
  2
OBJECTS
  0
DICTIONARY
  5
C
330
0
100
AcDbDictionary
281
     1
  3
ACAD_GROUP
350
D
  3
ACAD_LAYOUT
350
1A
  3
ACAD_MLINESTYLE
350
17
  3
ACAD_PLOTSETTINGS
350
19
  3
ACAD_PLOTSTYLENAME
350
E
  0
DICTIONARY
  5
D
102
{ACAD_REACTORS
330
C
102
}
330
C
100
AcDbDictionary
281
     1
  0
DICTIONARY
  5
1A
102
{ACAD_REACTORS
330
C
102
}
330
C
100
AcDbDictionary
281
     1
  3
Layout1
350
1E
  3
Layout2
350
26
  3
Model
350
22
  0
DICTIONARY
  5
17
102
{ACAD_REACTORS
330
C
102
}
330
C
100
AcDbDictionary
281
     1
  3
Standard
350
18
  0
DICTIONARY
  5
19
102
{ACAD_REACTORS
330
C
102
}
330
C
100
AcDbDictionary
281
     1
  0
ACDBDICTIONARYWDFLT
  5
E
102
{ACAD_REACTORS
330
C
102
}
330
C
100
AcDbDictionary
281
     1
  3
Normal
350
F
100
AcDbDictionaryWithDefault
340
F
  0
LAYOUT
  5
1E
102
{ACAD_REACTORS
330
1A
102
}
330
1A
100
AcDbPlotSettings
  1

  2
none_device
  4

  6

 40
0.0
 41
0.0
 42
0.0
 43
0.0
 44
0.0
 45
0.0
 46
0.0
 47
0.0
 48
0.0
 49
0.0
140
0.0
141
0.0
142
1.0
143
1.0
 70
   688
 72
     0
 73
     0
 74
     5
  7

 75
    16
147
1.0
148
0.0
149
0.0
100
AcDbLayout
  1
Layout1
 70
     1
 71
     1
 10
0.0
 20
0.0
 11
420.0
 21
297.0
 12
0.0
 22
0.0
 32
0.0
 14
1.0000000000E+20
 24
1.0000000000E+20
 34
1.0000000000E+20
 15
-1.0000000000E+20
 25
-1.0000000000E+20
 35
-1.0000000000E+20
146
0.0
 13
0.0
 23
0.0
 33
0.0
 16
1.0
 26
0.0
 36
0.0
 17
0.0
 27
1.0
 37
0.0
 76
     0
330
1B
  0
LAYOUT
  5
26
102
{ACAD_REACTORS
330
1A
102
}
330
1A
100
AcDbPlotSettings
  1

  2
none_device
  4

  6

 40
0.0
 41
0.0
 42
0.0
 43
0.0
 44
0.0
 45
0.0
 46
0.0
 47
0.0
 48
0.0
 49
0.0
140
0.0
141
0.0
142
1.0
143
1.0
 70
   688
 72
     0
 73
     0
 74
     5
  7

 75
    16
147
1.0
148
0.0
149
0.0
100
AcDbLayout
  1
Layout2
 70
     1
 71
     2
 10
0.0
 20
0.0
 11
0.0
 21
0.0
 12
0.0
 22
0.0
 32
0.0
 14
0.0
 24
0.0
 34
0.0
 15
0.0
 25
0.0
 35
0.0
146
0.0
 13
0.0
 23
0.0
 33
0.0
 16
1.0
 26
0.0
 36
0.0
 17
0.0
 27
1.0
 37
0.0
 76
     0
330
23
  0
LAYOUT
  5
22
102
{ACAD_REACTORS
330
1A
102
}
330
1A
100
AcDbPlotSettings
  1

  2
none_device
  4

  6

 40
0.0
 41
0.0
 42
0.0
 43
0.0
 44
0.0
 45
0.0
 46
0.0
 47
0.0
 48
0.0
 49
0.0
140
0.0
141
0.0
142
1.0
143
1.0
 70
  1712
 72
     0
 73
     0
 74
     0
  7

 75
     0
147
1.0
148
0.0
149
0.0
100
AcDbLayout
  1
Model
 70
     1
 71
     0
 10
0.0
 20
0.0
 11
841.0
 21
594.0
 12
0.0
 22
0.0
 32
0.0
 14
0.0
 24
0.0
 34
0.0
 15
841.0
 25
594.0
 35
0.0
146
0.0
 13
0.0
 23
0.0
 33
0.0
 16
1.0
 26
0.0
 36
0.0
 17
0.0
 27
1.0
 37
0.0
 76
     0
330
1F
331
29
  0
MLINESTYLE
  5
18
102
{ACAD_REACTORS
330
17
102
}
330
17
100
AcDbMlineStyle
  2
Standard
 70
     0
  3

 62
   256
 51
90.0
 52
90.0
 71
     2
 49
0.5
 62
   256
  6
BYLAYER
 49
-0.5
 62
   256
  6
BYLAYER
  0
ACDBPLACEHOLDER
  5
F
102
{ACAD_REACTORS
330
E
102
}
330
E
  0
ENDSEC
  0
EOF
