  0
SECTION
  2
HEADER
  9
$ACADVER
  1
AC1009
  9
$DWGCODEPAGE
  3
ansi_1252
  9
$INSBASE
 10
0.0
 20
0.0
 30
0.0
  9
$EXTMIN
 10
0.0
 20
0.0
 30
0.0
  9
$EXTMAX
 10
841.0
 20
594.0
 30
0.0
  9
$LIMMIN
 10
0.0
 20
0.0
  9
$LIMMAX
 10
841.0
 20
594.0
  9
$ORTHOMODE
 70
     0
  9
$REGENMODE
 70
     1
  9
$FILLMODE
 70
     1
  9
$QTEXTMODE
 70
     0
  9
$MIRRTEXT
 70
     1
  9
$DRAGMODE
 70
     2
  9
$LTSCALE
 40
1.0
  9
$OSMODE
 70
    37
  9
$ATTMODE
 70
     1
  9
$TEXTSIZE
 40
3.5
  9
$TRACEWID
 40
1.0
  9
$TEXTSTYLE
  7
STANDARD
  9
$CLAYER
  8
0
  9
$CELTYPE
  6
BYLAYER
  9
$CECOLOR
 62
   256
  9
$DIMSCALE
 40
1.0
  9
$DIMASZ
 40
3.302
  9
$DIMEXO
 40
1.0
  9
$DIMDLI
 40
3.75
  9
$DIMRND
 40
0.0
  9
$DIMDLE
 40
0.0
  9
$DIMEXE
 40
1.0
  9
$DIMTP
 40
0.0
  9
$DIMTM
 40
0.0
  9
$DIMTXT
 40
3.5
  9
$DIMCEN
 40
2.5
  9
$DIMTSZ
 40
0.0
  9
$DIMTOL
 70
     0
  9
$DIMLIM
 70
     0
  9
$DIMTIH
 70
     1
  9
$DIMTOH
 70
     1
  9
$DIMSE1
 70
     0
  9
$DIMSE2
 70
     0
  9
$DIMTAD
 70
     1
  9
$DIMZIN
 70
     0
  9
$DIMBLK
  1

  9
$DIMASO
 70
     1
  9
$DIMSHO
 70
     1
  9
$DIMPOST
  1

  9
$DIMAPOST
  1

  9
$DIMALT
 70
     0
  9
$DIMALTD
 70
     3
  9
$DIMALTF
 40
0.0393700787
  9
$DIMLFAC
 40
1.0
  9
$DIMTOFL
 70
     1
  9
$DIMTVP
 40
0.0
  9
$DIMTIX
 70
     0
  9
$DIMSOXD
 70
     0
  9
$DIMSAH
 70
     0
  9
$DIMBLK1
  1

  9
$DIMBLK2
  1

  9
$DIMSTYLE
  2
ISO-25
  9
$DIMCLRD
 70
     0
  9
$DIMCLRE
 70
     0
  9
$DIMCLRT
 70
     0
  9
$DIMTFAC
 40
1.0
  9
$DIMGAP
 40
1.524
  9
$LUNITS
 70
     2
  9
$LUPREC
 70
     1
  9
$SKETCHINC
 40
1.0
  9
$FILLETRAD
 40
10.0
  9
$AUNITS
 70
     0
  9
$AUPREC
 70
     1
  9
$MENU
  1
.
  9
$ELEVATION
 40
0.0
  9
$PELEVATION
 40
0.0
  9
$THICKNESS
 40
0.0
  9
$LIMCHECK
 70
     0
  9
$CHAMFERA
 40
10.0
  9
$CHAMFERB
 40
10.0
  9
$SKPOLY
 70
     0
  9
$TDCREATE
 40
2455862.564074062
  9
$TDUPDATE
 40
2455862.564074074
  9
$TDINDWG
 40
0.0000000116
  9
$TDUSRTIMER
 40
0.0000000116
  9
$USRTIMER
 70
     1
  9
$ANGBASE
 50
0.0
  9
$ANGDIR
 70
     0
  9
$PDMODE
 70
     0
  9
$PDSIZE
 40
-1.0
  9
$PLINEWID
 40
0.0
  9
$COORDS
 70
     1
  9
$SPLFRAME
 70
     0
  9
$SPLINETYPE
 70
     6
  9
$SPLINESEGS
 70
     8
  9
$ATTDIA
 70
     0
  9
$ATTREQ
 70
     1
  9
$HANDLING
 70
     1
  9
$HANDSEED
  5
9ED
  9
$SURFTAB1
 70
     6
  9
$SURFTAB2
 70
     6
  9
$SURFTYPE
 70
     6
  9
$SURFU
 70
     6
  9
$SURFV
 70
     6
  9
$UCSNAME
  2

  9
$UCSORG
 10
0.0
 20
0.0
 30
0.0
  9
$UCSXDIR
 10
1.0
 20
0.0
 30
0.0
  9
$UCSYDIR
 10
0.0
 20
1.0
 30
0.0
  9
$PUCSNAME
  2

  9
$PUCSORG
 10
0.0
 20
0.0
 30
0.0
  9
$PUCSXDIR
 10
1.0
 20
0.0
 30
0.0
  9
$PUCSYDIR
 10
0.0
 20
1.0
 30
0.0
  9
$USERI1
 70
     0
  9
$USERI2
 70
     0
  9
$USERI3
 70
     0
  9
$USERI4
 70
     0
  9
$USERI5
 70
     0
  9
$USERR1
 40
0.0
  9
$USERR2
 40
0.0
  9
$USERR3
 40
0.0
  9
$USERR4
 40
0.0
  9
$USERR5
 40
0.0
  9
$WORLDVIEW
 70
     1
  9
$SHADEDGE
 70
     3
  9
$SHADEDIF
 70
    70
  9
$TILEMODE
 70
     1
  9
$MAXACTVP
 70
    64
  9
$PLIMCHECK
 70
     0
  9
$PEXTMIN
 10
1.0000000000E+20
 20
1.0000000000E+20
 30
1.0000000000E+20
  9
$PEXTMAX
 10
-1.0000000000E+20
 20
-1.0000000000E+20
 30
-1.0000000000E+20
  9
$PLIMMIN
 10
0.0
 20
0.0
  9
$PLIMMAX
 10
420.0
 20
297.0
  9
$UNITMODE
 70
     0
  9
$VISRETAIN
 70
     1
  9
$PLINEGEN
 70
     0
  9
$PSLTSCALE
 70
     1
  0
ENDSEC
  0
SECTION
  2
TABLES
  0
TABLE
  2
VPORT
 70
     1
  0
VPORT
  2
*ACTIVE
 70
     0
 10
0.0
 20
0.0
 11
1.0
 21
1.0
 12
420.5
 22
297.0
 13
0.0
 23
0.0
 14
10.0
 24
10.0
 15
10.0
 25
10.0
 16
0.0
 26
0.0
 36
1.0
 17
0.0
 27
0.0
 37
0.0
 40
594.0
 41
1.4158249158
 42
50.0
 43
0.0
 44
0.0
 50
0.0
 51
0.0
 71
     0
 72
  2000
 73
     1
 74
     3
 75
     0
 76
     0
 77
     0
 78
     0
  0
ENDTAB
  0
TABLE
  2
LTYPE
 70
     8
  0
LTYPE
  2
CONTINUOUS
 70
     0
  3
Solid line
 72
    65
 73
     0
 40
0.0
  0
LTYPE
  2
SLD-SOLID
 70
     0
  3
SolidWorks Line Style
 72
    65
 73
     0
 40
0.0
  0
LTYPE
  2
SLD-DASHED
 70
     0
  3
SolidWorks Line Style
 72
    65
 73
     2
 40
1.905
 49
1.27
 49
-0.635
  0
LTYPE
  2
SLD-PHANTOM
 70
     0
  3
SolidWorks Line Style
 72
    65
 73
     6
 40
12.7
 49
6.35
 49
-1.27
 49
1.27
 49
-1.27
 49
1.27
 49
-1.27
  0
LTYPE
  2
SLD-CHAIN
 70
     0
  3
SolidWorks Line Style
 72
    65
 73
     4
 40
10.16
 49
6.35
 49
-1.27
 49
1.27
 49
-1.27
  0
LTYPE
  2
SLD-CENTER
 70
     0
  3
SolidWorks Line Style
 72
    65
 73
     4
 40
19.05
 49
15.24
 49
-1.27
 49
1.27
 49
-1.27
  0
LTYPE
  2
SLD-STITCH
 70
     0
  3
SolidWorks Line Style
 72
    65
 73
     2
 40
0.635
 49
0.0
 49
-0.635
  0
LTYPE
  2
SLD-THIN-THICK-CHAIN
 70
     0
  3
SolidWorks Line Style
 72
    65
 73
     4
 40
10.16
 49
6.35
 49
-1.27
 49
1.27
 49
-1.27
  0
ENDTAB
  0
TABLE
  2
LAYER
 70
     1
  0
LAYER
  2
0
 70
     0
 62
     7
  6
CONTINUOUS
  0
ENDTAB
  0
TABLE
  2
STYLE
 70
     1
  0
STYLE
  2
STANDARD
 70
     0
 40
0.0
 41
1.0
 50
0.0
 71
     0
 42
2.5
  3
txt
  4

  0
ENDTAB
  0
TABLE
  2
VIEW
 70
     0
  0
ENDTAB
  0
TABLE
  2
UCS
 70
     0
  0
ENDTAB
  0
TABLE
  2
APPID
 70
     1
  0
APPID
  2
ACAD
 70
     0
  0
ENDTAB
  0
TABLE
  2
DIMSTYLE
 70
     1
  0
DIMSTYLE
  2
ISO-25
 70
     0
  3

  4

  5

  6

  7

 40
1.0
 41
2.5
 42
0.625
 43
3.75
 44
1.25
 45
0.0
 46
0.0
 47
0.0
 48
0.0
140
2.5
141
2.5
142
0.0
143
0.0393700787
144
1.0
145
0.0
146
1.0
147
0.625
 71
     0
 72
     0
 73
     0
 74
     0
 75
     0
 76
     0
 77
     1
 78
     8
170
     0
171
     3
172
     1
173
     0
174
     0
175
     0
176
     0
177
     0
178
     0
  0
ENDTAB
  0
ENDSEC
  0
SECTION
  2
BLOCKS
  0
BLOCK
  8
0
  2
$MODEL_SPACE
 70
     0
 10
0.0
 20
0.0
 30
0.0
  3
$MODEL_SPACE
  1

  0
ENDBLK
  5
21
  8
0
  0
BLOCK
 67
     1
  8
0
  2
$PAPER_SPACE
 70
     0
 10
0.0
 20
0.0
 30
0.0
  3
$PAPER_SPACE
  1

  0
ENDBLK
  5
1D
 67
     1
  8
0
  0
ENDSEC
  0
SECTION
  2
ENTITIES
  0
LINE
  5
46
  8
0
  6
SLD-SOLID
 62
     7
 10
40.6920114181
 20
212.162339811
 30
0.0
 11
40.6212905071
 21
212.162339811
 31
0.0
  0
LINE
  5
47
  8
0
  6
SLD-SOLID
 62
     7
 10
689.1213008783
 20
193.8123393178
 30
0.0
 11
689.1213008783
 21
194.3123393998
 31
0.0
  0
LINE
  5
48
  8
0
  6
SLD-SOLID
 62
     7
 10
681.121299567
 20
194.3123393998
 30
0.0
 11
681.121299567
 21
193.8123393178
 31
0.0
  0
LINE
  5
49
  8
0
  6
SLD-SOLID
 62
     7
 10
770.9212997578
 20
193.8123393178
 30
0.0
 11
770.9212997578
 21
194.3123393998
 31
0.0
  0
LINE
  5
4A
  8
0
  6
SLD-SOLID
 62
     7
 10
762.9213133476
 20
194.3123393998
 30
0.0
 11
762.9213133476
 21
193.8123393178
 31
0.0
  0
ARC
  5
4B
  8
0
  6
SLD-SOLID
 62
     7
 10
650.3212997086
 20
211.8623394406
 30
0.0
 40
0.3000000000000682
 50
0.0
 51
40.1554437773
  0
LINE
  5
4C
  8
0
  6
SLD-SOLID
 62
     7
 10
771.7213132999
 20
543.5387787715
 30
0.0
 11
29.5212963245
 21
543.5387787715
 31
0.0
  0
LINE
  5
4D
  8
0
  6
SLD-SOLID
 62
     7
 10
28.9712944649
 20
197.412339256
 30
0.0
 11
28.9712944649
 21
197.8123395078
 31
0.0
  0
ARC
  5
4E
  8
0
  6
SLD-SOLID
 62
     7
 10
28.6712997086
 20
197.8123394406
 30
0.0
 40
0.3000000000000256
 50
0.0
 51
90.0
  0
ARC
  5
4F
  8
0
  6
SLD-SOLID
 62
     7
 10
28.6712997086
 20
197.4123394406
 30
0.0
 40
0.3000000000000256
 50
270.0
 51
0.0
  0
POLYLINE
  5
50
  8
0
  6
SLD-SOLID
 62
     7
 66
     1
 10
0.0
 20
0.0
 30
0.0
  0
VERTEX
  5
4D2
  8
0
  6
SLD-SOLID
 62
     7
 10
19.5065537117
 20
197.1194103666
 30
0.0
  0
VERTEX
  5
4D3
  8
0
  6
SLD-SOLID
 62
     7
 10
19.5127823971
 20
197.118103721
 30
0.0
  0
VERTEX
  5
4D4
  8
0
  6
SLD-SOLID
 62
     7
 10
19.5713141582
 20
197.1123392999
 30
0.0
  0
SEQEND
  5
4D5
  8
0
  6
SLD-SOLID
 62
     7
  0
LINE
  5
51
  8
0
  6
SLD-SOLID
 62
     7
 10
28.121302428
 20
195.8123396456
 30
0.0
 11
28.121302428
 21
196.3123392619
 31
0.0
  0
LINE
  5
52
  8
0
  6
SLD-SOLID
 62
     7
 10
20.1212862156
 20
196.3123392619
 30
0.0
 11
20.1212862156
 21
195.8123396456
 31
0.0
  0
ARC
  5
53
  8
0
  6
SLD-SOLID
 62
     7
 10
27.9212997086
 20
198.4123394406
 30
0.0
 40
0.300000000000022
 50
180.0
 51
270.0
  0
LINE
  5
54
  8
0
  6
SLD-SOLID
 62
     7
 10
27.6213088653
 20
198.4123394199
 30
0.0
 11
27.6213088653
 21
199.3123395208
 31
0.0
  0
LINE
  5
55
  8
0
  6
SLD-SOLID
 62
     7
 10
72.6212957523
 20
217.4413564921
 30
0.0
 11
72.6212957523
 21
233.0546711877
 31
0.0
  0
LINE
  5
56
  8
0
  6
SLD-SOLID
 62
     7
 10
64.6213093422
 20
233.0546711877
 30
0.0
 11
64.6213093422
 21
217.4413564921
 31
0.0
  0
LINE
  5
57
  8
0
  6
SLD-SOLID
 62
     7
 10
626.6213008783
 20
217.4413564921
 30
0.0
 11
626.6213008783
 21
233.0546711877
 31
0.0
  0
LINE
  5
58
  8
0
  6
SLD-SOLID
 62
     7
 10
618.621299567
 20
233.0546711877
 30
0.0
 11
618.621299567
 21
217.4413564921
 31
0.0
  0
LINE
  5
59
  8
0
  6
SLD-SOLID
 62
     7
 10
626.6213008783
 20
233.0546711877
 30
0.0
 11
626.6213008783
 21
236.9290885821
 31
0.0
  0
LINE
  5
5A
  8
0
  6
SLD-SOLID
 62
     7
 10
618.621299567
 20
236.9290885821
 30
0.0
 11
618.621299567
 21
233.0546711877
 31
0.0
  0
LINE
  5
5B
  8
0
  6
SLD-SOLID
 62
     7
 10
64.6213093422
 20
236.9290885821
 30
0.0
 11
64.6213093422
 21
233.0546711877
 31
0.0
  0
LINE
  5
5C
  8
0
  6
SLD-SOLID
 62
     7
 10
72.6212957523
 20
233.0546711877
 30
0.0
 11
72.6212957523
 21
236.9290885821
 31
0.0
  0
LINE
  5
5D
  8
0
  6
SLD-SOLID
 62
     7
 10
618.621299567
 20
281.9922042385
 30
0.0
 11
618.621299567
 21
265.2143051222
 31
0.0
  0
LINE
  5
5E
  8
0
  6
SLD-SOLID
 62
     7
 10
618.621299567
 20
257.2143075362
 30
0.0
 11
618.621299567
 21
252.7478521064
 31
0.0
  0
LINE
  5
5F
  8
0
  6
SLD-SOLID
 62
     7
 10
618.621299567
 20
247.8005883589
 30
0.0
 11
618.621299567
 21
247.3989387348
 31
0.0
  0
LINE
  5
60
  8
0
  6
SLD-SOLID
 62
     7
 10
618.621299567
 20
243.7621985868
 30
0.0
 11
618.621299567
 21
236.9290885821
 31
0.0
  0
LINE
  5
61
  8
0
  6
SLD-SOLID
 62
     7
 10
626.6213008783
 20
236.9290885821
 30
0.0
 11
626.6213008783
 21
243.7621985868
 31
0.0
  0
LINE
  5
62
  8
0
  6
SLD-SOLID
 62
     7
 10
626.6213008783
 20
247.1837920442
 30
0.0
 11
626.6213008783
 21
248.0157350496
 31
0.0
  0
LINE
  5
63
  8
0
  6
SLD-SOLID
 62
     7
 10
626.6213008783
 20
251.4373322323
 30
0.0
 11
626.6213008783
 21
257.2143075362
 31
0.0
  0
LINE
  5
64
  8
0
  6
SLD-SOLID
 62
     7
 10
626.6213008783
 20
265.2143051222
 30
0.0
 11
626.6213008783
 21
281.9922042385
 31
0.0
  0
LINE
  5
65
  8
0
  6
SLD-SOLID
 62
     7
 10
72.6212957523
 20
236.9290885821
 30
0.0
 11
72.6212957523
 21
243.7621985868
 31
0.0
  0
LINE
  5
66
  8
0
  6
SLD-SOLID
 62
     7
 10
72.6212957523
 20
247.3989387348
 30
0.0
 11
72.6212957523
 21
247.8005883589
 31
0.0
  0
LINE
  5
67
  8
0
  6
SLD-SOLID
 62
     7
 10
72.6212957523
 20
252.7478521064
 30
0.0
 11
72.6212957523
 21
257.2143075362
 31
0.0
  0
LINE
  5
68
  8
0
  6
SLD-SOLID
 62
     7
 10
72.6212957523
 20
265.2143051222
 30
0.0
 11
72.6212957523
 21
281.9922042385
 31
0.0
  0
LINE
  5
69
  8
0
  6
SLD-SOLID
 62
     7
 10
64.6213093422
 20
281.9922042385
 30
0.0
 11
64.6213093422
 21
265.2143051222
 31
0.0
  0
LINE
  5
6A
  8
0
  6
SLD-SOLID
 62
     7
 10
64.6213093422
 20
257.2143075362
 30
0.0
 11
64.6213093422
 21
251.4373322323
 31
0.0
  0
LINE
  5
6B
  8
0
  6
SLD-SOLID
 62
     7
 10
64.6213093422
 20
248.0157350496
 30
0.0
 11
64.6213093422
 21
247.1837920442
 31
0.0
  0
LINE
  5
6C
  8
0
  6
SLD-SOLID
 62
     7
 10
64.6213093422
 20
243.7621985868
 30
0.0
 11
64.6213093422
 21
236.9290885821
 31
0.0
  0
ARC
  5
6D
  8
0
  6
SLD-SOLID
 62
     7
 10
613.7986487261
 20
241.201978155
 30
0.0
 40
48.00484054134585
 50
84.2342386316
 51
89.0180757325
  0
ARC
  5
6E
  8
0
  6
SLD-SOLID
 62
     7
 10
613.9567837698
 20
241.7443988684
 30
0.0
 40
39.45357481721951
 50
83.2101556751
 51
89.0349127916
  0
ARC
  5
6F
  8
0
  6
SLD-SOLID
 62
     7
 10
77.5230003376
 20
238.1388928297
 30
0.0
 40
51.06337701273932
 50
91.011803194
 51
95.5084507549
  0
ARC
  5
70
  8
0
  6
SLD-SOLID
 62
     7
 10
77.3569033736
 20
240.5882542624
 30
0.0
 40
40.6110907738426
 50
91.0378704885
 51
96.6964226993
  0
LINE
  5
71
  8
0
  6
SLD-SOLID
 62
     7
 10
618.621299567
 20
252.7478521064
 30
0.0
 11
593.4821838162
 21
252.7478521064
 31
0.0
  0
LINE
  5
72
  8
0
  6
SLD-SOLID
 62
     7
 10
590.760419669
 20
252.7478521064
 30
0.0
 11
564.4821846507
 21
252.7478521064
 31
0.0
  0
LINE
  5
73
  8
0
  6
SLD-SOLID
 62
     7
 10
561.7604205034
 20
252.7478521064
 30
0.0
 11
535.4821817599
 21
252.7478521064
 31
0.0
  0
LINE
  5
74
  8
0
  6
SLD-SOLID
 62
     7
 10
532.7604176126
 20
252.7478521064
 30
0.0
 11
506.4821807317
 21
252.7478521064
 31
0.0
  0
LINE
  5
75
  8
0
  6
SLD-SOLID
 62
     7
 10
503.7604184471
 20
252.7478521064
 30
0.0
 11
477.4821814497
 21
252.7478521064
 31
0.0
  0
LINE
  5
76
  8
0
  6
SLD-SOLID
 62
     7
 10
474.760418001
 20
252.7478521064
 30
0.0
 11
448.482180538
 21
252.7478521064
 31
0.0
  0
LINE
  5
77
  8
0
  6
SLD-SOLID
 62
     7
 10
445.7604182533
 20
252.7478521064
 30
0.0
 11
419.4821813724
 21
252.7478521064
 31
0.0
  0
LINE
  5
78
  8
0
  6
SLD-SOLID
 62
     7
 10
416.7604172252
 20
252.7478521064
 30
0.0
 11
390.4821822069
 21
252.7478521064
 31
0.0
  0
LINE
  5
79
  8
0
  6
SLD-SOLID
 62
     7
 10
387.7604180596
 20
252.7478521064
 30
0.0
 11
361.4821830414
 21
252.7478521064
 31
0.0
  0
LINE
  5
7A
  8
0
  6
SLD-SOLID
 62
     7
 10
358.7604188941
 20
252.7478521064
 30
0.0
 11
332.4821838758
 21
252.7478521064
 31
0.0
  0
LINE
  5
7B
  8
0
  6
SLD-SOLID
 62
     7
 10
329.760412278
 20
252.7478521064
 30
0.0
 11
303.4821847103
 21
252.7478521064
 31
0.0
  0
LINE
  5
7C
  8
0
  6
SLD-SOLID
 62
     7
 10
300.7604131124
 20
252.7478521064
 30
0.0
 11
274.4821855448
 21
252.7478521064
 31
0.0
  0
LINE
  5
7D
  8
0
  6
SLD-SOLID
 62
     7
 10
271.7604139469
 20
252.7478521064
 30
0.0
 11
245.4821863792
 21
252.7478521064
 31
0.0
  0
LINE
  5
7E
  8
0
  6
SLD-SOLID
 62
     7
 10
242.7604147814
 20
252.7478521064
 30
0.0
 11
216.4821723125
 21
252.7478521064
 31
0.0
  0
LINE
  5
7F
  8
0
  6
SLD-SOLID
 62
     7
 10
213.7604156158
 20
252.7478521064
 30
0.0
 11
187.4821880482
 21
252.7478521064
 31
0.0
  0
LINE
  5
80
  8
0
  6
SLD-SOLID
 62
     7
 10
184.7604313515
 20
252.7478521064
 30
0.0
 11
158.4821739815
 21
252.7478521064
 31
0.0
  0
LINE
  5
81
  8
0
  6
SLD-SOLID
 62
     7
 10
155.7604172848
 20
252.7478521064
 30
0.0
 11
129.4821897171
 21
252.7478521064
 31
0.0
  0
LINE
  5
82
  8
0
  6
SLD-SOLID
 62
     7
 10
126.7604032181
 20
252.7478521064
 30
0.0
 11
100.4821756504
 21
252.7478521064
 31
0.0
  0
LINE
  5
83
  8
0
  6
SLD-SOLID
 62
     7
 10
97.7604189537
 20
252.7478521064
 30
0.0
 11
72.6212957523
 21
252.7478521064
 31
0.0
  0
LINE
  5
84
  8
0
  6
SLD-SOLID
 62
     7
 10
618.621299567
 20
281.9922042385
 30
0.0
 11
631.4212927244
 21
281.9922042385
 31
0.0
  0
LINE
  5
85
  8
0
  6
SLD-SOLID
 62
     7
 10
647.6212987326
 20
289.9922055498
 30
0.0
 11
618.621299567
 21
289.9922055498
 31
0.0
  0
LINE
  5
86
  8
0
  6
SLD-SOLID
 62
     7
 10
618.621299567
 20
257.2143075362
 30
0.0
 11
619.6213015936
 21
257.2143075362
 31
0.0
  0
LINE
  5
87
  8
0
  6
SLD-SOLID
 62
     7
 10
625.6212988518
 20
257.2143075362
 30
0.0
 11
628.6213049314
 21
257.2143075362
 31
0.0
  0
LINE
  5
88
  8
0
  6
SLD-SOLID
 62
     7
 10
629.737878742
 20
257.2143075362
 30
0.0
 11
631.4212927244
 21
257.2143075362
 31
0.0
  0
LINE
  5
89
  8
0
  6
SLD-SOLID
 62
     7
 10
647.6212987326
 20
265.2143051222
 30
0.0
 11
644.090036454
 21
265.2143051222
 31
0.0
  0
LINE
  5
8A
  8
0
  6
SLD-SOLID
 62
     7
 10
630.0685653112
 20
265.2143051222
 30
0.0
 11
625.6212988518
 21
265.2143051222
 31
0.0
  0
LINE
  5
8B
  8
0
  6
SLD-SOLID
 62
     7
 10
619.6213015936
 20
265.2143051222
 30
0.0
 11
618.621299567
 21
265.2143051222
 31
0.0
  0
LINE
  5
8C
  8
0
  6
SLD-SOLID
 62
     7
 10
597.6213017128
 20
281.4379629985
 30
0.0
 11
597.6213017128
 21
252.7478521064
 31
0.0
  0
LINE
  5
8D
  8
0
  6
SLD-SOLID
 62
     7
 10
603.621298971
 20
252.7478521064
 30
0.0
 11
603.621298971
 21
281.4379629985
 31
0.0
  0
LINE
  5
8E
  8
0
  6
SLD-SOLID
 62
     7
 10
619.6213015936
 20
267.0443353549
 30
0.0
 11
619.6213015936
 21
247.2966199115
 31
0.0
  0
LINE
  5
8F
  8
0
  6
SLD-SOLID
 62
     7
 10
625.6212988518
 20
247.2347316638
 30
0.0
 11
625.6212988518
 21
267.0443353549
 31
0.0
  0
LINE
  5
90
  8
0
  6
SLD-SOLID
 62
     7
 10
631.4212927244
 20
280.3705332175
 30
0.0
 11
626.6213008783
 21
280.3705332175
 31
0.0
  0
LINE
  5
91
  8
0
  6
SLD-SOLID
 62
     7
 10
618.621299567
 20
280.3705332175
 30
0.0
 11
614.621306362
 21
280.3705332175
 31
0.0
  0
LINE
  5
92
  8
0
  6
SLD-SOLID
 62
     7
 10
614.5879128597
 20
274.3705359593
 30
0.0
 11
618.621299567
 21
274.3705359593
 31
0.0
  0
LINE
  5
93
  8
0
  6
SLD-SOLID
 62
     7
 10
626.6213008783
 20
274.3705359593
 30
0.0
 11
642.208645644
 21
274.3705359593
 31
0.0
  0
LINE
  5
94
  8
0
  6
SLD-SOLID
 62
     7
 10
594.1213020704
 20
254.1995046035
 30
0.0
 11
594.1213020704
 21
259.2428361371
 31
0.0
  0
LINE
  5
95
  8
0
  6
SLD-SOLID
 62
     7
 10
590.1213014148
 20
258.9996715382
 30
0.0
 11
590.1213014148
 21
254.1995046035
 31
0.0
  0
LINE
  5
96
  8
0
  6
SLD-SOLID
 62
     7
 10
565.1213029049
 20
254.1995046035
 30
0.0
 11
565.1213029049
 21
257.5639074043
 31
0.0
  0
LINE
  5
97
  8
0
  6
SLD-SOLID
 62
     7
 10
561.1213022492
 20
257.456533362
 30
0.0
 11
561.1213022492
 21
254.1995046035
 31
0.0
  0
LINE
  5
98
  8
0
  6
SLD-SOLID
 62
     7
 10
536.1213000141
 20
254.1995046035
 30
0.0
 11
536.1213000141
 21
269.866846253
 31
0.0
  0
LINE
  5
99
  8
0
  6
SLD-SOLID
 62
     7
 10
532.1212993584
 20
269.3957013384
 30
0.0
 11
532.1212993584
 21
254.1995046035
 31
0.0
  0
LINE
  5
9A
  8
0
  6
SLD-SOLID
 62
     7
 10
507.1213008485
 20
254.1995046035
 30
0.0
 11
507.1213008485
 21
266.3835582629
 31
0.0
  0
LINE
  5
9B
  8
0
  6
SLD-SOLID
 62
     7
 10
503.1213001929
 20
267.3397732273
 30
0.0
 11
503.1213001929
 21
254.1995046035
 31
0.0
  0
LINE
  5
9C
  8
0
  6
SLD-SOLID
 62
     7
 10
478.1212998203
 20
254.1995046035
 30
0.0
 11
478.1212998203
 21
269.7238994137
 31
0.0
  0
LINE
  5
9D
  8
0
  6
SLD-SOLID
 62
     7
 10
474.1212997468
 20
269.8405308023
 30
0.0
 11
474.1212997468
 21
254.1995046035
 31
0.0
  0
LINE
  5
9E
  8
0
  6
SLD-SOLID
 62
     7
 10
449.1212987922
 20
254.1995046035
 30
0.0
 11
449.1212987922
 21
268.1060356394
 31
0.0
  0
LINE
  5
9F
  8
0
  6
SLD-SOLID
 62
     7
 10
445.1212999992
 20
265.9340721861
 30
0.0
 11
445.1212999992
 21
254.1995046035
 31
0.0
  0
LINE
  5
A0
  8
0
  6
SLD-SOLID
 62
     7
 10
420.1212996266
 20
254.1995046035
 30
0.0
 11
420.1212996266
 21
269.1433725253
 31
0.0
  0
LINE
  5
A1
  8
0
  6
SLD-SOLID
 62
     7
 10
416.121298971
 20
269.9813840285
 30
0.0
 11
416.121298971
 21
254.1995046035
 31
0.0
  0
LINE
  5
A2
  8
0
  6
SLD-SOLID
 62
     7
 10
391.1213004611
 20
254.1995046035
 30
0.0
 11
391.1213004611
 21
257.456533362
 31
0.0
  0
LINE
  5
A3
  8
0
  6
SLD-SOLID
 62
     7
 10
387.1212998054
 20
257.6622029141
 30
0.0
 11
387.1212998054
 21
254.1995046035
 31
0.0
  0
LINE
  5
A4
  8
0
  6
SLD-SOLID
 62
     7
 10
362.1213012956
 20
254.1995046035
 30
0.0
 11
362.1213012956
 21
258.284777154
 31
0.0
  0
LINE
  5
A5
  8
0
  6
SLD-SOLID
 62
     7
 10
358.1213006399
 20
258.284777154
 30
0.0
 11
358.1213006399
 21
254.1995046035
 31
0.0
  0
LINE
  5
A6
  8
0
  6
SLD-SOLID
 62
     7
 10
65.6212964676
 20
267.0443353549
 30
0.0
 11
65.6212964676
 21
247.2347316638
 31
0.0
  0
LINE
  5
A7
  8
0
  6
SLD-SOLID
 62
     7
 10
71.6213086269
 20
247.2966199115
 30
0.0
 11
71.6213086269
 21
267.0443353549
 31
0.0
  0
LINE
  5
A8
  8
0
  6
SLD-SOLID
 62
     7
 10
72.6212957523
 20
265.2143051222
 30
0.0
 11
71.6213086269
 21
265.2143051222
 31
0.0
  0
LINE
  5
A9
  8
0
  6
SLD-SOLID
 62
     7
 10
65.6212964676
 20
265.2143051222
 30
0.0
 11
61.1740449093
 21
265.2143051222
 31
0.0
  0
LINE
  5
AA
  8
0
  6
SLD-SOLID
 62
     7
 10
47.1525588653
 20
265.2143051222
 30
0.0
 11
43.621311488
 21
265.2143051222
 31
0.0
  0
LINE
  5
AB
  8
0
  6
SLD-SOLID
 62
     7
 10
55.0212958477
 20
257.2143075362
 30
0.0
 11
61.5047314785
 21
257.2143075362
 31
0.0
  0
LINE
  5
AC
  8
0
  6
SLD-SOLID
 62
     7
 10
62.6213052891
 20
257.2143075362
 30
0.0
 11
65.6212964676
 21
257.2143075362
 31
0.0
  0
LINE
  5
AD
  8
0
  6
SLD-SOLID
 62
     7
 10
71.6213086269
 20
257.2143075362
 30
0.0
 11
72.6212957523
 21
257.2143075362
 31
0.0
  0
LINE
  5
AE
  8
0
  6
SLD-SOLID
 62
     7
 10
72.6212957523
 20
289.9922055498
 30
0.0
 11
43.621311488
 21
289.9922055498
 31
0.0
  0
LINE
  5
AF
  8
0
  6
SLD-SOLID
 62
     7
 10
55.0212958477
 20
281.9922042385
 30
0.0
 11
72.6212957523
 21
281.9922042385
 31
0.0
  0
LINE
  5
B0
  8
0
  6
SLD-SOLID
 62
     7
 10
45.3769662998
 20
274.3705359593
 30
0.0
 11
64.6213093422
 21
274.3705359593
 31
0.0
  0
LINE
  5
B1
  8
0
  6
SLD-SOLID
 62
     7
 10
72.6212957523
 20
274.3705359593
 30
0.0
 11
76.6546824596
 21
274.3705359593
 31
0.0
  0
LINE
  5
B2
  8
0
  6
SLD-SOLID
 62
     7
 10
76.6213038586
 20
280.3705332175
 30
0.0
 11
72.6212957523
 21
280.3705332175
 31
0.0
  0
LINE
  5
B3
  8
0
  6
SLD-SOLID
 62
     7
 10
64.6213093422
 20
280.3705332175
 30
0.0
 11
55.0212958477
 21
280.3705332175
 31
0.0
  0
LINE
  5
B4
  8
0
  6
SLD-SOLID
 62
     7
 10
87.6213112495
 20
281.4379629985
 30
0.0
 11
87.6213112495
 21
252.7478521064
 31
0.0
  0
LINE
  5
B5
  8
0
  6
SLD-SOLID
 62
     7
 10
93.6212936066
 20
252.7478521064
 30
0.0
 11
93.6212936066
 21
281.4379629985
 31
0.0
  0
LINE
  5
B6
  8
0
  6
SLD-SOLID
 62
     7
 10
101.121286454
 20
254.1995046035
 30
0.0
 11
101.121286454
 21
259.0046522513
 31
0.0
  0
LINE
  5
B7
  8
0
  6
SLD-SOLID
 62
     7
 10
97.1213081501
 20
259.2444789901
 30
0.0
 11
97.1213081501
 21
254.1995046035
 31
0.0
  0
LINE
  5
B8
  8
0
  6
SLD-SOLID
 62
     7
 10
130.1213005207
 20
254.1995046035
 30
0.0
 11
130.1213005207
 21
257.456533362
 31
0.0
  0
LINE
  5
B9
  8
0
  6
SLD-SOLID
 62
     7
 10
126.1212924145
 20
257.5639074043
 30
0.0
 11
126.1212924145
 21
254.1995046035
 31
0.0
  0
LINE
  5
BA
  8
0
  6
SLD-SOLID
 62
     7
 10
159.1213145874
 20
254.1995046035
 30
0.0
 11
159.1213145874
 21
269.3957013384
 31
0.0
  0
LINE
  5
BB
  8
0
  6
SLD-SOLID
 62
     7
 10
155.1213064812
 20
269.866846253
 30
0.0
 11
155.1213064812
 21
254.1995046035
 31
0.0
  0
LINE
  5
BC
  8
0
  6
SLD-SOLID
 62
     7
 10
188.1212988518
 20
254.1995046035
 30
0.0
 11
188.1212988518
 21
267.3191053167
 31
0.0
  0
LINE
  5
BD
  8
0
  6
SLD-SOLID
 62
     7
 10
184.1212907455
 20
266.3835582629
 30
0.0
 11
184.1212907455
 21
254.1995046035
 31
0.0
  0
LINE
  5
BE
  8
0
  6
SLD-SOLID
 62
     7
 10
217.1213129185
 20
254.1995046035
 30
0.0
 11
217.1213129185
 21
269.8309270039
 31
0.0
  0
LINE
  5
BF
  8
0
  6
SLD-SOLID
 62
     7
 10
213.1213048122
 20
269.7139379874
 30
0.0
 11
213.1213048122
 21
254.1995046035
 31
0.0
  0
LINE
  5
C0
  8
0
  6
SLD-SOLID
 62
     7
 10
246.1212971828
 20
254.1995046035
 30
0.0
 11
246.1212971828
 21
265.9340721861
 31
0.0
  0
LINE
  5
C1
  8
0
  6
SLD-SOLID
 62
     7
 10
242.1213039778
 20
268.1161088243
 30
0.0
 11
242.1213039778
 21
254.1995046035
 31
0.0
  0
LINE
  5
C2
  8
0
  6
SLD-SOLID
 62
     7
 10
275.1212963484
 20
254.1995046035
 30
0.0
 11
275.1212963484
 21
269.9823600546
 31
0.0
  0
LINE
  5
C3
  8
0
  6
SLD-SOLID
 62
     7
 10
271.1213031433
 20
269.1434544817
 30
0.0
 11
271.1213031433
 21
254.1995046035
 31
0.0
  0
LINE
  5
C4
  8
0
  6
SLD-SOLID
 62
     7
 10
304.1212955139
 20
254.1995046035
 30
0.0
 11
304.1212955139
 21
257.6622029141
 31
0.0
  0
LINE
  5
C5
  8
0
  6
SLD-SOLID
 62
     7
 10
300.1213023088
 20
257.456533362
 30
0.0
 11
300.1213023088
 21
254.1995046035
 31
0.0
  0
LINE
  5
C6
  8
0
  6
SLD-SOLID
 62
     7
 10
333.1212946794
 20
254.1995046035
 30
0.0
 11
333.1212946794
 21
258.284777154
 31
0.0
  0
LINE
  5
C7
  8
0
  6
SLD-SOLID
 62
     7
 10
329.1213014744
 20
258.284777154
 30
0.0
 11
329.1213014744
 21
254.1995046035
 31
0.0
  0
POLYLINE
  5
C8
  8
0
  6
SLD-SOLID
 62
     7
 66
     1
 10
0.0
 20
0.0
 30
0.0
  0
VERTEX
  5
4D6
  8
0
  6
SLD-SOLID
 62
     7
 10
589.1428539179
 20
188.5483579084
 30
0.0
  0
VERTEX
  5
4D7
  8
0
  6
SLD-SOLID
 62
     7
 10
589.6255993865
 20
187.5605441004
 30
0.0
  0
VERTEX
  5
4D8
  8
0
  6
SLD-SOLID
 62
     7
 10
590.8809328101
 20
185.6667713568
 30
0.0
  0
VERTEX
  5
4D9
  8
0
  6
SLD-SOLID
 62
     7
 10
592.42559463
 20
183.853775014
 30
0.0
  0
VERTEX
  5
4DA
  8
0
  6
SLD-SOLID
 62
     7
 10
594.2464494727
 20
182.1389400706
 30
0.0
  0
VERTEX
  5
4DB
  8
0
  6
SLD-SOLID
 62
     7
 10
596.3265845201
 20
180.5390526846
 30
0.0
  0
VERTEX
  5
4DC
  8
0
  6
SLD-SOLID
 62
     7
 10
598.646002414
 20
179.0694275245
 30
0.0
  0
VERTEX
  5
4DD
  8
0
  6
SLD-SOLID
 62
     7
 10
601.1824557207
 20
177.743561317
 30
0.0
  0
VERTEX
  5
4DE
  8
0
  6
SLD-SOLID
 62
     7
 10
603.911662998
 20
176.5732613698
 30
0.0
  0
VERTEX
  5
4DF
  8
0
  6
SLD-SOLID
 62
     7
 10
606.8084189318
 20
175.5684034273
 30
0.0
  0
VERTEX
  5
4E0
  8
0
  6
SLD-SOLID
 62
     7
 10
609.5982143305
 20
174.8052013412
 30
0.0
  0
SEQEND
  5
4E1
  8
0
  6
SLD-SOLID
 62
     7
  0
POLYLINE
  5
C9
  8
0
  6
SLD-SOLID
 62
     7
 66
     1
 10
0.0
 20
0.0
 30
0.0
  0
VERTEX
  5
4E2
  8
0
  6
SLD-SOLID
 62
     7
 10
635.6396475456
 20
174.8019789651
 30
0.0
  0
VERTEX
  5
4E3
  8
0
  6
SLD-SOLID
 62
     7
 10
635.8241388224
 20
174.8417184994
 30
0.0
  0
VERTEX
  5
4E4
  8
0
  6
SLD-SOLID
 62
     7
 10
638.8440528534
 20
175.6972686693
 30
0.0
  0
VERTEX
  5
4E5
  8
0
  6
SLD-SOLID
 62
     7
 10
641.7195150278
 20
176.7256872103
 30
0.0
  0
VERTEX
  5
4E6
  8
0
  6
SLD-SOLID
 62
     7
 10
644.4247761391
 20
177.9187822089
 30
0.0
  0
VERTEX
  5
4E7
  8
0
  6
SLD-SOLID
 62
     7
 10
646.9353833816
 20
179.2670932904
 30
0.0
  0
VERTEX
  5
4E8
  8
0
  6
SLD-SOLID
 62
     7
 10
649.2282548569
 20
180.7599176958
 30
0.0
  0
VERTEX
  5
4E9
  8
0
  6
SLD-SOLID
 62
     7
 10
651.2815901659
 20
182.3851445064
 30
0.0
  0
VERTEX
  5
4EA
  8
0
  6
SLD-SOLID
 62
     7
 10
653.0749002121
 20
184.1288057461
 30
0.0
  0
VERTEX
  5
4EB
  8
0
  6
SLD-SOLID
 62
     7
 10
654.5896926544
 20
185.9750782445
 30
0.0
  0
VERTEX
  5
4EC
  8
0
  6
SLD-SOLID
 62
     7
 10
655.8098891399
 20
187.9057835162
 30
0.0
  0
VERTEX
  5
4ED
  8
0
  6
SLD-SOLID
 62
     7
 10
656.7227938793
 20
189.9003868297
 30
0.0
  0
VERTEX
  5
4EE
  8
0
  6
SLD-SOLID
 62
     7
 10
657.3202112339
 20
191.9368400544
 30
0.0
  0
VERTEX
  5
4EF
  8
0
  6
SLD-SOLID
 62
     7
 10
657.5988927505
 20
193.9932999507
 30
0.0
  0
VERTEX
  5
4F0
  8
0
  6
SLD-SOLID
 62
     7
 10
657.621304097
 20
194.7671423972
 30
0.0
  0
SEQEND
  5
4F1
  8
0
  6
SLD-SOLID
 62
     7
  0
LINE
  5
CA
  8
0
  6
SLD-SOLID
 62
     7
 10
587.6212963484
 20
196.4732988112
 30
0.0
 11
587.6212963484
 21
194.7671423972
 31
0.0
  0
LINE
  5
CB
  8
0
  6
SLD-SOLID
 62
     7
 10
657.621304097
 20
194.7671423972
 30
0.0
 11
657.621304097
 21
196.4732988112
 31
0.0
  0
LINE
  5
CC
  8
0
  6
SLD-SOLID
 62
     7
 10
607.6213070772
 20
190.3130670384
 30
0.0
 11
607.6213070772
 21
188.4961777672
 31
0.0
  0
LINE
  5
CD
  8
0
  6
SLD-SOLID
 62
     7
 10
637.6212933681
 20
188.4961777672
 30
0.0
 11
637.6212933681
 21
190.3130670384
 31
0.0
  0
POLYLINE
  5
CE
  8
0
  6
SLD-SOLID
 62
     7
 66
     1
 10
0.0
 20
0.0
 30
0.0
  0
VERTEX
  5
4F2
  8
0
  6
SLD-SOLID
 62
     7
 10
35.1428487919
 20
188.5483579084
 30
0.0
  0
VERTEX
  5
4F3
  8
0
  6
SLD-SOLID
 62
     7
 10
35.6255868099
 20
187.5605441004
 30
0.0
  0
VERTEX
  5
4F4
  8
0
  6
SLD-SOLID
 62
     7
 10
36.8809500358
 20
185.6667713568
 30
0.0
  0
VERTEX
  5
4F5
  8
0
  6
SLD-SOLID
 62
     7
 10
38.4256044052
 20
183.853775014
 30
0.0
  0
VERTEX
  5
4F6
  8
0
  6
SLD-SOLID
 62
     7
 10
40.2464368961
 20
182.1389400706
 30
0.0
  0
VERTEX
  5
4F7
  8
0
  6
SLD-SOLID
 62
     7
 10
42.3265793941
 20
180.5390526846
 30
0.0
  0
VERTEX
  5
4F8
  8
0
  6
SLD-SOLID
 62
     7
 10
44.6460047386
 20
179.0694275245
 30
0.0
  0
VERTEX
  5
4F9
  8
0
  6
SLD-SOLID
 62
     7
 10
47.1824505947
 20
177.743561317
 30
0.0
  0
VERTEX
  5
4FA
  8
0
  6
SLD-SOLID
 62
     7
 10
49.911657872
 20
176.5732613698
 30
0.0
  0
VERTEX
  5
4FB
  8
0
  6
SLD-SOLID
 62
     7
 10
52.8084138058
 20
175.5684034273
 30
0.0
  0
VERTEX
  5
4FC
  8
0
  6
SLD-SOLID
 62
     7
 10
55.6063452385
 20
174.8029810682
 30
0.0
  0
SEQEND
  5
4FD
  8
0
  6
SLD-SOLID
 62
     7
  0
POLYLINE
  5
CF
  8
0
  6
SLD-SOLID
 62
     7
 66
     1
 10
0.0
 20
0.0
 30
0.0
  0
VERTEX
  5
4FE
  8
0
  6
SLD-SOLID
 62
     7
 10
81.6481509827
 20
174.8038099453
 30
0.0
  0
VERTEX
  5
4FF
  8
0
  6
SLD-SOLID
 62
     7
 10
81.8241336964
 20
174.8417184994
 30
0.0
  0
VERTEX
  5
500
  8
0
  6
SLD-SOLID
 62
     7
 10
84.8440626285
 20
175.6972686693
 30
0.0
  0
VERTEX
  5
501
  8
0
  6
SLD-SOLID
 62
     7
 10
87.7195099018
 20
176.7256872103
 30
0.0
  0
VERTEX
  5
502
  8
0
  6
SLD-SOLID
 62
     7
 10
90.4247859142
 20
177.9187822089
 30
0.0
  0
VERTEX
  5
503
  8
0
  6
SLD-SOLID
 62
     7
 10
92.9353931568
 20
179.2670932904
 30
0.0
  0
VERTEX
  5
504
  8
0
  6
SLD-SOLID
 62
     7
 10
95.228264632
 20
180.7599176958
 30
0.0
  0
VERTEX
  5
505
  8
0
  6
SLD-SOLID
 62
     7
 10
97.2815850399
 20
182.3851445064
 30
0.0
  0
VERTEX
  5
506
  8
0
  6
SLD-SOLID
 62
     7
 10
99.0749099872
 20
184.1288057461
 30
0.0
  0
VERTEX
  5
507
  8
0
  6
SLD-SOLID
 62
     7
 10
100.5897024296
 20
185.9750782445
 30
0.0
  0
VERTEX
  5
508
  8
0
  6
SLD-SOLID
 62
     7
 10
101.8098989151
 20
187.9057835162
 30
0.0
  0
VERTEX
  5
509
  8
0
  6
SLD-SOLID
 62
     7
 10
102.7228036545
 20
189.9003868297
 30
0.0
  0
VERTEX
  5
50A
  8
0
  6
SLD-SOLID
 62
     7
 10
103.3201912067
 20
191.9368400544
 30
0.0
  0
VERTEX
  5
50B
  8
0
  6
SLD-SOLID
 62
     7
 10
103.5989025257
 20
193.9932999507
 30
0.0
  0
VERTEX
  5
50C
  8
0
  6
SLD-SOLID
 62
     7
 10
103.6213138721
 20
194.7671423972
 30
0.0
  0
SEQEND
  5
50D
  8
0
  6
SLD-SOLID
 62
     7
  0
LINE
  5
D0
  8
0
  6
SLD-SOLID
 62
     7
 10
33.6212912224
 20
196.4732988112
 30
0.0
 11
33.6212912224
 21
194.7671423972
 31
0.0
  0
LINE
  5
D1
  8
0
  6
SLD-SOLID
 62
     7
 10
103.6213138721
 20
194.7671423972
 30
0.0
 11
103.6213138721
 21
196.4732988112
 31
0.0
  0
LINE
  5
D2
  8
0
  6
SLD-SOLID
 62
     7
 10
53.6213019512
 20
190.3130670384
 30
0.0
 11
53.6213019512
 21
188.4961777672
 31
0.0
  0
LINE
  5
D3
  8
0
  6
SLD-SOLID
 62
     7
 10
83.6213031433
 20
188.4961777672
 30
0.0
 11
83.6213031433
 21
190.3130670384
 31
0.0
  0
POLYLINE
  5
D4
  8
0
  6
SLD-SOLID
 62
     7
 66
     1
 10
0.0
 20
0.0
 30
0.0
  0
VERTEX
  5
50E
  8
0
  6
SLD-SOLID
 62
     7
 10
53.9788106106
 20
104.6792564288
 30
0.0
  0
VERTEX
  5
50F
  8
0
  6
SLD-SOLID
 62
     7
 10
54.1251102112
 20
103.1238583222
 30
0.0
  0
VERTEX
  5
510
  8
0
  6
SLD-SOLID
 62
     7
 10
54.5748868606
 20
101.5731838837
 30
0.0
  0
VERTEX
  5
511
  8
0
  6
SLD-SOLID
 62
     7
 10
55.2942553184
 20
100.126579155
 30
0.0
  0
VERTEX
  5
512
  8
0
  6
SLD-SOLID
 62
     7
 10
56.268284621
 20
98.7919641033
 30
0.0
  0
VERTEX
  5
513
  8
0
  6
SLD-SOLID
 62
     7
 10
57.4923554085
 20
97.5767446056
 30
0.0
  0
VERTEX
  5
514
  8
0
  6
SLD-SOLID
 62
     7
 10
58.9645007275
 20
96.4949426547
 30
0.0
  0
VERTEX
  5
515
  8
0
  6
SLD-SOLID
 62
     7
 10
60.6704452656
 20
95.5710706607
 30
0.0
  0
VERTEX
  5
516
  8
0
  6
SLD-SOLID
 62
     7
 10
62.5718334339
 20
94.8345882192
 30
0.0
  0
VERTEX
  5
517
  8
0
  6
SLD-SOLID
 62
     7
 10
64.6092990063
 20
94.3087783948
 30
0.0
  0
VERTEX
  5
518
  8
0
  6
SLD-SOLID
 62
     7
 10
66.7276778839
 20
94.002865006
 30
0.0
  0
VERTEX
  5
519
  8
0
  6
SLD-SOLID
 62
     7
 10
68.8833394668
 20
93.9187255994
 30
0.0
  0
VERTEX
  5
51A
  8
0
  6
SLD-SOLID
 62
     7
 10
71.0379877708
 20
94.0572244421
 30
0.0
  0
VERTEX
  5
51B
  8
0
  6
SLD-SOLID
 62
     7
 10
73.1539824627
 20
94.4201869264
 30
0.0
  0
VERTEX
  5
51C
  8
0
  6
SLD-SOLID
 62
     7
 10
75.1955905579
 20
95.0117704764
 30
0.0
  0
VERTEX
  5
51D
  8
0
  6
SLD-SOLID
 62
     7
 10
77.1265724323
 20
95.8399993673
 30
0.0
  0
VERTEX
  5
51E
  8
0
  6
SLD-SOLID
 62
     7
 10
77.8472819946
 20
96.2333006159
 30
0.0
  0
SEQEND
  5
51F
  8
0
  6
SLD-SOLID
 62
     7
  0
ARC
  5
D5
  8
0
  6
SLD-SOLID
 62
     7
 10
73.6523715339
 20
104.8450830373
 30
0.0
 40
9.579147678608026
 50
295.9713113448
 51
359.1422024606
  0
LINE
  5
D6
  8
0
  6
SLD-SOLID
 62
     7
 10
53.9713004253
 20
169.7640193001
 30
0.0
 11
53.9713004253
 21
104.7364098325
 31
0.0
  0
LINE
  5
D7
  8
0
  6
SLD-SOLID
 62
     7
 10
83.2713046692
 20
104.7364098325
 30
0.0
 11
83.2713046692
 21
169.7640193001
 31
0.0
  0
ARC
  5
D8
  8
0
  6
SLD-SOLID
 62
     7
 10
63.9005754125
 20
169.4192910725
 30
0.0
 40
9.925931280220093
 50
114.5069707604
 51
178.3398331006
  0
ARC
  5
D9
  8
0
  6
SLD-SOLID
 62
     7
 10
73.2153689958
 20
169.4066933791
 30
0.0
 40
10.0202707672944
 50
1.8448917718
 51
65.7809337268
  0
POLYLINE
  5
DA
  8
0
  6
SLD-SOLID
 62
     7
 66
     1
 10
0.0
 20
0.0
 30
0.0
  0
VERTEX
  5
520
  8
0
  6
SLD-SOLID
 62
     7
 10
79.0644088409
 20
177.3523853466
 30
0.0
  0
VERTEX
  5
521
  8
0
  6
SLD-SOLID
 62
     7
 10
79.0670612476
 20
177.349496384
 30
0.0
  0
VERTEX
  5
522
  8
0
  6
SLD-SOLID
 62
     7
 10
78.98444921
 20
177.483379592
 30
0.0
  0
VERTEX
  5
523
  8
0
  6
SLD-SOLID
 62
     7
 10
78.8076916359
 20
177.8968998537
 30
0.0
  0
VERTEX
  5
524
  8
0
  6
SLD-SOLID
 62
     7
 10
78.6498287342
 20
178.6074617252
 30
0.0
  0
VERTEX
  5
525
  8
0
  6
SLD-SOLID
 62
     7
 10
78.6500075481
 20
179.5603108898
 30
0.0
  0
VERTEX
  5
526
  8
0
  6
SLD-SOLID
 62
     7
 10
78.8178542278
 20
180.2992725119
 30
0.0
  0
VERTEX
  5
527
  8
0
  6
SLD-SOLID
 62
     7
 10
78.992585244
 20
180.6977630898
 30
0.0
  0
VERTEX
  5
528
  8
0
  6
SLD-SOLID
 62
     7
 10
79.0671208523
 20
180.8169463024
 30
0.0
  0
VERTEX
  5
529
  8
0
  6
SLD-SOLID
 62
     7
 10
79.0670910499
 20
180.8169109121
 30
0.0
  0
SEQEND
  5
52A
  8
0
  6
SLD-SOLID
 62
     7
  0
POLYLINE
  5
DB
  8
0
  6
SLD-SOLID
 62
     7
 66
     1
 10
0.0
 20
0.0
 30
0.0
  0
VERTEX
  5
52B
  8
0
  6
SLD-SOLID
 62
     7
 10
58.1834712646
 20
180.8046938226
 30
0.0
  0
VERTEX
  5
52C
  8
0
  6
SLD-SOLID
 62
     7
 10
58.2389631889
 20
180.7173022375
 30
0.0
  0
VERTEX
  5
52D
  8
0
  6
SLD-SOLID
 62
     7
 10
58.4087768219
 20
180.3441790238
 30
0.0
  0
VERTEX
  5
52E
  8
0
  6
SLD-SOLID
 62
     7
 10
58.5771003387
 20
179.6739173427
 30
0.0
  0
VERTEX
  5
52F
  8
0
  6
SLD-SOLID
 62
     7
 10
58.6069622658
 20
178.7453365818
 30
0.0
  0
VERTEX
  5
530
  8
0
  6
SLD-SOLID
 62
     7
 10
58.4519305847
 20
177.9490725443
 30
0.0
  0
VERTEX
  5
531
  8
0
  6
SLD-SOLID
 62
     7
 10
58.270494046
 20
177.5063907102
 30
0.0
  0
VERTEX
  5
532
  8
0
  6
SLD-SOLID
 62
     7
 10
58.17712337
 20
177.3516086236
 30
0.0
  0
VERTEX
  5
533
  8
0
  6
SLD-SOLID
 62
     7
 10
58.1876733921
 20
177.3631421223
 30
0.0
  0
SEQEND
  5
534
  8
0
  6
SLD-SOLID
 62
     7
  0
LINE
  5
DC
  8
0
  6
SLD-SOLID
 62
     7
 10
55.1226833485
 20
182.9561421022
 30
0.0
 11
55.1700392387
 21
182.8972191855
 31
0.0
  0
LINE
  5
DD
  8
0
  6
SLD-SOLID
 62
     7
 10
82.0725658558
 20
182.8972191855
 30
0.0
 11
82.1198919437
 21
182.9561421022
 31
0.0
  0
LINE
  5
DE
  8
0
  6
SLD-SOLID
 62
     7
 10
53.6213019512
 20
188.4961777672
 30
0.0
 11
53.6213019512
 21
186.900753279
 31
0.0
  0
LINE
  5
DF
  8
0
  6
SLD-SOLID
 62
     7
 10
83.6213031433
 20
186.900753279
 30
0.0
 11
83.6213031433
 21
188.4961777672
 31
0.0
  0
POLYLINE
  5
E0
  8
0
  6
SLD-SOLID
 62
     7
 66
     1
 10
0.0
 20
0.0
 30
0.0
  0
VERTEX
  5
535
  8
0
  6
SLD-SOLID
 62
     7
 10
608.0114194773
 20
104.7370654836
 30
0.0
  0
VERTEX
  5
536
  8
0
  6
SLD-SOLID
 62
     7
 10
608.0211797378
 20
103.8160694137
 30
0.0
  0
VERTEX
  5
537
  8
0
  6
SLD-SOLID
 62
     7
 10
608.348066511
 20
102.2248563662
 30
0.0
  0
VERTEX
  5
538
  8
0
  6
SLD-SOLID
 62
     7
 10
608.9545586727
 20
100.7324752703
 30
0.0
  0
VERTEX
  5
539
  8
0
  6
SLD-SOLID
 62
     7
 10
609.8206588648
 20
99.3491483227
 30
0.0
  0
VERTEX
  5
53A
  8
0
  6
SLD-SOLID
 62
     7
 10
610.9378138206
 20
98.0816406503
 30
0.0
  0
VERTEX
  5
53B
  8
0
  6
SLD-SOLID
 62
     7
 10
612.3043993137
 20
96.9403383628
 30
0.0
  0
VERTEX
  5
53C
  8
0
  6
SLD-SOLID
 62
     7
 10
613.9134714029
 20
95.9452909723
 30
0.0
  0
VERTEX
  5
53D
  8
0
  6
SLD-SOLID
 62
     7
 10
615.7374033354
 20
95.1251832143
 30
0.0
  0
VERTEX
  5
53E
  8
0
  6
SLD-SOLID
 62
     7
 10
616.7129376552
 20
94.7900635496
 30
0.0
  0
SEQEND
  5
53F
  8
0
  6
SLD-SOLID
 62
     7
  0
POLYLINE
  5
E1
  8
0
  6
SLD-SOLID
 62
     7
 66
     1
 10
0.0
 20
0.0
 30
0.0
  0
VERTEX
  5
540
  8
0
  6
SLD-SOLID
 62
     7
 10
616.7129376552
 20
94.7900635496
 30
0.0
  0
VERTEX
  5
541
  8
0
  6
SLD-SOLID
 62
     7
 10
617.8542175911
 20
94.4753063217
 30
0.0
  0
VERTEX
  5
542
  8
0
  6
SLD-SOLID
 62
     7
 10
619.9522265814
 20
94.0883157149
 30
0.0
  0
VERTEX
  5
543
  8
0
  6
SLD-SOLID
 62
     7
 10
622.0989772699
 20
93.9235833779
 30
0.0
  0
VERTEX
  5
544
  8
0
  6
SLD-SOLID
 62
     7
 10
624.2582151316
 20
93.9811093107
 30
0.0
  0
VERTEX
  5
545
  8
0
  6
SLD-SOLID
 62
     7
 10
626.3927319668
 20
94.262301673
 30
0.0
  0
VERTEX
  5
546
  8
0
  6
SLD-SOLID
 62
     7
 10
628.4653195761
 20
94.7701854006
 30
0.0
  0
VERTEX
  5
547
  8
0
  6
SLD-SOLID
 62
     7
 10
630.4410049341
 20
95.5113691583
 30
0.0
  0
VERTEX
  5
548
  8
0
  6
SLD-SOLID
 62
     7
 10
632.2790631674
 20
96.4955536023
 30
0.0
  0
VERTEX
  5
549
  8
0
  6
SLD-SOLID
 62
     7
 10
633.7632188223
 20
97.5878310695
 30
0.0
  0
VERTEX
  5
54A
  8
0
  6
SLD-SOLID
 62
     7
 10
635.0019374512
 20
98.8241729632
 30
0.0
  0
VERTEX
  5
54B
  8
0
  6
SLD-SOLID
 62
     7
 10
635.9777548931
 20
100.1751867429
 30
0.0
  0
VERTEX
  5
54C
  8
0
  6
SLD-SOLID
 62
     7
 10
636.6847255848
 20
101.6169411436
 30
0.0
  0
VERTEX
  5
54D
  8
0
  6
SLD-SOLID
 62
     7
 10
637.1177682302
 20
103.1253633395
 30
0.0
  0
VERTEX
  5
54E
  8
0
  6
SLD-SOLID
 62
     7
 10
637.256498041
 20
104.6456394091
 30
0.0
  0
SEQEND
  5
54F
  8
0
  6
SLD-SOLID
 62
     7
  0
LINE
  5
E2
  8
0
  6
SLD-SOLID
 62
     7
 10
607.9713055513
 20
169.7640193001
 30
0.0
 11
607.9713055513
 21
104.7364098325
 31
0.0
  0
LINE
  5
E3
  8
0
  6
SLD-SOLID
 62
     7
 10
637.271294894
 20
104.7364098325
 30
0.0
 11
637.271294894
 21
169.7640193001
 31
0.0
  0
ARC
  5
E4
  8
0
  6
SLD-SOLID
 62
     7
 10
617.4734324824
 20
169.7126763172
 30
0.0
 40
9.462155863239463
 50
114.4458714079
 51
179.685155914
  0
ARC
  5
E5
  8
0
  6
SLD-SOLID
 62
     7
 10
627.3492902934
 20
169.4404164762
 30
0.0
 40
9.909943216075382
 50
1.3462567561
 51
66.1280730331
  0
POLYLINE
  5
E6
  8
0
  6
SLD-SOLID
 62
     7
 66
     1
 10
0.0
 20
0.0
 30
0.0
  0
VERTEX
  5
550
  8
0
  6
SLD-SOLID
 62
     7
 10
633.0599138163
 20
177.3573977247
 30
0.0
  0
VERTEX
  5
551
  8
0
  6
SLD-SOLID
 62
     7
 10
633.0665895365
 20
177.3501240954
 30
0.0
  0
VERTEX
  5
552
  8
0
  6
SLD-SOLID
 62
     7
 10
632.9770484589
 20
177.497090523
 30
0.0
  0
VERTEX
  5
553
  8
0
  6
SLD-SOLID
 62
     7
 10
632.7983090303
 20
177.9252996042
 30
0.0
  0
VERTEX
  5
554
  8
0
  6
SLD-SOLID
 62
     7
 10
632.6448866747
 20
178.6502299205
 30
0.0
  0
VERTEX
  5
555
  8
0
  6
SLD-SOLID
 62
     7
 10
632.6564350746
 20
179.6106470123
 30
0.0
  0
VERTEX
  5
556
  8
0
  6
SLD-SOLID
 62
     7
 10
632.8283944748
 20
180.3291493401
 30
0.0
  0
VERTEX
  5
557
  8
0
  6
SLD-SOLID
 62
     7
 10
632.9999664448
 20
180.7108705238
 30
0.0
  0
VERTEX
  5
558
  8
0
  6
SLD-SOLID
 62
     7
 10
633.0633261822
 20
180.8109951511
 30
0.0
  0
SEQEND
  5
559
  8
0
  6
SLD-SOLID
 62
     7
  0
POLYLINE
  5
E7
  8
0
  6
SLD-SOLID
 62
     7
 66
     1
 10
0.0
 20
0.0
 30
0.0
  0
VERTEX
  5
55A
  8
0
  6
SLD-SOLID
 62
     7
 10
612.1796169899
 20
180.8104214564
 30
0.0
  0
VERTEX
  5
55B
  8
0
  6
SLD-SOLID
 62
     7
 10
612.2464188955
 20
180.7041668639
 30
0.0
  0
VERTEX
  5
55C
  8
0
  6
SLD-SOLID
 62
     7
 10
612.4192723654
 20
180.3148889288
 30
0.0
  0
VERTEX
  5
55D
  8
0
  6
SLD-SOLID
 62
     7
 10
612.5837364815
 20
179.6283812568
 30
0.0
  0
VERTEX
  5
55E
  8
0
  6
SLD-SOLID
 62
     7
 10
612.60181159
 20
178.6895186946
 30
0.0
  0
VERTEX
  5
55F
  8
0
  6
SLD-SOLID
 62
     7
 10
612.4412664793
 20
177.9160534337
 30
0.0
  0
VERTEX
  5
560
  8
0
  6
SLD-SOLID
 62
     7
 10
612.2621992252
 20
177.4908674255
 30
0.0
  0
VERTEX
  5
561
  8
0
  6
SLD-SOLID
 62
     7
 10
612.1760854147
 20
177.3502172276
 30
0.0
  0
VERTEX
  5
562
  8
0
  6
SLD-SOLID
 62
     7
 10
612.1833869837
 20
177.3581409201
 30
0.0
  0
SEQEND
  5
563
  8
0
  6
SLD-SOLID
 62
     7
  0
LINE
  5
E8
  8
0
  6
SLD-SOLID
 62
     7
 10
609.1226884745
 20
182.9561421022
 30
0.0
 11
609.1700443647
 21
182.8972191855
 31
0.0
  0
LINE
  5
E9
  8
0
  6
SLD-SOLID
 62
     7
 10
636.0725560806
 20
182.8972191855
 30
0.0
 11
636.1199119709
 21
182.9561421022
 31
0.0
  0
LINE
  5
EA
  8
0
  6
SLD-SOLID
 62
     7
 10
607.6213070772
 20
188.4961777672
 30
0.0
 11
607.6213070772
 21
186.900753279
 31
0.0
  0
LINE
  5
EB
  8
0
  6
SLD-SOLID
 62
     7
 10
637.6212933681
 20
186.900753279
 30
0.0
 11
637.6212933681
 21
188.4961777672
 31
0.0
  0
LINE
  5
EC
  8
0
  6
SLD-SOLID
 62
     7
 10
545.0405725859
 20
272.4130076662
 30
0.0
 11
543.8639545463
 21
272.0126432672
 31
0.0
  0
LINE
  5
ED
  8
0
  6
SLD-SOLID
 62
     7
 10
545.2762866042
 20
272.4932057157
 30
0.0
 11
545.0405725859
 21
272.4130076662
 31
0.0
  0
ARC
  5
EE
  8
0
  6
SLD-SOLID
 62
     7
 10
541.4743083873
 20
283.0212310978
 30
0.0
 40
11.19349618336984
 50
289.8561352326
 51
320.4048624956
  0
LINE
  5
EF
  8
0
  6
SLD-SOLID
 62
     7
 10
283.5405716322
 20
272.4130076662
 30
0.0
 11
282.363946142
 21
272.0126432672
 31
0.0
  0
LINE
  5
F0
  8
0
  6
SLD-SOLID
 62
     7
 10
283.7762781999
 20
272.4932057157
 30
0.0
 11
283.5405716322
 21
272.4130076662
 31
0.0
  0
ARC
  5
F1
  8
0
  6
SLD-SOLID
 62
     7
 10
279.9743138361
 20
283.0212303451
 30
0.0
 40
11.19349077011135
 50
289.8560698478
 51
320.404844577
  0
ARC
  5
F2
  8
0
  6
SLD-SOLID
 62
     7
 10
149.7681429893
 20
283.0210515588
 30
0.0
 40
11.19327083515656
 50
219.5948989508
 51
250.1443532308
  0
LINE
  5
F3
  8
0
  6
SLD-SOLID
 62
     7
 10
146.2020376346
 20
272.4130002156
 30
0.0
 11
145.9663310669
 21
272.4932057157
 31
0.0
  0
LINE
  5
F4
  8
0
  6
SLD-SOLID
 62
     7
 10
147.3786333225
 20
272.0126432672
 30
0.0
 11
146.2020376346
 21
272.4130002156
 31
0.0
  0
ARC
  5
F5
  8
0
  6
SLD-SOLID
 62
     7
 10
411.2680884159
 20
283.0206928954
 30
0.0
 40
11.19299945419971
 50
219.5936653755
 51
250.1270815656
  0
LINE
  5
F6
  8
0
  6
SLD-SOLID
 62
     7
 10
407.7021652482
 20
272.4129480615
 30
0.0
 11
407.4631953261
 21
272.494248797
 31
0.0
  0
LINE
  5
F7
  8
0
  6
SLD-SOLID
 62
     7
 10
408.8790217064
 20
272.0125613108
 30
0.0
 11
407.7021652482
 21
272.4129480615
 31
0.0
  0
LINE
  5
F8
  8
0
  6
SLD-SOLID
 62
     7
 10
275.8512893341
 20
269.9969333902
 30
0.0
 11
276.3763764522
 21
269.9687776461
 31
0.0
  0
ARC
  5
F9
  8
0
  6
SLD-SOLID
 62
     7
 10
275.3485913612
 20
258.9841752996
 30
0.0
 40
11.02422541565764
 50
87.3864410425
 51
136.0958731528
  0
ARC
  5
FA
  8
0
  6
SLD-SOLID
 62
     7
 10
415.8600870281
 20
258.9187591004
 30
0.0
 40
11.09405619611261
 50
44.0260487843
 51
95.1262094413
  0
LINE
  5
FB
  8
0
  6
SLD-SOLID
 62
     7
 10
148.2685902737
 20
269.9114081755
 30
0.0
 11
148.3671763561
 21
269.9104694024
 31
0.0
  0
LINE
  5
FC
  8
0
  6
SLD-SOLID
 62
     7
 10
148.2628384254
 20
269.9114603296
 30
0.0
 11
148.2685902737
 21
269.9114081755
 31
0.0
  0
ARC
  5
FD
  8
0
  6
SLD-SOLID
 62
     7
 10
148.4773022796
 20
258.8082100989
 30
0.0
 40
11.10532126643579
 50
91.1065539954
 51
132.0824500674
  0
ARC
  5
FE
  8
0
  6
SLD-SOLID
 62
     7
 10
542.6412330599
 20
258.5011755943
 30
0.0
 40
11.41691745296511
 50
48.4881037701
 51
88.3333762777
  0
LINE
  5
FF
  8
0
  6
SLD-SOLID
 62
     7
 10
542.899849417
 20
269.9128759399
 30
0.0
 11
542.9732823394
 21
269.9132633701
 31
0.0
  0
ARC
  5
100
  8
0
  6
SLD-SOLID
 62
     7
 10
156.3173962747
 20
259.4720108644
 30
0.0
 40
10.38371844731395
 50
42.8658171978
 51
89.66438517
  0
LINE
  5
101
  8
0
  6
SLD-SOLID
 62
     7
 10
155.9233167789
 20
269.8596415416
 30
0.0
 11
156.3782194279
 21
269.8555511728
 31
0.0
  0
LINE
  5
102
  8
0
  6
SLD-SOLID
 62
     7
 10
154.8944214008
 20
269.8688802615
 30
0.0
 11
155.9233167789
 21
269.8596415416
 31
0.0
  0
LINE
  5
103
  8
0
  6
SLD-SOLID
 62
     7
 10
535.3193046174
 20
269.8596415416
 30
0.0
 11
536.3481664679
 21
269.8688802615
 31
0.0
  0
LINE
  5
104
  8
0
  6
SLD-SOLID
 62
     7
 10
534.8643907926
 20
269.8555511728
 30
0.0
 11
535.3193046174
 21
269.8596415416
 31
0.0
  0
ARC
  5
105
  8
0
  6
SLD-SOLID
 62
     7
 10
534.9252340567
 20
259.4719309633
 30
0.0
 40
10.38379846480348
 50
90.3357232137
 51
137.1339910847
  0
ARC
  5
106
  8
0
  6
SLD-SOLID
 62
     7
 10
516.4080266776
 20
259.7673033279
 30
0.0
 40
10.11360586499505
 50
42.921786697
 51
74.6813209958
  0
ARC
  5
107
  8
0
  6
SLD-SOLID
 62
     7
 10
174.8756517188
 20
259.6994427003
 30
0.0
 40
10.1899292512697
 50
105.4406077377
 51
136.956124753
  0
ARC
  5
108
  8
0
  6
SLD-SOLID
 62
     7
 10
476.7452875702
 20
262.7663645177
 30
0.0
 40
7.117724218962659
 50
70.8784608496
 51
92.1254520651
  0
ARC
  5
109
  8
0
  6
SLD-SOLID
 62
     7
 10
494.301496982
 20
263.3249102271
 30
0.0
 40
6.543073036984283
 50
85.909033041
 51
109.0430814774
  0
ARC
  5
10A
  8
0
  6
SLD-SOLID
 62
     7
 10
496.7452877352
 20
262.7663673731
 30
0.0
 40
7.117721396893089
 50
70.878456205
 51
92.1254597144
  0
ARC
  5
10B
  8
0
  6
SLD-SOLID
 62
     7
 10
474.3014968768
 20
263.32490628
 30
0.0
 40
6.543076967703125
 50
85.9090362761
 51
109.0430752656
  0
ARC
  5
10C
  8
0
  6
SLD-SOLID
 62
     7
 10
436.745288901
 20
262.7663786657
 30
0.0
 40
7.117710174607399
 50
70.8784392606
 51
92.1254766588
  0
ARC
  5
10D
  8
0
  6
SLD-SOLID
 62
     7
 10
434.3015020547
 20
263.3248559493
 30
0.0
 40
6.543126777423677
 50
85.9091158106
 51
109.0429881239
  0
ARC
  5
10E
  8
0
  6
SLD-SOLID
 62
     7
 10
516.7452874636
 20
262.7663560806
 30
0.0
 40
7.117732619103147
 50
70.8784731492
 51
92.1254427702
  0
ARC
  5
10F
  8
0
  6
SLD-SOLID
 62
     7
 10
454.3014966769
 20
263.3249051715
 30
0.0
 40
6.54307803235582
 50
85.9090419939
 51
109.0430725245
  0
ARC
  5
110
  8
0
  6
SLD-SOLID
 62
     7
 10
514.3014918081
 20
263.3249487945
 30
0.0
 40
6.543035037986304
 50
85.9089513916
 51
109.043152543
  0
ARC
  5
111
  8
0
  6
SLD-SOLID
 62
     7
 10
456.7452863838
 20
262.7663523447
 30
0.0
 40
7.117736331712547
 50
70.8784787548
 51
92.1254371646
  0
ARC
  5
112
  8
0
  6
SLD-SOLID
 62
     7
 10
176.7452463571
 20
262.7660972954
 30
0.0
 40
7.117989420110923
 50
70.8788700788
 51
92.1249737275
  0
ARC
  5
113
  8
0
  6
SLD-SOLID
 62
     7
 10
174.301525236
 20
263.3246798351
 30
0.0
 40
6.543300672361499
 50
85.9094426076
 51
109.0440728101
  0
ARC
  5
114
  8
0
  6
SLD-SOLID
 62
     7
 10
196.7452211733
 20
262.7658569433
 30
0.0
 40
7.118228275381914
 50
70.8792306812
 51
92.1246131251
  0
ARC
  5
115
  8
0
  6
SLD-SOLID
 62
     7
 10
194.3015359648
 20
263.3246798351
 30
0.0
 40
6.543300672361499
 50
85.9094426076
 51
109.0440728101
  0
ARC
  5
116
  8
0
  6
SLD-SOLID
 62
     7
 10
214.3015168913
 20
263.3246798351
 30
0.0
 40
6.543300672361499
 50
85.9094426076
 51
109.0440728101
  0
ARC
  5
117
  8
0
  6
SLD-SOLID
 62
     7
 10
216.7452045618
 20
262.7658734208
 30
0.0
 40
7.118211900519094
 50
70.8792059607
 51
92.1246378456
  0
ARC
  5
118
  8
0
  6
SLD-SOLID
 62
     7
 10
234.3015276202
 20
263.3246798351
 30
0.0
 40
6.543300672361499
 50
85.9094426076
 51
109.0440728101
  0
ARC
  5
119
  8
0
  6
SLD-SOLID
 62
     7
 10
236.7452177532
 20
262.765889902
 30
0.0
 40
7.118195521954039
 50
70.8791812345
 51
92.1246625719
  0
ARC
  5
11A
  8
0
  6
SLD-SOLID
 62
     7
 10
256.7452339979
 20
262.7660265465
 30
0.0
 40
7.118059728374151
 50
70.8789762265
 51
92.1248675798
  0
ARC
  5
11B
  8
0
  6
SLD-SOLID
 62
     7
 10
254.3015234479
 20
263.3246798351
 30
0.0
 40
6.543300672361502
 50
85.9094426076
 51
109.0440728101
  0
ARC
  5
11C
  8
0
  6
SLD-SOLID
 62
     7
 10
474.8755783452
 20
259.6995908396
 30
0.0
 40
10.18976920506686
 50
105.4404782664
 51
136.9564240293
  0
ARC
  5
11D
  8
0
  6
SLD-SOLID
 62
     7
 10
216.4079979747
 20
259.767283352
 30
0.0
 40
10.11363448569991
 50
42.921790451
 51
74.6811574245
  0
ARC
  5
11E
  8
0
  6
SLD-SOLID
 62
     7
 10
256.4080061401
 20
259.7672721212
 30
0.0
 40
10.11364095572383
 50
42.9218432496
 51
74.6812644432
  0
ARC
  5
11F
  8
0
  6
SLD-SOLID
 62
     7
 10
434.8756033942
 20
259.6995454577
 30
0.0
 40
10.18981987590902
 50
105.440551342
 51
136.9563409653
  0
ARC
  5
120
  8
0
  6
SLD-SOLID
 62
     7
 10
514.875579909
 20
259.6995874375
 30
0.0
 40
10.1897726428392
 50
105.4404763996
 51
136.9564159076
  0
ARC
  5
121
  8
0
  6
SLD-SOLID
 62
     7
 10
234.8755595596
 20
259.6996129205
 30
0.0
 40
10.18974397099
 50
105.440430907
 51
136.9564614002
  0
ARC
  5
122
  8
0
  6
SLD-SOLID
 62
     7
 10
254.8755702884
 20
259.6996129205
 30
0.0
 40
10.18974397099
 50
105.440430907
 51
136.9564614002
  0
ARC
  5
123
  8
0
  6
SLD-SOLID
 62
     7
 10
236.4080103124
 20
259.7672721212
 30
0.0
 40
10.11364095572381
 50
42.9218432496
 51
74.6812644432
  0
ARC
  5
124
  8
0
  6
SLD-SOLID
 62
     7
 10
476.4080255564
 20
259.7673004341
 30
0.0
 40
10.11360931138852
 50
42.9217909271
 51
74.6813117713
  0
ARC
  5
125
  8
0
  6
SLD-SOLID
 62
     7
 10
456.4080278666
 20
259.7673030768
 30
0.0
 40
10.11360614735601
 50
42.921787152
 51
74.6813205407
  0
ARC
  5
126
  8
0
  6
SLD-SOLID
 62
     7
 10
496.4080242443
 20
259.7673003076
 30
0.0
 40
10.11361003097053
 50
42.9217881145
 51
74.6812996011
  0
ARC
  5
127
  8
0
  6
SLD-SOLID
 62
     7
 10
494.875584079
 20
259.6995806332
 30
0.0
 40
10.18978068864482
 50
105.4404964869
 51
136.9564058088
  0
ARC
  5
128
  8
0
  6
SLD-SOLID
 62
     7
 10
454.8755800864
 20
259.6995862834
 30
0.0
 40
10.18977394136836
 50
105.4404784599
 51
136.9564138473
  0
ARC
  5
129
  8
0
  6
SLD-SOLID
 62
     7
 10
436.4080187125
 20
259.7672872224
 30
0.0
 40
10.11362397494006
 50
42.9218158832
 51
74.6812918095
  0
ARC
  5
12A
  8
0
  6
SLD-SOLID
 62
     7
 10
196.4080202655
 20
259.7672608896
 30
0.0
 40
10.1136474265761
 50
42.9218960491
 51
74.6813714601
  0
ARC
  5
12B
  8
0
  6
SLD-SOLID
 62
     7
 10
214.8754153608
 20
259.6998966312
 30
0.0
 40
10.1894309984698
 50
105.4400514521
 51
136.9570006723
  0
ARC
  5
12C
  8
0
  6
SLD-SOLID
 62
     7
 10
194.8754733685
 20
259.6997831271
 30
0.0
 40
10.18955870600055
 50
105.4402540913
 51
136.9567980332
  0
ARC
  5
12D
  8
0
  6
SLD-SOLID
 62
     7
 10
176.4080063194
 20
259.767283352
 30
0.0
 40
10.11363448569991
 50
42.921790451
 51
74.6811574245
  0
LINE
  5
12E
  8
0
  6
SLD-SOLID
 62
     7
 10
402.723426523
 20
275.7810798779
 30
0.0
 11
392.8478831075
 21
288.7760025755
 31
0.0
  0
LINE
  5
12F
  8
0
  6
SLD-SOLID
 62
     7
 10
559.8947206161
 20
288.7760025755
 30
0.0
 11
550.0191772006
 21
275.7810798779
 31
0.0
  0
LINE
  5
130
  8
0
  6
SLD-SOLID
 62
     7
 10
141.2234106682
 20
275.7810798779
 30
0.0
 11
131.3478747032
 21
288.7760025755
 31
0.0
  0
LINE
  5
131
  8
0
  6
SLD-SOLID
 62
     7
 10
298.3947196625
 20
288.7760025755
 30
0.0
 11
288.5191687963
 21
275.7810798779
 31
0.0
  0
LINE
  5
132
  8
0
  6
SLD-SOLID
 62
     7
 10
550.2080866716
 20
267.0503703252
 30
0.0
 11
560.0015842936
 21
257.7320707336
 31
0.0
  0
LINE
  5
133
  8
0
  6
SLD-SOLID
 62
     7
 10
131.2410035751
 20
257.7320707336
 30
0.0
 11
141.0345235489
 21
267.0503703252
 31
0.0
  0
ARC
  5
134
  8
0
  6
SLD-SOLID
 62
     7
 10
525.6212978747
 20
268.3835933659
 30
0.0
 40
2.500009047159447
 50
222.4421011536
 51
317.7637268261
  0
ARC
  5
135
  8
0
  6
SLD-SOLID
 62
     7
 10
165.6212974681
 20
268.3836003128
 30
0.0
 40
2.500018720953711
 50
222.099671209
 51
317.9426589989
  0
ARC
  5
136
  8
0
  6
SLD-SOLID
 62
     7
 10
425.6213022559
 20
268.3835711163
 30
0.0
 40
2.500006943000338
 50
222.3004681457
 51
318.1900638894
  0
ARC
  5
137
  8
0
  6
SLD-SOLID
 62
     7
 10
445.6213027371
 20
268.3835726824
 30
0.0
 40
2.500008683546086
 50
222.3004803753
 51
318.1900514136
  0
ARC
  5
138
  8
0
  6
SLD-SOLID
 62
     7
 10
485.6213013715
 20
268.3835744637
 30
0.0
 40
2.500010222516866
 50
222.3005034777
 51
318.1900281882
  0
ARC
  5
139
  8
0
  6
SLD-SOLID
 62
     7
 10
465.6213018185
 20
268.3835744777
 30
0.0
 40
2.500010231883055
 50
222.3005037157
 51
318.1900279502
  0
ARC
  5
13A
  8
0
  6
SLD-SOLID
 62
     7
 10
505.6213023199
 20
268.3835752567
 30
0.0
 40
2.500011099460151
 50
222.300509762
 51
318.1900217808
  0
ARC
  5
13B
  8
0
  6
SLD-SOLID
 62
     7
 10
185.6213150793
 20
268.383569148
 30
0.0
 40
2.500005624581339
 50
222.3004346525
 51
318.1900973826
  0
ARC
  5
13C
  8
0
  6
SLD-SOLID
 62
     7
 10
205.6212960064
 20
268.3835690193
 30
0.0
 40
2.500005538316448
 50
222.300432461
 51
318.190099574
  0
ARC
  5
13D
  8
0
  6
SLD-SOLID
 62
     7
 10
225.621306735
 20
268.3835690837
 30
0.0
 40
2.500005581478932
 50
222.3004335575
 51
318.1900984775
  0
ARC
  5
13E
  8
0
  6
SLD-SOLID
 62
     7
 10
245.6213025626
 20
268.3835690837
 30
0.0
 40
2.500005581478932
 50
222.3004335575
 51
318.1900984775
  0
ARC
  5
13F
  8
0
  6
SLD-SOLID
 62
     7
 10
265.6212983552
 20
268.3835772783
 30
0.0
 40
2.500011070679215
 50
222.3005730051
 51
318.18995903
  0
ARC
  5
140
  8
0
  6
SLD-SOLID
 62
     7
 10
560.6908988173
 20
288.1709408247
 30
0.0
 40
1.000000000000021
 50
101.1220388077
 51
142.7668392367
  0
ARC
  5
141
  8
0
  6
SLD-SOLID
 62
     7
 10
299.1908988173
 20
288.1709408247
 30
0.0
 40
1.000000000000056
 50
101.1220388077
 51
142.7668392367
  0
ARC
  5
142
  8
0
  6
SLD-SOLID
 62
     7
 10
392.0517005999
 20
288.1709408247
 30
0.0
 40
1.000000000000021
 50
37.2331607633
 51
78.8779611923
  0
ARC
  5
143
  8
0
  6
SLD-SOLID
 62
     7
 10
130.5517005999
 20
288.1709408247
 30
0.0
 40
1.000000000000044
 50
37.2331607633
 51
78.8779611923
  0
LINE
  5
144
  8
0
  6
SLD-SOLID
 62
     7
 10
565.9238719962
 20
290.218844761
 30
0.0
 11
560.4980015777
 21
289.1521600381
 31
0.0
  0
LINE
  5
145
  8
0
  6
SLD-SOLID
 62
     7
 10
392.2446021459
 20
289.1521600381
 30
0.0
 11
386.8187242768
 21
290.218844761
 31
0.0
  0
LINE
  5
146
  8
0
  6
SLD-SOLID
 62
     7
 10
304.4238784931
 20
290.218844761
 30
0.0
 11
298.9979931734
 21
289.1521600381
 31
0.0
  0
LINE
  5
147
  8
0
  6
SLD-SOLID
 62
     7
 10
130.7445862911
 20
289.1521600381
 30
0.0
 11
125.3187158726
 21
290.218844761
 31
0.0
  0
ARC
  5
148
  8
0
  6
SLD-SOLID
 62
     7
 10
564.4777683627
 20
258.4565336156
 30
0.0
 40
1.0
 50
270.0
 51
281.1220388077
  0
ARC
  5
149
  8
0
  6
SLD-SOLID
 62
     7
 10
388.2648310546
 20
258.4565336156
 30
0.0
 40
1.0
 50
258.8779611923
 51
270.0
  0
ARC
  5
14A
  8
0
  6
SLD-SOLID
 62
     7
 10
126.7648310546
 20
258.4565336156
 30
0.0
 40
1.000000000000044
 50
258.8779611923
 51
270.0
  0
ARC
  5
14B
  8
0
  6
SLD-SOLID
 62
     7
 10
302.9777683627
 20
258.4565336156
 30
0.0
 40
1.0
 50
270.0
 51
281.1220388077
  0
ARC
  5
14C
  8
0
  6
SLD-SOLID
 62
     7
 10
560.6908988173
 20
258.4565336156
 30
0.0
 40
0.9999999999999806
 50
226.3682559012
 51
270.0
  0
ARC
  5
14D
  8
0
  6
SLD-SOLID
 62
     7
 10
130.5517005999
 20
258.4565336156
 30
0.0
 40
1.000000000000057
 50
270.0000000001
 51
313.4772242405
  0
LINE
  5
14E
  8
0
  6
SLD-SOLID
 62
     7
 10
385.8855539582
 20
257.9051402703
 30
0.0
 11
388.071934285
 21
257.4753162757
 31
0.0
  0
LINE
  5
14F
  8
0
  6
SLD-SOLID
 62
     7
 10
564.6706694386
 20
257.4753162757
 30
0.0
 11
566.8570497654
 21
257.9051402703
 31
0.0
  0
LINE
  5
150
  8
0
  6
SLD-SOLID
 62
     7
 10
124.385545554
 20
257.9051402703
 30
0.0
 11
126.5719333313
 21
257.4753162757
 31
0.0
  0
LINE
  5
151
  8
0
  6
SLD-SOLID
 62
     7
 10
303.1706610344
 20
257.4753162757
 30
0.0
 11
305.3570488117
 21
257.9051402703
 31
0.0
  0
LINE
  5
152
  8
0
  6
SLD-SOLID
 62
     7
 10
560.6908971093
 20
257.456533362
 30
0.0
 11
564.4777664564
 21
257.456533362
 31
0.0
  0
LINE
  5
153
  8
0
  6
SLD-SOLID
 62
     7
 10
388.2648298166
 20
257.456533362
 30
0.0
 11
392.3161351703
 21
257.456533362
 31
0.0
  0
LINE
  5
154
  8
0
  6
SLD-SOLID
 62
     7
 10
298.9264675997
 20
257.456533362
 30
0.0
 11
302.9777655027
 21
257.456533362
 31
0.0
  0
LINE
  5
155
  8
0
  6
SLD-SOLID
 62
     7
 10
126.7648437641
 20
257.456533362
 30
0.0
 11
130.5517056606
 21
257.456533362
 31
0.0
  0
POLYLINE
  5
156
  8
0
  6
SLD-SOLID
 62
     7
 66
     1
 10
0.0
 20
0.0
 30
0.0
  0
VERTEX
  5
564
  8
0
  6
SLD-SOLID
 62
     7
 10
584.1413834713
 20
290.7229882971
 30
0.0
  0
VERTEX
  5
565
  8
0
  6
SLD-SOLID
 62
     7
 10
584.1463381074
 20
290.7256481543
 30
0.0
  0
VERTEX
  5
566
  8
0
  6
SLD-SOLID
 62
     7
 10
584.0600380323
 20
290.697656323
 30
0.0
  0
VERTEX
  5
567
  8
0
  6
SLD-SOLID
 62
     7
 10
583.7688842438
 20
290.6320763126
 30
0.0
  0
VERTEX
  5
568
  8
0
  6
SLD-SOLID
 62
     7
 10
583.1840285681
 20
290.5471098915
 30
0.0
  0
VERTEX
  5
569
  8
0
  6
SLD-SOLID
 62
     7
 10
582.3474103234
 20
290.4745412365
 30
0.0
  0
VERTEX
  5
56A
  8
0
  6
SLD-SOLID
 62
     7
 10
581.3309574149
 20
290.4324454561
 30
0.0
  0
VERTEX
  5
56B
  8
0
  6
SLD-SOLID
 62
     7
 10
580.7401785276
 20
290.4314321771
 30
0.0
  0
SEQEND
  5
56C
  8
0
  6
SLD-SOLID
 62
     7
  0
POLYLINE
  5
157
  8
0
  6
SLD-SOLID
 62
     7
 66
     1
 10
0.0
 20
0.0
 30
0.0
  0
VERTEX
  5
56D
  8
0
  6
SLD-SOLID
 62
     7
 10
107.106010022
 20
290.7208276287
 30
0.0
  0
VERTEX
  5
56E
  8
0
  6
SLD-SOLID
 62
     7
 10
107.1006456039
 20
290.7240313783
 30
0.0
  0
VERTEX
  5
56F
  8
0
  6
SLD-SOLID
 62
     7
 10
107.2863736771
 20
290.6709832445
 30
0.0
  0
VERTEX
  5
570
  8
0
  6
SLD-SOLID
 62
     7
 10
107.7687242649
 20
290.58417653
 30
0.0
  0
VERTEX
  5
571
  8
0
  6
SLD-SOLID
 62
     7
 10
108.5855761192
 20
290.4965726033
 30
0.0
  0
VERTEX
  5
572
  8
0
  6
SLD-SOLID
 62
     7
 10
109.5801690243
 20
290.4416096702
 30
0.0
  0
VERTEX
  5
573
  8
0
  6
SLD-SOLID
 62
     7
 10
110.5027893207
 20
290.4287946716
 30
0.0
  0
VERTEX
  5
574
  8
0
  6
SLD-SOLID
 62
     7
 10
109.5801690243
 20
290.4416096702
 30
0.0
  0
VERTEX
  5
575
  8
0
  6
SLD-SOLID
 62
     7
 10
108.5855761192
 20
290.4965726033
 30
0.0
  0
VERTEX
  5
576
  8
0
  6
SLD-SOLID
 62
     7
 10
107.7687242649
 20
290.58417653
 30
0.0
  0
VERTEX
  5
577
  8
0
  6
SLD-SOLID
 62
     7
 10
107.2863736771
 20
290.6709832445
 30
0.0
  0
VERTEX
  5
578
  8
0
  6
SLD-SOLID
 62
     7
 10
107.1006456039
 20
290.7240313783
 30
0.0
  0
VERTEX
  5
579
  8
0
  6
SLD-SOLID
 62
     7
 10
107.106010022
 20
290.7208276287
 30
0.0
  0
SEQEND
  5
57A
  8
0
  6
SLD-SOLID
 62
     7
  0
LINE
  5
158
  8
0
  6
SLD-SOLID
 62
     7
 10
383.9942911289
 20
290.426194419
 30
0.0
 11
307.2483041904
 21
290.426194419
 31
0.0
  0
LINE
  5
159
  8
0
  6
SLD-SOLID
 62
     7
 10
580.7402455829
 20
290.426194419
 30
0.0
 11
568.7483051441
 21
290.426194419
 31
0.0
  0
LINE
  5
15A
  8
0
  6
SLD-SOLID
 62
     7
 10
122.4942901752
 20
290.426194419
 30
0.0
 11
110.5023422859
 21
290.426194419
 31
0.0
  0
LINE
  5
15B
  8
0
  6
SLD-SOLID
 62
     7
 10
310.7241341494
 20
258.284777154
 30
0.0
 11
380.51846117
 21
258.284777154
 31
0.0
  0
LINE
  5
15C
  8
0
  6
SLD-SOLID
 62
     7
 10
572.224135103
 20
258.284777154
 30
0.0
 11
587.8338092587
 21
258.284777154
 31
0.0
  0
ARC
  5
15D
  8
0
  6
SLD-SOLID
 62
     7
 10
587.8338106734
 20
259.2847789971
 30
0.0
 40
1.0
 50
270.0
 51
356.9490394266
  0
ARC
  5
15E
  8
0
  6
SLD-SOLID
 62
     7
 10
103.4087887439
 20
259.2847789971
 30
0.0
 40
1.0
 50
183.0509605735
 51
270.0
  0
LINE
  5
15F
  8
0
  6
SLD-SOLID
 62
     7
 10
103.4087935112
 20
258.284777154
 30
0.0
 11
119.0184751175
 21
258.284777154
 31
0.0
  0
POLYLINE
  5
160
  8
0
  6
SLD-SOLID
 62
     7
 66
     1
 10
0.0
 20
0.0
 30
0.0
  0
VERTEX
  5
57B
  8
0
  6
SLD-SOLID
 62
     7
 10
588.5237777255
 20
258.6682436362
 30
0.0
  0
VERTEX
  5
57C
  8
0
  6
SLD-SOLID
 62
     7
 10
588.5191360138
 20
258.6648349956
 30
0.0
  0
VERTEX
  5
57D
  8
0
  6
SLD-SOLID
 62
     7
 10
588.6260369442
 20
258.7089349821
 30
0.0
  0
VERTEX
  5
57E
  8
0
  6
SLD-SOLID
 62
     7
 10
588.9680781982
 20
258.8067871824
 30
0.0
  0
VERTEX
  5
57F
  8
0
  6
SLD-SOLID
 62
     7
 10
589.6068686269
 20
258.9315844074
 30
0.0
  0
VERTEX
  5
580
  8
0
  6
SLD-SOLID
 62
     7
 10
590.5367904923
 20
259.0546642736
 30
0.0
  0
VERTEX
  5
581
  8
0
  6
SLD-SOLID
 62
     7
 10
591.7018303297
 20
259.1553067163
 30
0.0
  0
VERTEX
  5
582
  8
0
  6
SLD-SOLID
 62
     7
 10
593.0296430014
 20
259.2217472687
 30
0.0
  0
VERTEX
  5
583
  8
0
  6
SLD-SOLID
 62
     7
 10
594.3749198339
 20
259.2477348939
 30
0.0
  0
VERTEX
  5
584
  8
0
  6
SLD-SOLID
 62
     7
 10
594.6213030837
 20
259.2483644679
 30
0.0
  0
SEQEND
  5
585
  8
0
  6
SLD-SOLID
 62
     7
  0
POLYLINE
  5
161
  8
0
  6
SLD-SOLID
 62
     7
 66
     1
 10
0.0
 20
0.0
 30
0.0
  0
VERTEX
  5
586
  8
0
  6
SLD-SOLID
 62
     7
 10
96.6213145874
 20
259.2483644679
 30
0.0
  0
VERTEX
  5
587
  8
0
  6
SLD-SOLID
 62
     7
 10
97.3697403095
 20
259.2425455645
 30
0.0
  0
VERTEX
  5
588
  8
0
  6
SLD-SOLID
 62
     7
 10
98.7652340553
 20
259.1994551316
 30
0.0
  0
VERTEX
  5
589
  8
0
  6
SLD-SOLID
 62
     7
 10
100.0541844986
 20
259.1166940823
 30
0.0
  0
VERTEX
  5
58A
  8
0
  6
SLD-SOLID
 62
     7
 10
101.1648872517
 20
259.0000738695
 30
0.0
  0
VERTEX
  5
58B
  8
0
  6
SLD-SOLID
 62
     7
 10
102.0299592636
 20
258.8604462639
 30
0.0
  0
VERTEX
  5
58C
  8
0
  6
SLD-SOLID
 62
     7
 10
102.524290385
 20
258.7393892303
 30
0.0
  0
VERTEX
  5
58D
  8
0
  6
SLD-SOLID
 62
     7
 10
102.7150550506
 20
258.6691041783
 30
0.0
  0
VERTEX
  5
58E
  8
0
  6
SLD-SOLID
 62
     7
 10
102.7038493774
 20
258.6778027311
 30
0.0
  0
SEQEND
  5
58F
  8
0
  6
SLD-SOLID
 62
     7
  0
ARC
  5
162
  8
0
  6
SLD-SOLID
 62
     7
 10
104.1471513642
 20
284.8658580512
 30
0.0
 40
6.578913523881903
 50
62.4385266663
 51
97.4134348917
  0
POLYLINE
  5
163
  8
0
  6
SLD-SOLID
 62
     7
 66
     1
 10
0.0
 20
0.0
 30
0.0
  0
VERTEX
  5
590
  8
0
  6
SLD-SOLID
 62
     7
 10
587.944301369
 20
291.3897780076
 30
0.0
  0
VERTEX
  5
591
  8
0
  6
SLD-SOLID
 62
     7
 10
587.4010944388
 20
291.3836759821
 30
0.0
  0
VERTEX
  5
592
  8
0
  6
SLD-SOLID
 62
     7
 10
586.3997587583
 20
291.3379890218
 30
0.0
  0
VERTEX
  5
593
  8
0
  6
SLD-SOLID
 62
     7
 10
585.5196812771
 20
291.2486044064
 30
0.0
  0
VERTEX
  5
594
  8
0
  6
SLD-SOLID
 62
     7
 10
584.7944939158
 20
291.1064026252
 30
0.0
  0
VERTEX
  5
595
  8
0
  6
SLD-SOLID
 62
     7
 10
584.3419009469
 20
290.9288850919
 30
0.0
  0
VERTEX
  5
596
  8
0
  6
SLD-SOLID
 62
     7
 10
584.0526172541
 20
290.7128927603
 30
0.0
  0
VERTEX
  5
597
  8
0
  6
SLD-SOLID
 62
     7
 10
584.038513305
 20
290.6928059951
 30
0.0
  0
SEQEND
  5
598
  8
0
  6
SLD-SOLID
 62
     7
  0
ARC
  5
164
  8
0
  6
SLD-SOLID
 62
     7
 10
145.6403312785
 20
271.2063832637
 30
0.0
 40
2.129539023046534
 50
248.3924551195
 51
304.5992155519
  0
ARC
  5
165
  8
0
  6
SLD-SOLID
 62
     7
 10
545.6023963237
 20
271.2562623219
 30
0.0
 40
2.193570504663669
 50
227.336634128
 51
291.792589536
  0
ARC
  5
166
  8
0
  6
SLD-SOLID
 62
     7
 10
606.2262662801
 20
305.4044077397
 30
0.0
 40
14.02315834238326
 50
268.0016301988
 51
281.981105963
  0
LINE
  5
167
  8
0
  6
SLD-SOLID
 62
     7
 10
605.7372638605
 20
291.3897780076
 30
0.0
 11
587.944301369
 21
291.3897780076
 31
0.0
  0
POLYLINE
  5
168
  8
0
  6
SLD-SOLID
 62
     7
 66
     1
 10
0.0
 20
0.0
 30
0.0
  0
VERTEX
  5
599
  8
0
  6
SLD-SOLID
 62
     7
 10
85.5053165577
 20
291.3897780076
 30
0.0
  0
VERTEX
  5
59A
  8
0
  6
SLD-SOLID
 62
     7
 10
84.9422910831
 20
291.39545535
 30
0.0
  0
VERTEX
  5
59B
  8
0
  6
SLD-SOLID
 62
     7
 10
83.9094617985
 20
291.4373648658
 30
0.0
  0
VERTEX
  5
59C
  8
0
  6
SLD-SOLID
 62
     7
 10
83.0217102192
 20
291.5152383342
 30
0.0
  0
VERTEX
  5
59D
  8
0
  6
SLD-SOLID
 62
     7
 10
82.4324288986
 20
291.6040343538
 30
0.0
  0
VERTEX
  5
59E
  8
0
  6
SLD-SOLID
 62
     7
 10
82.1401277206
 20
291.6747850672
 30
0.0
  0
VERTEX
  5
59F
  8
0
  6
SLD-SOLID
 62
     7
 10
82.0987918995
 20
291.6892019406
 30
0.0
  0
VERTEX
  5
5A0
  8
0
  6
SLD-SOLID
 62
     7
 10
82.1675458572
 20
291.6468155876
 30
0.0
  0
VERTEX
  5
5A1
  8
0
  6
SLD-SOLID
 62
     7
 10
82.3033848427
 20
291.5190753833
 30
0.0
  0
VERTEX
  5
5A2
  8
0
  6
SLD-SOLID
 62
     7
 10
82.4577310703
 20
291.2479487553
 30
0.0
  0
VERTEX
  5
5A3
  8
0
  6
SLD-SOLID
 62
     7
 10
82.5108090065
 20
290.9396437302
 30
0.0
  0
SEQEND
  5
5A4
  8
0
  6
SLD-SOLID
 62
     7
  0
LINE
  5
169
  8
0
  6
SLD-SOLID
 62
     7
 10
103.2982864998
 20
291.3897780076
 30
0.0
 11
85.5053165577
 21
291.3897780076
 31
0.0
  0
ARC
  5
16A
  8
0
  6
SLD-SOLID
 62
     7
 10
612.8338106734
 20
260.2483638583
 30
0.0
 40
1.000000000000074
 50
270.0
 51
356.9490394266
  0
LINE
  5
16B
  8
0
  6
SLD-SOLID
 62
     7
 10
594.6213030837
 20
259.2483644679
 30
0.0
 11
597.6213017128
 21
259.2483644679
 31
0.0
  0
LINE
  5
16C
  8
0
  6
SLD-SOLID
 62
     7
 10
603.621298971
 20
259.2483644679
 30
0.0
 11
612.8338077686
 21
259.2483644679
 31
0.0
  0
LINE
  5
16D
  8
0
  6
SLD-SOLID
 62
     7
 10
78.4087875507
 20
259.2483644679
 30
0.0
 11
87.6213112495
 21
259.2483644679
 31
0.0
  0
LINE
  5
16E
  8
0
  6
SLD-SOLID
 62
     7
 10
93.6212936066
 20
259.2483644679
 30
0.0
 11
96.6213145874
 21
259.2483644679
 31
0.0
  0
ARC
  5
16F
  8
0
  6
SLD-SOLID
 62
     7
 10
78.4087887439
 20
260.2483638583
 30
0.0
 40
1.000000000000057
 50
183.0509605735
 51
270.0
  0
ARC
  5
170
  8
0
  6
SLD-SOLID
 62
     7
 10
612.8338106734
 20
322.2325428138
 30
0.0
 40
1.0
 50
3.0509605734
 51
90.0
  0
POLYLINE
  5
171
  8
0
  6
SLD-SOLID
 62
     7
 66
     1
 10
0.0
 20
0.0
 30
0.0
  0
VERTEX
  5
5A5
  8
0
  6
SLD-SOLID
 62
     7
 10
594.6213030837
 20
323.2325461999
 30
0.0
  0
VERTEX
  5
5A6
  8
0
  6
SLD-SOLID
 62
     7
 10
593.8728475593
 20
323.2383576527
 30
0.0
  0
VERTEX
  5
5A7
  8
0
  6
SLD-SOLID
 62
     7
 10
592.4773538134
 20
323.2814518109
 30
0.0
  0
VERTEX
  5
5A8
  8
0
  6
SLD-SOLID
 62
     7
 10
591.1884033702
 20
323.3642128602
 30
0.0
  0
VERTEX
  5
5A9
  8
0
  6
SLD-SOLID
 62
     7
 10
590.0777006171
 20
323.4808293477
 30
0.0
  0
VERTEX
  5
5AA
  8
0
  6
SLD-SOLID
 62
     7
 10
589.2126435063
 20
323.6204606786
 30
0.0
  0
VERTEX
  5
5AB
  8
0
  6
SLD-SOLID
 62
     7
 10
588.7182974837
 20
323.7415177122
 30
0.0
  0
VERTEX
  5
5AC
  8
0
  6
SLD-SOLID
 62
     7
 10
588.5275328181
 20
323.811799039
 30
0.0
  0
VERTEX
  5
5AD
  8
0
  6
SLD-SOLID
 62
     7
 10
588.5387533925
 20
323.8031042114
 30
0.0
  0
SEQEND
  5
5AE
  8
0
  6
SLD-SOLID
 62
     7
  0
LINE
  5
172
  8
0
  6
SLD-SOLID
 62
     7
 10
612.8338077686
 20
323.2325461999
 30
0.0
 11
594.6213030837
 21
323.2325461999
 31
0.0
  0
ARC
  5
173
  8
0
  6
SLD-SOLID
 62
     7
 10
78.4087887439
 20
322.2325428138
 30
0.0
 40
1.000000000000057
 50
90.0
 51
176.9490394266
  0
LINE
  5
174
  8
0
  6
SLD-SOLID
 62
     7
 10
96.6213145874
 20
323.2325461999
 30
0.0
 11
78.4087875507
 21
323.2325461999
 31
0.0
  0
POLYLINE
  5
175
  8
0
  6
SLD-SOLID
 62
     7
 66
     1
 10
0.0
 20
0.0
 30
0.0
  0
VERTEX
  5
5AF
  8
0
  6
SLD-SOLID
 62
     7
 10
102.7188101433
 20
323.8126633063
 30
0.0
  0
VERTEX
  5
5B0
  8
0
  6
SLD-SOLID
 62
     7
 10
102.7234593056
 20
323.8160682216
 30
0.0
  0
VERTEX
  5
5B1
  8
0
  6
SLD-SOLID
 62
     7
 10
102.6165583752
 20
323.7719682351
 30
0.0
  0
VERTEX
  5
5B2
  8
0
  6
SLD-SOLID
 62
     7
 10
102.2745171211
 20
323.6741197601
 30
0.0
  0
VERTEX
  5
5B3
  8
0
  6
SLD-SOLID
 62
     7
 10
101.6357341431
 20
323.5493225351
 30
0.0
  0
VERTEX
  5
5B4
  8
0
  6
SLD-SOLID
 62
     7
 10
100.7058122776
 20
323.4262389436
 30
0.0
  0
VERTEX
  5
5B5
  8
0
  6
SLD-SOLID
 62
     7
 10
99.5407798908
 20
323.3255965009
 30
0.0
  0
VERTEX
  5
5B6
  8
0
  6
SLD-SOLID
 62
     7
 10
98.2129672192
 20
323.2591596738
 30
0.0
  0
VERTEX
  5
5B7
  8
0
  6
SLD-SOLID
 62
     7
 10
96.8676903866
 20
323.2331720486
 30
0.0
  0
VERTEX
  5
5B8
  8
0
  6
SLD-SOLID
 62
     7
 10
96.6213145874
 20
323.2325461999
 30
0.0
  0
SEQEND
  5
5B9
  8
0
  6
SLD-SOLID
 62
     7
  0
ARC
  5
176
  8
0
  6
SLD-SOLID
 62
     7
 10
587.8338106734
 20
323.196127675
 30
0.0
 40
1.00000000000011
 50
38.6791999848
 51
90.0
  0
LINE
  5
177
  8
0
  6
SLD-SOLID
 62
     7
 10
587.8338092587
 20
324.1961297885
 30
0.0
 11
103.4087935112
 21
324.1961297885
 31
0.0
  0
ARC
  5
178
  8
0
  6
SLD-SOLID
 62
     7
 10
103.4087887439
 20
323.196127675
 30
0.0
 40
1.0
 50
90.0
 51
132.6985760875
  0
LINE
  5
179
  8
0
  6
SLD-SOLID
 62
     7
 10
86.6713026188
 20
223.4451339886
 30
0.0
 11
604.5712927006
 21
223.4451339886
 31
0.0
  0
LINE
  5
17A
  8
0
  6
SLD-SOLID
 62
     7
 10
729.1213074348
 20
359.1059890881
 30
0.0
 11
729.1213074348
 21
360.0206819669
 31
0.0
  0
LINE
  5
17B
  8
0
  6
SLD-SOLID
 62
     7
 10
726.121286454
 20
360.0206819669
 30
0.0
 11
726.121286454
 21
359.1059890881
 31
0.0
  0
ARC
  5
17C
  8
0
  6
SLD-SOLID
 62
     7
 10
727.6212997086
 20
323.3123394406
 30
0.0
 40
1.5
 50
180.0
 51
0.0
  0
LINE
  5
17D
  8
0
  6
SLD-SOLID
 62
     7
 10
726.121286454
 20
359.1059890881
 30
0.0
 11
726.121286454
 21
323.3123419181
 31
0.0
  0
LINE
  5
17E
  8
0
  6
SLD-SOLID
 62
     7
 10
729.1213074348
 20
323.3123419181
 30
0.0
 11
729.1213074348
 21
359.1059890881
 31
0.0
  0
ARC
  5
17F
  8
0
  6
SLD-SOLID
 62
     7
 10
727.2092329831
 20
360.217610454
 30
0.0
 40
1.088320558252289
 50
181.5021883777
 51
263.6413509438
  0
POLYLINE
  5
180
  8
0
  6
SLD-SOLID
 62
     7
 66
     1
 10
0.0
 20
0.0
 30
0.0
  0
VERTEX
  5
5BA
  8
0
  6
SLD-SOLID
 62
     7
 10
727.088699641
 20
359.1359851256
 30
0.0
  0
VERTEX
  5
5BB
  8
0
  6
SLD-SOLID
 62
     7
 10
727.1168330334
 20
359.1231999293
 30
0.0
  0
VERTEX
  5
5BC
  8
0
  6
SLD-SOLID
 62
     7
 10
727.1213033817
 20
359.1211733714
 30
0.0
  0
SEQEND
  5
5BD
  8
0
  6
SLD-SOLID
 62
     7
  0
POLYLINE
  5
181
  8
0
  6
SLD-SOLID
 62
     7
 66
     1
 10
0.0
 20
0.0
 30
0.0
  0
VERTEX
  5
5BE
  8
0
  6
SLD-SOLID
 62
     7
 10
728.1212905071
 20
359.1211733714
 30
0.0
  0
VERTEX
  5
5BF
  8
0
  6
SLD-SOLID
 62
     7
 10
728.1257608555
 20
359.1231999293
 30
0.0
  0
VERTEX
  5
5C0
  8
0
  6
SLD-SOLID
 62
     7
 10
728.1538942478
 20
359.1359851256
 30
0.0
  0
SEQEND
  5
5C1
  8
0
  6
SLD-SOLID
 62
     7
  0
ARC
  5
182
  8
0
  6
SLD-SOLID
 62
     7
 10
727.9703715877
 20
360.2754748487
 30
0.0
 40
1.154173901900664
 50
279.1493104458
 51
355.7071502327
  0
ARC
  5
183
  8
0
  6
SLD-SOLID
 62
     7
 10
743.4099593917
 20
363.9355947613
 30
0.0
 40
0.0867012305008641
 50
34.2263395561
 51
61.9641284604
  0
LINE
  5
184
  8
0
  6
SLD-SOLID
 62
     7
 10
727.8864184044
 20
368.510156621
 30
0.0
 11
729.1213074348
 21
360.6289175645
 31
0.0
  0
POLYLINE
  5
185
  8
0
  6
SLD-SOLID
 62
     7
 66
     1
 10
0.0
 20
0.0
 30
0.0
  0
VERTEX
  5
5C2
  8
0
  6
SLD-SOLID
 62
     7
 10
727.6369431637
 20
368.6071482793
 30
0.0
  0
VERTEX
  5
5C3
  8
0
  6
SLD-SOLID
 62
     7
 10
727.7197042129
 20
368.6012325183
 30
0.0
  0
VERTEX
  5
5C4
  8
0
  6
SLD-SOLID
 62
     7
 10
727.793107333
 20
368.5842451945
 30
0.0
  0
VERTEX
  5
5C5
  8
0
  6
SLD-SOLID
 62
     7
 10
727.8489270828
 20
368.5581830636
 30
0.0
  0
VERTEX
  5
5C6
  8
0
  6
SLD-SOLID
 62
     7
 10
727.8808453701
 20
368.5261008635
 30
0.0
  0
VERTEX
  5
5C7
  8
0
  6
SLD-SOLID
 62
     7
 10
727.8864184044
 20
368.510156621
 30
0.0
  0
SEQEND
  5
5C8
  8
0
  6
SLD-SOLID
 62
     7
  0
LINE
  5
186
  8
0
  6
SLD-SOLID
 62
     7
 10
727.6369431637
 20
368.6071482793
 30
0.0
 11
727.6056507252
 21
368.6071482793
 31
0.0
  0
POLYLINE
  5
187
  8
0
  6
SLD-SOLID
 62
     7
 66
     1
 10
0.0
 20
0.0
 30
0.0
  0
VERTEX
  5
5C9
  8
0
  6
SLD-SOLID
 62
     7
 10
727.3561754845
 20
368.510156621
 30
0.0
  0
VERTEX
  5
5CA
  8
0
  6
SLD-SOLID
 62
     7
 10
727.3755767963
 20
368.543803443
 30
0.0
  0
VERTEX
  5
5CB
  8
0
  6
SLD-SOLID
 62
     7
 10
727.4209061287
 20
368.5730991259
 30
0.0
  0
VERTEX
  5
5CC
  8
0
  6
SLD-SOLID
 62
     7
 10
727.4870970867
 20
368.5946164027
 30
0.0
  0
VERTEX
  5
5CD
  8
0
  6
SLD-SOLID
 62
     7
 10
727.5666394852
 20
368.6058518782
 30
0.0
  0
VERTEX
  5
5CE
  8
0
  6
SLD-SOLID
 62
     7
 10
727.6056507252
 20
368.6071482793
 30
0.0
  0
SEQEND
  5
5CF
  8
0
  6
SLD-SOLID
 62
     7
  0
LINE
  5
188
  8
0
  6
SLD-SOLID
 62
     7
 10
727.3561754845
 20
368.510156621
 30
0.0
 11
726.121286454
 21
360.6289175645
 31
0.0
  0
ARC
  5
189
  8
0
  6
SLD-SOLID
 62
     7
 10
711.8307887321
 20
363.9376515558
 30
0.0
 40
0.0840208506427839
 50
117.5841420014
 51
146.2253899821
  0
ARC
  5
18A
  8
0
  6
SLD-SOLID
 62
     7
 10
727.6212997086
 20
340.3123394406
 30
0.0
 40
28.50000000000003
 50
56.2604749358
 51
123.7395250642
  0
LINE
  5
18B
  8
0
  6
SLD-SOLID
 62
     7
 10
726.121286454
 20
360.6289175645
 30
0.0
 11
726.121286454
 21
360.0206819669
 31
0.0
  0
LINE
  5
18C
  8
0
  6
SLD-SOLID
 62
     7
 10
729.1213074348
 20
360.0206819669
 30
0.0
 11
729.1213074348
 21
360.6289175645
 31
0.0
  0
ARC
  5
18D
  8
0
  6
SLD-SOLID
 62
     7
 10
743.4122109495
 20
316.6865943593
 30
0.0
 40
0.0834433128586579
 50
297.4770037547
 51
326.3172387754
  0
ARC
  5
18E
  8
0
  6
SLD-SOLID
 62
     7
 10
727.6212997086
 20
340.3123394406
 30
0.0
 40
28.50000000000003
 50
236.2604749358
 51
303.7395250642
  0
ARC
  5
18F
  8
0
  6
SLD-SOLID
 62
     7
 10
711.8328029623
 20
316.6892917916
 30
0.0
 40
0.0869577278648811
 50
214.2773956601
 51
241.9283618097
  0
LINE
  5
190
  8
0
  6
SLD-SOLID
 62
     7
 10
727.3561754845
 20
368.2726321116
 30
0.0
 11
727.3561754845
 21
368.510156621
 31
0.0
  0
ARC
  5
191
  8
0
  6
SLD-SOLID
 62
     7
 10
742.1697198022
 20
363.5424569591
 30
0.0
 40
1.384351567877413
 50
338.2057074007
 51
18.6153836977
  0
ARC
  5
192
  8
0
  6
SLD-SOLID
 62
     7
 10
742.1226594986
 20
317.0809194456
 30
0.0
 40
1.428626733343258
 50
342.0365859652
 51
21.1422981714
  0
ARC
  5
193
  8
0
  6
SLD-SOLID
 62
     7
 10
713.07292645
 20
317.0822438662
 30
0.0
 40
1.384408403452994
 50
158.2073228326
 51
198.6155780055
  0
ARC
  5
194
  8
0
  6
SLD-SOLID
 62
     7
 10
713.0729070102
 20
363.542437834
 30
0.0
 40
1.384388873987802
 50
161.3843011441
 51
201.7928227689
  0
CIRCLE
  5
195
  8
0
  6
SLD-SOLID
 62
     7
 10
727.6212997086
 20
340.3123394406
 30
0.0
 40
32.49999999999994
  0
LINE
  5
196
  8
0
  6
SLD-SOLID
 62
     7
 10
703.583071532
 20
359.697058548
 30
0.0
 11
703.0143091104
 21
358.9746502534
 31
0.0
  0
LINE
  5
197
  8
0
  6
SLD-SOLID
 62
     7
 10
705.1726827047
 20
359.4819155827
 30
0.0
 11
704.6347209833
 21
358.8327613965
 31
0.0
  0
POLYLINE
  5
198
  8
0
  6
SLD-SOLID
 62
     7
 66
     1
 10
0.0
 20
0.0
 30
0.0
  0
VERTEX
  5
5D0
  8
0
  6
SLD-SOLID
 62
     7
 10
750.6574192665
 20
358.7078151599
 30
0.0
  0
VERTEX
  5
5D1
  8
0
  6
SLD-SOLID
 62
     7
 10
750.3476539276
 20
359.1476527348
 30
0.0
  0
VERTEX
  5
5D2
  8
0
  6
SLD-SOLID
 62
     7
 10
750.2329149864
 20
359.3589661017
 30
0.0
  0
VERTEX
  5
5D3
  8
0
  6
SLD-SOLID
 62
     7
 10
750.1463392399
 20
359.5652577773
 30
0.0
  0
VERTEX
  5
5D4
  8
0
  6
SLD-SOLID
 62
     7
 10
750.0746646545
 20
359.9058238164
 30
0.0
  0
VERTEX
  5
5D5
  8
0
  6
SLD-SOLID
 62
     7
 10
750.1583495758
 20
360.1124135152
 30
0.0
  0
SEQEND
  5
5D6
  8
0
  6
SLD-SOLID
 62
     7
  0
POLYLINE
  5
199
  8
0
  6
SLD-SOLID
 62
     7
 66
     1
 10
0.0
 20
0.0
 30
0.0
  0
VERTEX
  5
5D7
  8
0
  6
SLD-SOLID
 62
     7
 10
751.9109347484
 20
357.9231647149
 30
0.0
  0
VERTEX
  5
5D8
  8
0
  6
SLD-SOLID
 62
     7
 10
751.6950765274
 20
357.8803685799
 30
0.0
  0
VERTEX
  5
5D9
  8
0
  6
SLD-SOLID
 62
     7
 10
751.3809600494
 20
358.0211100474
 30
0.0
  0
VERTEX
  5
5DA
  8
0
  6
SLD-SOLID
 62
     7
 10
751.0181167744
 20
358.3098945513
 30
0.0
  0
VERTEX
  5
5DB
  8
0
  6
SLD-SOLID
 62
     7
 10
750.6574192665
 20
358.7078151599
 30
0.0
  0
SEQEND
  5
5DC
  8
0
  6
SLD-SOLID
 62
     7
  0
LINE
  5
19A
  8
0
  6
SLD-SOLID
 62
     7
 10
752.4155476711
 20
359.0707180396
 30
0.0
 11
751.4942386768
 21
359.3353179589
 31
0.0
  0
POLYLINE
  5
19B
  8
0
  6
SLD-SOLID
 62
     7
 66
     1
 10
0.0
 20
0.0
 30
0.0
  0
VERTEX
  5
5DD
  8
0
  6
SLD-SOLID
 62
     7
 10
727.6025214813
 20
369.7908816233
 30
0.0
  0
VERTEX
  5
5DE
  8
0
  6
SLD-SOLID
 62
     7
 10
727.207670512
 20
369.8027131453
 30
0.0
  0
VERTEX
  5
5DF
  8
0
  6
SLD-SOLID
 62
     7
 10
726.8372276447
 20
369.8481765881
 30
0.0
  0
VERTEX
  5
5E0
  8
0
  6
SLD-SOLID
 62
     7
 10
726.5291014336
 20
369.9307439223
 30
0.0
  0
VERTEX
  5
5E1
  8
0
  6
SLD-SOLID
 62
     7
 10
726.300159993
 20
370.0439480439
 30
0.0
  0
VERTEX
  5
5E2
  8
0
  6
SLD-SOLID
 62
     7
 10
726.063320937
 20
370.3146574393
 30
0.0
  0
VERTEX
  5
5E3
  8
0
  6
SLD-SOLID
 62
     7
 10
726.0092595241
 20
370.6069139138
 30
0.0
  0
SEQEND
  5
5E4
  8
0
  6
SLD-SOLID
 62
     7
  0
POLYLINE
  5
19C
  8
0
  6
SLD-SOLID
 62
     7
 66
     1
 10
0.0
 20
0.0
 30
0.0
  0
VERTEX
  5
5E5
  8
0
  6
SLD-SOLID
 62
     7
 10
729.1499176643
 20
370.6327525273
 30
0.0
  0
VERTEX
  5
5E6
  8
0
  6
SLD-SOLID
 62
     7
 10
729.1040220879
 20
370.3375903264
 30
0.0
  0
VERTEX
  5
5E7
  8
0
  6
SLD-SOLID
 62
     7
 10
728.8831570766
 20
370.061710228
 30
0.0
  0
VERTEX
  5
5E8
  8
0
  6
SLD-SOLID
 62
     7
 10
728.6651530884
 20
369.9421880141
 30
0.0
  0
VERTEX
  5
5E9
  8
0
  6
SLD-SOLID
 62
     7
 10
728.3690372131
 20
369.8543754712
 30
0.0
  0
VERTEX
  5
5EA
  8
0
  6
SLD-SOLID
 62
     7
 10
727.9993692062
 20
369.8051569358
 30
0.0
  0
VERTEX
  5
5EB
  8
0
  6
SLD-SOLID
 62
     7
 10
727.6025214813
 20
369.7908816233
 30
0.0
  0
SEQEND
  5
5EC
  8
0
  6
SLD-SOLID
 62
     7
  0
LINE
  5
19D
  8
0
  6
SLD-SOLID
 62
     7
 10
697.9006329201
 20
332.8291920319
 30
0.0
 11
698.1103071592
 21
332.0252147809
 31
0.0
  0
POLYLINE
  5
19E
  8
0
  6
SLD-SOLID
 62
     7
 66
     1
 10
0.0
 20
0.0
 30
0.0
  0
VERTEX
  5
5ED
  8
0
  6
SLD-SOLID
 62
     7
 10
697.474191489
 20
333.4010687962
 30
0.0
  0
VERTEX
  5
5EE
  8
0
  6
SLD-SOLID
 62
     7
 10
697.5105056188
 20
333.2670626536
 30
0.0
  0
VERTEX
  5
5EF
  8
0
  6
SLD-SOLID
 62
     7
 10
697.5572654627
 20
333.1428018704
 30
0.0
  0
VERTEX
  5
5F0
  8
0
  6
SLD-SOLID
 62
     7
 10
697.610447707
 20
333.0380318061
 30
0.0
  0
VERTEX
  5
5F1
  8
0
  6
SLD-SOLID
 62
     7
 10
697.6710507296
 20
332.9500553504
 30
0.0
  0
VERTEX
  5
5F2
  8
0
  6
SLD-SOLID
 62
     7
 10
697.7907219551
 20
332.8473565474
 30
0.0
  0
VERTEX
  5
5F3
  8
0
  6
SLD-SOLID
 62
     7
 10
697.9006329201
 20
332.8291920319
 30
0.0
  0
SEQEND
  5
5F4
  8
0
  6
SLD-SOLID
 62
     7
  0
POLYLINE
  5
19F
  8
0
  6
SLD-SOLID
 62
     7
 66
     1
 10
0.0
 20
0.0
 30
0.0
  0
VERTEX
  5
5F5
  8
0
  6
SLD-SOLID
 62
     7
 10
697.5583234451
 20
334.050729622
 30
0.0
  0
VERTEX
  5
5F6
  8
0
  6
SLD-SOLID
 62
     7
 10
697.5170919321
 20
334.0308514729
 30
0.0
  0
VERTEX
  5
5F7
  8
0
  6
SLD-SOLID
 62
     7
 10
697.4819251917
 20
333.9898285762
 30
0.0
  0
VERTEX
  5
5F8
  8
0
  6
SLD-SOLID
 62
     7
 10
697.4553713224
 20
333.9265433446
 30
0.0
  0
VERTEX
  5
5F9
  8
0
  6
SLD-SOLID
 62
     7
 10
697.4383690975
 20
333.842828621
 30
0.0
  0
VERTEX
  5
5FA
  8
0
  6
SLD-SOLID
 62
     7
 10
697.4318423889
 20
333.7447640792
 30
0.0
  0
VERTEX
  5
5FB
  8
0
  6
SLD-SOLID
 62
     7
 10
697.4361190222
 20
333.6345252887
 30
0.0
  0
VERTEX
  5
5FC
  8
0
  6
SLD-SOLID
 62
     7
 10
697.474191489
 20
333.4010687962
 30
0.0
  0
SEQEND
  5
5FD
  8
0
  6
SLD-SOLID
 62
     7
  0
LINE
  5
1A0
  8
0
  6
SLD-SOLID
 62
     7
 10
698.5455104731
 20
335.1826218262
 30
0.0
 11
699.2434808634
 21
332.1592060223
 31
0.0
  0
LINE
  5
1A1
  8
0
  6
SLD-SOLID
 62
     7
 10
698.2827284954
 20
334.0010491505
 30
0.0
 11
698.5846260212
 21
333.5542676345
 31
0.0
  0
ARC
  5
1A2
  8
0
  6
SLD-SOLID
 62
     7
 10
697.0546730009
 20
333.6328850071
 30
0.0
 40
1.282055043272889
 50
16.6884355567
 51
75.8289629631
  0
LINE
  5
1A3
  8
0
  6
SLD-SOLID
 62
     7
 10
757.2395899914
 20
334.4026205435
 30
0.0
 11
757.4257650993
 21
335.068985571
 31
0.0
  0
ARC
  5
1A4
  8
0
  6
SLD-SOLID
 62
     7
 10
755.8654079907
 20
334.1519002982
 30
0.0
 40
1.396866784015632
 50
347.5501189539
 51
10.3399145009
  0
POLYLINE
  5
1A5
  8
0
  6
SLD-SOLID
 62
     7
 66
     1
 10
0.0
 20
0.0
 30
0.0
  0
VERTEX
  5
5FE
  8
0
  6
SLD-SOLID
 62
     7
 10
756.8332353256
 20
333.2942870751
 30
0.0
  0
VERTEX
  5
5FF
  8
0
  6
SLD-SOLID
 62
     7
 10
756.8831840179
 20
333.2927671567
 30
0.0
  0
VERTEX
  5
600
  8
0
  6
SLD-SOLID
 62
     7
 10
756.936530175
 20
333.3107081547
 30
0.0
  0
VERTEX
  5
601
  8
0
  6
SLD-SOLID
 62
     7
 10
757.0488849304
 20
333.4169534341
 30
0.0
  0
VERTEX
  5
602
  8
0
  6
SLD-SOLID
 62
     7
 10
757.1047642849
 20
333.5039166108
 30
0.0
  0
VERTEX
  5
603
  8
0
  6
SLD-SOLID
 62
     7
 10
757.1536400936
 20
333.6052743092
 30
0.0
  0
VERTEX
  5
604
  8
0
  6
SLD-SOLID
 62
     7
 10
757.1963766239
 20
333.7236491338
 30
0.0
  0
VERTEX
  5
605
  8
0
  6
SLD-SOLID
 62
     7
 10
757.2294273994
 20
333.8507560387
 30
0.0
  0
SEQEND
  5
606
  8
0
  6
SLD-SOLID
 62
     7
  0
ARC
  5
1A6
  8
0
  6
SLD-SOLID
 62
     7
 10
758.3722516183
 20
333.9679037046
 30
0.0
 40
1.939014625118791
 50
128.4678674393
 51
176.325996101
  0
POLYLINE
  5
1A7
  8
0
  6
SLD-SOLID
 62
     7
 66
     1
 10
0.0
 20
0.0
 30
0.0
  0
VERTEX
  5
607
  8
0
  6
SLD-SOLID
 62
     7
 10
756.6434541366
 20
332.4837980166
 30
0.0
  0
VERTEX
  5
608
  8
0
  6
SLD-SOLID
 62
     7
 10
756.4553418777
 20
332.6350150004
 30
0.0
  0
VERTEX
  5
609
  8
0
  6
SLD-SOLID
 62
     7
 10
756.3932338379
 20
332.79259478
 30
0.0
  0
VERTEX
  5
60A
  8
0
  6
SLD-SOLID
 62
     7
 10
756.3549974583
 20
332.9967108861
 30
0.0
  0
VERTEX
  5
60B
  8
0
  6
SLD-SOLID
 62
     7
 10
756.3481429241
 20
333.5062113896
 30
0.0
  0
VERTEX
  5
60C
  8
0
  6
SLD-SOLID
 62
     7
 10
756.4372220657
 20
334.0921548501
 30
0.0
  0
SEQEND
  5
60D
  8
0
  6
SLD-SOLID
 62
     7
  0
LINE
  5
1A8
  8
0
  6
SLD-SOLID
 62
     7
 10
757.81242043
 20
333.7819722787
 30
0.0
 11
757.5553157947
 21
334.0251592293
 31
0.0
  0
LINE
  5
1A9
  8
0
  6
SLD-SOLID
 62
     7
 10
757.4749985359
 20
332.363933076
 30
0.0
 11
757.81242043
 21
333.7819722787
 31
0.0
  0
LINE
  5
1AA
  8
0
  6
SLD-SOLID
 62
     7
 10
740.4297390602
 20
313.3362678185
 30
0.0
 11
742.1719530247
 21
314.2278042927
 31
0.0
  0
LINE
  5
1AB
  8
0
  6
SLD-SOLID
 62
     7
 10
740.27959496
 20
313.6436191693
 30
0.0
 11
740.4297390602
 21
313.3362678185
 31
0.0
  0
LINE
  5
1AC
  8
0
  6
SLD-SOLID
 62
     7
 10
739.5214834831
 20
313.2937324539
 30
0.0
 11
740.27959496
 21
313.6436191693
 31
0.0
  0
LINE
  5
1AD
  8
0
  6
SLD-SOLID
 62
     7
 10
739.3059530876
 20
312.825239946
 30
0.0
 11
739.6717169903
 21
312.9861948386
 31
0.0
  0
LINE
  5
1AE
  8
0
  6
SLD-SOLID
 62
     7
 10
714.7378721855
 20
312.3649058238
 30
0.0
 11
715.4847481869
 21
312.0288920894
 31
0.0
  0
ARC
  5
1AF
  8
0
  6
SLD-SOLID
 62
     7
 10
714.5909054628
 20
313.1417897066
 30
0.0
 40
0.7906628769721499
 50
239.4072201048
 51
280.7123177839
  0
POLYLINE
  5
1B0
  8
0
  6
SLD-SOLID
 62
     7
 66
     1
 10
0.0
 20
0.0
 30
0.0
  0
VERTEX
  5
60E
  8
0
  6
SLD-SOLID
 62
     7
 10
713.8414481304
 20
312.8065389887
 30
0.0
  0
VERTEX
  5
60F
  8
0
  6
SLD-SOLID
 62
     7
 10
713.8346532009
 20
312.7735925213
 30
0.0
  0
VERTEX
  5
610
  8
0
  6
SLD-SOLID
 62
     7
 10
713.8436833046
 20
312.7342087522
 30
0.0
  0
VERTEX
  5
611
  8
0
  6
SLD-SOLID
 62
     7
 10
713.870252075
 20
312.6898330942
 30
0.0
  0
VERTEX
  5
612
  8
0
  6
SLD-SOLID
 62
     7
 10
713.9138528726
 20
312.6412255064
 30
0.0
  0
VERTEX
  5
613
  8
0
  6
SLD-SOLID
 62
     7
 10
713.9700451515
 20
312.5923944011
 30
0.0
  0
VERTEX
  5
614
  8
0
  6
SLD-SOLID
 62
     7
 10
714.03637022
 20
312.5453588858
 30
0.0
  0
VERTEX
  5
615
  8
0
  6
SLD-SOLID
 62
     7
 10
714.1885110758
 20
312.4611822263
 30
0.0
  0
SEQEND
  5
616
  8
0
  6
SLD-SOLID
 62
     7
  0
POLYLINE
  5
1B1
  8
0
  6
SLD-SOLID
 62
     7
 66
     1
 10
0.0
 20
0.0
 30
0.0
  0
VERTEX
  5
617
  8
0
  6
SLD-SOLID
 62
     7
 10
713.941807451
 20
313.5951531425
 30
0.0
  0
VERTEX
  5
618
  8
0
  6
SLD-SOLID
 62
     7
 10
713.935057225
 20
313.5263097778
 30
0.0
  0
VERTEX
  5
619
  8
0
  6
SLD-SOLID
 62
     7
 10
713.9729657791
 20
313.4415966764
 30
0.0
  0
VERTEX
  5
61A
  8
0
  6
SLD-SOLID
 62
     7
 10
714.0534320496
 20
313.344590117
 30
0.0
  0
VERTEX
  5
61B
  8
0
  6
SLD-SOLID
 62
     7
 10
714.1624042414
 20
313.2461604968
 30
0.0
  0
VERTEX
  5
61C
  8
0
  6
SLD-SOLID
 62
     7
 10
714.4378671072
 20
313.0609018102
 30
0.0
  0
VERTEX
  5
61D
  8
0
  6
SLD-SOLID
 62
     7
 10
714.7482284925
 20
312.8985685602
 30
0.0
  0
SEQEND
  5
61E
  8
0
  6
SLD-SOLID
 62
     7
  0
POLYLINE
  5
1B2
  8
0
  6
SLD-SOLID
 62
     7
 66
     1
 10
0.0
 20
0.0
 30
0.0
  0
VERTEX
  5
61F
  8
0
  6
SLD-SOLID
 62
     7
 10
714.8344913147
 20
313.7514886752
 30
0.0
  0
VERTEX
  5
620
  8
0
  6
SLD-SOLID
 62
     7
 10
715.3429040335
 20
313.4735745683
 30
0.0
  0
VERTEX
  5
621
  8
0
  6
SLD-SOLID
 62
     7
 10
715.5628600738
 20
313.3208451167
 30
0.0
  0
VERTEX
  5
622
  8
0
  6
SLD-SOLID
 62
     7
 10
715.7441625021
 20
313.1656271711
 30
0.0
  0
VERTEX
  5
623
  8
0
  6
SLD-SOLID
 62
     7
 10
715.8778557203
 20
313.0155203238
 30
0.0
  0
VERTEX
  5
624
  8
0
  6
SLD-SOLID
 62
     7
 10
715.9602591417
 20
312.8730056182
 30
0.0
  0
VERTEX
  5
625
  8
0
  6
SLD-SOLID
 62
     7
 10
715.9765014074
 20
312.6336035624
 30
0.0
  0
SEQEND
  5
626
  8
0
  6
SLD-SOLID
 62
     7
  0
POLYLINE
  5
1B3
  8
0
  6
SLD-SOLID
 62
     7
 66
     1
 10
0.0
 20
0.0
 30
0.0
  0
VERTEX
  5
627
  8
0
  6
SLD-SOLID
 62
     7
 10
713.1976732633
 20
313.9857498303
 30
0.0
  0
VERTEX
  5
628
  8
0
  6
SLD-SOLID
 62
     7
 10
713.227773609
 20
314.0323681131
 30
0.0
  0
VERTEX
  5
629
  8
0
  6
SLD-SOLID
 62
     7
 10
713.2712700985
 20
314.0711260334
 30
0.0
  0
VERTEX
  5
62A
  8
0
  6
SLD-SOLID
 62
     7
 10
713.3978256605
 20
314.1225946441
 30
0.0
  0
VERTEX
  5
62B
  8
0
  6
SLD-SOLID
 62
     7
 10
713.574434223
 20
314.1359460846
 30
0.0
  0
VERTEX
  5
62C
  8
0
  6
SLD-SOLID
 62
     7
 10
713.7891301535
 20
314.1146672264
 30
0.0
  0
VERTEX
  5
62D
  8
0
  6
SLD-SOLID
 62
     7
 10
714.0317210577
 20
314.0620065227
 30
0.0
  0
VERTEX
  5
62E
  8
0
  6
SLD-SOLID
 62
     7
 10
714.2932811401
 20
313.9805642262
 30
0.0
  0
VERTEX
  5
62F
  8
0
  6
SLD-SOLID
 62
     7
 10
714.8344913147
 20
313.7514886752
 30
0.0
  0
SEQEND
  5
630
  8
0
  6
SLD-SOLID
 62
     7
  0
POLYLINE
  5
1B4
  8
0
  6
SLD-SOLID
 62
     7
 66
     1
 10
0.0
 20
0.0
 30
0.0
  0
VERTEX
  5
631
  8
0
  6
SLD-SOLID
 62
     7
 10
713.0645313881
 20
313.1799397364
 30
0.0
  0
VERTEX
  5
632
  8
0
  6
SLD-SOLID
 62
     7
 10
713.0989530704
 20
313.2248071328
 30
0.0
  0
VERTEX
  5
633
  8
0
  6
SLD-SOLID
 62
     7
 10
713.1520310066
 20
313.2583868995
 30
0.0
  0
VERTEX
  5
634
  8
0
  6
SLD-SOLID
 62
     7
 10
713.313097658
 20
313.2866320506
 30
0.0
  0
VERTEX
  5
635
  8
0
  6
SLD-SOLID
 62
     7
 10
713.5310122393
 20
313.2649285093
 30
0.0
  0
VERTEX
  5
636
  8
0
  6
SLD-SOLID
 62
     7
 10
713.7834230087
 20
313.2026416555
 30
0.0
  0
SEQEND
  5
637
  8
0
  6
SLD-SOLID
 62
     7
  0
LINE
  5
1B5
  8
0
  6
SLD-SOLID
 62
     7
 10
714.7339829824
 20
312.3564717665
 30
0.0
 11
715.4810825012
 21
312.0203611747
 31
0.0
  0
POLYLINE
  5
1B6
  8
0
  6
SLD-SOLID
 62
     7
 66
     1
 10
0.0
 20
0.0
 30
0.0
  0
VERTEX
  5
638
  8
0
  6
SLD-SOLID
 62
     7
 10
715.4810825012
 20
312.0203611747
 30
0.0
  0
VERTEX
  5
639
  8
0
  6
SLD-SOLID
 62
     7
 10
715.3086164616
 20
311.9221625224
 30
0.0
  0
VERTEX
  5
63A
  8
0
  6
SLD-SOLID
 62
     7
 10
715.0264778755
 20
311.8976054087
 30
0.0
  0
SEQEND
  5
63B
  8
0
  6
SLD-SOLID
 62
     7
  0
POLYLINE
  5
1B7
  8
0
  6
SLD-SOLID
 62
     7
 66
     1
 10
0.0
 20
0.0
 30
0.0
  0
VERTEX
  5
63C
  8
0
  6
SLD-SOLID
 62
     7
 10
715.0264778755
 20
311.8976054087
 30
0.0
  0
VERTEX
  5
63D
  8
0
  6
SLD-SOLID
 62
     7
 10
714.5490297697
 20
311.9856265679
 30
0.0
  0
VERTEX
  5
63E
  8
0
  6
SLD-SOLID
 62
     7
 10
714.0284875057
 20
312.1903312698
 30
0.0
  0
SEQEND
  5
63F
  8
0
  6
SLD-SOLID
 62
     7
  0
POLYLINE
  5
1B8
  8
0
  6
SLD-SOLID
 62
     7
 66
     1
 10
0.0
 20
0.0
 30
0.0
  0
VERTEX
  5
640
  8
0
  6
SLD-SOLID
 62
     7
 10
714.0284875057
 20
312.1903312698
 30
0.0
  0
VERTEX
  5
641
  8
0
  6
SLD-SOLID
 62
     7
 10
713.6104056261
 20
312.4279004827
 30
0.0
  0
VERTEX
  5
642
  8
0
  6
SLD-SOLID
 62
     7
 10
713.2778415106
 20
312.6994145408
 30
0.0
  0
VERTEX
  5
643
  8
0
  6
SLD-SOLID
 62
     7
 10
713.1579318664
 20
312.835596253
 30
0.0
  0
VERTEX
  5
644
  8
0
  6
SLD-SOLID
 62
     7
 10
713.0769440554
 20
312.9644987479
 30
0.0
  0
VERTEX
  5
645
  8
0
  6
SLD-SOLID
 62
     7
 10
713.0439677856
 20
313.0785224334
 30
0.0
  0
VERTEX
  5
646
  8
0
  6
SLD-SOLID
 62
     7
 10
713.0463072679
 20
313.1278825298
 30
0.0
  0
VERTEX
  5
647
  8
0
  6
SLD-SOLID
 62
     7
 10
713.0601504467
 20
313.1717589989
 30
0.0
  0
SEQEND
  5
648
  8
0
  6
SLD-SOLID
 62
     7
  0
POLYLINE
  5
1B9
  8
0
  6
SLD-SOLID
 62
     7
 66
     1
 10
0.0
 20
0.0
 30
0.0
  0
VERTEX
  5
649
  8
0
  6
SLD-SOLID
 62
     7
 10
713.0601504467
 20
313.1717589989
 30
0.0
  0
VERTEX
  5
64A
  8
0
  6
SLD-SOLID
 62
     7
 10
713.1476500652
 20
313.2501987115
 30
0.0
  0
VERTEX
  5
64B
  8
0
  6
SLD-SOLID
 62
     7
 10
713.30876142
 20
313.2784289613
 30
0.0
  0
VERTEX
  5
64C
  8
0
  6
SLD-SOLID
 62
     7
 10
713.5267207048
 20
313.2566956177
 30
0.0
  0
VERTEX
  5
64D
  8
0
  6
SLD-SOLID
 62
     7
 10
713.7792059801
 20
313.1943715111
 30
0.0
  0
SEQEND
  5
64E
  8
0
  6
SLD-SOLID
 62
     7
  0
POLYLINE
  5
1BA
  8
0
  6
SLD-SOLID
 62
     7
 66
     1
 10
0.0
 20
0.0
 30
0.0
  0
VERTEX
  5
64F
  8
0
  6
SLD-SOLID
 62
     7
 10
713.7792059801
 20
313.1943715111
 30
0.0
  0
VERTEX
  5
650
  8
0
  6
SLD-SOLID
 62
     7
 10
713.4924182318
 20
313.4073612586
 30
0.0
  0
VERTEX
  5
651
  8
0
  6
SLD-SOLID
 62
     7
 10
713.2836976669
 20
313.6258197323
 30
0.0
  0
VERTEX
  5
652
  8
0
  6
SLD-SOLID
 62
     7
 10
713.1810882709
 20
313.8236699
 30
0.0
  0
VERTEX
  5
653
  8
0
  6
SLD-SOLID
 62
     7
 10
713.193202915
 20
313.9776063457
 30
0.0
  0
SEQEND
  5
654
  8
0
  6
SLD-SOLID
 62
     7
  0
POLYLINE
  5
1BB
  8
0
  6
SLD-SOLID
 62
     7
 66
     1
 10
0.0
 20
0.0
 30
0.0
  0
VERTEX
  5
655
  8
0
  6
SLD-SOLID
 62
     7
 10
713.193202915
 20
313.9776063457
 30
0.0
  0
VERTEX
  5
656
  8
0
  6
SLD-SOLID
 62
     7
 10
713.2668146513
 20
314.0629825488
 30
0.0
  0
VERTEX
  5
657
  8
0
  6
SLD-SOLID
 62
     7
 10
713.3933851145
 20
314.1144362584
 30
0.0
  0
VERTEX
  5
658
  8
0
  6
SLD-SOLID
 62
     7
 10
713.5700532816
 20
314.1277653471
 30
0.0
  0
VERTEX
  5
659
  8
0
  6
SLD-SOLID
 62
     7
 10
713.7847939155
 20
314.1064566866
 30
0.0
  0
VERTEX
  5
65A
  8
0
  6
SLD-SOLID
 62
     7
 10
714.0274593256
 20
314.05375873
 30
0.0
  0
VERTEX
  5
65B
  8
0
  6
SLD-SOLID
 62
     7
 10
714.2890790127
 20
313.9722791806
 30
0.0
  0
VERTEX
  5
65C
  8
0
  6
SLD-SOLID
 62
     7
 10
714.8304680012
 20
313.7431216732
 30
0.0
  0
SEQEND
  5
65D
  8
0
  6
SLD-SOLID
 62
     7
  0
POLYLINE
  5
1BC
  8
0
  6
SLD-SOLID
 62
     7
 66
     1
 10
0.0
 20
0.0
 30
0.0
  0
VERTEX
  5
65E
  8
0
  6
SLD-SOLID
 62
     7
 10
714.8304680012
 20
313.7431216732
 30
0.0
  0
VERTEX
  5
65F
  8
0
  6
SLD-SOLID
 62
     7
 10
715.3390446327
 20
313.4651330605
 30
0.0
  0
VERTEX
  5
660
  8
0
  6
SLD-SOLID
 62
     7
 10
715.5590602777
 20
313.312366356
 30
0.0
  0
VERTEX
  5
661
  8
0
  6
SLD-SOLID
 62
     7
 10
715.740452113
 20
313.1571186081
 30
0.0
  0
VERTEX
  5
662
  8
0
  6
SLD-SOLID
 62
     7
 10
715.8741751335
 20
313.0069968596
 30
0.0
  0
VERTEX
  5
663
  8
0
  6
SLD-SOLID
 62
     7
 10
715.9566232584
 20
312.8644598022
 30
0.0
  0
VERTEX
  5
664
  8
0
  6
SLD-SOLID
 62
     7
 10
715.9729102276
 20
312.6250502959
 30
0.0
  0
SEQEND
  5
665
  8
0
  6
SLD-SOLID
 62
     7
  0
LINE
  5
1BD
  8
0
  6
SLD-SOLID
 62
     7
 10
715.9729102276
 20
312.6250502959
 30
0.0
 11
715.2014026068
 21
312.967143704
 31
0.0
  0
ARC
  5
1BE
  8
0
  6
SLD-SOLID
 62
     7
 10
714.4580461828
 20
312.7558934642
 30
0.0
 40
0.7727906811151133
 50
15.8643185024
 51
74.5406645895
  0
POLYLINE
  5
1BF
  8
0
  6
SLD-SOLID
 62
     7
 66
     1
 10
0.0
 20
0.0
 30
0.0
  0
VERTEX
  5
666
  8
0
  6
SLD-SOLID
 62
     7
 10
714.6640369318
 20
313.5007319346
 30
0.0
  0
VERTEX
  5
667
  8
0
  6
SLD-SOLID
 62
     7
 10
714.4212821148
 20
313.6010242
 30
0.0
  0
VERTEX
  5
668
  8
0
  6
SLD-SOLID
 62
     7
 10
714.196945133
 20
313.6542884007
 30
0.0
  0
VERTEX
  5
669
  8
0
  6
SLD-SOLID
 62
     7
 10
714.101354184
 20
313.6602786675
 30
0.0
  0
VERTEX
  5
66A
  8
0
  6
SLD-SOLID
 62
     7
 10
714.0251794479
 20
313.6508089796
 30
0.0
  0
VERTEX
  5
66B
  8
0
  6
SLD-SOLID
 62
     7
 10
713.9375755213
 20
313.5868904486
 30
0.0
  0
SEQEND
  5
66C
  8
0
  6
SLD-SOLID
 62
     7
  0
POLYLINE
  5
1C0
  8
0
  6
SLD-SOLID
 62
     7
 66
     1
 10
0.0
 20
0.0
 30
0.0
  0
VERTEX
  5
66D
  8
0
  6
SLD-SOLID
 62
     7
 10
713.9375755213
 20
313.5868904486
 30
0.0
  0
VERTEX
  5
66E
  8
0
  6
SLD-SOLID
 62
     7
 10
713.9308252952
 20
313.5181662932
 30
0.0
  0
VERTEX
  5
66F
  8
0
  6
SLD-SOLID
 62
     7
 10
713.9697471283
 20
313.43176191
 30
0.0
  0
VERTEX
  5
670
  8
0
  6
SLD-SOLID
 62
     7
 10
714.0489617012
 20
313.336632897
 30
0.0
  0
VERTEX
  5
671
  8
0
  6
SLD-SOLID
 62
     7
 10
714.1582766197
 20
313.2378456488
 30
0.0
  0
VERTEX
  5
672
  8
0
  6
SLD-SOLID
 62
     7
 10
714.4338288925
 20
313.0525422588
 30
0.0
  0
VERTEX
  5
673
  8
0
  6
SLD-SOLID
 62
     7
 10
714.7442796848
 20
312.8901643053
 30
0.0
  0
SEQEND
  5
674
  8
0
  6
SLD-SOLID
 62
     7
  0
LINE
  5
1C1
  8
0
  6
SLD-SOLID
 62
     7
 10
714.7442796848
 20
312.8901643053
 30
0.0
 11
714.6260389707
 21
312.6455393925
 31
0.0
  0
POLYLINE
  5
1C2
  8
0
  6
SLD-SOLID
 62
     7
 66
     1
 10
0.0
 20
0.0
 30
0.0
  0
VERTEX
  5
675
  8
0
  6
SLD-SOLID
 62
     7
 10
714.6260389707
 20
312.6455393925
 30
0.0
  0
VERTEX
  5
676
  8
0
  6
SLD-SOLID
 62
     7
 10
714.3828222177
 20
312.7468598381
 30
0.0
  0
VERTEX
  5
677
  8
0
  6
SLD-SOLID
 62
     7
 10
714.1444930456
 20
312.8258732453
 30
0.0
  0
VERTEX
  5
678
  8
0
  6
SLD-SOLID
 62
     7
 10
714.0348354004
 20
312.8461015716
 30
0.0
  0
VERTEX
  5
679
  8
0
  6
SLD-SOLID
 62
     7
 10
713.9447280786
 20
312.8489253417
 30
0.0
  0
VERTEX
  5
67A
  8
0
  6
SLD-SOLID
 62
     7
 10
713.875333371
 20
312.8336292997
 30
0.0
  0
VERTEX
  5
67B
  8
0
  6
SLD-SOLID
 62
     7
 10
713.8523110769
 20
312.818221499
 30
0.0
  0
VERTEX
  5
67C
  8
0
  6
SLD-SOLID
 62
     7
 10
713.8372907064
 20
312.7982390419
 30
0.0
  0
SEQEND
  5
67D
  8
0
  6
SLD-SOLID
 62
     7
  0
POLYLINE
  5
1C3
  8
0
  6
SLD-SOLID
 62
     7
 66
     1
 10
0.0
 20
0.0
 30
0.0
  0
VERTEX
  5
67E
  8
0
  6
SLD-SOLID
 62
     7
 10
713.8372907064
 20
312.7982390419
 30
0.0
  0
VERTEX
  5
67F
  8
0
  6
SLD-SOLID
 62
     7
 10
713.8395407818
 20
312.7259013549
 30
0.0
  0
VERTEX
  5
680
  8
0
  6
SLD-SOLID
 62
     7
 10
713.866094651
 20
312.6815331474
 30
0.0
  0
VERTEX
  5
681
  8
0
  6
SLD-SOLID
 62
     7
 10
713.909725251
 20
312.6329106584
 30
0.0
  0
VERTEX
  5
682
  8
0
  6
SLD-SOLID
 62
     7
 10
713.9659175299
 20
312.5840721026
 30
0.0
  0
VERTEX
  5
683
  8
0
  6
SLD-SOLID
 62
     7
 10
714.0322873018
 20
312.5370142356
 30
0.0
  0
VERTEX
  5
684
  8
0
  6
SLD-SOLID
 62
     7
 10
714.1844877623
 20
312.4528152242
 30
0.0
  0
SEQEND
  5
685
  8
0
  6
SLD-SOLID
 62
     7
  0
ARC
  5
1C4
  8
0
  6
SLD-SOLID
 62
     7
 10
714.5686726484
 20
313.0288193504
 30
0.0
 40
0.6923718510365666
 50
236.2973916233
 51
283.8133346666
  0
POLYLINE
  5
1C5
  8
0
  6
SLD-SOLID
 62
     7
 66
     1
 10
0.0
 20
0.0
 30
0.0
  0
VERTEX
  5
686
  8
0
  6
SLD-SOLID
 62
     7
 10
714.8304680012
 20
313.7431216732
 30
0.0
  0
VERTEX
  5
687
  8
0
  6
SLD-SOLID
 62
     7
 10
714.8324796579
 20
313.7473014489
 30
0.0
  0
VERTEX
  5
688
  8
0
  6
SLD-SOLID
 62
     7
 10
714.8344913147
 20
313.7514886752
 30
0.0
  0
SEQEND
  5
689
  8
0
  6
SLD-SOLID
 62
     7
  0
POLYLINE
  5
1C6
  8
0
  6
SLD-SOLID
 62
     7
 66
     1
 10
0.0
 20
0.0
 30
0.0
  0
VERTEX
  5
68A
  8
0
  6
SLD-SOLID
 62
     7
 10
713.193202915
 20
313.9776063457
 30
0.0
  0
VERTEX
  5
68B
  8
0
  6
SLD-SOLID
 62
     7
 10
713.1954380892
 20
313.9816743627
 30
0.0
  0
VERTEX
  5
68C
  8
0
  6
SLD-SOLID
 62
     7
 10
713.1976732633
 20
313.9857498303
 30
0.0
  0
SEQEND
  5
68D
  8
0
  6
SLD-SOLID
 62
     7
  0
POLYLINE
  5
1C7
  8
0
  6
SLD-SOLID
 62
     7
 66
     1
 10
0.0
 20
0.0
 30
0.0
  0
VERTEX
  5
68E
  8
0
  6
SLD-SOLID
 62
     7
 10
715.9729102276
 20
312.6250502959
 30
0.0
  0
VERTEX
  5
68F
  8
0
  6
SLD-SOLID
 62
     7
 10
715.9747132681
 20
312.6293269292
 30
0.0
  0
VERTEX
  5
690
  8
0
  6
SLD-SOLID
 62
     7
 10
715.9765014074
 20
312.6336035624
 30
0.0
  0
SEQEND
  5
691
  8
0
  6
SLD-SOLID
 62
     7
  0
POLYLINE
  5
1C8
  8
0
  6
SLD-SOLID
 62
     7
 66
     1
 10
0.0
 20
0.0
 30
0.0
  0
VERTEX
  5
692
  8
0
  6
SLD-SOLID
 62
     7
 10
727.5538542889
 20
371.5452102319
 30
0.0
  0
VERTEX
  5
693
  8
0
  6
SLD-SOLID
 62
     7
 10
727.9542186878
 20
371.5277609721
 30
0.0
  0
VERTEX
  5
694
  8
0
  6
SLD-SOLID
 62
     7
 10
728.3237972877
 20
371.4682606354
 30
0.0
  0
VERTEX
  5
695
  8
0
  6
SLD-SOLID
 62
     7
 10
728.6326983593
 20
371.3680652276
 30
0.0
  0
VERTEX
  5
696
  8
0
  6
SLD-SOLID
 62
     7
 10
728.8609841488
 20
371.2372479335
 30
0.0
  0
VERTEX
  5
697
  8
0
  6
SLD-SOLID
 62
     7
 10
729.095439019
 20
370.9427860871
 30
0.0
  0
VERTEX
  5
698
  8
0
  6
SLD-SOLID
 62
     7
 10
729.1503945015
 20
370.6420210496
 30
0.0
  0
SEQEND
  5
699
  8
0
  6
SLD-SOLID
 62
     7
  0
POLYLINE
  5
1C9
  8
0
  6
SLD-SOLID
 62
     7
 66
     1
 10
0.0
 20
0.0
 30
0.0
  0
VERTEX
  5
69A
  8
0
  6
SLD-SOLID
 62
     7
 10
729.1288474224
 20
370.5033210412
 30
0.0
  0
VERTEX
  5
69B
  8
0
  6
SLD-SOLID
 62
     7
 10
729.104588332
 20
370.3470972672
 30
0.0
  0
VERTEX
  5
69C
  8
0
  6
SLD-SOLID
 62
     7
 10
728.8838425301
 20
370.0711873666
 30
0.0
  0
VERTEX
  5
69D
  8
0
  6
SLD-SOLID
 62
     7
 10
728.6655405186
 20
369.9514714375
 30
0.0
  0
VERTEX
  5
69E
  8
0
  6
SLD-SOLID
 62
     7
 10
728.3694544456
 20
369.8637035981
 30
0.0
  0
VERTEX
  5
69F
  8
0
  6
SLD-SOLID
 62
     7
 10
727.9996672295
 20
369.8144701615
 30
0.0
  0
VERTEX
  5
6A0
  8
0
  6
SLD-SOLID
 62
     7
 10
727.6025214813
 20
369.8001650468
 30
0.0
  0
SEQEND
  5
6A1
  8
0
  6
SLD-SOLID
 62
     7
  0
POLYLINE
  5
1CA
  8
0
  6
SLD-SOLID
 62
     7
 66
     1
 10
0.0
 20
0.0
 30
0.0
  0
VERTEX
  5
6A2
  8
0
  6
SLD-SOLID
 62
     7
 10
727.6025214813
 20
369.8001650468
 30
0.0
  0
VERTEX
  5
6A3
  8
0
  6
SLD-SOLID
 62
     7
 10
727.2075215004
 20
369.8119965687
 30
0.0
  0
VERTEX
  5
6A4
  8
0
  6
SLD-SOLID
 62
     7
 10
726.8369892261
 20
369.8574600116
 30
0.0
  0
VERTEX
  5
6A5
  8
0
  6
SLD-SOLID
 62
     7
 10
726.5289822243
 20
369.9399677411
 30
0.0
  0
VERTEX
  5
6A6
  8
0
  6
SLD-SOLID
 62
     7
 10
726.2997725628
 20
370.0532165662
 30
0.0
  0
VERTEX
  5
6A7
  8
0
  6
SLD-SOLID
 62
     7
 10
726.0628440998
 20
370.3239259616
 30
0.0
  0
VERTEX
  5
6A8
  8
0
  6
SLD-SOLID
 62
     7
 10
726.0087528847
 20
370.6161824361
 30
0.0
  0
SEQEND
  5
6A9
  8
0
  6
SLD-SOLID
 62
     7
  0
POLYLINE
  5
1CB
  8
0
  6
SLD-SOLID
 62
     7
 66
     1
 10
0.0
 20
0.0
 30
0.0
  0
VERTEX
  5
6AA
  8
0
  6
SLD-SOLID
 62
     7
 10
726.0087528847
 20
370.6161824361
 30
0.0
  0
VERTEX
  5
6AB
  8
0
  6
SLD-SOLID
 62
     7
 10
726.0722318314
 20
370.9619191781
 30
0.0
  0
VERTEX
  5
6AC
  8
0
  6
SLD-SOLID
 62
     7
 10
726.3797321937
 20
371.2956157819
 30
0.0
  0
SEQEND
  5
6AD
  8
0
  6
SLD-SOLID
 62
     7
  0
ARC
  5
1CC
  8
0
  6
SLD-SOLID
 62
     7
 10
727.4795614112
 20
369.0082903095
 30
0.0
 40
2.538007510651967
 50
88.3225910696
 51
115.6799389677
  0
ARC
  5
1CD
  8
0
  6
SLD-SOLID
 62
     7
 10
727.6421119678
 20
371.021868002
 30
0.0
 40
0.9290763612582734
 50
267.1124766377
 51
298.5759763877
  0
POLYLINE
  5
1CE
  8
0
  6
SLD-SOLID
 62
     7
 66
     1
 10
0.0
 20
0.0
 30
0.0
  0
VERTEX
  5
6AE
  8
0
  6
SLD-SOLID
 62
     7
 10
728.0865111969
 20
370.2059683696
 30
0.0
  0
VERTEX
  5
6AF
  8
0
  6
SLD-SOLID
 62
     7
 10
728.2674410961
 20
370.4282936946
 30
0.0
  0
VERTEX
  5
6B0
  8
0
  6
SLD-SOLID
 62
     7
 10
728.3018627785
 20
370.6636277333
 30
0.0
  0
SEQEND
  5
6B1
  8
0
  6
SLD-SOLID
 62
     7
  0
POLYLINE
  5
1CF
  8
0
  6
SLD-SOLID
 62
     7
 66
     1
 10
0.0
 20
0.0
 30
0.0
  0
VERTEX
  5
6B2
  8
0
  6
SLD-SOLID
 62
     7
 10
728.3018627785
 20
370.6636277333
 30
0.0
  0
VERTEX
  5
6B3
  8
0
  6
SLD-SOLID
 62
     7
 10
728.2073298118
 20
371.013775219
 30
0.0
  0
VERTEX
  5
6B4
  8
0
  6
SLD-SOLID
 62
     7
 10
728.1264463089
 20
371.0973260298
 30
0.0
  0
VERTEX
  5
6B5
  8
0
  6
SLD-SOLID
 62
     7
 10
727.9943922184
 20
371.1713997021
 30
0.0
  0
VERTEX
  5
6B6
  8
0
  6
SLD-SOLID
 62
     7
 10
727.8069654129
 20
371.2260273591
 30
0.0
  0
VERTEX
  5
6B7
  8
0
  6
SLD-SOLID
 62
     7
 10
727.6954451225
 20
371.2404814854
 30
0.0
  0
VERTEX
  5
6B8
  8
0
  6
SLD-SOLID
 62
     7
 10
727.5790670536
 20
371.2447432175
 30
0.0
  0
SEQEND
  5
6B9
  8
0
  6
SLD-SOLID
 62
     7
  0
POLYLINE
  5
1D0
  8
0
  6
SLD-SOLID
 62
     7
 66
     1
 10
0.0
 20
0.0
 30
0.0
  0
VERTEX
  5
6BA
  8
0
  6
SLD-SOLID
 62
     7
 10
727.5790670536
 20
371.2447432175
 30
0.0
  0
VERTEX
  5
6BB
  8
0
  6
SLD-SOLID
 62
     7
 10
727.3408570907
 20
371.2253866091
 30
0.0
  0
VERTEX
  5
6BC
  8
0
  6
SLD-SOLID
 62
     7
 10
727.23485023
 20
371.2017533675
 30
0.0
  0
VERTEX
  5
6BD
  8
0
  6
SLD-SOLID
 62
     7
 10
727.1435061119
 20
371.1704907313
 30
0.0
  0
VERTEX
  5
6BE
  8
0
  6
SLD-SOLID
 62
     7
 10
727.0168760441
 20
371.091142048
 30
0.0
  0
VERTEX
  5
6BF
  8
0
  6
SLD-SOLID
 62
     7
 10
726.9400754593
 20
371.0034785166
 30
0.0
  0
VERTEX
  5
6C0
  8
0
  6
SLD-SOLID
 62
     7
 10
726.8599072121
 20
370.6398901835
 30
0.0
  0
SEQEND
  5
6C1
  8
0
  6
SLD-SOLID
 62
     7
  0
POLYLINE
  5
1D1
  8
0
  6
SLD-SOLID
 62
     7
 66
     1
 10
0.0
 20
0.0
 30
0.0
  0
VERTEX
  5
6C2
  8
0
  6
SLD-SOLID
 62
     7
 10
726.8599072121
 20
370.6398901835
 30
0.0
  0
VERTEX
  5
6C3
  8
0
  6
SLD-SOLID
 62
     7
 10
726.9598940037
 20
370.3015891209
 30
0.0
  0
VERTEX
  5
6C4
  8
0
  6
SLD-SOLID
 62
     7
 10
727.0465591572
 20
370.2231494084
 30
0.0
  0
VERTEX
  5
6C5
  8
0
  6
SLD-SOLID
 62
     7
 10
727.1820107124
 20
370.1565859214
 30
0.0
  0
VERTEX
  5
6C6
  8
0
  6
SLD-SOLID
 62
     7
 10
727.3700335644
 20
370.1094535485
 30
0.0
  0
VERTEX
  5
6C7
  8
0
  6
SLD-SOLID
 62
     7
 10
727.5953093193
 20
370.093971242
 30
0.0
  0
SEQEND
  5
6C8
  8
0
  6
SLD-SOLID
 62
     7
  0
POLYLINE
  5
1D2
  8
0
  6
SLD-SOLID
 62
     7
 66
     1
 10
0.0
 20
0.0
 30
0.0
  0
VERTEX
  5
6C9
  8
0
  6
SLD-SOLID
 62
     7
 10
726.0087528847
 20
370.6161824361
 30
0.0
  0
VERTEX
  5
6CA
  8
0
  6
SLD-SOLID
 62
     7
 10
726.0090211056
 20
370.6115481749
 30
0.0
  0
VERTEX
  5
6CB
  8
0
  6
SLD-SOLID
 62
     7
 10
726.0092595241
 20
370.6069139138
 30
0.0
  0
SEQEND
  5
6CC
  8
0
  6
SLD-SOLID
 62
     7
  0
LINE
  5
1D3
  8
0
  6
SLD-SOLID
 62
     7
 10
727.6025214813
 20
369.8001650468
 30
0.0
 11
727.6025214813
 21
369.7908816233
 31
0.0
  0
POLYLINE
  5
1D4
  8
0
  6
SLD-SOLID
 62
     7
 66
     1
 10
0.0
 20
0.0
 30
0.0
  0
VERTEX
  5
6CD
  8
0
  6
SLD-SOLID
 62
     7
 10
756.4463117741
 20
334.0901878968
 30
0.0
  0
VERTEX
  5
6CE
  8
0
  6
SLD-SOLID
 62
     7
 10
756.4417818211
 20
334.0911713734
 30
0.0
  0
VERTEX
  5
6CF
  8
0
  6
SLD-SOLID
 62
     7
 10
756.4372220657
 20
334.0921548501
 30
0.0
  0
SEQEND
  5
6D0
  8
0
  6
SLD-SOLID
 62
     7
  0
POLYLINE
  5
1D5
  8
0
  6
SLD-SOLID
 62
     7
 66
     1
 10
0.0
 20
0.0
 30
0.0
  0
VERTEX
  5
6D1
  8
0
  6
SLD-SOLID
 62
     7
 10
756.6523948334
 20
332.4813840285
 30
0.0
  0
VERTEX
  5
6D2
  8
0
  6
SLD-SOLID
 62
     7
 10
756.4643123768
 20
332.6326308146
 30
0.0
  0
VERTEX
  5
6D3
  8
0
  6
SLD-SOLID
 62
     7
 10
756.4022341392
 20
332.7902552977
 30
0.0
  0
VERTEX
  5
6D4
  8
0
  6
SLD-SOLID
 62
     7
 10
756.3639977596
 20
332.9944161072
 30
0.0
  0
VERTEX
  5
6D5
  8
0
  6
SLD-SOLID
 62
     7
 10
756.3571730278
 20
333.5040656224
 30
0.0
  0
VERTEX
  5
6D6
  8
0
  6
SLD-SOLID
 62
     7
 10
756.4463117741
 20
334.0901878968
 30
0.0
  0
SEQEND
  5
6D7
  8
0
  6
SLD-SOLID
 62
     7
  0
LINE
  5
1D6
  8
0
  6
SLD-SOLID
 62
     7
 10
756.6523948334
 20
332.4813840285
 30
0.0
 11
756.6434541366
 21
332.4837980166
 31
0.0
  0
POLYLINE
  5
1D7
  8
0
  6
SLD-SOLID
 62
     7
 66
     1
 10
0.0
 20
0.0
 30
0.0
  0
VERTEX
  5
6D8
  8
0
  6
SLD-SOLID
 62
     7
 10
757.1751871727
 20
335.4845789567
 30
0.0
  0
VERTEX
  5
6D9
  8
0
  6
SLD-SOLID
 62
     7
 10
757.1706274174
 20
335.4853240147
 30
0.0
  0
VERTEX
  5
6DA
  8
0
  6
SLD-SOLID
 62
     7
 10
757.1660378597
 20
335.4860690728
 30
0.0
  0
SEQEND
  5
6DB
  8
0
  6
SLD-SOLID
 62
     7
  0
ARC
  5
1D8
  8
0
  6
SLD-SOLID
 62
     7
 10
758.3824737766
 20
333.9658124837
 30
0.0
 40
1.940152711405945
 50
128.4816309069
 51
176.3244768357
  0
LINE
  5
1D9
  8
0
  6
SLD-SOLID
 62
     7
 10
758.2350471638
 20
334.3410340443
 30
0.0
 11
757.7684023998
 21
332.2995600596
 31
0.0
  0
LINE
  5
1DA
  8
0
  6
SLD-SOLID
 62
     7
 10
757.7684023998
 20
332.2995600596
 30
0.0
 11
757.4839690349
 21
332.3615488902
 31
0.0
  0
LINE
  5
1DB
  8
0
  6
SLD-SOLID
 62
     7
 10
757.4839690349
 20
332.3615488902
 30
0.0
 11
757.8215101383
 21
333.7800053254
 31
0.0
  0
LINE
  5
1DC
  8
0
  6
SLD-SOLID
 62
     7
 10
757.8215101383
 20
333.7800053254
 30
0.0
 11
757.5644055031
 21
334.0232518807
 31
0.0
  0
LINE
  5
1DD
  8
0
  6
SLD-SOLID
 62
     7
 10
757.5644055031
 20
334.0232518807
 30
0.0
 11
757.5190463684
 21
333.7372836962
 31
0.0
  0
POLYLINE
  5
1DE
  8
0
  6
SLD-SOLID
 62
     7
 66
     1
 10
0.0
 20
0.0
 30
0.0
  0
VERTEX
  5
6DC
  8
0
  6
SLD-SOLID
 62
     7
 10
757.5190463684
 20
333.7372836962
 30
0.0
  0
VERTEX
  5
6DD
  8
0
  6
SLD-SOLID
 62
     7
 10
757.3566535137
 20
333.2008865967
 30
0.0
  0
VERTEX
  5
6DE
  8
0
  6
SLD-SOLID
 62
     7
 10
757.2485604904
 20
332.9678473368
 30
0.0
  0
VERTEX
  5
6DF
  8
0
  6
SLD-SOLID
 62
     7
 10
757.1287551544
 20
332.7738044158
 30
0.0
  0
VERTEX
  5
6E0
  8
0
  6
SLD-SOLID
 62
     7
 10
757.003823819
 20
332.6233920947
 30
0.0
  0
VERTEX
  5
6E1
  8
0
  6
SLD-SOLID
 62
     7
 10
756.8795481346
 20
332.524969925
 30
0.0
  0
VERTEX
  5
6E2
  8
0
  6
SLD-SOLID
 62
     7
 10
756.6523948334
 20
332.4813840285
 30
0.0
  0
SEQEND
  5
6E3
  8
0
  6
SLD-SOLID
 62
     7
  0
LINE
  5
1DF
  8
0
  6
SLD-SOLID
 62
     7
 10
757.1751871727
 20
335.4845789567
 30
0.0
 11
757.013807597
 21
334.6074817076
 31
0.0
  0
ARC
  5
1E0
  8
0
  6
SLD-SOLID
 62
     7
 10
757.8482376747
 20
333.8422927834
 30
0.0
 40
1.132160608885882
 50
137.4785595008
 51
171.500995661
  0
POLYLINE
  5
1E1
  8
0
  6
SLD-SOLID
 62
     7
 66
     1
 10
0.0
 20
0.0
 30
0.0
  0
VERTEX
  5
6E4
  8
0
  6
SLD-SOLID
 62
     7
 10
756.7285099647
 20
334.0096173182
 30
0.0
  0
VERTEX
  5
6E5
  8
0
  6
SLD-SOLID
 62
     7
 10
756.6900649689
 20
333.741605033
 30
0.0
  0
VERTEX
  5
6E6
  8
0
  6
SLD-SOLID
 62
     7
 10
756.6889026783
 20
333.6246309176
 30
0.0
  0
VERTEX
  5
6E7
  8
0
  6
SLD-SOLID
 62
     7
 10
756.699691119
 20
333.5119632378
 30
0.0
  0
VERTEX
  5
6E8
  8
0
  6
SLD-SOLID
 62
     7
 10
756.7206123493
 20
333.4228691951
 30
0.0
  0
VERTEX
  5
6E9
  8
0
  6
SLD-SOLID
 62
     7
 10
756.7531862877
 20
333.3555010453
 30
0.0
  0
VERTEX
  5
6EA
  8
0
  6
SLD-SOLID
 62
     7
 10
756.8422654293
 20
333.2921264067
 30
0.0
  0
SEQEND
  5
6EB
  8
0
  6
SLD-SOLID
 62
     7
  0
POLYLINE
  5
1E2
  8
0
  6
SLD-SOLID
 62
     7
 66
     1
 10
0.0
 20
0.0
 30
0.0
  0
VERTEX
  5
6EC
  8
0
  6
SLD-SOLID
 62
     7
 10
756.8422654293
 20
333.2921264067
 30
0.0
  0
VERTEX
  5
6ED
  8
0
  6
SLD-SOLID
 62
     7
 10
756.9455602787
 20
333.3085474864
 30
0.0
  0
VERTEX
  5
6EE
  8
0
  6
SLD-SOLID
 62
     7
 10
757.0579150341
 20
333.4148374692
 30
0.0
  0
VERTEX
  5
6EF
  8
0
  6
SLD-SOLID
 62
     7
 10
757.1137943886
 20
333.5018155471
 30
0.0
  0
VERTEX
  5
6F0
  8
0
  6
SLD-SOLID
 62
     7
 10
757.1626999996
 20
333.603217949
 30
0.0
  0
VERTEX
  5
6F1
  8
0
  6
SLD-SOLID
 62
     7
 10
757.2054365299
 20
333.7216225758
 30
0.0
  0
VERTEX
  5
6F2
  8
0
  6
SLD-SOLID
 62
     7
 10
757.2385171078
 20
333.8487741843
 30
0.0
  0
SEQEND
  5
6F3
  8
0
  6
SLD-SOLID
 62
     7
  0
ARC
  5
1E3
  8
0
  6
SLD-SOLID
 62
     7
 10
755.873630407
 20
334.1500088804
 30
0.0
 40
1.397733182042155
 50
347.5541634456
 51
10.336496376
  0
LINE
  5
1E4
  8
0
  6
SLD-SOLID
 62
     7
 10
757.2486796997
 20
334.4008026019
 30
0.0
 11
757.4349144123
 21
335.0673762456
 31
0.0
  0
LINE
  5
1E5
  8
0
  6
SLD-SOLID
 62
     7
 10
757.4349144123
 20
335.0673762456
 30
0.0
 11
758.2350471638
 21
334.3410340443
 31
0.0
  0
POLYLINE
  5
1E6
  8
0
  6
SLD-SOLID
 62
     7
 66
     1
 10
0.0
 20
0.0
 30
0.0
  0
VERTEX
  5
6F4
  8
0
  6
SLD-SOLID
 62
     7
 10
750.6646612308
 20
358.7136117116
 30
0.0
  0
VERTEX
  5
6F5
  8
0
  6
SLD-SOLID
 62
     7
 10
750.6610551498
 20
358.7107208863
 30
0.0
  0
VERTEX
  5
6F6
  8
0
  6
SLD-SOLID
 62
     7
 10
750.6574192665
 20
358.7078151599
 30
0.0
  0
SEQEND
  5
6F7
  8
0
  6
SLD-SOLID
 62
     7
  0
POLYLINE
  5
1E7
  8
0
  6
SLD-SOLID
 62
     7
 66
     1
 10
0.0
 20
0.0
 30
0.0
  0
VERTEX
  5
6F8
  8
0
  6
SLD-SOLID
 62
     7
 10
751.9184449337
 20
357.9286036387
 30
0.0
  0
VERTEX
  5
6F9
  8
0
  6
SLD-SOLID
 62
     7
 10
751.7025569103
 20
357.8858373061
 30
0.0
  0
VERTEX
  5
6FA
  8
0
  6
SLD-SOLID
 62
     7
 10
751.38841063
 20
358.0266532794
 30
0.0
  0
VERTEX
  5
6FB
  8
0
  6
SLD-SOLID
 62
     7
 10
751.025477948
 20
358.3155569926
 30
0.0
  0
VERTEX
  5
6FC
  8
0
  6
SLD-SOLID
 62
     7
 10
750.6646612308
 20
358.7136117116
 30
0.0
  0
SEQEND
  5
6FD
  8
0
  6
SLD-SOLID
 62
     7
  0
POLYLINE
  5
1E8
  8
0
  6
SLD-SOLID
 62
     7
 66
     1
 10
0.0
 20
0.0
 30
0.0
  0
VERTEX
  5
6FE
  8
0
  6
SLD-SOLID
 62
     7
 10
751.9184449337
 20
357.9286036387
 30
0.0
  0
VERTEX
  5
6FF
  8
0
  6
SLD-SOLID
 62
     7
 10
751.9146898411
 20
357.9258767262
 30
0.0
  0
VERTEX
  5
700
  8
0
  6
SLD-SOLID
 62
     7
 10
751.9109347484
 20
357.9231647149
 30
0.0
  0
SEQEND
  5
701
  8
0
  6
SLD-SOLID
 62
     7
  0
LINE
  5
1E9
  8
0
  6
SLD-SOLID
 62
     7
 10
752.0832517765
 20
359.7319868699
 30
0.0
 11
752.4229386471
 21
359.0763208762
 31
0.0
  0
LINE
  5
1EA
  8
0
  6
SLD-SOLID
 62
     7
 10
752.4229386471
 20
359.0763208762
 30
0.0
 11
751.5015104435
 21
359.3411145106
 31
0.0
  0
POLYLINE
  5
1EB
  8
0
  6
SLD-SOLID
 62
     7
 66
     1
 10
0.0
 20
0.0
 30
0.0
  0
VERTEX
  5
702
  8
0
  6
SLD-SOLID
 62
     7
 10
751.5015104435
 20
359.3411145106
 30
0.0
  0
VERTEX
  5
703
  8
0
  6
SLD-SOLID
 62
     7
 10
751.8009343765
 20
358.8956293956
 30
0.0
  0
VERTEX
  5
704
  8
0
  6
SLD-SOLID
 62
     7
 10
751.9067624233
 20
358.6761650935
 30
0.0
  0
VERTEX
  5
705
  8
0
  6
SLD-SOLID
 62
     7
 10
751.9795694969
 20
358.4685025111
 30
0.0
  0
VERTEX
  5
706
  8
0
  6
SLD-SOLID
 62
     7
 10
752.0182827137
 20
358.2830724612
 30
0.0
  0
VERTEX
  5
707
  8
0
  6
SLD-SOLID
 62
     7
 10
752.0201304577
 20
358.1277874604
 30
0.0
  0
VERTEX
  5
708
  8
0
  6
SLD-SOLID
 62
     7
 10
751.9184449337
 20
357.9286036387
 30
0.0
  0
SEQEND
  5
709
  8
0
  6
SLD-SOLID
 62
     7
  0
POLYLINE
  5
1EC
  8
0
  6
SLD-SOLID
 62
     7
 66
     1
 10
0.0
 20
0.0
 30
0.0
  0
VERTEX
  5
70A
  8
0
  6
SLD-SOLID
 62
     7
 10
750.6646612308
 20
358.7136117116
 30
0.0
  0
VERTEX
  5
70B
  8
0
  6
SLD-SOLID
 62
     7
 10
750.354806485
 20
359.153583397
 30
0.0
  0
VERTEX
  5
70C
  8
0
  6
SLD-SOLID
 62
     7
 10
750.2400079391
 20
359.3649265662
 30
0.0
  0
VERTEX
  5
70D
  8
0
  6
SLD-SOLID
 62
     7
 10
750.1534023903
 20
359.5712927476
 30
0.0
  0
VERTEX
  5
70E
  8
0
  6
SLD-SOLID
 62
     7
 10
750.0816682003
 20
359.9119183913
 30
0.0
  0
VERTEX
  5
70F
  8
0
  6
SLD-SOLID
 62
     7
 10
750.1653233192
 20
360.1185378924
 30
0.0
  0
SEQEND
  5
710
  8
0
  6
SLD-SOLID
 62
     7
  0
POLYLINE
  5
1ED
  8
0
  6
SLD-SOLID
 62
     7
 66
     1
 10
0.0
 20
0.0
 30
0.0
  0
VERTEX
  5
711
  8
0
  6
SLD-SOLID
 62
     7
 10
750.1653233192
 20
360.1185378924
 30
0.0
  0
VERTEX
  5
712
  8
0
  6
SLD-SOLID
 62
     7
 10
750.3966489456
 20
360.1634052888
 30
0.0
  0
VERTEX
  5
713
  8
0
  6
SLD-SOLID
 62
     7
 10
750.7012882851
 20
360.0986597434
 30
0.0
  0
SEQEND
  5
714
  8
0
  6
SLD-SOLID
 62
     7
  0
LINE
  5
1EE
  8
0
  6
SLD-SOLID
 62
     7
 10
750.7012882851
 20
360.0986597434
 30
0.0
 11
752.0832517765
 21
359.7319868699
 31
0.0
  0
POLYLINE
  5
1EF
  8
0
  6
SLD-SOLID
 62
     7
 66
     1
 10
0.0
 20
0.0
 30
0.0
  0
VERTEX
  5
715
  8
0
  6
SLD-SOLID
 62
     7
 10
750.8862713001
 20
358.91018783
 30
0.0
  0
VERTEX
  5
716
  8
0
  6
SLD-SOLID
 62
     7
 10
751.0416010044
 20
358.7421623364
 30
0.0
  0
VERTEX
  5
717
  8
0
  6
SLD-SOLID
 62
     7
 10
751.1200705192
 20
358.6769250527
 30
0.0
  0
VERTEX
  5
718
  8
0
  6
SLD-SOLID
 62
     7
 10
751.1976459644
 20
358.6253372327
 30
0.0
  0
VERTEX
  5
719
  8
0
  6
SLD-SOLID
 62
     7
 10
751.3307431362
 20
358.5737643138
 30
0.0
  0
VERTEX
  5
71A
  8
0
  6
SLD-SOLID
 62
     7
 10
751.3813772819
 20
358.5771617785
 30
0.0
  0
VERTEX
  5
71B
  8
0
  6
SLD-SOLID
 62
     7
 10
751.4208355568
 20
358.5971144334
 30
0.0
  0
SEQEND
  5
71C
  8
0
  6
SLD-SOLID
 62
     7
  0
POLYLINE
  5
1F0
  8
0
  6
SLD-SOLID
 62
     7
 66
     1
 10
0.0
 20
0.0
 30
0.0
  0
VERTEX
  5
71D
  8
0
  6
SLD-SOLID
 62
     7
 10
751.4208355568
 20
358.5971144334
 30
0.0
  0
VERTEX
  5
71E
  8
0
  6
SLD-SOLID
 62
     7
 10
751.4640489242
 20
358.680560936
 30
0.0
  0
VERTEX
  5
71F
  8
0
  6
SLD-SOLID
 62
     7
 10
751.463005843
 20
358.744799842
 30
0.0
  0
VERTEX
  5
720
  8
0
  6
SLD-SOLID
 62
     7
 10
751.4455714844
 20
358.8234630719
 30
0.0
  0
VERTEX
  5
721
  8
0
  6
SLD-SOLID
 62
     7
 10
751.4127889297
 20
358.9121845856
 30
0.0
  0
VERTEX
  5
722
  8
0
  6
SLD-SOLID
 62
     7
 10
751.36659533
 20
359.0040204421
 30
0.0
  0
VERTEX
  5
723
  8
0
  6
SLD-SOLID
 62
     7
 10
751.3063946388
 20
359.0994325772
 30
0.0
  0
VERTEX
  5
724
  8
0
  6
SLD-SOLID
 62
     7
 10
751.23698503
 20
359.1929373637
 30
0.0
  0
SEQEND
  5
725
  8
0
  6
SLD-SOLID
 62
     7
  0
POLYLINE
  5
1F1
  8
0
  6
SLD-SOLID
 62
     7
 66
     1
 10
0.0
 20
0.0
 30
0.0
  0
VERTEX
  5
726
  8
0
  6
SLD-SOLID
 62
     7
 10
751.23698503
 20
359.1929373637
 30
0.0
  0
VERTEX
  5
727
  8
0
  6
SLD-SOLID
 62
     7
 10
751.0837414883
 20
359.3565521136
 30
0.0
  0
VERTEX
  5
728
  8
0
  6
SLD-SOLID
 62
     7
 10
751.0058084152
 20
359.4191220895
 30
0.0
  0
VERTEX
  5
729
  8
0
  6
SLD-SOLID
 62
     7
 10
750.9286800049
 20
359.467521061
 30
0.0
  0
VERTEX
  5
72A
  8
0
  6
SLD-SOLID
 62
     7
 10
750.7973709724
 20
359.5128950968
 30
0.0
  0
VERTEX
  5
72B
  8
0
  6
SLD-SOLID
 62
     7
 10
750.7088878773
 20
359.488323082
 30
0.0
  0
SEQEND
  5
72C
  8
0
  6
SLD-SOLID
 62
     7
  0
POLYLINE
  5
1F2
  8
0
  6
SLD-SOLID
 62
     7
 66
     1
 10
0.0
 20
0.0
 30
0.0
  0
VERTEX
  5
72D
  8
0
  6
SLD-SOLID
 62
     7
 10
750.7088878773
 20
359.488323082
 30
0.0
  0
VERTEX
  5
72E
  8
0
  6
SLD-SOLID
 62
     7
 10
750.6673136375
 20
359.406694521
 30
0.0
  0
VERTEX
  5
72F
  8
0
  6
SLD-SOLID
 62
     7
 10
750.6865957401
 20
359.2689034835
 30
0.0
  0
VERTEX
  5
730
  8
0
  6
SLD-SOLID
 62
     7
 10
750.7606247089
 20
359.0956625834
 30
0.0
  0
VERTEX
  5
731
  8
0
  6
SLD-SOLID
 62
     7
 10
750.8862713001
 20
358.91018783
 30
0.0
  0
SEQEND
  5
732
  8
0
  6
SLD-SOLID
 62
     7
  0
POLYLINE
  5
1F3
  8
0
  6
SLD-SOLID
 62
     7
 66
     1
 10
0.0
 20
0.0
 30
0.0
  0
VERTEX
  5
733
  8
0
  6
SLD-SOLID
 62
     7
 10
750.1653233192
 20
360.1185378924
 30
0.0
  0
VERTEX
  5
734
  8
0
  6
SLD-SOLID
 62
     7
 10
750.1618364475
 20
360.1154682532
 30
0.0
  0
VERTEX
  5
735
  8
0
  6
SLD-SOLID
 62
     7
 10
750.1583495758
 20
360.1124135152
 30
0.0
  0
SEQEND
  5
736
  8
0
  6
SLD-SOLID
 62
     7
  0
LINE
  5
1F4
  8
0
  6
SLD-SOLID
 62
     7
 10
704.6274939201
 20
358.8385877505
 30
0.0
 11
704.6347209833
 21
358.8327613965
 31
0.0
  0
LINE
  5
1F5
  8
0
  6
SLD-SOLID
 62
     7
 10
705.1656195543
 20
359.487950553
 30
0.0
 11
704.6274939201
 21
358.8385877505
 31
0.0
  0
LINE
  5
1F6
  8
0
  6
SLD-SOLID
 62
     7
 10
705.1656195543
 20
359.487950553
 30
0.0
 11
705.1726827047
 21
359.4819155827
 31
0.0
  0
LINE
  5
1F7
  8
0
  6
SLD-SOLID
 62
     7
 10
703.0790844582
 20
359.5553038016
 30
0.0
 11
703.8843879125
 21
360.5398831263
 31
0.0
  0
LINE
  5
1F8
  8
0
  6
SLD-SOLID
 62
     7
 10
703.8843879125
 20
360.5398831263
 30
0.0
 11
705.1656195543
 21
359.487950553
 31
0.0
  0
LINE
  5
1F9
  8
0
  6
SLD-SOLID
 62
     7
 10
704.6274939201
 20
358.8385877505
 30
0.0
 11
703.5758444689
 21
359.7028849021
 31
0.0
  0
LINE
  5
1FA
  8
0
  6
SLD-SOLID
 62
     7
 10
703.5758444689
 20
359.7028849021
 30
0.0
 11
703.0069181345
 21
358.9802679911
 31
0.0
  0
LINE
  5
1FB
  8
0
  6
SLD-SOLID
 62
     7
 10
703.0069181345
 20
358.9802679911
 30
0.0
 11
703.0790844582
 21
359.5553038016
 31
0.0
  0
LINE
  5
1FC
  8
0
  6
SLD-SOLID
 62
     7
 10
740.4337325714
 20
313.3278784648
 30
0.0
 11
740.4297390602
 21
313.3362678185
 31
0.0
  0
LINE
  5
1FD
  8
0
  6
SLD-SOLID
 62
     7
 10
740.2835884712
 20
313.6352298156
 30
0.0
 11
740.4337325714
 21
313.3278784648
 31
0.0
  0
LINE
  5
1FE
  8
0
  6
SLD-SOLID
 62
     7
 10
740.2835884712
 20
313.6352298156
 30
0.0
 11
740.27959496
 21
313.6436191693
 31
0.0
  0
LINE
  5
1FF
  8
0
  6
SLD-SOLID
 62
     7
 10
739.5252087734
 20
313.285238792
 30
0.0
 11
740.2835884712
 21
313.6352298156
 31
0.0
  0
LINE
  5
200
  8
0
  6
SLD-SOLID
 62
     7
 10
739.5252087734
 20
313.285238792
 30
0.0
 11
739.5214834831
 21
313.2937324539
 31
0.0
  0
LINE
  5
201
  8
0
  6
SLD-SOLID
 62
     7
 10
741.048435273
 20
312.1086207524
 30
0.0
 11
740.2740219257
 21
311.7498752967
 31
0.0
  0
LINE
  5
202
  8
0
  6
SLD-SOLID
 62
     7
 10
740.2740219257
 20
311.7498752967
 30
0.0
 11
739.8036518715
 21
312.7140996352
 31
0.0
  0
LINE
  5
203
  8
0
  6
SLD-SOLID
 62
     7
 10
739.8036518715
 20
312.7140996352
 30
0.0
 11
739.4378581665
 21
312.5529659286
 31
0.0
  0
LINE
  5
204
  8
0
  6
SLD-SOLID
 62
     7
 10
739.4378581665
 20
312.5529659286
 30
0.0
 11
739.3095889709
 21
312.81669413
 31
0.0
  0
LINE
  5
205
  8
0
  6
SLD-SOLID
 62
     7
 10
739.3095889709
 20
312.81669413
 30
0.0
 11
739.6754422806
 21
312.9777011767
 31
0.0
  0
LINE
  5
206
  8
0
  6
SLD-SOLID
 62
     7
 10
739.6754422806
 20
312.9777011767
 30
0.0
 11
739.5252087734
 21
313.285238792
 31
0.0
  0
LINE
  5
207
  8
0
  6
SLD-SOLID
 62
     7
 10
740.4337325714
 20
313.3278784648
 30
0.0
 11
742.1764829777
 21
314.2196980611
 31
0.0
  0
LINE
  5
208
  8
0
  6
SLD-SOLID
 62
     7
 10
742.1764829777
 20
314.2196980611
 30
0.0
 11
742.3048117779
 21
313.955910255
 31
0.0
  0
LINE
  5
209
  8
0
  6
SLD-SOLID
 62
     7
 10
742.3048117779
 20
313.955910255
 30
0.0
 11
741.048435273
 21
312.1086207524
 31
0.0
  0
LINE
  5
20A
  8
0
  6
SLD-SOLID
 62
     7
 10
741.4798238895
 20
313.5187325373
 30
0.0
 11
740.5618527553
 21
313.0644333854
 31
0.0
  0
LINE
  5
20B
  8
0
  6
SLD-SOLID
 62
     7
 10
740.5618527553
 20
313.0644333854
 30
0.0
 11
740.8067682407
 21
312.5627634421
 31
0.0
  0
LINE
  5
20C
  8
0
  6
SLD-SOLID
 62
     7
 10
740.8067682407
 20
312.5627634421
 30
0.0
 11
741.4798238895
 21
313.5187325373
 31
0.0
  0
LINE
  5
20D
  8
0
  6
SLD-SOLID
 62
     7
 10
699.2345550678
 20
332.1566430226
 30
0.0
 11
699.2434808634
 21
332.1592060223
 31
0.0
  0
LINE
  5
20E
  8
0
  6
SLD-SOLID
 62
     7
 10
698.5363760612
 20
335.1809975997
 30
0.0
 11
699.2345550678
 21
332.1566430226
 31
0.0
  0
LINE
  5
20F
  8
0
  6
SLD-SOLID
 62
     7
 10
698.5363760612
 20
335.1809975997
 30
0.0
 11
698.5455104731
 21
335.1826218262
 31
0.0
  0
LINE
  5
210
  8
0
  6
SLD-SOLID
 62
     7
 10
697.8916326187
 20
332.8269270554
 30
0.0
 11
698.1013664625
 21
332.0226964846
 31
0.0
  0
POLYLINE
  5
211
  8
0
  6
SLD-SOLID
 62
     7
 66
     1
 10
0.0
 20
0.0
 30
0.0
  0
VERTEX
  5
737
  8
0
  6
SLD-SOLID
 62
     7
 10
698.1013664625
 20
332.0226964846
 30
0.0
  0
VERTEX
  5
738
  8
0
  6
SLD-SOLID
 62
     7
 10
697.8545585297
 20
332.0811239377
 30
0.0
  0
VERTEX
  5
739
  8
0
  6
SLD-SOLID
 62
     7
 10
697.7204480789
 20
332.1859089032
 30
0.0
  0
VERTEX
  5
73A
  8
0
  6
SLD-SOLID
 62
     7
 10
697.5852647446
 20
332.3476163045
 30
0.0
  0
VERTEX
  5
73B
  8
0
  6
SLD-SOLID
 62
     7
 10
697.4553415201
 20
332.5596896306
 30
0.0
  0
VERTEX
  5
73C
  8
0
  6
SLD-SOLID
 62
     7
 10
697.3395296953
 20
332.8108636037
 30
0.0
  0
VERTEX
  5
73D
  8
0
  6
SLD-SOLID
 62
     7
 10
697.1638450048
 20
333.3865997687
 30
0.0
  0
SEQEND
  5
73E
  8
0
  6
SLD-SOLID
 62
     7
  0
POLYLINE
  5
212
  8
0
  6
SLD-SOLID
 62
     7
 66
     1
 10
0.0
 20
0.0
 30
0.0
  0
VERTEX
  5
73F
  8
0
  6
SLD-SOLID
 62
     7
 10
697.1638450048
 20
333.3866146699
 30
0.0
  0
VERTEX
  5
740
  8
0
  6
SLD-SOLID
 62
     7
 10
697.081590595
 20
333.910405387
 30
0.0
  0
VERTEX
  5
741
  8
0
  6
SLD-SOLID
 62
     7
 10
697.0743486307
 20
334.1571090117
 30
0.0
  0
VERTEX
  5
742
  8
0
  6
SLD-SOLID
 62
     7
 10
697.0913508556
 20
334.3796727553
 30
0.0
  0
VERTEX
  5
743
  8
0
  6
SLD-SOLID
 62
     7
 10
697.1919485948
 20
334.7164688006
 30
0.0
  0
VERTEX
  5
744
  8
0
  6
SLD-SOLID
 62
     7
 10
697.3594078443
 20
334.8742869988
 30
0.0
  0
SEQEND
  5
745
  8
0
  6
SLD-SOLID
 62
     7
  0
ARC
  5
213
  8
0
  6
SLD-SOLID
 62
     7
 10
697.0452287094
 20
333.6309701138
 30
0.0
 40
1.282398302199437
 50
16.6821047105
 51
75.8185556307
  0
LINE
  5
214
  8
0
  6
SLD-SOLID
 62
     7
 10
698.2736536882
 20
333.9990970984
 30
0.0
 11
698.5755810163
 21
333.5521516696
 31
0.0
  0
LINE
  5
215
  8
0
  6
SLD-SOLID
 62
     7
 10
698.5755810163
 20
333.5521516696
 30
0.0
 11
698.2504078768
 21
335.1153132811
 31
0.0
  0
LINE
  5
216
  8
0
  6
SLD-SOLID
 62
     7
 10
698.2504078768
 20
335.1153132811
 30
0.0
 11
698.5363760612
 21
335.1809975997
 31
0.0
  0
LINE
  5
217
  8
0
  6
SLD-SOLID
 62
     7
 10
699.2345550678
 20
332.1566430226
 30
0.0
 11
699.086571636
 21
332.1229663983
 31
0.0
  0
LINE
  5
218
  8
0
  6
SLD-SOLID
 62
     7
 10
699.086571636
 20
332.1229663983
 30
0.0
 11
698.2298293732
 21
333.3476481333
 31
0.0
  0
ARC
  5
219
  8
0
  6
SLD-SOLID
 62
     7
 10
697.1523631003
 20
332.9827242928
 30
0.0
 40
1.137586470810023
 50
18.710573269
 51
69.5817397787
  0
POLYLINE
  5
21A
  8
0
  6
SLD-SOLID
 62
     7
 66
     1
 10
0.0
 20
0.0
 30
0.0
  0
VERTEX
  5
746
  8
0
  6
SLD-SOLID
 62
     7
 10
697.5492337368
 20
334.0488371745
 30
0.0
  0
VERTEX
  5
747
  8
0
  6
SLD-SOLID
 62
     7
 10
697.4728354834
 20
333.9879212275
 30
0.0
  0
VERTEX
  5
748
  8
0
  6
SLD-SOLID
 62
     7
 10
697.4462816141
 20
333.9246508971
 30
0.0
  0
VERTEX
  5
749
  8
0
  6
SLD-SOLID
 62
     7
 10
697.4292942903
 20
333.8408765689
 30
0.0
  0
VERTEX
  5
74A
  8
0
  6
SLD-SOLID
 62
     7
 10
697.4227675817
 20
333.742812027
 30
0.0
  0
VERTEX
  5
74B
  8
0
  6
SLD-SOLID
 62
     7
 10
697.427044215
 20
333.6325136319
 30
0.0
  0
VERTEX
  5
74C
  8
0
  6
SLD-SOLID
 62
     7
 10
697.4417367599
 20
333.5165825978
 30
0.0
  0
VERTEX
  5
74D
  8
0
  6
SLD-SOLID
 62
     7
 10
697.4651464842
 20
333.3989975348
 30
0.0
  0
SEQEND
  5
74E
  8
0
  6
SLD-SOLID
 62
     7
  0
POLYLINE
  5
21B
  8
0
  6
SLD-SOLID
 62
     7
 66
     1
 10
0.0
 20
0.0
 30
0.0
  0
VERTEX
  5
74F
  8
0
  6
SLD-SOLID
 62
     7
 10
697.4651464842
 20
333.3989975348
 30
0.0
  0
VERTEX
  5
750
  8
0
  6
SLD-SOLID
 62
     7
 10
697.5014755152
 20
333.2649466887
 30
0.0
  0
VERTEX
  5
751
  8
0
  6
SLD-SOLID
 62
     7
 10
697.548235359
 20
333.1406561032
 30
0.0
  0
VERTEX
  5
752
  8
0
  6
SLD-SOLID
 62
     7
 10
697.6014176033
 20
333.0358562365
 30
0.0
  0
VERTEX
  5
753
  8
0
  6
SLD-SOLID
 62
     7
 10
697.662035527
 20
332.9478350774
 30
0.0
  0
VERTEX
  5
754
  8
0
  6
SLD-SOLID
 62
     7
 10
697.7817067526
 20
332.8450915709
 30
0.0
  0
VERTEX
  5
755
  8
0
  6
SLD-SOLID
 62
     7
 10
697.8916326187
 20
332.8269270554
 30
0.0
  0
SEQEND
  5
756
  8
0
  6
SLD-SOLID
 62
     7
  0
POLYLINE
  5
21C
  8
0
  6
SLD-SOLID
 62
     7
 66
     1
 10
0.0
 20
0.0
 30
0.0
  0
VERTEX
  5
757
  8
0
  6
SLD-SOLID
 62
     7
 10
728.3016541622
 20
370.6543443099
 30
0.0
  0
VERTEX
  5
758
  8
0
  6
SLD-SOLID
 62
     7
 10
728.2071509979
 20
371.0044917956
 30
0.0
  0
VERTEX
  5
759
  8
0
  6
SLD-SOLID
 62
     7
 10
728.1262972973
 20
371.0880426064
 30
0.0
  0
VERTEX
  5
75A
  8
0
  6
SLD-SOLID
 62
     7
 10
727.9942730091
 20
371.1621162787
 30
0.0
  0
VERTEX
  5
75B
  8
0
  6
SLD-SOLID
 62
     7
 10
727.8069058082
 20
371.2167439357
 30
0.0
  0
VERTEX
  5
75C
  8
0
  6
SLD-SOLID
 62
     7
 10
727.6954153202
 20
371.2311831609
 30
0.0
  0
VERTEX
  5
75D
  8
0
  6
SLD-SOLID
 62
     7
 10
727.5790968559
 20
371.2354597941
 30
0.0
  0
SEQEND
  5
75E
  8
0
  6
SLD-SOLID
 62
     7
  0
POLYLINE
  5
21D
  8
0
  6
SLD-SOLID
 62
     7
 66
     1
 10
0.0
 20
0.0
 30
0.0
  0
VERTEX
  5
75F
  8
0
  6
SLD-SOLID
 62
     7
 10
727.5790968559
 20
371.2354597941
 30
0.0
  0
VERTEX
  5
760
  8
0
  6
SLD-SOLID
 62
     7
 10
727.3409464977
 20
371.2161031857
 30
0.0
  0
VERTEX
  5
761
  8
0
  6
SLD-SOLID
 62
     7
 10
727.2349694393
 20
371.1924699441
 30
0.0
  0
VERTEX
  5
762
  8
0
  6
SLD-SOLID
 62
     7
 10
727.1436253212
 20
371.1612073079
 30
0.0
  0
VERTEX
  5
763
  8
0
  6
SLD-SOLID
 62
     7
 10
727.017054858
 20
371.0818586245
 30
0.0
  0
VERTEX
  5
764
  8
0
  6
SLD-SOLID
 62
     7
 10
726.9402840755
 20
370.9941950932
 30
0.0
  0
VERTEX
  5
765
  8
0
  6
SLD-SOLID
 62
     7
 10
726.8601456306
 20
370.6306067601
 30
0.0
  0
SEQEND
  5
766
  8
0
  6
SLD-SOLID
 62
     7
  0
POLYLINE
  5
21E
  8
0
  6
SLD-SOLID
 62
     7
 66
     1
 10
0.0
 20
0.0
 30
0.0
  0
VERTEX
  5
767
  8
0
  6
SLD-SOLID
 62
     7
 10
751.4134743832
 20
358.5914519921
 30
0.0
  0
VERTEX
  5
768
  8
0
  6
SLD-SOLID
 62
     7
 10
751.4567175529
 20
358.6748835936
 30
0.0
  0
VERTEX
  5
769
  8
0
  6
SLD-SOLID
 62
     7
 10
751.4556744717
 20
358.7391224995
 30
0.0
  0
VERTEX
  5
76A
  8
0
  6
SLD-SOLID
 62
     7
 10
751.4382401131
 20
358.8177559272
 30
0.0
  0
VERTEX
  5
76B
  8
0
  6
SLD-SOLID
 62
     7
 10
751.4054873608
 20
358.9064625397
 30
0.0
  0
VERTEX
  5
76C
  8
0
  6
SLD-SOLID
 62
     7
 10
751.3593235634
 20
358.9982685939
 30
0.0
  0
VERTEX
  5
76D
  8
0
  6
SLD-SOLID
 62
     7
 10
751.2991228722
 20
359.0936658278
 30
0.0
  0
VERTEX
  5
76E
  8
0
  6
SLD-SOLID
 62
     7
 10
751.2297430656
 20
359.187140812
 30
0.0
  0
SEQEND
  5
76F
  8
0
  6
SLD-SOLID
 62
     7
  0
POLYLINE
  5
21F
  8
0
  6
SLD-SOLID
 62
     7
 66
     1
 10
0.0
 20
0.0
 30
0.0
  0
VERTEX
  5
770
  8
0
  6
SLD-SOLID
 62
     7
 10
751.2297430656
 20
359.187140812
 30
0.0
  0
VERTEX
  5
771
  8
0
  6
SLD-SOLID
 62
     7
 10
751.0765293262
 20
359.3507108584
 30
0.0
  0
VERTEX
  5
772
  8
0
  6
SLD-SOLID
 62
     7
 10
750.9985962532
 20
359.4132510319
 30
0.0
  0
VERTEX
  5
773
  8
0
  6
SLD-SOLID
 62
     7
 10
750.9214976452
 20
359.4616202012
 30
0.0
  0
VERTEX
  5
774
  8
0
  6
SLD-SOLID
 62
     7
 10
750.7902184151
 20
359.5069644347
 30
0.0
  0
VERTEX
  5
775
  8
0
  6
SLD-SOLID
 62
     7
 10
750.7017651222
 20
359.4823924199
 30
0.0
  0
SEQEND
  5
776
  8
0
  6
SLD-SOLID
 62
     7
  0
LINE
  5
220
  8
0
  6
SLD-SOLID
 62
     7
 10
742.1764829777
 20
314.2196980611
 30
0.0
 11
742.1719530247
 21
314.2278042927
 31
0.0
  0
LINE
  5
221
  8
0
  6
SLD-SOLID
 62
     7
 10
739.3095889709
 20
312.81669413
 30
0.0
 11
739.3059530876
 21
312.825239946
 31
0.0
  0
POLYLINE
  5
222
  8
0
  6
SLD-SOLID
 62
     7
 66
     1
 10
0.0
 20
0.0
 30
0.0
  0
VERTEX
  5
777
  8
0
  6
SLD-SOLID
 62
     7
 10
728.3016541622
 20
370.6543443099
 30
0.0
  0
VERTEX
  5
778
  8
0
  6
SLD-SOLID
 62
     7
 10
728.3017733715
 20
370.6589934722
 30
0.0
  0
VERTEX
  5
779
  8
0
  6
SLD-SOLID
 62
     7
 10
728.3018627785
 20
370.6636277333
 30
0.0
  0
SEQEND
  5
77A
  8
0
  6
SLD-SOLID
 62
     7
  0
POLYLINE
  5
223
  8
0
  6
SLD-SOLID
 62
     7
 66
     1
 10
0.0
 20
0.0
 30
0.0
  0
VERTEX
  5
77B
  8
0
  6
SLD-SOLID
 62
     7
 10
751.2297430656
 20
359.187140812
 30
0.0
  0
VERTEX
  5
77C
  8
0
  6
SLD-SOLID
 62
     7
 10
751.2333491466
 20
359.1900316373
 30
0.0
  0
VERTEX
  5
77D
  8
0
  6
SLD-SOLID
 62
     7
 10
751.23698503
 20
359.1929373637
 30
0.0
  0
SEQEND
  5
77E
  8
0
  6
SLD-SOLID
 62
     7
  0
POLYLINE
  5
224
  8
0
  6
SLD-SOLID
 62
     7
 66
     1
 10
0.0
 20
0.0
 30
0.0
  0
VERTEX
  5
77F
  8
0
  6
SLD-SOLID
 62
     7
 10
751.4134743832
 20
358.5914519921
 30
0.0
  0
VERTEX
  5
780
  8
0
  6
SLD-SOLID
 62
     7
 10
751.4171400688
 20
358.5942832127
 30
0.0
  0
VERTEX
  5
781
  8
0
  6
SLD-SOLID
 62
     7
 10
751.4208355568
 20
358.5971144334
 30
0.0
  0
SEQEND
  5
782
  8
0
  6
SLD-SOLID
 62
     7
  0
POLYLINE
  5
225
  8
0
  6
SLD-SOLID
 62
     7
 66
     1
 10
0.0
 20
0.0
 30
0.0
  0
VERTEX
  5
783
  8
0
  6
SLD-SOLID
 62
     7
 10
750.7017651222
 20
359.4823924199
 30
0.0
  0
VERTEX
  5
784
  8
0
  6
SLD-SOLID
 62
     7
 10
750.7053414009
 20
359.485357751
 30
0.0
  0
VERTEX
  5
785
  8
0
  6
SLD-SOLID
 62
     7
 10
750.7088878773
 20
359.488323082
 30
0.0
  0
SEQEND
  5
786
  8
0
  6
SLD-SOLID
 62
     7
  0
POLYLINE
  5
226
  8
0
  6
SLD-SOLID
 62
     7
 66
     1
 10
0.0
 20
0.0
 30
0.0
  0
VERTEX
  5
787
  8
0
  6
SLD-SOLID
 62
     7
 10
697.3594078443
 20
334.8742869988
 30
0.0
  0
VERTEX
  5
788
  8
0
  6
SLD-SOLID
 62
     7
 10
697.3639675997
 20
334.8751065627
 30
0.0
  0
VERTEX
  5
789
  8
0
  6
SLD-SOLID
 62
     7
 10
697.3685422562
 20
334.8759261266
 30
0.0
  0
SEQEND
  5
78A
  8
0
  6
SLD-SOLID
 62
     7
  0
POLYLINE
  5
227
  8
0
  6
SLD-SOLID
 62
     7
 66
     1
 10
0.0
 20
0.0
 30
0.0
  0
VERTEX
  5
78B
  8
0
  6
SLD-SOLID
 62
     7
 10
714.7442796848
 20
312.8901643053
 30
0.0
  0
VERTEX
  5
78C
  8
0
  6
SLD-SOLID
 62
     7
 10
714.7462615393
 20
312.8943664327
 30
0.0
  0
VERTEX
  5
78D
  8
0
  6
SLD-SOLID
 62
     7
 10
714.7482284925
 20
312.8985685602
 30
0.0
  0
SEQEND
  5
78E
  8
0
  6
SLD-SOLID
 62
     7
  0
POLYLINE
  5
228
  8
0
  6
SLD-SOLID
 62
     7
 66
     1
 10
0.0
 20
0.0
 30
0.0
  0
VERTEX
  5
78F
  8
0
  6
SLD-SOLID
 62
     7
 10
713.9375755213
 20
313.5868904486
 30
0.0
  0
VERTEX
  5
790
  8
0
  6
SLD-SOLID
 62
     7
 10
713.9396914862
 20
313.5910180703
 30
0.0
  0
VERTEX
  5
791
  8
0
  6
SLD-SOLID
 62
     7
 10
713.941807451
 20
313.5951531425
 30
0.0
  0
SEQEND
  5
792
  8
0
  6
SLD-SOLID
 62
     7
  0
POLYLINE
  5
229
  8
0
  6
SLD-SOLID
 62
     7
 66
     1
 10
0.0
 20
0.0
 30
0.0
  0
VERTEX
  5
793
  8
0
  6
SLD-SOLID
 62
     7
 10
757.2385171078
 20
333.8487741843
 30
0.0
  0
VERTEX
  5
794
  8
0
  6
SLD-SOLID
 62
     7
 10
757.2339573524
 20
333.8497725621
 30
0.0
  0
VERTEX
  5
795
  8
0
  6
SLD-SOLID
 62
     7
 10
757.2294273994
 20
333.8507560387
 30
0.0
  0
SEQEND
  5
796
  8
0
  6
SLD-SOLID
 62
     7
  0
POLYLINE
  5
22A
  8
0
  6
SLD-SOLID
 62
     7
 66
     1
 10
0.0
 20
0.0
 30
0.0
  0
VERTEX
  5
797
  8
0
  6
SLD-SOLID
 62
     7
 10
756.8422654293
 20
333.2921264067
 30
0.0
  0
VERTEX
  5
798
  8
0
  6
SLD-SOLID
 62
     7
 10
756.8377652786
 20
333.2932141915
 30
0.0
  0
VERTEX
  5
799
  8
0
  6
SLD-SOLID
 62
     7
 10
756.8332353256
 20
333.2942870751
 30
0.0
  0
SEQEND
  5
79A
  8
0
  6
SLD-SOLID
 62
     7
  0
LINE
  5
22B
  8
0
  6
SLD-SOLID
 62
     7
 10
740.8027747295
 20
312.5711527959
 30
0.0
 11
740.8067682407
 21
312.5627634421
 31
0.0
  0
LINE
  5
22C
  8
0
  6
SLD-SOLID
 62
     7
 10
740.5578890465
 20
313.0728152886
 30
0.0
 11
740.8027747295
 21
312.5711527959
 31
0.0
  0
LINE
  5
22D
  8
0
  6
SLD-SOLID
 62
     7
 10
740.8027747295
 20
312.5711527959
 30
0.0
 11
741.4755621574
 21
313.5269803301
 31
0.0
  0
POLYLINE
  5
22E
  8
0
  6
SLD-SOLID
 62
     7
 66
     1
 10
0.0
 20
0.0
 30
0.0
  0
VERTEX
  5
79B
  8
0
  6
SLD-SOLID
 62
     7
 10
757.2486796997
 20
334.4008026019
 30
0.0
  0
VERTEX
  5
79C
  8
0
  6
SLD-SOLID
 62
     7
 10
757.2441497467
 20
334.4017115727
 30
0.0
  0
VERTEX
  5
79D
  8
0
  6
SLD-SOLID
 62
     7
 10
757.2395899914
 20
334.4026205435
 30
0.0
  0
SEQEND
  5
79E
  8
0
  6
SLD-SOLID
 62
     7
  0
LINE
  5
22F
  8
0
  6
SLD-SOLID
 62
     7
 10
757.4349144123
 20
335.0673762456
 30
0.0
 11
757.4257650993
 21
335.068985571
 31
0.0
  0
POLYLINE
  5
230
  8
0
  6
SLD-SOLID
 62
     7
 66
     1
 10
0.0
 20
0.0
 30
0.0
  0
VERTEX
  5
79F
  8
0
  6
SLD-SOLID
 62
     7
 10
727.5790968559
 20
371.2354597941
 30
0.0
  0
VERTEX
  5
7A0
  8
0
  6
SLD-SOLID
 62
     7
 10
727.5790968559
 20
371.2401089564
 30
0.0
  0
VERTEX
  5
7A1
  8
0
  6
SLD-SOLID
 62
     7
 10
727.5790670536
 20
371.2447432175
 30
0.0
  0
SEQEND
  5
7A2
  8
0
  6
SLD-SOLID
 62
     7
  0
POLYLINE
  5
231
  8
0
  6
SLD-SOLID
 62
     7
 66
     1
 10
0.0
 20
0.0
 30
0.0
  0
VERTEX
  5
7A3
  8
0
  6
SLD-SOLID
 62
     7
 10
726.8601456306
 20
370.6306067601
 30
0.0
  0
VERTEX
  5
7A4
  8
0
  6
SLD-SOLID
 62
     7
 10
726.8600264213
 20
370.6352410212
 30
0.0
  0
VERTEX
  5
7A5
  8
0
  6
SLD-SOLID
 62
     7
 10
726.8599072121
 20
370.6398901835
 30
0.0
  0
SEQEND
  5
7A6
  8
0
  6
SLD-SOLID
 62
     7
  0
LINE
  5
232
  8
0
  6
SLD-SOLID
 62
     7
 10
713.0601504467
 20
313.1717589989
 30
0.0
 11
713.0645313881
 21
313.1799397364
 31
0.0
  0
LINE
  5
233
  8
0
  6
SLD-SOLID
 62
     7
 10
752.4229386471
 20
359.0763208762
 30
0.0
 11
752.4155476711
 21
359.0707180396
 31
0.0
  0
LINE
  5
234
  8
0
  6
SLD-SOLID
 62
     7
 10
757.8215101383
 20
333.7800053254
 30
0.0
 11
757.81242043
 21
333.7819722787
 31
0.0
  0
LINE
  5
235
  8
0
  6
SLD-SOLID
 62
     7
 10
697.8916326187
 20
332.8269270554
 30
0.0
 11
697.9006329201
 21
332.8291920319
 31
0.0
  0
LINE
  5
236
  8
0
  6
SLD-SOLID
 62
     7
 10
698.1013664625
 20
332.0226964846
 30
0.0
 11
698.1103071592
 21
332.0252147809
 31
0.0
  0
POLYLINE
  5
237
  8
0
  6
SLD-SOLID
 62
     7
 66
     1
 10
0.0
 20
0.0
 30
0.0
  0
VERTEX
  5
7A7
  8
0
  6
SLD-SOLID
 62
     7
 10
697.4651464842
 20
333.3989975348
 30
0.0
  0
VERTEX
  5
7A8
  8
0
  6
SLD-SOLID
 62
     7
 10
697.469661536
 20
333.4000406161
 30
0.0
  0
VERTEX
  5
7A9
  8
0
  6
SLD-SOLID
 62
     7
 10
697.474191489
 20
333.4010687962
 30
0.0
  0
SEQEND
  5
7AA
  8
0
  6
SLD-SOLID
 62
     7
  0
POLYLINE
  5
238
  8
0
  6
SLD-SOLID
 62
     7
 66
     1
 10
0.0
 20
0.0
 30
0.0
  0
VERTEX
  5
7AB
  8
0
  6
SLD-SOLID
 62
     7
 10
697.5492337368
 20
334.0488371745
 30
0.0
  0
VERTEX
  5
7AC
  8
0
  6
SLD-SOLID
 62
     7
 10
697.553778591
 20
334.0497759476
 30
0.0
  0
VERTEX
  5
7AD
  8
0
  6
SLD-SOLID
 62
     7
 10
697.5583234451
 20
334.050729622
 30
0.0
  0
SEQEND
  5
7AE
  8
0
  6
SLD-SOLID
 62
     7
  0
POLYLINE
  5
239
  8
0
  6
SLD-SOLID
 62
     7
 66
     1
 10
0.0
 20
0.0
 30
0.0
  0
VERTEX
  5
7AF
  8
0
  6
SLD-SOLID
 62
     7
 10
714.1844877623
 20
312.4528152242
 30
0.0
  0
VERTEX
  5
7B0
  8
0
  6
SLD-SOLID
 62
     7
 10
714.186499419
 20
312.4570024505
 30
0.0
  0
VERTEX
  5
7B1
  8
0
  6
SLD-SOLID
 62
     7
 10
714.1885110758
 20
312.4611822263
 30
0.0
  0
SEQEND
  5
7B2
  8
0
  6
SLD-SOLID
 62
     7
  0
POLYLINE
  5
23A
  8
0
  6
SLD-SOLID
 62
     7
 66
     1
 10
0.0
 20
0.0
 30
0.0
  0
VERTEX
  5
7B3
  8
0
  6
SLD-SOLID
 62
     7
 10
713.8372907064
 20
312.7982390419
 30
0.0
  0
VERTEX
  5
7B4
  8
0
  6
SLD-SOLID
 62
     7
 10
713.839376869
 20
312.8023890153
 30
0.0
  0
VERTEX
  5
7B5
  8
0
  6
SLD-SOLID
 62
     7
 10
713.8414481304
 20
312.8065389887
 30
0.0
  0
SEQEND
  5
7B6
  8
0
  6
SLD-SOLID
 62
     7
  0
POLYLINE
  5
23B
  8
0
  6
SLD-SOLID
 62
     7
 66
     1
 10
0.0
 20
0.0
 30
0.0
  0
VERTEX
  5
7B7
  8
0
  6
SLD-SOLID
 62
     7
 10
714.7339829824
 20
312.3564717665
 30
0.0
  0
VERTEX
  5
7B8
  8
0
  6
SLD-SOLID
 62
     7
 10
714.7359350346
 20
312.3606887952
 30
0.0
  0
VERTEX
  5
7B9
  8
0
  6
SLD-SOLID
 62
     7
 10
714.7378721855
 20
312.3649058238
 30
0.0
  0
SEQEND
  5
7BA
  8
0
  6
SLD-SOLID
 62
     7
  0
LINE
  5
23C
  8
0
  6
SLD-SOLID
 62
     7
 10
715.4810825012
 20
312.0203611747
 30
0.0
 11
715.4847481869
 21
312.0288920894
 31
0.0
  0
LINE
  5
23D
  8
0
  6
SLD-SOLID
 62
     7
 10
703.0069181345
 20
358.9802679911
 30
0.0
 11
703.0143091104
 21
358.9746502534
 31
0.0
  0
LINE
  5
23E
  8
0
  6
SLD-SOLID
 62
     7
 10
757.4839690349
 20
332.3615488902
 30
0.0
 11
757.4749985359
 21
332.363933076
 31
0.0
  0
ARC
  5
23F
  8
0
  6
SLD-SOLID
 62
     7
 10
701.6212997086
 20
287.9512719897
 30
0.0
 40
0.4999999999999953
 50
0.0
 51
118.6815668302
  0
ARC
  5
240
  8
0
  6
SLD-SOLID
 62
     7
 10
702.6212997086
 20
285.5123394406
 30
0.0
 40
6.500000000088903
 50
180.0
 51
349.3514583999
  0
LINE
  5
241
  8
0
  6
SLD-SOLID
 62
     7
 10
696.233237686
 20
286.7134359971
 30
0.0
 11
700.9013840578
 21
289.2672193542
 31
0.0
  0
LINE
  5
242
  8
0
  6
SLD-SOLID
 62
     7
 10
701.3813355587
 20
288.3899209395
 30
0.0
 11
696.1213001631
 21
285.5123428002
 31
0.0
  0
ARC
  5
243
  8
0
  6
SLD-SOLID
 62
     7
 10
703.6212997086
 20
283.0734068915
 30
0.0
 40
0.5000000000001137
 50
180.0
 51
298.6815668302
  0
ARC
  5
244
  8
0
  6
SLD-SOLID
 62
     7
 10
703.6212997086
 20
283.0734068915
 30
0.0
 40
1.500000000000114
 50
180.0
 51
298.6815668302
  0
LINE
  5
245
  8
0
  6
SLD-SOLID
 62
     7
 10
703.1212994478
 20
287.9512754575
 30
0.0
 11
703.1212994478
 21
283.073410143
 31
0.0
  0
LINE
  5
246
  8
0
  6
SLD-SOLID
 62
     7
 10
709.0093591831
 20
284.3112421528
 30
0.0
 11
704.3412128113
 21
281.7574587956
 31
0.0
  0
ARC
  5
247
  8
0
  6
SLD-SOLID
 62
     7
 10
702.6212997086
 20
285.5123394406
 30
0.0
 40
6.500000000088979
 50
0.0
 51
169.3514583999
  0
CIRCLE
  5
248
  8
0
  6
SLD-SOLID
 62
     7
 10
702.6212997086
 20
285.5123394406
 30
0.0
 40
7.500000000088676
  0
LINE
  5
249
  8
0
  6
SLD-SOLID
 62
     7
 10
702.1212974213
 20
283.073410143
 30
0.0
 11
702.1212974213
 21
287.9512754575
 31
0.0
  0
LINE
  5
24A
  8
0
  6
SLD-SOLID
 62
     7
 10
703.8612762115
 20
282.6347572103
 30
0.0
 11
709.121296706
 21
285.5123428002
 31
0.0
  0
ARC
  5
24B
  8
0
  6
SLD-SOLID
 62
     7
 10
701.6212997086
 20
287.9512719897
 30
0.0
 40
1.500000000000036
 50
0.0
 51
118.6815668302
  0
LINE
  5
24C
  8
0
  6
SLD-SOLID
 62
     7
 10
792.6212945602
 20
197.5623394668
 30
0.0
 11
790.5713120125
 21
197.5623394668
 31
0.0
  0
LINE
  5
24D
  8
0
  6
SLD-SOLID
 62
     7
 10
792.6212945602
 20
197.5623394668
 30
0.0
 11
792.6212945602
 21
421.7623320714
 31
0.0
  0
LINE
  5
24E
  8
0
  6
SLD-SOLID
 62
     7
 10
790.5713120125
 20
421.7623320714
 30
0.0
 11
792.6212945602
 21
421.7623320714
 31
0.0
  0
LINE
  5
24F
  8
0
  6
SLD-SOLID
 62
     7
 10
664.6712967775
 20
197.5623394668
 30
0.0
 11
662.6212993286
 21
197.5623394668
 31
0.0
  0
LINE
  5
250
  8
0
  6
SLD-SOLID
 62
     7
 10
662.6212993286
 20
421.7623320714
 30
0.0
 11
662.6212993286
 21
197.5623394668
 31
0.0
  0
LINE
  5
251
  8
0
  6
SLD-SOLID
 62
     7
 10
662.6212993286
 20
421.7623320714
 30
0.0
 11
664.6712967775
 21
421.7623320714
 31
0.0
  0
LINE
  5
252
  8
0
  6
SLD-SOLID
 62
     7
 10
726.621309819
 20
376.8123385802
 30
0.0
 11
726.621309819
 21
375.8123365536
 31
0.0
  0
LINE
  5
253
  8
0
  6
SLD-SOLID
 62
     7
 10
728.6213138721
 20
375.8123365536
 30
0.0
 11
728.6213138721
 21
376.8123385802
 31
0.0
  0
ARC
  5
254
  8
0
  6
SLD-SOLID
 62
     7
 10
727.6212997086
 20
376.8123394406
 30
0.0
 40
1.000000000000114
 50
0.0
 51
180.0
  0
ARC
  5
255
  8
0
  6
SLD-SOLID
 62
     7
 10
727.6212997086
 20
375.8123394406
 30
0.0
 40
1.000000000000114
 50
180.0
 51
0.0
  0
LINE
  5
256
  8
0
  6
SLD-SOLID
 62
     7
 10
664.6712967775
 20
423.8123444215
 30
0.0
 11
790.5713120125
 21
423.8123444215
 31
0.0
  0
LINE
  5
257
  8
0
  6
SLD-SOLID
 62
     7
 10
664.6712967775
 20
421.7623320714
 30
0.0
 11
664.6712967775
 21
423.8123444215
 31
0.0
  0
LINE
  5
258
  8
0
  6
SLD-SOLID
 62
     7
 10
790.5713120125
 20
423.8123444215
 30
0.0
 11
790.5713120125
 21
421.7623320714
 31
0.0
  0
LINE
  5
259
  8
0
  6
SLD-SOLID
 62
     7
 10
664.6712967775
 20
195.5123392239
 30
0.0
 11
790.5713120125
 21
195.5123392239
 31
0.0
  0
LINE
  5
25A
  8
0
  6
SLD-SOLID
 62
     7
 10
664.6712967775
 20
195.5123392239
 30
0.0
 11
664.6712967775
 21
197.5623394668
 31
0.0
  0
LINE
  5
25B
  8
0
  6
SLD-SOLID
 62
     7
 10
790.5713120125
 20
197.5623394668
 30
0.0
 11
790.5713120125
 21
195.5123392239
 31
0.0
  0
ARC
  5
25C
  8
0
  6
SLD-SOLID
 62
     7
 10
790.5712994349
 20
197.5623343492
 30
0.0
 40
2.049995125291524
 50
270.0003515321
 51
0.000143034
  0
ARC
  5
25D
  8
0
  6
SLD-SOLID
 62
     7
 10
790.5712883525
 20
197.5623617298
 30
0.0
 40
1.250022468091725
 50
270.0010844744
 51
359.9989795587
  0
ARC
  5
25E
  8
0
  6
SLD-SOLID
 62
     7
 10
664.6713033184
 20
421.7623404316
 30
0.0
 40
2.050003989853502
 50
90.0001828127
 51
180.0002336612
  0
ARC
  5
25F
  8
0
  6
SLD-SOLID
 62
     7
 10
664.6713230951
 20
421.7623206552
 30
0.0
 40
1.250025125567794
 50
90.0012062861
 51
179.9994767294
  0
ARC
  5
260
  8
0
  6
SLD-SOLID
 62
     7
 10
790.5712905702
 20
421.7623404316
 30
0.0
 40
2.050003990006979
 50
359.9997663402
 51
89.9994007088
  0
ARC
  5
261
  8
0
  6
SLD-SOLID
 62
     7
 10
790.5712732928
 20
421.7623082532
 30
0.0
 40
1.250037527852666
 50
0.0010917124
 51
89.9982252721
  0
ARC
  5
262
  8
0
  6
SLD-SOLID
 62
     7
 10
664.6712944538
 20
197.5623343491
 30
0.0
 40
2.049995125209515
 50
179.9998569648
 51
270.0000649461
  0
ARC
  5
263
  8
0
  6
SLD-SOLID
 62
     7
 10
664.6713080362
 20
197.5623493285
 30
0.0
 40
1.250010066663569
 50
180.0004520244
 51
269.9994839426
  0
POLYLINE
  5
264
  8
0
  6
SLD-SOLID
 62
     7
 66
     1
 10
0.0
 20
0.0
 30
0.0
  0
VERTEX
  5
7BB
  8
0
  6
SLD-SOLID
 62
     7
 10
791.4924123905
 20
422.5905237094
 30
0.0
  0
VERTEX
  5
7BC
  8
0
  6
SLD-SOLID
 62
     7
 10
790.8434966228
 20
422.841652979
 30
0.0
  0
VERTEX
  5
7BD
  8
0
  6
SLD-SOLID
 62
     7
 10
790.5713120125
 20
422.9416248694
 30
0.0
  0
SEQEND
  5
7BE
  8
0
  6
SLD-SOLID
 62
     7
  0
ARC
  5
265
  8
0
  6
SLD-SOLID
 62
     7
 10
789.8434315914
 20
420.917985003
 30
0.0
 40
2.150564627292479
 50
23.1174013813
 51
70.2169143197
  0
POLYLINE
  5
266
  8
0
  6
SLD-SOLID
 62
     7
 66
     1
 10
0.0
 20
0.0
 30
0.0
  0
VERTEX
  5
7BF
  8
0
  6
SLD-SOLID
 62
     7
 10
790.5713120125
 20
196.3830499284
 30
0.0
  0
VERTEX
  5
7C0
  8
0
  6
SLD-SOLID
 62
     7
 10
791.2921407841
 20
196.6528107718
 30
0.0
  0
VERTEX
  5
7C1
  8
0
  6
SLD-SOLID
 62
     7
 10
791.4966741226
 20
196.7405604504
 30
0.0
  0
SEQEND
  5
7C2
  8
0
  6
SLD-SOLID
 62
     7
  0
ARC
  5
267
  8
0
  6
SLD-SOLID
 62
     7
 10
789.8497002546
 20
198.4000476014
 30
0.0
 40
2.142195869184784
 50
289.6854463583
 51
336.98007984
  0
LINE
  5
268
  8
0
  6
SLD-SOLID
 62
     7
 10
663.0883762262
 20
423.0123457804
 30
0.0
 11
662.6212993286
 21
423.0123457804
 31
0.0
  0
LINE
  5
269
  8
0
  6
SLD-SOLID
 62
     7
 10
662.6212993286
 20
423.0123457804
 30
0.0
 11
662.6212993286
 21
421.7623320714
 31
0.0
  0
CIRCLE
  5
26A
  8
0
  6
SLD-SOLID
 62
     7
 10
727.6212997086
 20
285.5123394406
 30
0.0
 40
6.649999999999977
  0
CIRCLE
  5
26B
  8
0
  6
SLD-SOLID
 62
     7
 10
727.6212997086
 20
285.5123394406
 30
0.0
 40
7.799999999999955
  0
ARC
  5
26C
  8
0
  6
SLD-SOLID
 62
     7
 10
636.335513271
 20
424.1123394406
 30
0.0
 40
1.000000000000048
 50
225.0
 51
270.0
  0
LINE
  5
26D
  8
0
  6
SLD-SOLID
 62
     7
 10
636.3355168722
 20
423.1123325721
 30
0.0
 11
649.6712961815
 21
423.1123325721
 31
0.0
  0
LINE
  5
26E
  8
0
  6
SLD-SOLID
 62
     7
 10
635.2212974451
 20
423.8123444215
 30
0.0
 11
635.6284120701
 21
423.4052297965
 31
0.0
  0
LINE
  5
26F
  8
0
  6
SLD-SOLID
 62
     7
 10
652.1213004015
 20
423.1123325721
 30
0.0
 11
649.6712961815
 21
423.1123325721
 31
0.0
  0
LINE
  5
270
  8
0
  6
SLD-SOLID
 62
     7
 10
657.2803059242
 20
199.412339351
 30
0.0
 11
662.6212993286
 21
199.412339351
 31
0.0
  0
LINE
  5
271
  8
0
  6
SLD-SOLID
 62
     7
 10
652.1213004015
 20
423.8123444215
 30
0.0
 11
652.1213004015
 21
216.5623397872
 31
0.0
  0
ARC
  5
272
  8
0
  6
SLD-SOLID
 62
     7
 10
649.1212997086
 20
339.2723482976
 30
0.0
 40
3.00000000000003
 50
275.0
 51
0.0
  0
ARC
  5
273
  8
0
  6
SLD-SOLID
 62
     7
 10
649.1212997086
 20
313.6723482976
 30
0.0
 40
3.00000000000003
 50
275.0
 51
0.0
  0
ARC
  5
274
  8
0
  6
SLD-SOLID
 62
     7
 10
649.1212997086
 20
288.2723482976
 30
0.0
 40
3.00000000000004
 50
275.0
 51
0.0
  0
ARC
  5
275
  8
0
  6
SLD-SOLID
 62
     7
 10
649.1212997086
 20
262.8723482976
 30
0.0
 40
3.0
 50
275.0
 51
0.0
  0
ARC
  5
276
  8
0
  6
SLD-SOLID
 62
     7
 10
649.1212997086
 20
321.7542976761
 30
0.0
 40
3.0
 50
0.0
 51
85.0
  0
ARC
  5
277
  8
0
  6
SLD-SOLID
 62
     7
 10
649.1212997086
 20
296.1542976761
 30
0.0
 40
3.000000000000087
 50
0.0
 51
85.0
  0
ARC
  5
278
  8
0
  6
SLD-SOLID
 62
     7
 10
649.1212997086
 20
270.7542976761
 30
0.0
 40
3.000000000000114
 50
0.0
 51
85.0
  0
ARC
  5
279
  8
0
  6
SLD-SOLID
 62
     7
 10
649.1212997086
 20
245.3542976761
 30
0.0
 40
3.000000000000002
 50
0.0
 51
85.0
  0
LINE
  5
27A
  8
0
  6
SLD-SOLID
 62
     7
 10
649.3827649973
 20
336.2837580338
 30
0.0
 11
632.3341378591
 21
334.7921965018
 31
0.0
  0
LINE
  5
27B
  8
0
  6
SLD-SOLID
 62
     7
 10
649.3827649973
 20
310.6837642685
 30
0.0
 11
632.3341378591
 21
309.1922027364
 31
0.0
  0
LINE
  5
27C
  8
0
  6
SLD-SOLID
 62
     7
 10
649.3827649973
 20
285.2837664381
 30
0.0
 11
632.3341378591
 21
283.7922049061
 31
0.0
  0
LINE
  5
27D
  8
0
  6
SLD-SOLID
 62
     7
 10
649.3827649973
 20
259.8837648824
 30
0.0
 11
646.621296706
 21
259.6421686307
 31
0.0
  0
LINE
  5
27E
  8
0
  6
SLD-SOLID
 62
     7
 10
649.3827649973
 20
324.742883195
 30
0.0
 11
632.3341378591
 21
326.234444727
 31
0.0
  0
LINE
  5
27F
  8
0
  6
SLD-SOLID
 62
     7
 10
649.3827649973
 20
299.1428819791
 30
0.0
 11
632.3341378591
 21
300.6344435111
 31
0.0
  0
LINE
  5
280
  8
0
  6
SLD-SOLID
 62
     7
 10
649.3827649973
 20
273.7428841487
 30
0.0
 11
632.3341378591
 21
275.2344456807
 31
0.0
  0
LINE
  5
281
  8
0
  6
SLD-SOLID
 62
     7
 10
649.3827649973
 20
248.342882593
 30
0.0
 11
632.3341378591
 21
249.834444125
 31
0.0
  0
LINE
  5
282
  8
0
  6
SLD-SOLID
 62
     7
 10
631.4212927244
 20
327.2306395069
 30
0.0
 11
631.4212927244
 21
333.7960091725
 31
0.0
  0
ARC
  5
283
  8
0
  6
SLD-SOLID
 62
     7
 10
632.4212997086
 20
327.2306377071
 30
0.0
 40
1.00000000000001
 50
180.0
 51
265.0
  0
LINE
  5
284
  8
0
  6
SLD-SOLID
 62
     7
 10
631.4212927244
 20
301.630638291
 30
0.0
 11
631.4212927244
 21
308.1960079566
 31
0.0
  0
ARC
  5
285
  8
0
  6
SLD-SOLID
 62
     7
 10
632.4212997086
 20
301.6306377071
 30
0.0
 40
1.00000000000001
 50
180.0
 51
265.0
  0
LINE
  5
286
  8
0
  6
SLD-SOLID
 62
     7
 10
631.4212927244
 20
276.2306404606
 30
0.0
 11
631.4212927244
 21
282.7960101262
 31
0.0
  0
ARC
  5
287
  8
0
  6
SLD-SOLID
 62
     7
 10
632.4212997086
 20
276.2306377071
 30
0.0
 40
1.00000000000001
 50
180.0
 51
265.0
  0
ARC
  5
288
  8
0
  6
SLD-SOLID
 62
     7
 10
632.4212997086
 20
250.8306377071
 30
0.0
 40
1.0
 50
180.0
 51
265.0
  0
LINE
  5
289
  8
0
  6
SLD-SOLID
 62
     7
 10
631.4212927244
 20
250.8306389049
 30
0.0
 11
631.4212927244
 21
257.3960085705
 31
0.0
  0
ARC
  5
28A
  8
0
  6
SLD-SOLID
 62
     7
 10
632.4212981535
 20
333.795996752
 30
0.0
 40
1.000005429188204
 50
95.000234569
 51
179.9992883615
  0
ARC
  5
28B
  8
0
  6
SLD-SOLID
 62
     7
 10
632.4213129349
 20
308.1959894421
 30
0.0
 40
1.000020210672048
 50
95.0010106012
 51
179.9989392178
  0
ARC
  5
28C
  8
0
  6
SLD-SOLID
 62
     7
 10
632.4213129349
 20
282.7959916117
 30
0.0
 40
1.000020210672048
 50
95.0010106012
 51
179.9989392178
  0
LINE
  5
28D
  8
0
  6
SLD-SOLID
 62
     7
 10
631.4626583479
 20
257.6289211705
 30
0.0
 11
631.4212927244
 21
257.3960085705
 31
0.0
  0
ARC
  5
28E
  8
0
  6
SLD-SOLID
 62
     7
 10
649.1212997086
 20
378.7723482976
 30
0.0
 40
3.00000000000004
 50
275.0
 51
0.0
  0
ARC
  5
28F
  8
0
  6
SLD-SOLID
 62
     7
 10
649.1212997086
 20
350.4523305836
 30
0.0
 40
3.0
 50
0.0
 51
85.0
  0
LINE
  5
290
  8
0
  6
SLD-SOLID
 62
     7
 10
649.3827649973
 20
375.7837710276
 30
0.0
 11
632.3341378591
 21
374.2922094956
 31
0.0
  0
LINE
  5
291
  8
0
  6
SLD-SOLID
 62
     7
 10
649.3827649973
 20
353.4409103289
 30
0.0
 11
632.3341378591
 21
354.932471861
 31
0.0
  0
LINE
  5
292
  8
0
  6
SLD-SOLID
 62
     7
 10
631.4212927244
 20
365.8123460904
 30
0.0
 11
631.4212927244
 21
373.2960072652
 31
0.0
  0
ARC
  5
293
  8
0
  6
SLD-SOLID
 62
     7
 10
632.4213242898
 20
373.2959857966
 30
0.0
 40
1.000031565576363
 50
95.0016067229
 51
179.9987699812
  0
ARC
  5
294
  8
0
  6
SLD-SOLID
 62
     7
 10
632.4212997086
 20
355.9286706146
 30
0.0
 40
1.00000000000001
 50
180.0
 51
265.0
  0
LINE
  5
295
  8
0
  6
SLD-SOLID
 62
     7
 10
631.4212927244
 20
355.9286740914
 30
0.0
 11
631.4212927244
 21
365.8123460904
 31
0.0
  0
LINE
  5
296
  8
0
  6
SLD-SOLID
 62
     7
 10
662.6212993286
 20
198.9123395018
 30
0.0
 11
657.3868194244
 21
198.9123395018
 31
0.0
  0
LINE
  5
297
  8
0
  6
SLD-SOLID
 62
     7
 10
8.6212852619
 20
493.0123386279
 30
0.0
 11
9.4212988041
 21
493.0123386279
 31
0.0
  0
LINE
  5
298
  8
0
  6
SLD-SOLID
 62
     7
 10
8.6212852619
 20
425.8623418704
 30
0.0
 11
8.6212852619
 21
493.0123386279
 31
0.0
  0
LINE
  5
299
  8
0
  6
SLD-SOLID
 62
     7
 10
10.671297612
 20
425.8623418704
 30
0.0
 11
8.6212852619
 21
425.8623418704
 31
0.0
  0
LINE
  5
29A
  8
0
  6
SLD-SOLID
 62
     7
 10
9.4212988041
 20
493.0123386279
 30
0.0
 11
10.671297612
 21
493.0123386279
 31
0.0
  0
LINE
  5
29B
  8
0
  6
SLD-SOLID
 62
     7
 10
9.4212988041
 20
493.0123386279
 30
0.0
 11
9.4212988041
 21
518.8123283282
 31
0.0
  0
LINE
  5
29C
  8
0
  6
SLD-SOLID
 62
     7
 10
9.4212988041
 20
518.8123283282
 30
0.0
 11
791.8213108204
 21
518.8123283282
 31
0.0
  0
LINE
  5
29D
  8
0
  6
SLD-SOLID
 62
     7
 10
791.8213108204
 20
518.8123283282
 30
0.0
 11
791.8213108204
 21
493.0123386279
 31
0.0
  0
LINE
  5
29E
  8
0
  6
SLD-SOLID
 62
     7
 10
791.8213108204
 20
493.0123386279
 30
0.0
 11
790.5713120125
 21
493.0123386279
 31
0.0
  0
LINE
  5
29F
  8
0
  6
SLD-SOLID
 62
     7
 10
10.671297612
 20
423.8123444215
 30
0.0
 11
790.5713120125
 21
423.8123444215
 31
0.0
  0
LINE
  5
2A0
  8
0
  6
SLD-SOLID
 62
     7
 10
10.671297612
 20
423.8123444215
 30
0.0
 11
10.671297612
 21
425.8623418704
 31
0.0
  0
LINE
  5
2A1
  8
0
  6
SLD-SOLID
 62
     7
 10
790.5713120125
 20
425.8623418704
 30
0.0
 11
790.5713120125
 21
423.8123444215
 31
0.0
  0
LINE
  5
2A2
  8
0
  6
SLD-SOLID
 62
     7
 10
791.8213108204
 20
493.0123386279
 30
0.0
 11
792.6212945602
 21
493.0123386279
 31
0.0
  0
LINE
  5
2A3
  8
0
  6
SLD-SOLID
 62
     7
 10
792.6212945602
 20
493.0123386279
 30
0.0
 11
792.6212945602
 21
425.8623418704
 31
0.0
  0
LINE
  5
2A4
  8
0
  6
SLD-SOLID
 62
     7
 10
792.6212945602
 20
425.8623418704
 30
0.0
 11
790.5713120125
 21
425.8623418704
 31
0.0
  0
LINE
  5
2A5
  8
0
  6
SLD-SOLID
 62
     7
 10
792.6212945602
 20
517.9123279944
 30
0.0
 11
791.8213108204
 21
517.9123279944
 31
0.0
  0
LINE
  5
2A6
  8
0
  6
SLD-SOLID
 62
     7
 10
792.6212945602
 20
517.9123279944
 30
0.0
 11
792.6212945602
 21
493.5123321906
 31
0.0
  0
LINE
  5
2A7
  8
0
  6
SLD-SOLID
 62
     7
 10
792.6212945602
 20
493.5123321906
 30
0.0
 11
791.8213108204
 21
493.5123321906
 31
0.0
  0
LINE
  5
2A8
  8
0
  6
SLD-SOLID
 62
     7
 10
8.6212852619
 20
517.9123279944
 30
0.0
 11
9.4212988041
 21
517.9123279944
 31
0.0
  0
LINE
  5
2A9
  8
0
  6
SLD-SOLID
 62
     7
 10
8.6212852619
 20
493.5123321906
 30
0.0
 11
9.4212988041
 21
493.5123321906
 31
0.0
  0
LINE
  5
2AA
  8
0
  6
SLD-SOLID
 62
     7
 10
8.6212852619
 20
493.5123321906
 30
0.0
 11
8.6212852619
 21
517.9123279944
 31
0.0
  0
ARC
  5
2AB
  8
0
  6
SLD-SOLID
 62
     7
 10
10.6713338704
 20
425.8623930303
 30
0.0
 40
2.050048609116665
 50
180.0014298417
 51
269.9989866323
  0
ARC
  5
2AC
  8
0
  6
SLD-SOLID
 62
     7
 10
10.6712942806
 20
425.862338539
 30
0.0
 40
1.249995476537231
 50
179.9998473005
 51
270.0001526995
  0
ARC
  5
2AD
  8
0
  6
SLD-SOLID
 62
     7
 10
790.5713052501
 20
425.8623337316
 30
0.0
 40
2.049989310174977
 50
270.0001890044
 51
0.0002274726
  0
ARC
  5
2AE
  8
0
  6
SLD-SOLID
 62
     7
 10
790.5713029433
 20
425.8623509395
 30
0.0
 40
1.250007877066069
 50
270.0004156955
 51
359.9995843045
  0
LINE
  5
2AF
  8
0
  6
SLD-SOLID
 62
     7
 10
792.6212945602
 20
493.5123321906
 30
0.0
 11
792.6212945602
 21
493.0123386279
 31
0.0
  0
LINE
  5
2B0
  8
0
  6
SLD-SOLID
 62
     7
 10
8.6212852619
 20
493.0123386279
 30
0.0
 11
8.6212852619
 21
493.5123321906
 31
0.0
  0
LINE
  5
2B1
  8
0
  6
SLD-SOLID
 62
     7
 10
745.6229427479
 20
205.5123394661
 30
0.0
 11
709.623629751
 21
205.5123394661
 31
0.0
  0
LINE
  5
2B2
  8
0
  6
SLD-SOLID
 62
     7
 10
707.6213011167
 20
207.5063229844
 30
0.0
 11
707.6213011167
 21
263.5179606572
 31
0.0
  0
ARC
  5
2B3
  8
0
  6
SLD-SOLID
 62
     7
 10
745.6193468395
 20
207.5143003183
 30
0.0
 40
2.001964081721155
 50
270.102914177
 51
359.8967920974
  0
LINE
  5
2B4
  8
0
  6
SLD-SOLID
 62
     7
 10
747.6213076733
 20
263.5135908917
 30
0.0
 11
747.6213076733
 21
207.5106941469
 31
0.0
  0
ARC
  5
2B5
  8
0
  6
SLD-SOLID
 62
     7
 10
745.6190596015
 20
263.5100921588
 30
0.0
 40
2.002251128589107
 50
0.1001186735
 51
89.888881053
  0
LINE
  5
2B6
  8
0
  6
SLD-SOLID
 62
     7
 10
709.623629751
 20
265.512339522
 30
0.0
 11
745.6229427479
 21
265.512339522
 31
0.0
  0
ARC
  5
2B7
  8
0
  6
SLD-SOLID
 62
     7
 10
709.6233837861
 20
263.5102419888
 30
0.0
 40
2.002097548308848
 50
89.992961008
 51
179.7791075561
  0
ARC
  5
2B8
  8
0
  6
SLD-SOLID
 62
     7
 10
709.6231264827
 20
207.5141801886
 30
0.0
 40
2.001840785782791
 50
180.224885914
 51
270.0144043162
  0
ARC
  5
2B9
  8
0
  6
SLD-SOLID
 62
     7
 10
709.6205757476
 20
207.5116187782
 30
0.0
 40
1.999281644736973
 50
180.1517680069
 51
270.0875222232
  0
ARC
  5
2BA
  8
0
  6
SLD-SOLID
 62
     7
 10
709.620856738
 20
263.5127791099
 30
0.0
 40
1.999562334866342
 50
89.9205416162
 51
179.8515269479
  0
ARC
  5
2BB
  8
0
  6
SLD-SOLID
 62
     7
 10
745.6218901502
 20
207.5117569945
 30
0.0
 40
1.999417805505607
 50
270.0301634827
 51
359.9695427917
  0
ARC
  5
2BC
  8
0
  6
SLD-SOLID
 62
     7
 10
745.6216087482
 20
263.5126408162
 30
0.0
 40
1.999699150727523
 50
0.0272217536
 51
89.9617779728
  0
LINE
  5
2BD
  8
0
  6
SLD-SOLID
 62
     7
 10
25.7212916038
 20
199.3123395208
 30
0.0
 11
33.9393714092
 21
199.3123395208
 31
0.0
  0
LINE
  5
2BE
  8
0
  6
SLD-SOLID
 62
     7
 10
39.121309819
 20
423.8123444215
 30
0.0
 11
39.121309819
 21
216.5623397872
 31
0.0
  0
ARC
  5
2BF
  8
0
  6
SLD-SOLID
 62
     7
 10
42.1212997086
 20
313.1524027128
 30
0.0
 40
3.0
 50
180.0
 51
265.0
  0
ARC
  5
2C0
  8
0
  6
SLD-SOLID
 62
     7
 10
42.1212997086
 20
338.7524027128
 30
0.0
 40
3.000000000000033
 50
180.0
 51
265.0
  0
ARC
  5
2C1
  8
0
  6
SLD-SOLID
 62
     7
 10
42.1212997086
 20
287.7524027128
 30
0.0
 40
3.0
 50
180.0
 51
265.0
  0
ARC
  5
2C2
  8
0
  6
SLD-SOLID
 62
     7
 10
42.1212997086
 20
262.3524027128
 30
0.0
 40
3.0
 50
180.0
 51
265.0
  0
ARC
  5
2C3
  8
0
  6
SLD-SOLID
 62
     7
 10
42.1212997086
 20
296.474243261
 30
0.0
 40
3.0
 50
95.0
 51
180.0
  0
ARC
  5
2C4
  8
0
  6
SLD-SOLID
 62
     7
 10
42.1212997086
 20
271.074243261
 30
0.0
 40
3.0
 50
95.0
 51
180.0
  0
ARC
  5
2C5
  8
0
  6
SLD-SOLID
 62
     7
 10
42.1212997086
 20
322.074243261
 30
0.0
 40
3.000000000000028
 50
95.0
 51
180.0
  0
ARC
  5
2C6
  8
0
  6
SLD-SOLID
 62
     7
 10
42.1212997086
 20
245.674243261
 30
0.0
 40
3.000000000000004
 50
95.0
 51
180.0
  0
LINE
  5
2C7
  8
0
  6
SLD-SOLID
 62
     7
 10
41.8598452232
 20
310.1638180509
 30
0.0
 11
54.108450713
 21
309.0922010437
 31
0.0
  0
LINE
  5
2C8
  8
0
  6
SLD-SOLID
 62
     7
 10
41.8598452232
 20
284.7638202205
 30
0.0
 11
54.108450713
 21
283.6922032133
 31
0.0
  0
LINE
  5
2C9
  8
0
  6
SLD-SOLID
 62
     7
 10
41.8598452232
 20
335.7638118163
 30
0.0
 11
54.108450713
 21
334.6922097102
 31
0.0
  0
LINE
  5
2CA
  8
0
  6
SLD-SOLID
 62
     7
 10
41.8598452232
 20
259.3638186649
 30
0.0
 11
44.6212986133
 21
259.1222224131
 31
0.0
  0
LINE
  5
2CB
  8
0
  6
SLD-SOLID
 62
     7
 10
41.8598452232
 20
274.0628269807
 30
0.0
 11
54.108450713
 21
275.1344439879
 31
0.0
  0
LINE
  5
2CC
  8
0
  6
SLD-SOLID
 62
     7
 10
41.8598452232
 20
325.062826027
 30
0.0
 11
54.108450713
 21
326.1344430342
 31
0.0
  0
LINE
  5
2CD
  8
0
  6
SLD-SOLID
 62
     7
 10
41.8598452232
 20
248.6628291503
 30
0.0
 11
54.108450713
 21
249.7344424322
 31
0.0
  0
LINE
  5
2CE
  8
0
  6
SLD-SOLID
 62
     7
 10
41.8598452232
 20
299.4628248111
 30
0.0
 11
54.108450713
 21
300.5344418183
 31
0.0
  0
LINE
  5
2CF
  8
0
  6
SLD-SOLID
 62
     7
 10
55.0212958477
 20
257.2960068777
 30
0.0
 11
55.0212958477
 21
250.7306372121
 31
0.0
  0
ARC
  5
2D0
  8
0
  6
SLD-SOLID
 62
     7
 10
54.0212997086
 20
250.7306377072
 30
0.0
 40
1.0
 50
275.0
 51
0.0
  0
LINE
  5
2D1
  8
0
  6
SLD-SOLID
 62
     7
 10
55.0212958477
 20
333.6960074797
 30
0.0
 11
55.0212958477
 21
327.1306378141
 31
0.0
  0
ARC
  5
2D2
  8
0
  6
SLD-SOLID
 62
     7
 10
54.0212997086
 20
327.1306377072
 30
0.0
 40
1.000000000000014
 50
275.0
 51
0.0
  0
LINE
  5
2D3
  8
0
  6
SLD-SOLID
 62
     7
 10
55.0212958477
 20
282.6960084334
 30
0.0
 11
55.0212958477
 21
276.1306387678
 31
0.0
  0
ARC
  5
2D4
  8
0
  6
SLD-SOLID
 62
     7
 10
54.0212997086
 20
276.1306377072
 30
0.0
 40
1.000000000000009
 50
275.0
 51
0.0
  0
LINE
  5
2D5
  8
0
  6
SLD-SOLID
 62
     7
 10
55.0212958477
 20
308.0960062638
 30
0.0
 11
55.0212958477
 21
301.5306365982
 31
0.0
  0
ARC
  5
2D6
  8
0
  6
SLD-SOLID
 62
     7
 10
54.0212997086
 20
301.5306377072
 30
0.0
 40
1.000000000000014
 50
275.0
 51
0.0
  0
LINE
  5
2D7
  8
0
  6
SLD-SOLID
 62
     7
 10
54.9621680401
 20
257.6289211705
 30
0.0
 11
55.0212958477
 21
257.2960068777
 31
0.0
  0
ARC
  5
2D8
  8
0
  6
SLD-SOLID
 62
     7
 10
54.0212841526
 20
333.6960042188
 30
0.0
 40
1.000011695055266
 50
0.0001868338
 51
84.999436462
  0
ARC
  5
2D9
  8
0
  6
SLD-SOLID
 62
     7
 10
54.0212991707
 20
282.6960114834
 30
0.0
 40
0.9999966770154316
 50
359.9998252488
 51
85.0002249321
  0
ARC
  5
2DA
  8
0
  6
SLD-SOLID
 62
     7
 10
54.0212991707
 20
308.0960093138
 30
0.0
 40
0.9999966770154316
 50
359.9998252488
 51
85.0002249321
  0
ARC
  5
2DB
  8
0
  6
SLD-SOLID
 62
     7
 10
42.1212997086
 20
350.7722761685
 30
0.0
 40
3.000000000000033
 50
95.0
 51
180.0
  0
ARC
  5
2DC
  8
0
  6
SLD-SOLID
 62
     7
 10
42.1212997086
 20
378.2524027128
 30
0.0
 40
3.0
 50
180.0
 51
265.0
  0
LINE
  5
2DD
  8
0
  6
SLD-SOLID
 62
     7
 10
41.8598452232
 20
375.2638248101
 30
0.0
 11
54.108450713
 21
374.1922078028
 31
0.0
  0
LINE
  5
2DE
  8
0
  6
SLD-SOLID
 62
     7
 10
41.8598452232
 20
353.7608531609
 30
0.0
 11
54.108450713
 21
354.8324701682
 31
0.0
  0
LINE
  5
2DF
  8
0
  6
SLD-SOLID
 62
     7
 10
55.0212958477
 20
373.1960055724
 30
0.0
 11
55.0212958477
 21
365.7123443976
 31
0.0
  0
ARC
  5
2E0
  8
0
  6
SLD-SOLID
 62
     7
 10
54.0213258574
 20
373.1960405266
 30
0.0
 40
0.9999699908749309
 50
359.9979972095
 51
85.0016260864
  0
LINE
  5
2E1
  8
0
  6
SLD-SOLID
 62
     7
 10
55.0212958477
 20
365.7123443976
 30
0.0
 11
55.0212958477
 21
355.8286723986
 31
0.0
  0
ARC
  5
2E2
  8
0
  6
SLD-SOLID
 62
     7
 10
54.0212997086
 20
355.8286706147
 30
0.0
 40
1.000000000000009
 50
275.0
 51
0.0
  0
LINE
  5
2E3
  8
0
  6
SLD-SOLID
 62
     7
 10
39.121309819
 20
219.3123397723
 30
0.0
 11
41.871289315
 21
219.3123397723
 31
0.0
  0
LINE
  5
2E4
  8
0
  6
SLD-SOLID
 62
     7
 10
649.3713060043
 20
219.3123397723
 30
0.0
 11
652.1213004015
 21
219.3123397723
 31
0.0
  0
LINE
  5
2E5
  8
0
  6
SLD-SOLID
 62
     7
 10
23.6713090561
 20
197.1194103666
 30
0.0
 11
10.1713040493
 21
197.1194103666
 31
0.0
  0
LINE
  5
2E6
  8
0
  6
SLD-SOLID
 62
     7
 10
25.7212916038
 20
197.1194103666
 30
0.0
 11
25.7212916038
 21
423.8123444215
 31
0.0
  0
LINE
  5
2E7
  8
0
  6
SLD-SOLID
 62
     7
 10
25.7212916038
 20
197.1194103666
 30
0.0
 11
23.6713090561
 21
197.1194103666
 31
0.0
  0
LINE
  5
2E8
  8
0
  6
SLD-SOLID
 62
     7
 10
8.1212916992
 20
198.3623395048
 30
0.0
 11
8.1212916992
 21
516.7623457804
 31
0.0
  0
POLYLINE
  5
2E9
  8
0
  6
SLD-SOLID
 62
     7
 66
     1
 10
0.0
 20
0.0
 30
0.0
  0
VERTEX
  5
7C3
  8
0
  6
SLD-SOLID
 62
     7
 10
10.1713040493
 20
197.1194103666
 30
0.0
  0
VERTEX
  5
7C4
  8
0
  6
SLD-SOLID
 62
     7
 10
9.4459453247
 20
197.4055880986
 30
0.0
  0
VERTEX
  5
7C5
  8
0
  6
SLD-SOLID
 62
     7
 10
8.814225497
 20
197.6918701388
 30
0.0
  0
VERTEX
  5
7C6
  8
0
  6
SLD-SOLID
 62
     7
 10
8.3582201622
 20
197.9781531103
 30
0.0
  0
VERTEX
  5
7C7
  8
0
  6
SLD-SOLID
 62
     7
 10
8.1369677208
 20
198.2644360818
 30
0.0
  0
VERTEX
  5
7C8
  8
0
  6
SLD-SOLID
 62
     7
 10
8.1212916992
 20
198.3623395048
 30
0.0
  0
SEQEND
  5
7C9
  8
0
  6
SLD-SOLID
 62
     7
  0
POLYLINE
  5
2EA
  8
0
  6
SLD-SOLID
 62
     7
 66
     1
 10
0.0
 20
0.0
 30
0.0
  0
VERTEX
  5
7CA
  8
0
  6
SLD-SOLID
 62
     7
 10
8.1212916992
 20
516.7623457804
 30
0.0
  0
VERTEX
  5
7CB
  8
0
  6
SLD-SOLID
 62
     7
 10
8.2539120338
 20
517.04850768
 30
0.0
  0
VERTEX
  5
7CC
  8
0
  6
SLD-SOLID
 62
     7
 10
8.6212852619
 20
517.3246559993
 30
0.0
  0
SEQEND
  5
7CD
  8
0
  6
SLD-SOLID
 62
     7
  0
ARC
  5
2EB
  8
0
  6
SLD-SOLID
 62
     7
 10
10.1566701462
 20
516.7669687098
 30
0.0
 40
2.035383697000186
 50
111.1796689081
 51
180.1301349553
  0
ARC
  5
2EC
  8
0
  6
SLD-SOLID
 62
     7
 10
10.1713029799
 20
198.3623505427
 30
0.0
 40
2.050011280758122
 50
180.0003084975
 51
270.0000298874
  0
ARC
  5
2ED
  8
0
  6
SLD-SOLID
 62
     7
 10
10.0873340512
 20
198.1523364691
 30
0.0
 40
1.043381556539484
 50
220.5288088436
 51
274.616082326
  0
LINE
  5
2EE
  8
0
  6
SLD-SOLID
 62
     7
 10
10.1713040493
 20
196.3123392619
 30
0.0
 11
10.1713040493
 21
197.1123392999
 31
0.0
  0
LINE
  5
2EF
  8
0
  6
SLD-SOLID
 62
     7
 10
24.2399969719
 20
196.3123392619
 30
0.0
 11
24.2399969719
 21
197.1123392999
 31
0.0
  0
LINE
  5
2F0
  8
0
  6
SLD-SOLID
 62
     7
 10
24.2399969719
 20
196.3123392619
 30
0.0
 11
10.1713040493
 21
196.3123392619
 31
0.0
  0
LINE
  5
2F1
  8
0
  6
SLD-SOLID
 62
     7
 10
10.1713040493
 20
197.1123392999
 30
0.0
 11
24.2399969719
 21
197.1123392999
 31
0.0
  0
LINE
  5
2F2
  8
0
  6
SLD-SOLID
 62
     7
 10
25.1213112495
 20
196.3123392619
 30
0.0
 11
25.1213112495
 21
197.1123392999
 31
0.0
  0
LINE
  5
2F3
  8
0
  6
SLD-SOLID
 62
     7
 10
25.1213112495
 20
196.3123392619
 30
0.0
 11
24.2399969719
 21
196.3123392619
 31
0.0
  0
LINE
  5
2F4
  8
0
  6
SLD-SOLID
 62
     7
 10
25.1213112495
 20
197.1123392999
 30
0.0
 11
24.2399969719
 21
197.1123392999
 31
0.0
  0
LINE
  5
2F5
  8
0
  6
SLD-SOLID
 62
     7
 10
26.1212983749
 20
196.3123392619
 30
0.0
 11
25.1213112495
 21
196.3123392619
 31
0.0
  0
LINE
  5
2F6
  8
0
  6
SLD-SOLID
 62
     7
 10
26.1212983749
 20
197.1123392999
 30
0.0
 11
25.1213112495
 21
197.1123392999
 31
0.0
  0
LINE
  5
2F7
  8
0
  6
SLD-SOLID
 62
     7
 10
32.1213105343
 20
196.3123392619
 30
0.0
 11
26.1212983749
 21
196.3123392619
 31
0.0
  0
LINE
  5
2F8
  8
0
  6
SLD-SOLID
 62
     7
 10
32.1213105343
 20
197.1123392999
 30
0.0
 11
26.1212983749
 21
197.1123392999
 31
0.0
  0
LINE
  5
2F9
  8
0
  6
SLD-SOLID
 62
     7
 10
33.1212976597
 20
196.3123392619
 30
0.0
 11
33.1212976597
 21
197.1123392999
 31
0.0
  0
LINE
  5
2FA
  8
0
  6
SLD-SOLID
 62
     7
 10
33.1212976597
 20
196.3123392619
 30
0.0
 11
32.1213105343
 21
196.3123392619
 31
0.0
  0
LINE
  5
2FB
  8
0
  6
SLD-SOLID
 62
     7
 10
33.1212976597
 20
197.1123392999
 30
0.0
 11
32.1213105343
 21
197.1123392999
 31
0.0
  0
LINE
  5
2FC
  8
0
  6
SLD-SOLID
 62
     7
 10
689.1213008783
 20
193.8123393178
 30
0.0
 11
681.121299567
 21
193.8123393178
 31
0.0
  0
LINE
  5
2FD
  8
0
  6
SLD-SOLID
 62
     7
 10
770.9212997578
 20
193.8123393178
 30
0.0
 11
762.9213133476
 21
193.8123393178
 31
0.0
  0
LINE
  5
2FE
  8
0
  6
SLD-SOLID
 62
     7
 10
40.6920114181
 20
216.5623397872
 30
0.0
 11
40.6920114181
 21
209.1937644713
 31
0.0
  0
LINE
  5
2FF
  8
0
  6
SLD-SOLID
 62
     7
 10
650.5505839012
 20
216.5623397872
 30
0.0
 11
650.5505839012
 21
209.1937644713
 31
0.0
  0
LINE
  5
300
  8
0
  6
SLD-SOLID
 62
     7
 10
41.871289315
 20
219.3123397723
 30
0.0
 11
42.6212945602
 21
219.3123397723
 31
0.0
  0
LINE
  5
301
  8
0
  6
SLD-SOLID
 62
     7
 10
43.4213081024
 20
219.3123397723
 30
0.0
 11
44.6713069103
 21
219.3123397723
 31
0.0
  0
LINE
  5
302
  8
0
  6
SLD-SOLID
 62
     7
 10
646.5713033102
 20
219.3123397723
 30
0.0
 11
647.8213021181
 21
219.3123397723
 31
0.0
  0
LINE
  5
303
  8
0
  6
SLD-SOLID
 62
     7
 10
648.6213007591
 20
219.3123397723
 30
0.0
 11
649.3713060043
 21
219.3123397723
 31
0.0
  0
POLYLINE
  5
304
  8
0
  6
SLD-SOLID
 62
     7
 66
     1
 10
0.0
 20
0.0
 30
0.0
  0
VERTEX
  5
7CE
  8
0
  6
SLD-SOLID
 62
     7
 10
41.871289315
 20
219.3123397723
 30
0.0
  0
VERTEX
  5
7CF
  8
0
  6
SLD-SOLID
 62
     7
 10
41.6087010525
 20
219.1458379224
 30
0.0
  0
VERTEX
  5
7D0
  8
0
  6
SLD-SOLID
 62
     7
 10
41.3461127899
 20
218.6664303139
 30
0.0
  0
VERTEX
  5
7D1
  8
0
  6
SLD-SOLID
 62
     7
 10
41.083494725
 20
217.9321849093
 30
0.0
  0
VERTEX
  5
7D2
  8
0
  6
SLD-SOLID
 62
     7
 10
40.8208766601
 20
217.0320281133
 30
0.0
  0
VERTEX
  5
7D3
  8
0
  6
SLD-SOLID
 62
     7
 10
40.6920114181
 20
216.5623397872
 30
0.0
  0
SEQEND
  5
7D4
  8
0
  6
SLD-SOLID
 62
     7
  0
ARC
  5
305
  8
0
  6
SLD-SOLID
 62
     7
 10
645.8299574416
 20
216.1658553104
 30
0.0
 40
4.737247524861812
 50
4.8009930821
 51
41.6210561384
  0
LINE
  5
306
  8
0
  6
SLD-SOLID
 62
     7
 10
587.6294249318
 20
194.3123393998
 30
0.0
 11
103.6081412456
 21
194.3123393998
 31
0.0
  0
LINE
  5
307
  8
0
  6
SLD-SOLID
 62
     7
 10
688.1212988518
 20
194.6128492549
 30
0.0
 11
688.1212988518
 21
195.5123392239
 31
0.0
  0
LINE
  5
308
  8
0
  6
SLD-SOLID
 62
     7
 10
758.6212852619
 20
194.3123393998
 30
0.0
 11
688.1212988518
 21
194.3123393998
 31
0.0
  0
LINE
  5
309
  8
0
  6
SLD-SOLID
 62
     7
 10
758.6212852619
 20
195.5123392239
 30
0.0
 11
758.6212852619
 21
194.6128492549
 31
0.0
  0
LINE
  5
30A
  8
0
  6
SLD-SOLID
 62
     7
 10
650.6213048122
 20
216.5623397872
 30
0.0
 11
652.1213004015
 21
216.5623397872
 31
0.0
  0
ARC
  5
30B
  8
0
  6
SLD-SOLID
 62
     7
 10
649.3712860562
 20
216.5623254271
 30
0.0
 40
2.750014345279714
 50
0.0002991888
 51
89.9995843874
  0
LINE
  5
30C
  8
0
  6
SLD-SOLID
 62
     7
 10
652.1213004015
 20
216.5623397872
 30
0.0
 11
652.1213004015
 21
207.8314137019
 31
0.0
  0
LINE
  5
30D
  8
0
  6
SLD-SOLID
 62
     7
 10
650.6213048122
 20
216.5623397872
 30
0.0
 11
650.6213048122
 21
209.1371079281
 31
0.0
  0
LINE
  5
30E
  8
0
  6
SLD-SOLID
 62
     7
 10
40.6212905071
 20
216.5623397872
 30
0.0
 11
39.121309819
 21
216.5623397872
 31
0.0
  0
LINE
  5
30F
  8
0
  6
SLD-SOLID
 62
     7
 10
40.6212905071
 20
216.5623397872
 30
0.0
 11
40.6212905071
 21
209.1371079281
 31
0.0
  0
LINE
  5
310
  8
0
  6
SLD-SOLID
 62
     7
 10
39.121309819
 20
216.5623397872
 30
0.0
 11
39.121309819
 21
207.8314137019
 31
0.0
  0
ARC
  5
311
  8
0
  6
SLD-SOLID
 62
     7
 10
41.871291202
 20
216.5623583892
 30
0.0
 40
2.749981383045559
 50
90.0000393152
 51
180.0003875732
  0
POLYLINE
  5
312
  8
0
  6
SLD-SOLID
 62
     7
 66
     1
 10
0.0
 20
0.0
 30
0.0
  0
VERTEX
  5
7D5
  8
0
  6
SLD-SOLID
 62
     7
 10
40.6212905071
 20
216.5623397872
 30
0.0
  0
VERTEX
  5
7D6
  8
0
  6
SLD-SOLID
 62
     7
 10
40.7164493225
 20
217.0406940699
 30
0.0
  0
VERTEX
  5
7D7
  8
0
  6
SLD-SOLID
 62
     7
 10
40.9062901161
 20
217.3247996092
 30
0.0
  0
SEQEND
  5
7D8
  8
0
  6
SLD-SOLID
 62
     7
  0
LINE
  5
313
  8
0
  6
SLD-SOLID
 62
     7
 10
787.1213057659
 20
194.3123393998
 30
0.0
 11
787.1213057659
 21
195.5123392239
 31
0.0
  0
LINE
  5
314
  8
0
  6
SLD-SOLID
 62
     7
 10
787.1213057659
 20
194.3123393998
 30
0.0
 11
782.1213105343
 21
194.3123393998
 31
0.0
  0
LINE
  5
315
  8
0
  6
SLD-SOLID
 62
     7
 10
782.1213105343
 20
194.3123393998
 30
0.0
 11
758.6212852619
 21
194.3123393998
 31
0.0
  0
LINE
  5
316
  8
0
  6
SLD-SOLID
 62
     7
 10
758.6212852619
 20
194.6128492549
 30
0.0
 11
758.6212852619
 21
194.3123393998
 31
0.0
  0
LINE
  5
317
  8
0
  6
SLD-SOLID
 62
     7
 10
33.6212912224
 20
195.8123396456
 30
0.0
 11
19.1212990902
 21
195.8123396456
 31
0.0
  0
LINE
  5
318
  8
0
  6
SLD-SOLID
 62
     7
 10
33.6294272564
 20
194.3123393998
 30
0.0
 11
19.1212990902
 21
194.3123393998
 31
0.0
  0
LINE
  5
319
  8
0
  6
SLD-SOLID
 62
     7
 10
14.1213038586
 20
194.3123393998
 30
0.0
 11
14.1213038586
 21
195.8123396456
 31
0.0
  0
LINE
  5
31A
  8
0
  6
SLD-SOLID
 62
     7
 10
19.1212990902
 20
195.8123396456
 30
0.0
 11
14.1213038586
 21
195.8123396456
 31
0.0
  0
LINE
  5
31B
  8
0
  6
SLD-SOLID
 62
     7
 10
19.1212990902
 20
194.3123393998
 30
0.0
 11
14.1213038586
 21
194.3123393998
 31
0.0
  0
LINE
  5
31C
  8
0
  6
SLD-SOLID
 62
     7
 10
688.1212988518
 20
194.6128492549
 30
0.0
 11
688.1212988518
 21
194.3123393998
 31
0.0
  0
LINE
  5
31D
  8
0
  6
SLD-SOLID
 62
     7
 10
688.1212988518
 20
194.3123393998
 30
0.0
 11
657.6081314705
 21
194.3123393998
 31
0.0
  0
LINE
  5
31E
  8
0
  6
SLD-SOLID
 62
     7
 10
663.6713543556
 20
195.8123396456
 30
0.0
 11
657.621304097
 21
195.8123396456
 31
0.0
  0
LINE
  5
31F
  8
0
  6
SLD-SOLID
 62
     7
 10
30.7712951324
 20
519.6348128215
 30
0.0
 11
30.7712951324
 21
518.8123283282
 31
0.0
  0
LINE
  5
320
  8
0
  6
SLD-SOLID
 62
     7
 10
770.471314492
 20
518.8123283282
 30
0.0
 11
770.471314492
 21
519.6348128215
 31
0.0
  0
LINE
  5
321
  8
0
  6
SLD-SOLID
 62
     7
 10
771.7213132999
 20
519.6348128215
 30
0.0
 11
770.471314492
 21
519.6348128215
 31
0.0
  0
LINE
  5
322
  8
0
  6
SLD-SOLID
 62
     7
 10
771.7213132999
 20
519.3611976996
 30
0.0
 11
770.471314492
 21
519.3611976996
 31
0.0
  0
LINE
  5
323
  8
0
  6
SLD-SOLID
 62
     7
 10
771.7213132999
 20
519.6348128215
 30
0.0
 11
771.7213132999
 21
519.3611976996
 31
0.0
  0
LINE
  5
324
  8
0
  6
SLD-SOLID
 62
     7
 10
30.7712951324
 20
519.3611976996
 30
0.0
 11
29.5212963245
 21
519.3611976996
 31
0.0
  0
LINE
  5
325
  8
0
  6
SLD-SOLID
 62
     7
 10
30.7712951324
 20
519.6348128215
 30
0.0
 11
29.5212963245
 21
519.6348128215
 31
0.0
  0
LINE
  5
326
  8
0
  6
SLD-SOLID
 62
     7
 10
29.5212963245
 20
519.3611976996
 30
0.0
 11
29.5212963245
 21
519.6348128215
 31
0.0
  0
LINE
  5
327
  8
0
  6
SLD-SOLID
 62
     7
 10
29.5212963245
 20
519.6348128215
 30
0.0
 11
29.5212963245
 21
542.1899256602
 31
0.0
  0
LINE
  5
328
  8
0
  6
SLD-SOLID
 62
     7
 10
771.7213132999
 20
519.6348128215
 30
0.0
 11
771.7213132999
 21
542.1899256602
 31
0.0
  0
LINE
  5
329
  8
0
  6
SLD-SOLID
 62
     7
 10
772.5212970398
 20
541.8820974723
 30
0.0
 11
771.7213132999
 21
541.8820974723
 31
0.0
  0
LINE
  5
32A
  8
0
  6
SLD-SOLID
 62
     7
 10
772.5212970398
 20
519.3269846335
 30
0.0
 11
771.7213132999
 21
519.3269846335
 31
0.0
  0
LINE
  5
32B
  8
0
  6
SLD-SOLID
 62
     7
 10
771.7213132999
 20
519.3611976996
 30
0.0
 11
771.7213132999
 21
519.3269846335
 31
0.0
  0
LINE
  5
32C
  8
0
  6
SLD-SOLID
 62
     7
 10
772.5212970398
 20
541.8820974723
 30
0.0
 11
772.5212970398
 21
519.3269846335
 31
0.0
  0
LINE
  5
32D
  8
0
  6
SLD-SOLID
 62
     7
 10
771.7213132999
 20
519.3269846335
 30
0.0
 11
771.7213132999
 21
518.8123283282
 31
0.0
  0
LINE
  5
32E
  8
0
  6
SLD-SOLID
 62
     7
 10
772.5212970398
 20
519.3269846335
 30
0.0
 11
772.5212970398
 21
518.8123283282
 31
0.0
  0
LINE
  5
32F
  8
0
  6
SLD-SOLID
 62
     7
 10
28.7213125847
 20
519.3269846335
 30
0.0
 11
29.5212963245
 21
519.3269846335
 31
0.0
  0
LINE
  5
330
  8
0
  6
SLD-SOLID
 62
     7
 10
29.5212963245
 20
519.3269846335
 30
0.0
 11
29.5212963245
 21
518.8123283282
 31
0.0
  0
LINE
  5
331
  8
0
  6
SLD-SOLID
 62
     7
 10
28.7213125847
 20
519.3269846335
 30
0.0
 11
28.7213125847
 21
518.8123283282
 31
0.0
  0
LINE
  5
332
  8
0
  6
SLD-SOLID
 62
     7
 10
28.7213125847
 20
541.8820974723
 30
0.0
 11
29.5212963245
 21
541.8820974723
 31
0.0
  0
LINE
  5
333
  8
0
  6
SLD-SOLID
 62
     7
 10
29.5212963245
 20
519.3611976996
 30
0.0
 11
29.5212963245
 21
519.3269846335
 31
0.0
  0
LINE
  5
334
  8
0
  6
SLD-SOLID
 62
     7
 10
28.7213125847
 20
541.8820974723
 30
0.0
 11
28.7213125847
 21
519.3269846335
 31
0.0
  0
LINE
  5
335
  8
0
  6
SLD-SOLID
 62
     7
 10
29.5212963245
 20
542.1899256602
 30
0.0
 11
29.5212963245
 21
543.5387787715
 31
0.0
  0
LINE
  5
336
  8
0
  6
SLD-SOLID
 62
     7
 10
771.7213132999
 20
542.1899256602
 30
0.0
 11
771.7213132999
 21
543.5387787715
 31
0.0
  0
ARC
  5
337
  8
0
  6
SLD-SOLID
 62
     7
 10
30.7330622423
 20
541.4819289241
 30
0.0
 40
2.012653359078155
 50
127.0185696612
 51
168.5316636475
  0
ARC
  5
338
  8
0
  6
SLD-SOLID
 62
     7
 10
770.5066549432
 20
541.4801057032
 30
0.0
 40
2.015850918256989
 50
11.5027768087
 51
52.9469898826
  0
LINE
  5
339
  8
0
  6
SLD-SOLID
 62
     7
 10
33.1212976597
 20
196.3123392619
 30
0.0
 11
33.6212912224
 21
196.3123392619
 31
0.0
  0
LINE
  5
33A
  8
0
  6
SLD-SOLID
 62
     7
 10
28.6713042877
 20
198.1123394638
 30
0.0
 11
25.7212916038
 21
198.1123394638
 31
0.0
  0
POLYLINE
  5
33B
  8
0
  6
SLD-SOLID
 62
     7
 66
     1
 10
0.0
 20
0.0
 30
0.0
  0
VERTEX
  5
7D9
  8
0
  6
SLD-SOLID
 62
     7
 10
793.1212881229
 20
198.3623395048
 30
0.0
  0
VERTEX
  5
7DA
  8
0
  6
SLD-SOLID
 62
     7
 10
792.9886677883
 20
198.0761617728
 30
0.0
  0
VERTEX
  5
7DB
  8
0
  6
SLD-SOLID
 62
     7
 10
792.6212945602
 20
197.8000236981
 30
0.0
  0
SEQEND
  5
7DC
  8
0
  6
SLD-SOLID
 62
     7
  0
ARC
  5
33C
  8
0
  6
SLD-SOLID
 62
     7
 10
792.4162425712
 20
516.6228511844
 30
0.0
 40
0.7187127189533536
 50
11.1915399423
 51
73.4229477888
  0
LINE
  5
33D
  8
0
  6
SLD-SOLID
 62
     7
 10
793.1212881229
 20
516.7623457804
 30
0.0
 11
793.1212881229
 21
198.3623395048
 31
0.0
  0
ARC
  5
33E
  8
0
  6
SLD-SOLID
 62
     7
 10
791.2352516088
 20
516.8457871311
 30
0.0
 40
1.887881402910035
 50
357.4667925886
 51
71.9147201133
  0
LINE
  5
33F
  8
0
  6
SLD-SOLID
 62
     7
 10
791.0713055752
 20
196.421953135
 30
0.0
 11
791.0713055752
 21
196.5701619469
 31
0.0
  0
ARC
  5
340
  8
0
  6
SLD-SOLID
 62
     7
 10
791.1605505075
 20
198.3456638257
 30
0.0
 40
1.960808525757205
 50
312.7091534974
 51
0.4872773356
  0
LINE
  5
341
  8
0
  6
SLD-SOLID
 62
     7
 10
790.6047204159
 20
196.3123392619
 30
0.0
 11
790.5713120125
 21
196.3123392619
 31
0.0
  0
LINE
  5
342
  8
0
  6
SLD-SOLID
 62
     7
 10
72.6212957523
 20
252.7478521064
 30
0.0
 11
72.6212957523
 21
251.4373322323
 31
0.0
  0
LINE
  5
343
  8
0
  6
SLD-SOLID
 62
     7
 10
618.621299567
 20
252.7478521064
 30
0.0
 11
618.621299567
 21
251.4373322323
 31
0.0
  0
LINE
  5
344
  8
0
  6
SLD-SOLID
 62
     7
 10
647.6212987326
 20
289.9922055498
 30
0.0
 11
647.6212987326
 21
285.129658629
 31
0.0
  0
LINE
  5
345
  8
0
  6
SLD-SOLID
 62
     7
 10
618.621299567
 20
289.9922055498
 30
0.0
 11
618.621299567
 21
281.9922042385
 31
0.0
  0
LINE
  5
346
  8
0
  6
SLD-SOLID
 62
     7
 10
618.621299567
 20
265.2143051222
 30
0.0
 11
618.621299567
 21
257.2143075362
 31
0.0
  0
LINE
  5
347
  8
0
  6
SLD-SOLID
 62
     7
 10
647.6212987326
 20
265.2143051222
 30
0.0
 11
647.6212987326
 21
259.7296570733
 31
0.0
  0
POLYLINE
  5
348
  8
0
  6
SLD-SOLID
 62
     7
 66
     1
 10
0.0
 20
0.0
 30
0.0
  0
VERTEX
  5
7DD
  8
0
  6
SLD-SOLID
 62
     7
 10
600.6212928913
 20
281.0249922171
 30
0.0
  0
VERTEX
  5
7DE
  8
0
  6
SLD-SOLID
 62
     7
 10
601.6473570488
 20
281.0498995081
 30
0.0
  0
VERTEX
  5
7DF
  8
0
  6
SLD-SOLID
 62
     7
 10
602.5496670626
 20
281.1216113463
 30
0.0
  0
VERTEX
  5
7E0
  8
0
  6
SLD-SOLID
 62
     7
 10
603.2193699501
 20
281.2314776078
 30
0.0
  0
VERTEX
  5
7E1
  8
0
  6
SLD-SOLID
 62
     7
 10
603.5757163189
 20
281.3662511602
 30
0.0
  0
VERTEX
  5
7E2
  8
0
  6
SLD-SOLID
 62
     7
 10
603.5757163189
 20
281.5096748367
 30
0.0
  0
VERTEX
  5
7E3
  8
0
  6
SLD-SOLID
 62
     7
 10
603.2193699501
 20
281.6444409385
 30
0.0
  0
VERTEX
  5
7E4
  8
0
  6
SLD-SOLID
 62
     7
 10
602.5496670626
 20
281.7543072
 30
0.0
  0
VERTEX
  5
7E5
  8
0
  6
SLD-SOLID
 62
     7
 10
601.6473570488
 20
281.8260190383
 30
0.0
  0
VERTEX
  5
7E6
  8
0
  6
SLD-SOLID
 62
     7
 10
600.6212928913
 20
281.8509263292
 30
0.0
  0
VERTEX
  5
7E7
  8
0
  6
SLD-SOLID
 62
     7
 10
599.5952361844
 20
281.8260190383
 30
0.0
  0
VERTEX
  5
7E8
  8
0
  6
SLD-SOLID
 62
     7
 10
598.6929336212
 20
281.7543072
 30
0.0
  0
VERTEX
  5
7E9
  8
0
  6
SLD-SOLID
 62
     7
 10
598.0232232831
 20
281.6444409385
 30
0.0
  0
VERTEX
  5
7EA
  8
0
  6
SLD-SOLID
 62
     7
 10
597.6668769143
 20
281.5096748367
 30
0.0
  0
VERTEX
  5
7EB
  8
0
  6
SLD-SOLID
 62
     7
 10
597.6668769143
 20
281.3662511602
 30
0.0
  0
VERTEX
  5
7EC
  8
0
  6
SLD-SOLID
 62
     7
 10
598.0232232831
 20
281.2314776078
 30
0.0
  0
VERTEX
  5
7ED
  8
0
  6
SLD-SOLID
 62
     7
 10
598.6929336212
 20
281.1216113463
 30
0.0
  0
VERTEX
  5
7EE
  8
0
  6
SLD-SOLID
 62
     7
 10
599.5952361844
 20
281.0498995081
 30
0.0
  0
VERTEX
  5
7EF
  8
0
  6
SLD-SOLID
 62
     7
 10
600.6212928913
 20
281.0249922171
 30
0.0
  0
SEQEND
  5
7F0
  8
0
  6
SLD-SOLID
 62
     7
  0
POLYLINE
  5
349
  8
0
  6
SLD-SOLID
 62
     7
 66
     1
 10
0.0
 20
0.0
 30
0.0
  0
VERTEX
  5
7F1
  8
0
  6
SLD-SOLID
 62
     7
 10
622.6212927721
 20
266.6313720241
 30
0.0
  0
VERTEX
  5
7F2
  8
0
  6
SLD-SOLID
 62
     7
 10
623.6473569296
 20
266.6562718645
 30
0.0
  0
VERTEX
  5
7F3
  8
0
  6
SLD-SOLID
 62
     7
 10
624.5496669433
 20
266.7279837027
 30
0.0
  0
VERTEX
  5
7F4
  8
0
  6
SLD-SOLID
 62
     7
 10
625.2193698309
 20
266.8378499642
 30
0.0
  0
VERTEX
  5
7F5
  8
0
  6
SLD-SOLID
 62
     7
 10
625.5757161997
 20
266.9726235166
 30
0.0
  0
VERTEX
  5
7F6
  8
0
  6
SLD-SOLID
 62
     7
 10
625.5757161997
 20
267.1160471931
 30
0.0
  0
VERTEX
  5
7F7
  8
0
  6
SLD-SOLID
 62
     7
 10
625.2193698309
 20
267.2508207455
 30
0.0
  0
VERTEX
  5
7F8
  8
0
  6
SLD-SOLID
 62
     7
 10
624.5496669433
 20
267.360687007
 30
0.0
  0
VERTEX
  5
7F9
  8
0
  6
SLD-SOLID
 62
     7
 10
623.6473569296
 20
267.4323913947
 30
0.0
  0
VERTEX
  5
7FA
  8
0
  6
SLD-SOLID
 62
     7
 10
622.6212927721
 20
267.4572986856
 30
0.0
  0
VERTEX
  5
7FB
  8
0
  6
SLD-SOLID
 62
     7
 10
621.5952435158
 20
267.4323913947
 30
0.0
  0
VERTEX
  5
7FC
  8
0
  6
SLD-SOLID
 62
     7
 10
620.692933502
 20
267.360687007
 30
0.0
  0
VERTEX
  5
7FD
  8
0
  6
SLD-SOLID
 62
     7
 10
620.0232306145
 20
267.2508207455
 30
0.0
  0
VERTEX
  5
7FE
  8
0
  6
SLD-SOLID
 62
     7
 10
619.6668693445
 20
267.1160471931
 30
0.0
  0
VERTEX
  5
7FF
  8
0
  6
SLD-SOLID
 62
     7
 10
619.6668693445
 20
266.9726235166
 30
0.0
  0
VERTEX
  5
800
  8
0
  6
SLD-SOLID
 62
     7
 10
620.0232306145
 20
266.8378499642
 30
0.0
  0
VERTEX
  5
801
  8
0
  6
SLD-SOLID
 62
     7
 10
620.692933502
 20
266.7279837027
 30
0.0
  0
VERTEX
  5
802
  8
0
  6
SLD-SOLID
 62
     7
 10
621.5952435158
 20
266.6562718645
 30
0.0
  0
VERTEX
  5
803
  8
0
  6
SLD-SOLID
 62
     7
 10
622.6212927721
 20
266.6313720241
 30
0.0
  0
SEQEND
  5
804
  8
0
  6
SLD-SOLID
 62
     7
  0
LINE
  5
34A
  8
0
  6
SLD-SOLID
 62
     7
 10
625.598395767
 20
247.1837920442
 30
0.0
 11
625.6212988518
 21
247.2347316638
 31
0.0
  0
CIRCLE
  5
34B
  8
0
  6
SLD-SOLID
 62
     7
 10
592.1334525265
 20
254.2043949367
 30
0.0
 40
1.987855559253711
  0
CIRCLE
  5
34C
  8
0
  6
SLD-SOLID
 62
     7
 10
563.133453361
 20
254.2043949367
 30
0.0
 40
1.987855559253711
  0
CIRCLE
  5
34D
  8
0
  6
SLD-SOLID
 62
     7
 10
534.1334517346
 20
254.2043856624
 30
0.0
 40
1.987854272034799
  0
CIRCLE
  5
34E
  8
0
  6
SLD-SOLID
 62
     7
 10
505.1334525691
 20
254.2043856624
 30
0.0
 40
1.987854272034856
  0
CIRCLE
  5
34F
  8
0
  6
SLD-SOLID
 62
     7
 10
476.1334517945
 20
254.2043844839
 30
0.0
 40
1.98785401549466
  0
CIRCLE
  5
350
  8
0
  6
SLD-SOLID
 62
     7
 10
447.1334514553
 20
254.2043809629
 30
0.0
 40
1.987853317870438
  0
CIRCLE
  5
351
  8
0
  6
SLD-SOLID
 62
     7
 10
418.1334513472
 20
254.2043856624
 30
0.0
 40
1.987854272034799
  0
CIRCLE
  5
352
  8
0
  6
SLD-SOLID
 62
     7
 10
389.1334509172
 20
254.2043949367
 30
0.0
 40
1.987855559253654
  0
CIRCLE
  5
353
  8
0
  6
SLD-SOLID
 62
     7
 10
360.1334517517
 20
254.2043949367
 30
0.0
 40
1.987855559253654
  0
POLYLINE
  5
354
  8
0
  6
SLD-SOLID
 62
     7
 66
     1
 10
0.0
 20
0.0
 30
0.0
  0
VERTEX
  5
805
  8
0
  6
SLD-SOLID
 62
     7
 10
68.6212876461
 20
266.6313720241
 30
0.0
  0
VERTEX
  5
806
  8
0
  6
SLD-SOLID
 62
     7
 10
67.5952532909
 20
266.6562718645
 30
0.0
  0
VERTEX
  5
807
  8
0
  6
SLD-SOLID
 62
     7
 10
66.692928376
 20
266.7279837027
 30
0.0
  0
VERTEX
  5
808
  8
0
  6
SLD-SOLID
 62
     7
 10
66.0232105873
 20
266.8378499642
 30
0.0
  0
VERTEX
  5
809
  8
0
  6
SLD-SOLID
 62
     7
 10
65.6668642185
 20
266.9726235166
 30
0.0
  0
VERTEX
  5
80A
  8
0
  6
SLD-SOLID
 62
     7
 10
65.6668642185
 20
267.1160471931
 30
0.0
  0
VERTEX
  5
80B
  8
0
  6
SLD-SOLID
 62
     7
 10
66.0232105873
 20
267.2508207455
 30
0.0
  0
VERTEX
  5
80C
  8
0
  6
SLD-SOLID
 62
     7
 10
66.692928376
 20
267.360687007
 30
0.0
  0
VERTEX
  5
80D
  8
0
  6
SLD-SOLID
 62
     7
 10
67.5952532909
 20
267.4323913947
 30
0.0
  0
VERTEX
  5
80E
  8
0
  6
SLD-SOLID
 62
     7
 10
68.6212876461
 20
267.4572986856
 30
0.0
  0
VERTEX
  5
80F
  8
0
  6
SLD-SOLID
 62
     7
 10
69.6473518036
 20
267.4323913947
 30
0.0
  0
VERTEX
  5
810
  8
0
  6
SLD-SOLID
 62
     7
 10
70.5496767185
 20
267.360687007
 30
0.0
  0
VERTEX
  5
811
  8
0
  6
SLD-SOLID
 62
     7
 10
71.2193647049
 20
267.2508207455
 30
0.0
  0
VERTEX
  5
812
  8
0
  6
SLD-SOLID
 62
     7
 10
71.5757110737
 20
267.1160471931
 30
0.0
  0
VERTEX
  5
813
  8
0
  6
SLD-SOLID
 62
     7
 10
71.5757110737
 20
266.9726235166
 30
0.0
  0
VERTEX
  5
814
  8
0
  6
SLD-SOLID
 62
     7
 10
71.2193647049
 20
266.8378499642
 30
0.0
  0
VERTEX
  5
815
  8
0
  6
SLD-SOLID
 62
     7
 10
70.5496767185
 20
266.7279837027
 30
0.0
  0
VERTEX
  5
816
  8
0
  6
SLD-SOLID
 62
     7
 10
69.6473518036
 20
266.6562718645
 30
0.0
  0
VERTEX
  5
817
  8
0
  6
SLD-SOLID
 62
     7
 10
68.6212876461
 20
266.6313720241
 30
0.0
  0
SEQEND
  5
818
  8
0
  6
SLD-SOLID
 62
     7
  0
LINE
  5
355
  8
0
  6
SLD-SOLID
 62
     7
 10
65.6442144535
 20
247.1837920442
 30
0.0
 11
65.6212964676
 21
247.2347316638
 31
0.0
  0
LINE
  5
356
  8
0
  6
SLD-SOLID
 62
     7
 10
43.621311488
 20
265.2143051222
 30
0.0
 11
43.621311488
 21
259.2097108558
 31
0.0
  0
LINE
  5
357
  8
0
  6
SLD-SOLID
 62
     7
 10
72.6212957523
 20
265.2143051222
 30
0.0
 11
72.6212957523
 21
257.2143075362
 31
0.0
  0
LINE
  5
358
  8
0
  6
SLD-SOLID
 62
     7
 10
72.6212957523
 20
289.9922055498
 30
0.0
 11
72.6212957523
 21
281.9922042385
 31
0.0
  0
LINE
  5
359
  8
0
  6
SLD-SOLID
 62
     7
 10
43.621311488
 20
289.9922055498
 30
0.0
 11
43.621311488
 21
284.6097124115
 31
0.0
  0
POLYLINE
  5
35A
  8
0
  6
SLD-SOLID
 62
     7
 66
     1
 10
0.0
 20
0.0
 30
0.0
  0
VERTEX
  5
819
  8
0
  6
SLD-SOLID
 62
     7
 10
90.621302428
 20
281.0249922171
 30
0.0
  0
VERTEX
  5
81A
  8
0
  6
SLD-SOLID
 62
     7
 10
89.5952382706
 20
281.0498995081
 30
0.0
  0
VERTEX
  5
81B
  8
0
  6
SLD-SOLID
 62
     7
 10
88.6929431579
 20
281.1216113463
 30
0.0
  0
VERTEX
  5
81C
  8
0
  6
SLD-SOLID
 62
     7
 10
88.0232253693
 20
281.2314776078
 30
0.0
  0
VERTEX
  5
81D
  8
0
  6
SLD-SOLID
 62
     7
 10
87.6668790005
 20
281.3662511602
 30
0.0
  0
VERTEX
  5
81E
  8
0
  6
SLD-SOLID
 62
     7
 10
87.6668790005
 20
281.5096748367
 30
0.0
  0
VERTEX
  5
81F
  8
0
  6
SLD-SOLID
 62
     7
 10
88.0232253693
 20
281.6444409385
 30
0.0
  0
VERTEX
  5
820
  8
0
  6
SLD-SOLID
 62
     7
 10
88.6929431579
 20
281.7543072
 30
0.0
  0
VERTEX
  5
821
  8
0
  6
SLD-SOLID
 62
     7
 10
89.5952382706
 20
281.8260190383
 30
0.0
  0
VERTEX
  5
822
  8
0
  6
SLD-SOLID
 62
     7
 10
90.621302428
 20
281.8509263292
 30
0.0
  0
VERTEX
  5
823
  8
0
  6
SLD-SOLID
 62
     7
 10
91.6473665855
 20
281.8260190383
 30
0.0
  0
VERTEX
  5
824
  8
0
  6
SLD-SOLID
 62
     7
 10
92.5496616981
 20
281.7543072
 30
0.0
  0
VERTEX
  5
825
  8
0
  6
SLD-SOLID
 62
     7
 10
93.2193794868
 20
281.6444409385
 30
0.0
  0
VERTEX
  5
826
  8
0
  6
SLD-SOLID
 62
     7
 10
93.5757258556
 20
281.5096748367
 30
0.0
  0
VERTEX
  5
827
  8
0
  6
SLD-SOLID
 62
     7
 10
93.5757258556
 20
281.3662511602
 30
0.0
  0
VERTEX
  5
828
  8
0
  6
SLD-SOLID
 62
     7
 10
93.2193794868
 20
281.2314776078
 30
0.0
  0
VERTEX
  5
829
  8
0
  6
SLD-SOLID
 62
     7
 10
92.5496616981
 20
281.1216113463
 30
0.0
  0
VERTEX
  5
82A
  8
0
  6
SLD-SOLID
 62
     7
 10
91.6473665855
 20
281.0498995081
 30
0.0
  0
VERTEX
  5
82B
  8
0
  6
SLD-SOLID
 62
     7
 10
90.621302428
 20
281.0249922171
 30
0.0
  0
SEQEND
  5
82C
  8
0
  6
SLD-SOLID
 62
     7
  0
CIRCLE
  5
35B
  8
0
  6
SLD-SOLID
 62
     7
 10
99.1091490019
 20
254.2043571097
 30
0.0
 40
1.987846774501681
  0
CIRCLE
  5
35C
  8
0
  6
SLD-SOLID
 62
     7
 10
128.1091481679
 20
254.2044322651
 30
0.0
 40
1.987861860972214
  0
CIRCLE
  5
35D
  8
0
  6
SLD-SOLID
 62
     7
 10
157.1091523
 20
254.2043581072
 30
0.0
 40
1.987851743975673
  0
CIRCLE
  5
35E
  8
0
  6
SLD-SOLID
 62
     7
 10
186.109146499
 20
254.2044322651
 30
0.0
 40
1.987861860972242
  0
CIRCLE
  5
35F
  8
0
  6
SLD-SOLID
 62
     7
 10
215.1091506311
 20
254.2043581072
 30
0.0
 40
1.987851743975673
  0
CIRCLE
  5
360
  8
0
  6
SLD-SOLID
 62
     7
 10
244.1091472225
 20
254.2043575902
 30
0.0
 40
1.987849168616574
  0
CIRCLE
  5
361
  8
0
  6
SLD-SOLID
 62
     7
 10
273.109146388
 20
254.2043575902
 30
0.0
 40
1.987849168616574
  0
CIRCLE
  5
362
  8
0
  6
SLD-SOLID
 62
     7
 10
302.109150611
 20
254.2043946873
 30
0.0
 40
1.987854316880449
  0
CIRCLE
  5
363
  8
0
  6
SLD-SOLID
 62
     7
 10
331.1091497765
 20
254.2043946873
 30
0.0
 40
1.987854316880449
  0
ARC
  5
364
  8
0
  6
SLD-SOLID
 62
     7
 10
600.9564007039
 20
194.767528556
 30
0.0
 40
13.31878839235477
 50
153.282034251
 51
206.5699461812
  0
POLYLINE
  5
365
  8
0
  6
SLD-SOLID
 62
     7
 66
     1
 10
0.0
 20
0.0
 30
0.0
  0
VERTEX
  5
82D
  8
0
  6
SLD-SOLID
 62
     7
 10
587.6212963484
 20
196.4732988112
 30
0.0
  0
VERTEX
  5
82E
  8
0
  6
SLD-SOLID
 62
     7
 10
587.8008702419
 20
198.6085928351
 30
0.0
  0
VERTEX
  5
82F
  8
0
  6
SLD-SOLID
 62
     7
 10
588.3377516292
 20
200.7219753999
 30
0.0
  0
VERTEX
  5
830
  8
0
  6
SLD-SOLID
 62
     7
 10
589.2264270804
 20
202.7917611835
 30
0.0
  0
VERTEX
  5
831
  8
0
  6
SLD-SOLID
 62
     7
 10
590.4577770851
 20
204.7967109669
 30
0.0
  0
VERTEX
  5
832
  8
0
  6
SLD-SOLID
 62
     7
 10
592.0191654585
 20
206.7162513107
 30
0.0
  0
VERTEX
  5
833
  8
0
  6
SLD-SOLID
 62
     7
 10
593.8945809029
 20
208.5306846842
 30
0.0
  0
VERTEX
  5
834
  8
0
  6
SLD-SOLID
 62
     7
 10
596.0647636674
 20
210.2213932507
 30
0.0
  0
VERTEX
  5
835
  8
0
  6
SLD-SOLID
 62
     7
 10
598.5074588678
 20
211.7710278675
 30
0.0
  0
VERTEX
  5
836
  8
0
  6
SLD-SOLID
 62
     7
 10
601.1975953005
 20
213.1636866674
 30
0.0
  0
VERTEX
  5
837
  8
0
  6
SLD-SOLID
 62
     7
 10
604.1075536631
 20
214.3850799024
 30
0.0
  0
VERTEX
  5
838
  8
0
  6
SLD-SOLID
 62
     7
 10
607.2075018309
 20
215.4226738334
 30
0.0
  0
VERTEX
  5
839
  8
0
  6
SLD-SOLID
 62
     7
 10
610.4656109236
 20
216.2658215806
 30
0.0
  0
VERTEX
  5
83A
  8
0
  6
SLD-SOLID
 62
     7
 10
613.8484576366
 20
216.9058720887
 30
0.0
  0
VERTEX
  5
83B
  8
0
  6
SLD-SOLID
 62
     7
 10
617.3213222645
 20
217.3362558082
 30
0.0
  0
VERTEX
  5
83C
  8
0
  6
SLD-SOLID
 62
     7
 10
620.8485761307
 20
217.5525573388
 30
0.0
  0
VERTEX
  5
83D
  8
0
  6
SLD-SOLID
 62
     7
 10
624.3940243147
 20
217.5525573388
 30
0.0
  0
VERTEX
  5
83E
  8
0
  6
SLD-SOLID
 62
     7
 10
627.9212781809
 20
217.3362558082
 30
0.0
  0
VERTEX
  5
83F
  8
0
  6
SLD-SOLID
 62
     7
 10
631.3941428087
 20
216.9058720887
 30
0.0
  0
VERTEX
  5
840
  8
0
  6
SLD-SOLID
 62
     7
 10
634.7769895218
 20
216.2658215806
 30
0.0
  0
VERTEX
  5
841
  8
0
  6
SLD-SOLID
 62
     7
 10
638.0350986145
 20
215.4226738334
 30
0.0
  0
VERTEX
  5
842
  8
0
  6
SLD-SOLID
 62
     7
 10
641.1350467823
 20
214.3850799024
 30
0.0
  0
VERTEX
  5
843
  8
0
  6
SLD-SOLID
 62
     7
 10
644.0450051449
 20
213.1636866674
 30
0.0
  0
VERTEX
  5
844
  8
0
  6
SLD-SOLID
 62
     7
 10
646.7351415775
 20
211.7710278675
 30
0.0
  0
VERTEX
  5
845
  8
0
  6
SLD-SOLID
 62
     7
 10
649.1778293274
 20
210.2213932507
 30
0.0
  0
VERTEX
  5
846
  8
0
  6
SLD-SOLID
 62
     7
 10
651.3480195425
 20
208.5306846842
 30
0.0
  0
VERTEX
  5
847
  8
0
  6
SLD-SOLID
 62
     7
 10
653.2234349869
 20
206.7162513107
 30
0.0
  0
VERTEX
  5
848
  8
0
  6
SLD-SOLID
 62
     7
 10
654.7848233602
 20
204.7967109669
 30
0.0
  0
VERTEX
  5
849
  8
0
  6
SLD-SOLID
 62
     7
 10
656.0161808155
 20
202.7917611835
 30
0.0
  0
VERTEX
  5
84A
  8
0
  6
SLD-SOLID
 62
     7
 10
656.9048413656
 20
200.7219753999
 30
0.0
  0
VERTEX
  5
84B
  8
0
  6
SLD-SOLID
 62
     7
 10
657.4417302034
 20
198.6085928351
 30
0.0
  0
VERTEX
  5
84C
  8
0
  6
SLD-SOLID
 62
     7
 10
657.621304097
 20
196.4732988112
 30
0.0
  0
SEQEND
  5
84D
  8
0
  6
SLD-SOLID
 62
     7
  0
POLYLINE
  5
366
  8
0
  6
SLD-SOLID
 62
     7
 66
     1
 10
0.0
 20
0.0
 30
0.0
  0
VERTEX
  5
84E
  8
0
  6
SLD-SOLID
 62
     7
 10
607.6213070772
 20
188.4961777672
 30
0.0
  0
VERTEX
  5
84F
  8
0
  6
SLD-SOLID
 62
     7
 10
607.6653102062
 20
189.1886105135
 30
0.0
  0
VERTEX
  5
850
  8
0
  6
SLD-SOLID
 62
     7
 10
608.0158749245
 20
190.5572449163
 30
0.0
  0
VERTEX
  5
851
  8
0
  6
SLD-SOLID
 62
     7
 10
608.7087640188
 20
191.8775697544
 30
0.0
  0
VERTEX
  5
852
  8
0
  6
SLD-SOLID
 62
     7
 10
609.7277501247
 20
193.1186371788
 30
0.0
  0
VERTEX
  5
853
  8
0
  6
SLD-SOLID
 62
     7
 10
611.048961582
 20
194.2513591915
 30
0.0
  0
VERTEX
  5
854
  8
0
  6
SLD-SOLID
 62
     7
 10
612.6414188764
 20
195.2491833203
 30
0.0
  0
VERTEX
  5
855
  8
0
  6
SLD-SOLID
 62
     7
 10
614.4677796982
 20
196.0887235895
 30
0.0
  0
VERTEX
  5
856
  8
0
  6
SLD-SOLID
 62
     7
 10
616.4852628134
 20
196.7503006876
 30
0.0
  0
VERTEX
  5
857
  8
0
  6
SLD-SOLID
 62
     7
 10
618.6465719364
 20
197.2184080936
 30
0.0
  0
VERTEX
  5
858
  8
0
  6
SLD-SOLID
 62
     7
 10
620.9010431192
 20
197.482074362
 30
0.0
  0
VERTEX
  5
859
  8
0
  6
SLD-SOLID
 62
     7
 10
623.1958368442
 20
197.5351183049
 30
0.0
  0
VERTEX
  5
85A
  8
0
  6
SLD-SOLID
 62
     7
 10
625.4771599195
 20
197.3762970723
 30
0.0
  0
VERTEX
  5
85B
  8
0
  6
SLD-SOLID
 62
     7
 10
627.6915469788
 20
197.0093336262
 30
0.0
  0
VERTEX
  5
85C
  8
0
  6
SLD-SOLID
 62
     7
 10
629.7870972774
 20
196.4428291962
 30
0.0
  0
VERTEX
  5
85D
  8
0
  6
SLD-SOLID
 62
     7
 10
631.7146816872
 20
195.6900616482
 30
0.0
  0
VERTEX
  5
85E
  8
0
  6
SLD-SOLID
 62
     7
 10
633.4291198872
 20
194.7686762855
 30
0.0
  0
VERTEX
  5
85F
  8
0
  6
SLD-SOLID
 62
     7
 10
634.8902383469
 20
193.7002676845
 30
0.0
  0
VERTEX
  5
860
  8
0
  6
SLD-SOLID
 62
     7
 10
636.0637792967
 20
192.5098809719
 30
0.0
  0
VERTEX
  5
861
  8
0
  6
SLD-SOLID
 62
     7
 10
636.9222500942
 20
191.2254157782
 30
0.0
  0
VERTEX
  5
862
  8
0
  6
SLD-SOLID
 62
     7
 10
637.4455043695
 20
189.8769789681
 30
0.0
  0
VERTEX
  5
863
  8
0
  6
SLD-SOLID
 62
     7
 10
637.6212933681
 20
188.4961777672
 30
0.0
  0
VERTEX
  5
864
  8
0
  6
SLD-SOLID
 62
     7
 10
637.6212933681
 20
188.4961777672
 30
0.0
  0
SEQEND
  5
865
  8
0
  6
SLD-SOLID
 62
     7
  0
ARC
  5
367
  8
0
  6
SLD-SOLID
 62
     7
 10
46.9562542365
 20
194.7675510181
 30
0.0
 40
13.31865869808301
 50
153.2818616005
 51
206.570333249
  0
POLYLINE
  5
368
  8
0
  6
SLD-SOLID
 62
     7
 66
     1
 10
0.0
 20
0.0
 30
0.0
  0
VERTEX
  5
866
  8
0
  6
SLD-SOLID
 62
     7
 10
33.6212912224
 20
196.4732988112
 30
0.0
  0
VERTEX
  5
867
  8
0
  6
SLD-SOLID
 62
     7
 10
33.8008800171
 20
198.6085928351
 30
0.0
  0
VERTEX
  5
868
  8
0
  6
SLD-SOLID
 62
     7
 10
34.3377390526
 20
200.7219753999
 30
0.0
  0
VERTEX
  5
869
  8
0
  6
SLD-SOLID
 62
     7
 10
35.2264145039
 20
202.7917611835
 30
0.0
  0
VERTEX
  5
86A
  8
0
  6
SLD-SOLID
 62
     7
 10
36.4577868603
 20
204.7967109669
 30
0.0
  0
VERTEX
  5
86B
  8
0
  6
SLD-SOLID
 62
     7
 10
38.0191603325
 20
206.7162513107
 30
0.0
  0
VERTEX
  5
86C
  8
0
  6
SLD-SOLID
 62
     7
 10
39.894590678
 20
208.5306846842
 30
0.0
  0
VERTEX
  5
86D
  8
0
  6
SLD-SOLID
 62
     7
 10
42.064765992
 20
210.2213932507
 30
0.0
  0
VERTEX
  5
86E
  8
0
  6
SLD-SOLID
 62
     7
 10
44.5074537418
 20
211.7710278675
 30
0.0
  0
VERTEX
  5
86F
  8
0
  6
SLD-SOLID
 62
     7
 10
47.1975901745
 20
213.1636866674
 30
0.0
  0
VERTEX
  5
870
  8
0
  6
SLD-SOLID
 62
     7
 10
50.1075485371
 20
214.3850799024
 30
0.0
  0
VERTEX
  5
871
  8
0
  6
SLD-SOLID
 62
     7
 10
53.2074967049
 20
215.4226738334
 30
0.0
  0
VERTEX
  5
872
  8
0
  6
SLD-SOLID
 62
     7
 10
56.4656057976
 20
216.2658215806
 30
0.0
  0
VERTEX
  5
873
  8
0
  6
SLD-SOLID
 62
     7
 10
59.8484674118
 20
216.9058720887
 30
0.0
  0
VERTEX
  5
874
  8
0
  6
SLD-SOLID
 62
     7
 10
63.3213320396
 20
217.3362558082
 30
0.0
  0
VERTEX
  5
875
  8
0
  6
SLD-SOLID
 62
     7
 10
66.8485859058
 20
217.5525573388
 30
0.0
  0
VERTEX
  5
876
  8
0
  6
SLD-SOLID
 62
     7
 10
70.3940191887
 20
217.5525573388
 30
0.0
  0
VERTEX
  5
877
  8
0
  6
SLD-SOLID
 62
     7
 10
73.9212730549
 20
217.3362558082
 30
0.0
  0
VERTEX
  5
878
  8
0
  6
SLD-SOLID
 62
     7
 10
77.3941376827
 20
216.9058720887
 30
0.0
  0
VERTEX
  5
879
  8
0
  6
SLD-SOLID
 62
     7
 10
80.7769694946
 20
216.2658215806
 30
0.0
  0
VERTEX
  5
87A
  8
0
  6
SLD-SOLID
 62
     7
 10
84.0351083897
 20
215.4226738334
 30
0.0
  0
VERTEX
  5
87B
  8
0
  6
SLD-SOLID
 62
     7
 10
87.1350267551
 20
214.3850799024
 30
0.0
  0
VERTEX
  5
87C
  8
0
  6
SLD-SOLID
 62
     7
 10
90.04501492
 20
213.1636866674
 30
0.0
  0
VERTEX
  5
87D
  8
0
  6
SLD-SOLID
 62
     7
 10
92.7351513527
 20
211.7710278675
 30
0.0
  0
VERTEX
  5
87E
  8
0
  6
SLD-SOLID
 62
     7
 10
95.1778391025
 20
210.2213932507
 30
0.0
  0
VERTEX
  5
87F
  8
0
  6
SLD-SOLID
 62
     7
 10
97.3480144165
 20
208.5306846842
 30
0.0
  0
VERTEX
  5
880
  8
0
  6
SLD-SOLID
 62
     7
 10
99.223444762
 20
206.7162513107
 30
0.0
  0
VERTEX
  5
881
  8
0
  6
SLD-SOLID
 62
     7
 10
100.7848182342
 20
204.7967109669
 30
0.0
  0
VERTEX
  5
882
  8
0
  6
SLD-SOLID
 62
     7
 10
102.0161607883
 20
202.7917611835
 30
0.0
  0
VERTEX
  5
883
  8
0
  6
SLD-SOLID
 62
     7
 10
102.9048362396
 20
200.7219753999
 30
0.0
  0
VERTEX
  5
884
  8
0
  6
SLD-SOLID
 62
     7
 10
103.4417250774
 20
198.6085928351
 30
0.0
  0
VERTEX
  5
885
  8
0
  6
SLD-SOLID
 62
     7
 10
103.6213138721
 20
196.4732988112
 30
0.0
  0
VERTEX
  5
886
  8
0
  6
SLD-SOLID
 62
     7
 10
103.6213138721
 20
196.4732988112
 30
0.0
  0
SEQEND
  5
887
  8
0
  6
SLD-SOLID
 62
     7
  0
POLYLINE
  5
369
  8
0
  6
SLD-SOLID
 62
     7
 66
     1
 10
0.0
 20
0.0
 30
0.0
  0
VERTEX
  5
888
  8
0
  6
SLD-SOLID
 62
     7
 10
53.6213019512
 20
188.4961777672
 30
0.0
  0
VERTEX
  5
889
  8
0
  6
SLD-SOLID
 62
     7
 10
53.6653199814
 20
189.1886105135
 30
0.0
  0
VERTEX
  5
88A
  8
0
  6
SLD-SOLID
 62
     7
 10
54.0158548973
 20
190.5572449163
 30
0.0
  0
VERTEX
  5
88B
  8
0
  6
SLD-SOLID
 62
     7
 10
54.7087588928
 20
191.8775697544
 30
0.0
  0
VERTEX
  5
88C
  8
0
  6
SLD-SOLID
 62
     7
 10
55.7277598999
 20
193.1186371788
 30
0.0
  0
VERTEX
  5
88D
  8
0
  6
SLD-SOLID
 62
     7
 10
57.048956456
 20
194.2513591915
 30
0.0
  0
VERTEX
  5
88E
  8
0
  6
SLD-SOLID
 62
     7
 10
58.6414137504
 20
195.2491833203
 30
0.0
  0
VERTEX
  5
88F
  8
0
  6
SLD-SOLID
 62
     7
 10
60.4677894733
 20
196.0887235895
 30
0.0
  0
VERTEX
  5
890
  8
0
  6
SLD-SOLID
 62
     7
 10
62.4852576874
 20
196.7503006876
 30
0.0
  0
VERTEX
  5
891
  8
0
  6
SLD-SOLID
 62
     7
 10
64.6465817116
 20
197.2184080936
 30
0.0
  0
VERTEX
  5
892
  8
0
  6
SLD-SOLID
 62
     7
 10
66.9010379932
 20
197.482074362
 30
0.0
  0
VERTEX
  5
893
  8
0
  6
SLD-SOLID
 62
     7
 10
69.1958466194
 20
197.5351183049
 30
0.0
  0
VERTEX
  5
894
  8
0
  6
SLD-SOLID
 62
     7
 10
71.4771547935
 20
197.3762970723
 30
0.0
  0
VERTEX
  5
895
  8
0
  6
SLD-SOLID
 62
     7
 10
73.6915567539
 20
197.0093336262
 30
0.0
  0
VERTEX
  5
896
  8
0
  6
SLD-SOLID
 62
     7
 10
75.7871070526
 20
196.4428291962
 30
0.0
  0
VERTEX
  5
897
  8
0
  6
SLD-SOLID
 62
     7
 10
77.7146914623
 20
195.6900616482
 30
0.0
  0
VERTEX
  5
898
  8
0
  6
SLD-SOLID
 62
     7
 10
79.4291296623
 20
194.7686762855
 30
0.0
  0
VERTEX
  5
899
  8
0
  6
SLD-SOLID
 62
     7
 10
80.890248122
 20
193.7002676845
 30
0.0
  0
VERTEX
  5
89A
  8
0
  6
SLD-SOLID
 62
     7
 10
82.0637741707
 20
192.5098809719
 30
0.0
  0
VERTEX
  5
89B
  8
0
  6
SLD-SOLID
 62
     7
 10
82.9222598694
 20
191.2254157782
 30
0.0
  0
VERTEX
  5
89C
  8
0
  6
SLD-SOLID
 62
     7
 10
83.4454992435
 20
189.8769789681
 30
0.0
  0
VERTEX
  5
89D
  8
0
  6
SLD-SOLID
 62
     7
 10
83.6213031433
 20
188.4961777672
 30
0.0
  0
VERTEX
  5
89E
  8
0
  6
SLD-SOLID
 62
     7
 10
83.6213031433
 20
188.4961777672
 30
0.0
  0
SEQEND
  5
89F
  8
0
  6
SLD-SOLID
 62
     7
  0
LINE
  5
36A
  8
0
  6
SLD-SOLID
 62
     7
 10
43.4213081024
 20
213.3596788466
 30
0.0
 11
47.6241806171
 21
213.3596788466
 31
0.0
  0
LINE
  5
36B
  8
0
  6
SLD-SOLID
 62
     7
 10
89.6184244774
 20
213.3596788466
 30
0.0
 11
601.624170842
 21
213.3596788466
 31
0.0
  0
LINE
  5
36C
  8
0
  6
SLD-SOLID
 62
     7
 10
643.6184147022
 20
213.3596788466
 30
0.0
 11
647.8213021181
 21
213.3596788466
 31
0.0
  0
LINE
  5
36D
  8
0
  6
SLD-SOLID
 62
     7
 10
647.8213021181
 20
211.1205567911
 30
0.0
 11
647.8213021181
 21
213.3596788466
 31
0.0
  0
LINE
  5
36E
  8
0
  6
SLD-SOLID
 62
     7
 10
43.4213081024
 20
211.1205567911
 30
0.0
 11
43.4213081024
 21
213.3596788466
 31
0.0
  0
LINE
  5
36F
  8
0
  6
SLD-SOLID
 62
     7
 10
43.4213081024
 20
213.6567735419
 30
0.0
 11
48.2977727077
 21
213.6567735419
 31
0.0
  0
LINE
  5
370
  8
0
  6
SLD-SOLID
 62
     7
 10
88.9448025844
 20
213.6567735419
 30
0.0
 11
602.2977927349
 21
213.6567735419
 31
0.0
  0
LINE
  5
371
  8
0
  6
SLD-SOLID
 62
     7
 10
642.9448077104
 20
213.6567735419
 30
0.0
 11
647.8213021181
 21
213.6567735419
 31
0.0
  0
LINE
  5
372
  8
0
  6
SLD-SOLID
 62
     7
 10
647.8213021181
 20
213.6567735419
 30
0.0
 11
647.8213021181
 21
213.3596788466
 31
0.0
  0
LINE
  5
373
  8
0
  6
SLD-SOLID
 62
     7
 10
43.4213081024
 20
213.6567735419
 30
0.0
 11
43.4213081024
 21
213.3596788466
 31
0.0
  0
LINE
  5
374
  8
0
  6
SLD-SOLID
 62
     7
 10
648.6213007591
 20
237.9123379782
 30
0.0
 11
647.8213021181
 21
237.9123379782
 31
0.0
  0
LINE
  5
375
  8
0
  6
SLD-SOLID
 62
     7
 10
648.6213007591
 20
237.9123379782
 30
0.0
 11
648.6213007591
 21
213.6939100295
 31
0.0
  0
LINE
  5
376
  8
0
  6
SLD-SOLID
 62
     7
 10
648.6213007591
 20
213.6939100295
 30
0.0
 11
647.8213021181
 21
213.6939100295
 31
0.0
  0
LINE
  5
377
  8
0
  6
SLD-SOLID
 62
     7
 10
647.8213021181
 20
237.9123379782
 30
0.0
 11
647.8213021181
 21
213.6939100295
 31
0.0
  0
LINE
  5
378
  8
0
  6
SLD-SOLID
 62
     7
 10
42.6212945602
 20
213.6939100295
 30
0.0
 11
43.4213081024
 21
213.6939100295
 31
0.0
  0
LINE
  5
379
  8
0
  6
SLD-SOLID
 62
     7
 10
42.6212945602
 20
213.6939100295
 30
0.0
 11
42.6212945602
 21
237.9123379782
 31
0.0
  0
LINE
  5
37A
  8
0
  6
SLD-SOLID
 62
     7
 10
42.6212945602
 20
237.9123379782
 30
0.0
 11
43.4213081024
 21
237.9123379782
 31
0.0
  0
LINE
  5
37B
  8
0
  6
SLD-SOLID
 62
     7
 10
43.4213081024
 20
213.6939100295
 30
0.0
 11
43.4213081024
 21
237.9123379782
 31
0.0
  0
LINE
  5
37C
  8
0
  6
SLD-SOLID
 62
     7
 10
42.6212945602
 20
210.6029435366
 30
0.0
 11
42.6212945602
 21
213.6939100295
 31
0.0
  0
LINE
  5
37D
  8
0
  6
SLD-SOLID
 62
     7
 10
43.4213081024
 20
213.6567735419
 30
0.0
 11
43.4213081024
 21
213.6939100295
 31
0.0
  0
LINE
  5
37E
  8
0
  6
SLD-SOLID
 62
     7
 10
647.8213021181
 20
213.6939100295
 30
0.0
 11
647.8213021181
 21
213.6567735419
 31
0.0
  0
LINE
  5
37F
  8
0
  6
SLD-SOLID
 62
     7
 10
648.6213007591
 20
213.6939100295
 30
0.0
 11
648.6213007591
 21
210.6029435366
 31
0.0
  0
LINE
  5
380
  8
0
  6
SLD-SOLID
 62
     7
 10
103.5882928989
 20
197.3897230186
 30
0.0
 11
587.654309871
 21
197.3897230186
 31
0.0
  0
LINE
  5
381
  8
0
  6
SLD-SOLID
 62
     7
 10
43.4213081024
 20
218.6548539743
 30
0.0
 11
44.6713069103
 21
218.6548539743
 31
0.0
  0
LINE
  5
382
  8
0
  6
SLD-SOLID
 62
     7
 10
646.5713033102
 20
218.6548539743
 30
0.0
 11
647.8213021181
 21
218.6548539743
 31
0.0
  0
LINE
  5
383
  8
0
  6
SLD-SOLID
 62
     7
 10
44.6713069103
 20
220.112340276
 30
0.0
 11
44.6713069103
 21
218.6548539743
 31
0.0
  0
LINE
  5
384
  8
0
  6
SLD-SOLID
 62
     7
 10
44.6713069103
 20
220.112340276
 30
0.0
 11
64.6213093422
 21
220.112340276
 31
0.0
  0
LINE
  5
385
  8
0
  6
SLD-SOLID
 62
     7
 10
72.6212957523
 20
220.112340276
 30
0.0
 11
618.621299567
 21
220.112340276
 31
0.0
  0
LINE
  5
386
  8
0
  6
SLD-SOLID
 62
     7
 10
626.6213008783
 20
220.112340276
 30
0.0
 11
646.5713033102
 21
220.112340276
 31
0.0
  0
LINE
  5
387
  8
0
  6
SLD-SOLID
 62
     7
 10
646.5713033102
 20
218.6548539743
 30
0.0
 11
646.5713033102
 21
220.112340276
 31
0.0
  0
ARC
  5
388
  8
0
  6
SLD-SOLID
 62
     7
 10
646.5712997086
 20
221.3623394406
 30
0.0
 40
2.050000000000012
 50
270.0
 51
307.5718693197
  0
ARC
  5
389
  8
0
  6
SLD-SOLID
 62
     7
 10
646.5712997086
 20
221.3623394406
 30
0.0
 40
1.25
 50
270.0
 51
0.0
  0
ARC
  5
38A
  8
0
  6
SLD-SOLID
 62
     7
 10
44.6712997086
 20
221.3623394406
 30
0.0
 40
2.049999999999955
 50
232.4281306803
 51
270.0
  0
ARC
  5
38B
  8
0
  6
SLD-SOLID
 62
     7
 10
44.6712997086
 20
221.3623394406
 30
0.0
 40
1.25
 50
180.0
 51
270.0
  0
POLYLINE
  5
38C
  8
0
  6
SLD-SOLID
 62
     7
 66
     1
 10
0.0
 20
0.0
 30
0.0
  0
VERTEX
  5
8A0
  8
0
  6
SLD-SOLID
 62
     7
 10
647.464002075
 20
220.4891179994
 30
0.0
  0
VERTEX
  5
8A1
  8
0
  6
SLD-SOLID
 62
     7
 10
647.7163234375
 20
221.1093471691
 30
0.0
  0
VERTEX
  5
8A2
  8
0
  6
SLD-SOLID
 62
     7
 10
647.8142240665
 20
221.3623390839
 30
0.0
  0
SEQEND
  5
8A3
  8
0
  6
SLD-SOLID
 62
     7
  0
POLYLINE
  5
38D
  8
0
  6
SLD-SOLID
 62
     7
 66
     1
 10
0.0
 20
0.0
 30
0.0
  0
VERTEX
  5
8A4
  8
0
  6
SLD-SOLID
 62
     7
 10
43.4283712528
 20
221.3623390839
 30
0.0
  0
VERTEX
  5
8A5
  8
0
  6
SLD-SOLID
 62
     7
 10
43.7145629547
 20
220.6369784966
 30
0.0
  0
VERTEX
  5
8A6
  8
0
  6
SLD-SOLID
 62
     7
 10
43.7753894947
 20
220.5027525619
 30
0.0
  0
SEQEND
  5
8A7
  8
0
  6
SLD-SOLID
 62
     7
  0
ARC
  5
38E
  8
0
  6
SLD-SOLID
 62
     7
 10
645.7380475712
 20
222.1838185446
 30
0.0
 40
2.232786900717253
 50
291.9125430786
 51
338.4128114961
  0
ARC
  5
38F
  8
0
  6
SLD-SOLID
 62
     7
 10
45.4662016414
 20
222.1456990467
 30
0.0
 40
2.183209912946154
 50
201.027199897
 51
248.6481324224
  0
LINE
  5
390
  8
0
  6
SLD-SOLID
 62
     7
 10
647.8142240665
 20
221.3623390839
 30
0.0
 11
647.8142240665
 21
237.9123379782
 31
0.0
  0
LINE
  5
391
  8
0
  6
SLD-SOLID
 62
     7
 10
43.4283712528
 20
237.9123379782
 30
0.0
 11
64.6213093422
 21
237.9123379782
 31
0.0
  0
LINE
  5
392
  8
0
  6
SLD-SOLID
 62
     7
 10
72.6212957523
 20
237.9123379782
 30
0.0
 11
84.6212902687
 21
237.9123379782
 31
0.0
  0
LINE
  5
393
  8
0
  6
SLD-SOLID
 62
     7
 10
606.6213050506
 20
237.9123379782
 30
0.0
 11
618.621299567
 21
237.9123379782
 31
0.0
  0
LINE
  5
394
  8
0
  6
SLD-SOLID
 62
     7
 10
626.6213008783
 20
237.9123379782
 30
0.0
 11
647.8142240665
 21
237.9123379782
 31
0.0
  0
LINE
  5
395
  8
0
  6
SLD-SOLID
 62
     7
 10
43.4283712528
 20
221.3623390839
 30
0.0
 11
43.4283712528
 21
237.9123379782
 31
0.0
  0
POLYLINE
  5
396
  8
0
  6
SLD-SOLID
 62
     7
 66
     1
 10
0.0
 20
0.0
 30
0.0
  0
VERTEX
  5
8A8
  8
0
  6
SLD-SOLID
 62
     7
 10
59.2116215847
 20
178.1580594674
 30
0.0
  0
VERTEX
  5
8A9
  8
0
  6
SLD-SOLID
 62
     7
 10
59.3889156006
 20
178.2633864626
 30
0.0
  0
VERTEX
  5
8AA
  8
0
  6
SLD-SOLID
 62
     7
 10
59.7146847866
 20
178.4470376864
 30
0.0
  0
SEQEND
  5
8AB
  8
0
  6
SLD-SOLID
 62
     7
  0
LINE
  5
397
  8
0
  6
SLD-SOLID
 62
     7
 10
77.393243613
 20
178.5194536045
 30
0.0
 11
78.069547715
 21
178.1346124902
 31
0.0
  0
POLYLINE
  5
398
  8
0
  6
SLD-SOLID
 62
     7
 66
     1
 10
0.0
 20
0.0
 30
0.0
  0
VERTEX
  5
8AC
  8
0
  6
SLD-SOLID
 62
     7
 10
58.415720763
 20
180.2421451852
 30
0.0
  0
VERTEX
  5
8AD
  8
0
  6
SLD-SOLID
 62
     7
 10
58.2810738705
 20
180.3189830229
 30
0.0
  0
VERTEX
  5
8AE
  8
0
  6
SLD-SOLID
 62
     7
 10
56.7545989178
 20
181.3471203044
 30
0.0
  0
VERTEX
  5
8AF
  8
0
  6
SLD-SOLID
 62
     7
 10
55.5062690399
 20
182.5037242219
 30
0.0
  0
VERTEX
  5
8B0
  8
0
  6
SLD-SOLID
 62
     7
 10
54.5653501175
 20
183.7616858378
 30
0.0
  0
VERTEX
  5
8B1
  8
0
  6
SLD-SOLID
 62
     7
 10
53.9538958691
 20
185.0915194795
 30
0.0
  0
VERTEX
  5
8B2
  8
0
  6
SLD-SOLID
 62
     7
 10
53.6862412117
 20
186.4620537803
 30
0.0
  0
VERTEX
  5
8B3
  8
0
  6
SLD-SOLID
 62
     7
 10
53.7686446331
 20
187.8411664933
 30
0.0
  0
VERTEX
  5
8B4
  8
0
  6
SLD-SOLID
 62
     7
 10
54.1991689823
 20
189.1965304807
 30
0.0
  0
VERTEX
  5
8B5
  8
0
  6
SLD-SOLID
 62
     7
 10
54.9677410744
 20
190.4963773981
 30
0.0
  0
VERTEX
  5
8B6
  8
0
  6
SLD-SOLID
 62
     7
 10
56.0563603065
 20
191.7102418214
 30
0.0
  0
VERTEX
  5
8B7
  8
0
  6
SLD-SOLID
 62
     7
 10
57.4394562862
 20
192.8096699834
 30
0.0
  0
VERTEX
  5
8B8
  8
0
  6
SLD-SOLID
 62
     7
 10
59.0846636913
 20
193.7688931197
 30
0.0
  0
VERTEX
  5
8B9
  8
0
  6
SLD-SOLID
 62
     7
 10
60.9534183166
 20
194.5654272407
 30
0.0
  0
VERTEX
  5
8BA
  8
0
  6
SLD-SOLID
 62
     7
 10
63.001880946
 20
195.1806021229
 30
0.0
  0
VERTEX
  5
8BB
  8
0
  6
SLD-SOLID
 62
     7
 10
65.1820698402
 20
195.5999994956
 30
0.0
  0
VERTEX
  5
8BC
  8
0
  6
SLD-SOLID
 62
     7
 10
67.4428740166
 20
195.8137883179
 30
0.0
  0
VERTEX
  5
8BD
  8
0
  6
SLD-SOLID
 62
     7
 10
69.7312751434
 20
195.8169576086
 30
0.0
  0
VERTEX
  5
8BE
  8
0
  6
SLD-SOLID
 62
     7
 10
71.9936886452
 20
195.6094337933
 30
0.0
  0
VERTEX
  5
8BF
  8
0
  6
SLD-SOLID
 62
     7
 10
74.1770365856
 20
195.1960802384
 30
0.0
  0
VERTEX
  5
8C0
  8
0
  6
SLD-SOLID
 62
     7
 10
76.2301483772
 20
194.5865859583
 30
0.0
  0
VERTEX
  5
8C1
  8
0
  6
SLD-SOLID
 62
     7
 10
78.104952874
 20
193.79523651
 30
0.0
  0
VERTEX
  5
8C2
  8
0
  6
SLD-SOLID
 62
     7
 10
79.7574618481
 20
192.840581511
 30
0.0
  0
VERTEX
  5
8C3
  8
0
  6
SLD-SOLID
 62
     7
 10
81.1489322803
 20
191.7449959859
 30
0.0
  0
VERTEX
  5
8C4
  8
0
  6
SLD-SOLID
 62
     7
 10
82.2467604301
 20
190.5341602236
 30
0.0
  0
VERTEX
  5
8C5
  8
0
  6
SLD-SOLID
 62
     7
 10
83.0252268932
 20
189.2364553481
 30
0.0
  0
VERTEX
  5
8C6
  8
0
  6
SLD-SOLID
 62
     7
 10
83.4660926483
 20
187.8822983548
 30
0.0
  0
VERTEX
  5
8C7
  8
0
  6
SLD-SOLID
 62
     7
 10
83.5589864872
 20
186.503428717
 30
0.0
  0
VERTEX
  5
8C8
  8
0
  6
SLD-SOLID
 62
     7
 10
83.3017626427
 20
185.1321679846
 30
0.0
  0
VERTEX
  5
8C9
  8
0
  6
SLD-SOLID
 62
     7
 10
82.7004411838
 20
183.800654237
 30
0.0
  0
VERTEX
  5
8CA
  8
0
  6
SLD-SOLID
 62
     7
 10
81.7691186092
 20
182.540099819
 30
0.0
  0
VERTEX
  5
8CB
  8
0
  6
SLD-SOLID
 62
     7
 10
80.5296400211
 20
181.380050008
 30
0.0
  0
VERTEX
  5
8CC
  8
0
  6
SLD-SOLID
 62
     7
 10
79.0110030792
 20
180.3476956979
 30
0.0
  0
VERTEX
  5
8CD
  8
0
  6
SLD-SOLID
 62
     7
 10
79.0110030792
 20
180.3476956979
 30
0.0
  0
SEQEND
  5
8CE
  8
0
  6
SLD-SOLID
 62
     7
  0
POLYLINE
  5
399
  8
0
  6
SLD-SOLID
 62
     7
 66
     1
 10
0.0
 20
0.0
 30
0.0
  0
VERTEX
  5
8CF
  8
0
  6
SLD-SOLID
 62
     7
 10
55.1226833485
 20
182.9561421022
 30
0.0
  0
VERTEX
  5
8D0
  8
0
  6
SLD-SOLID
 62
     7
 10
54.5158782623
 20
183.8236523166
 30
0.0
  0
VERTEX
  5
8D1
  8
0
  6
SLD-SOLID
 62
     7
 10
53.9022782467
 20
185.1581649229
 30
0.0
  0
VERTEX
  5
8D2
  8
0
  6
SLD-SOLID
 62
     7
 10
53.633669915
 20
186.5335234746
 30
0.0
  0
VERTEX
  5
8D3
  8
0
  6
SLD-SOLID
 62
     7
 10
53.7163713596
 20
187.9174902409
 30
0.0
  0
VERTEX
  5
8D4
  8
0
  6
SLD-SOLID
 62
     7
 10
54.1484156273
 20
189.2776253939
 30
0.0
  0
VERTEX
  5
8D5
  8
0
  6
SLD-SOLID
 62
     7
 10
54.9196997307
 20
190.5820488304
 30
0.0
  0
VERTEX
  5
8D6
  8
0
  6
SLD-SOLID
 62
     7
 10
56.0121336601
 20
191.8001852304
 30
0.0
  0
VERTEX
  5
8D7
  8
0
  6
SLD-SOLID
 62
     7
 10
57.4001172207
 20
192.903483969
 30
0.0
  0
VERTEX
  5
8D8
  8
0
  6
SLD-SOLID
 62
     7
 10
59.0511062763
 20
193.8660831496
 30
0.0
  0
VERTEX
  5
8D9
  8
0
  6
SLD-SOLID
 62
     7
 10
60.9264174126
 20
194.6654205516
 30
0.0
  0
VERTEX
  5
8DA
  8
0
  6
SLD-SOLID
 62
     7
 10
62.9820922039
 20
195.2827612244
 30
0.0
  0
VERTEX
  5
8DB
  8
0
  6
SLD-SOLID
 62
     7
 10
65.1699700973
 20
195.7036347434
 30
0.0
  0
VERTEX
  5
8DC
  8
0
  6
SLD-SOLID
 62
     7
 10
67.4387016914
 20
195.9181760743
 30
0.0
  0
VERTEX
  5
8DD
  8
0
  6
SLD-SOLID
 62
     7
 10
69.7351792477
 20
195.9213570066
 30
0.0
  0
VERTEX
  5
8DE
  8
0
  6
SLD-SOLID
 62
     7
 10
72.0055499695
 20
195.7131025687
 30
0.0
  0
VERTEX
  5
8DF
  8
0
  6
SLD-SOLID
 62
     7
 10
74.1965869091
 20
195.2982938223
 30
0.0
  0
VERTEX
  5
8E0
  8
0
  6
SLD-SOLID
 62
     7
 10
76.256940665
 20
194.686653775
 30
0.0
  0
VERTEX
  5
8E1
  8
0
  6
SLD-SOLID
 62
     7
 10
78.1383314751
 20
193.8925196722
 30
0.0
  0
VERTEX
  5
8E2
  8
0
  6
SLD-SOLID
 62
     7
 10
79.796651902
 20
192.93450353
 30
0.0
  0
VERTEX
  5
8E3
  8
0
  6
SLD-SOLID
 62
     7
 10
81.1930099152
 20
191.8350623295
 30
0.0
  0
VERTEX
  5
8E4
  8
0
  6
SLD-SOLID
 62
     7
 10
82.2947123669
 20
190.6199639037
 30
0.0
  0
VERTEX
  5
8E5
  8
0
  6
SLD-SOLID
 62
     7
 10
83.0759206436
 20
189.3176918224
 30
0.0
  0
VERTEX
  5
8E6
  8
0
  6
SLD-SOLID
 62
     7
 10
83.5183361195
 20
187.9587673888
 30
0.0
  0
VERTEX
  5
8E7
  8
0
  6
SLD-SOLID
 62
     7
 10
83.6115577839
 20
186.5750455603
 30
0.0
  0
VERTEX
  5
8E8
  8
0
  6
SLD-SOLID
 62
     7
 10
83.3534398697
 20
185.1989568517
 30
0.0
  0
VERTEX
  5
8E9
  8
0
  6
SLD-SOLID
 62
     7
 10
82.750002446
 20
183.8627566889
 30
0.0
  0
VERTEX
  5
8EA
  8
0
  6
SLD-SOLID
 62
     7
 10
82.1198919437
 20
182.9561421022
 30
0.0
  0
SEQEND
  5
8EB
  8
0
  6
SLD-SOLID
 62
     7
  0
POLYLINE
  5
39A
  8
0
  6
SLD-SOLID
 62
     7
 66
     1
 10
0.0
 20
0.0
 30
0.0
  0
VERTEX
  5
8EC
  8
0
  6
SLD-SOLID
 62
     7
 10
53.6213019512
 20
188.4961777672
 30
0.0
  0
VERTEX
  5
8ED
  8
0
  6
SLD-SOLID
 62
     7
 10
53.7163713596
 20
189.5129147291
 30
0.0
  0
VERTEX
  5
8EE
  8
0
  6
SLD-SOLID
 62
     7
 10
54.1484156273
 20
190.8730498821
 30
0.0
  0
VERTEX
  5
8EF
  8
0
  6
SLD-SOLID
 62
     7
 10
54.9196997307
 20
192.1774723873
 30
0.0
  0
VERTEX
  5
8F0
  8
0
  6
SLD-SOLID
 62
     7
 10
56.0121336601
 20
193.3956097186
 30
0.0
  0
VERTEX
  5
8F1
  8
0
  6
SLD-SOLID
 62
     7
 10
57.4001172207
 20
194.4989075258
 30
0.0
  0
VERTEX
  5
8F2
  8
0
  6
SLD-SOLID
 62
     7
 10
59.0511062763
 20
195.4615067065
 30
0.0
  0
VERTEX
  5
8F3
  8
0
  6
SLD-SOLID
 62
     7
 10
60.9264174126
 20
196.2608445741
 30
0.0
  0
VERTEX
  5
8F4
  8
0
  6
SLD-SOLID
 62
     7
 10
62.9820922039
 20
196.8781852469
 30
0.0
  0
VERTEX
  5
8F5
  8
0
  6
SLD-SOLID
 62
     7
 10
65.1699700973
 20
197.2990587659
 30
0.0
  0
VERTEX
  5
8F6
  8
0
  6
SLD-SOLID
 62
     7
 10
67.4387016914
 20
197.5136005625
 30
0.0
  0
VERTEX
  5
8F7
  8
0
  6
SLD-SOLID
 62
     7
 10
69.7351792477
 20
197.5167810291
 30
0.0
  0
VERTEX
  5
8F8
  8
0
  6
SLD-SOLID
 62
     7
 10
72.0055499695
 20
197.3085265912
 30
0.0
  0
VERTEX
  5
8F9
  8
0
  6
SLD-SOLID
 62
     7
 10
74.1965869091
 20
196.8937178448
 30
0.0
  0
VERTEX
  5
8FA
  8
0
  6
SLD-SOLID
 62
     7
 10
76.256940665
 20
196.2820782632
 30
0.0
  0
VERTEX
  5
8FB
  8
0
  6
SLD-SOLID
 62
     7
 10
78.1383314751
 20
195.4879436948
 30
0.0
  0
VERTEX
  5
8FC
  8
0
  6
SLD-SOLID
 62
     7
 10
79.796651902
 20
194.5299280182
 30
0.0
  0
VERTEX
  5
8FD
  8
0
  6
SLD-SOLID
 62
     7
 10
81.1930099152
 20
193.4304858863
 30
0.0
  0
VERTEX
  5
8FE
  8
0
  6
SLD-SOLID
 62
     7
 10
82.2947123669
 20
192.2153883919
 30
0.0
  0
VERTEX
  5
8FF
  8
0
  6
SLD-SOLID
 62
     7
 10
83.0759206436
 20
190.9131153792
 30
0.0
  0
VERTEX
  5
900
  8
0
  6
SLD-SOLID
 62
     7
 10
83.5183361195
 20
189.554191877
 30
0.0
  0
VERTEX
  5
901
  8
0
  6
SLD-SOLID
 62
     7
 10
83.6213031433
 20
188.4961777672
 30
0.0
  0
SEQEND
  5
902
  8
0
  6
SLD-SOLID
 62
     7
  0
LINE
  5
39B
  8
0
  6
SLD-SOLID
 62
     7
 10
613.2849106214
 20
178.2020681843
 30
0.0
 11
613.5122874401
 21
178.3343904957
 31
0.0
  0
LINE
  5
39C
  8
0
  6
SLD-SOLID
 62
     7
 10
631.4356127403
 20
178.4968820706
 30
0.0
 11
632.0685991667
 21
178.1351899102
 31
0.0
  0
POLYLINE
  5
39D
  8
0
  6
SLD-SOLID
 62
     7
 66
     1
 10
0.0
 20
0.0
 30
0.0
  0
VERTEX
  5
903
  8
0
  6
SLD-SOLID
 62
     7
 10
612.3896637581
 20
180.2568656698
 30
0.0
  0
VERTEX
  5
904
  8
0
  6
SLD-SOLID
 62
     7
 10
612.0807328842
 20
180.4369014993
 30
0.0
  0
VERTEX
  5
905
  8
0
  6
SLD-SOLID
 62
     7
 10
610.5864593408
 20
181.4820968852
 30
0.0
  0
VERTEX
  5
906
  8
0
  6
SLD-SOLID
 62
     7
 10
609.3742796801
 20
182.6525961354
 30
0.0
  0
VERTEX
  5
907
  8
0
  6
SLD-SOLID
 62
     7
 10
608.4725955151
 20
183.9209624872
 30
0.0
  0
VERTEX
  5
908
  8
0
  6
SLD-SOLID
 62
     7
 10
607.9025515936
 20
185.2574681237
 30
0.0
  0
VERTEX
  5
909
  8
0
  6
SLD-SOLID
 62
     7
 10
607.6774993561
 20
186.6307852164
 30
0.0
  0
VERTEX
  5
90A
  8
0
  6
SLD-SOLID
 62
     7
 10
607.8027138136
 20
188.0087253943
 30
0.0
  0
VERTEX
  5
90B
  8
0
  6
SLD-SOLID
 62
     7
 10
608.2752594374
 20
189.3589894593
 30
0.0
  0
VERTEX
  5
90C
  8
0
  6
SLD-SOLID
 62
     7
 10
609.0840646646
 20
190.6499292076
 30
0.0
  0
VERTEX
  5
90D
  8
0
  6
SLD-SOLID
 62
     7
 10
610.2101752184
 20
191.8512859687
 30
0.0
  0
VERTEX
  5
90E
  8
0
  6
SLD-SOLID
 62
     7
 10
611.6271862409
 20
192.9349012047
 30
0.0
  0
VERTEX
  5
90F
  8
0
  6
SLD-SOLID
 62
     7
 10
613.3018979452
 20
193.8753758863
 30
0.0
  0
VERTEX
  5
910
  8
0
  6
SLD-SOLID
 62
     7
 10
615.1950457714
 20
194.6506665394
 30
0.0
  0
VERTEX
  5
911
  8
0
  6
SLD-SOLID
 62
     7
 10
617.2622689627
 20
195.2425993353
 30
0.0
  0
VERTEX
  5
912
  8
0
  6
SLD-SOLID
 62
     7
 10
619.4550791405
 20
195.637301293
 30
0.0
  0
VERTEX
  5
913
  8
0
  6
SLD-SOLID
 62
     7
 10
621.7221269033
 20
195.825520654
 30
0.0
  0
VERTEX
  5
914
  8
0
  6
SLD-SOLID
 62
     7
 10
624.010230007
 20
195.8028457433
 30
0.0
  0
VERTEX
  5
915
  8
0
  6
SLD-SOLID
 62
     7
 10
626.2657889746
 20
195.5698078804
 30
0.0
  0
VERTEX
  5
916
  8
0
  6
SLD-SOLID
 62
     7
 10
628.4359344862
 20
195.1318697378
 30
0.0
  0
VERTEX
  5
917
  8
0
  6
SLD-SOLID
 62
     7
 10
630.4697790764
 20
194.499294956
 30
0.0
  0
VERTEX
  5
918
  8
0
  6
SLD-SOLID
 62
     7
 10
632.3196539305
 20
193.6869125188
 30
0.0
  0
VERTEX
  5
919
  8
0
  6
SLD-SOLID
 62
     7
 10
633.9422115705
 20
192.7137623847
 30
0.0
  0
VERTEX
  5
91A
  8
0
  6
SLD-SOLID
 62
     7
 10
635.2994242332
 20
191.6026545063
 30
0.0
  0
VERTEX
  5
91B
  8
0
  6
SLD-SOLID
 62
     7
 10
636.3594630382
 20
190.3796333194
 30
0.0
  0
VERTEX
  5
91C
  8
0
  6
SLD-SOLID
 62
     7
 10
637.097502651
 20
189.0733640015
 30
0.0
  0
VERTEX
  5
91D
  8
0
  6
SLD-SOLID
 62
     7
 10
637.4962279222
 20
187.714465645
 30
0.0
  0
VERTEX
  5
91E
  8
0
  6
SLD-SOLID
 62
     7
 10
637.5462958239
 20
186.3347885504
 30
0.0
  0
VERTEX
  5
91F
  8
0
  6
SLD-SOLID
 62
     7
 10
637.2465291641
 20
184.9666738257
 30
0.0
  0
VERTEX
  5
920
  8
0
  6
SLD-SOLID
 62
     7
 10
636.6039612911
 20
183.642184113
 30
0.0
  0
VERTEX
  5
921
  8
0
  6
SLD-SOLID
 62
     7
 10
635.6336572788
 20
182.3923697069
 30
0.0
  0
VERTEX
  5
922
  8
0
  6
SLD-SOLID
 62
     7
 10
634.3583562992
 20
181.2465207026
 30
0.0
  0
VERTEX
  5
923
  8
0
  6
SLD-SOLID
 62
     7
 10
632.9828003071
 20
180.3312876567
 30
0.0
  0
SEQEND
  5
924
  8
0
  6
SLD-SOLID
 62
     7
  0
POLYLINE
  5
39E
  8
0
  6
SLD-SOLID
 62
     7
 66
     1
 10
0.0
 20
0.0
 30
0.0
  0
VERTEX
  5
925
  8
0
  6
SLD-SOLID
 62
     7
 10
609.1226884745
 20
182.9561421022
 30
0.0
  0
VERTEX
  5
926
  8
0
  6
SLD-SOLID
 62
     7
 10
608.4227958343
 20
183.9834896222
 30
0.0
  0
VERTEX
  5
927
  8
0
  6
SLD-SOLID
 62
     7
 10
607.8507402561
 20
185.3246984378
 30
0.0
  0
VERTEX
  5
928
  8
0
  6
SLD-SOLID
 62
     7
 10
607.6248833559
 20
186.7028490946
 30
0.0
  0
VERTEX
  5
929
  8
0
  6
SLD-SOLID
 62
     7
 10
607.7505448482
 20
188.0856396005
 30
0.0
  0
VERTEX
  5
92A
  8
0
  6
SLD-SOLID
 62
     7
 10
608.2247594021
 20
189.4406562045
 30
0.0
  0
VERTEX
  5
92B
  8
0
  6
SLD-SOLID
 62
     7
 10
609.0364107511
 20
190.736140807
 30
0.0
  0
VERTEX
  5
92C
  8
0
  6
SLD-SOLID
 62
     7
 10
610.1664850138
 20
191.9417257726
 30
0.0
  0
VERTEX
  5
92D
  8
0
  6
SLD-SOLID
 62
     7
 10
611.5884879253
 20
193.0291557059
 30
0.0
  0
VERTEX
  5
92E
  8
0
  6
SLD-SOLID
 62
     7
 10
613.2691004894
 20
193.9729412392
 30
0.0
  0
VERTEX
  5
92F
  8
0
  6
SLD-SOLID
 62
     7
 10
615.1689091347
 20
194.7509597361
 30
0.0
  0
VERTEX
  5
930
  8
0
  6
SLD-SOLID
 62
     7
 10
617.2434040926
 20
195.344976832
 30
0.0
  0
VERTEX
  5
931
  8
0
  6
SLD-SOLID
 62
     7
 10
619.4439479731
 20
195.741068323
 30
0.0
  0
VERTEX
  5
932
  8
0
  6
SLD-SOLID
 62
     7
 10
621.718952956
 20
195.92995032
 30
0.0
  0
VERTEX
  5
933
  8
0
  6
SLD-SOLID
 62
     7
 10
624.015132489
 20
195.9071953155
 30
0.0
  0
VERTEX
  5
934
  8
0
  6
SLD-SOLID
 62
     7
 10
626.2786188743
 20
195.6733374231
 30
0.0
  0
VERTEX
  5
935
  8
0
  6
SLD-SOLID
 62
     7
 10
628.4563937805
 20
195.233857476
 30
0.0
  0
VERTEX
  5
936
  8
0
  6
SLD-SOLID
 62
     7
 10
630.4974058292
 20
194.5990563676
 30
0.0
  0
VERTEX
  5
937
  8
0
  6
SLD-SOLID
 62
     7
 10
632.3537924908
 20
193.7838138387
 30
0.0
  0
VERTEX
  5
938
  8
0
  6
SLD-SOLID
 62
     7
 10
633.9820721767
 20
192.8072383002
 30
0.0
  0
VERTEX
  5
939
  8
0
  6
SLD-SOLID
 62
     7
 10
635.344053211
 20
191.6922197983
 30
0.0
  0
VERTEX
  5
93A
  8
0
  6
SLD-SOLID
 62
     7
 10
636.4078322075
 20
190.4648931071
 30
0.0
  0
VERTEX
  5
93B
  8
0
  6
SLD-SOLID
 62
     7
 10
637.1484646223
 20
189.1540258497
 30
0.0
  0
VERTEX
  5
93C
  8
0
  6
SLD-SOLID
 62
     7
 10
637.5485906027
 20
187.7903442204
 30
0.0
  0
VERTEX
  5
93D
  8
0
  6
SLD-SOLID
 62
     7
 10
637.5988224171
 20
186.40581121
 30
0.0
  0
VERTEX
  5
93E
  8
0
  6
SLD-SOLID
 62
     7
 10
637.298012676
 20
185.0328796849
 30
0.0
  0
VERTEX
  5
93F
  8
0
  6
SLD-SOLID
 62
     7
 10
636.6531798265
 20
183.703729634
 30
0.0
  0
VERTEX
  5
940
  8
0
  6
SLD-SOLID
 62
     7
 10
636.1199119709
 20
182.9561421022
 30
0.0
  0
SEQEND
  5
941
  8
0
  6
SLD-SOLID
 62
     7
  0
POLYLINE
  5
39F
  8
0
  6
SLD-SOLID
 62
     7
 66
     1
 10
0.0
 20
0.0
 30
0.0
  0
VERTEX
  5
942
  8
0
  6
SLD-SOLID
 62
     7
 10
607.6213070772
 20
188.4961777672
 30
0.0
  0
VERTEX
  5
943
  8
0
  6
SLD-SOLID
 62
     7
 10
607.7505448482
 20
189.6810631573
 30
0.0
  0
VERTEX
  5
944
  8
0
  6
SLD-SOLID
 62
     7
 10
608.2247594021
 20
191.0360806927
 30
0.0
  0
VERTEX
  5
945
  8
0
  6
SLD-SOLID
 62
     7
 10
609.0364107511
 20
192.3315643638
 30
0.0
  0
VERTEX
  5
946
  8
0
  6
SLD-SOLID
 62
     7
 10
610.1664850138
 20
193.5371502608
 30
0.0
  0
VERTEX
  5
947
  8
0
  6
SLD-SOLID
 62
     7
 10
611.5884879253
 20
194.6245801941
 30
0.0
  0
VERTEX
  5
948
  8
0
  6
SLD-SOLID
 62
     7
 10
613.2691004894
 20
195.5683652617
 30
0.0
  0
VERTEX
  5
949
  8
0
  6
SLD-SOLID
 62
     7
 10
615.1689091347
 20
196.3463842243
 30
0.0
  0
VERTEX
  5
94A
  8
0
  6
SLD-SOLID
 62
     7
 10
617.2434040926
 20
196.9404008545
 30
0.0
  0
VERTEX
  5
94B
  8
0
  6
SLD-SOLID
 62
     7
 10
619.4439479731
 20
197.3364923455
 30
0.0
  0
VERTEX
  5
94C
  8
0
  6
SLD-SOLID
 62
     7
 10
621.718952956
 20
197.5253743425
 30
0.0
  0
VERTEX
  5
94D
  8
0
  6
SLD-SOLID
 62
     7
 10
624.015132489
 20
197.5026198037
 30
0.0
  0
VERTEX
  5
94E
  8
0
  6
SLD-SOLID
 62
     7
 10
626.2786188743
 20
197.2687614456
 30
0.0
  0
VERTEX
  5
94F
  8
0
  6
SLD-SOLID
 62
     7
 10
628.4563937805
 20
196.8292814985
 30
0.0
  0
VERTEX
  5
950
  8
0
  6
SLD-SOLID
 62
     7
 10
630.4974058292
 20
196.1944803901
 30
0.0
  0
VERTEX
  5
951
  8
0
  6
SLD-SOLID
 62
     7
 10
632.3537924908
 20
195.3792378612
 30
0.0
  0
VERTEX
  5
952
  8
0
  6
SLD-SOLID
 62
     7
 10
633.9820721767
 20
194.402661857
 30
0.0
  0
VERTEX
  5
953
  8
0
  6
SLD-SOLID
 62
     7
 10
635.344053211
 20
193.2876433551
 30
0.0
  0
VERTEX
  5
954
  8
0
  6
SLD-SOLID
 62
     7
 10
636.4078322075
 20
192.060316664
 30
0.0
  0
VERTEX
  5
955
  8
0
  6
SLD-SOLID
 62
     7
 10
637.1484646223
 20
190.7494503379
 30
0.0
  0
VERTEX
  5
956
  8
0
  6
SLD-SOLID
 62
     7
 10
637.5485906027
 20
189.3857687086
 30
0.0
  0
VERTEX
  5
957
  8
0
  6
SLD-SOLID
 62
     7
 10
637.6212933681
 20
188.4961777672
 30
0.0
  0
SEQEND
  5
958
  8
0
  6
SLD-SOLID
 62
     7
  0
ARC
  5
3A0
  8
0
  6
SLD-SOLID
 62
     7
 10
553.4592333777
 20
271.1109848724
 30
0.0
 40
0.7543594888869585
 50
355.8152024761
 51
88.9233387693
  0
ARC
  5
3A1
  8
0
  6
SLD-SOLID
 62
     7
 10
137.783360966
 20
271.1109993543
 30
0.0
 40
0.7543447113431617
 50
91.0754761972
 51
184.1859825573
  0
ARC
  5
3A2
  8
0
  6
SLD-SOLID
 62
     7
 10
399.2833668466
 20
271.1109811378
 30
0.0
 40
0.7543631570717624
 50
91.0763901636
 51
184.1844927289
  0
ARC
  5
3A3
  8
0
  6
SLD-SOLID
 62
     7
 10
291.9592350518
 20
271.1109872693
 30
0.0
 40
0.7543570429971588
 50
355.8150063416
 51
88.9235349039
  0
POLYLINE
  5
3A4
  8
0
  6
SLD-SOLID
 62
     7
 66
     1
 10
0.0
 20
0.0
 30
0.0
  0
VERTEX
  5
959
  8
0
  6
SLD-SOLID
 62
     7
 10
407.6957279466
 20
272.3826316491
 30
0.0
  0
VERTEX
  5
95A
  8
0
  6
SLD-SOLID
 62
     7
 10
408.1559428594
 20
272.2116110221
 30
0.0
  0
VERTEX
  5
95B
  8
0
  6
SLD-SOLID
 62
     7
 10
409.0620675705
 20
271.9788921371
 30
0.0
  0
SEQEND
  5
95C
  8
0
  6
SLD-SOLID
 62
     7
  0
POLYLINE
  5
3A5
  8
0
  6
SLD-SOLID
 62
     7
 66
     1
 10
0.0
 20
0.0
 30
0.0
  0
VERTEX
  5
95D
  8
0
  6
SLD-SOLID
 62
     7
 10
146.195600333
 20
272.3826763526
 30
0.0
  0
VERTEX
  5
95E
  8
0
  6
SLD-SOLID
 62
     7
 10
146.6559568069
 20
272.2116110221
 30
0.0
  0
VERTEX
  5
95F
  8
0
  6
SLD-SOLID
 62
     7
 10
147.5620666168
 20
271.9788921371
 30
0.0
  0
SEQEND
  5
960
  8
0
  6
SLD-SOLID
 62
     7
  0
LINE
  5
3A6
  8
0
  6
SLD-SOLID
 62
     7
 10
399.2691957972
 20
271.8652111784
 30
0.0
 11
409.4885239027
 21
271.8652111784
 31
0.0
  0
LINE
  5
3A7
  8
0
  6
SLD-SOLID
 62
     7
 10
137.7692022941
 20
271.8652111784
 30
0.0
 11
147.9885080479
 21
271.8652111784
 31
0.0
  0
LINE
  5
3A8
  8
0
  6
SLD-SOLID
 62
     7
 10
543.2540798209
 20
271.8652111784
 30
0.0
 11
553.4734079264
 21
271.8652111784
 31
0.0
  0
LINE
  5
3A9
  8
0
  6
SLD-SOLID
 62
     7
 10
281.7540714167
 20
271.8652111784
 30
0.0
 11
291.9734069727
 21
271.8652111784
 31
0.0
  0
LINE
  5
3AA
  8
0
  6
SLD-SOLID
 62
     7
 10
554.2167374514
 20
270.8675188318
 30
0.0
 11
568.128372135
 21
273.6024258033
 31
0.0
  0
LINE
  5
3AB
  8
0
  6
SLD-SOLID
 62
     7
 10
554.2115816496
 20
271.0559365645
 30
0.0
 11
554.2167374514
 21
270.8675188318
 31
0.0
  0
LINE
  5
3AC
  8
0
  6
SLD-SOLID
 62
     7
 10
398.5258662722
 20
270.8675188318
 30
0.0
 11
398.5310146234
 21
271.0559365645
 31
0.0
  0
LINE
  5
3AD
  8
0
  6
SLD-SOLID
 62
     7
 10
384.6142241381
 20
273.6024258033
 30
0.0
 11
398.5258662722
 21
270.8675188318
 31
0.0
  0
LINE
  5
3AE
  8
0
  6
SLD-SOLID
 62
     7
 10
292.7167364977
 20
270.8675188318
 30
0.0
 11
306.6283711813
 21
273.6024258033
 31
0.0
  0
LINE
  5
3AF
  8
0
  6
SLD-SOLID
 62
     7
 10
292.7115806959
 20
271.0559365645
 30
0.0
 11
292.7167364977
 21
270.8675188318
 31
0.0
  0
LINE
  5
3B0
  8
0
  6
SLD-SOLID
 62
     7
 10
137.0258727692
 20
270.8675188318
 30
0.0
 11
137.0310285709
 21
271.0559365645
 31
0.0
  0
LINE
  5
3B1
  8
0
  6
SLD-SOLID
 62
     7
 10
123.1142380855
 20
273.6024258033
 30
0.0
 11
137.0258727692
 21
270.8675188318
 31
0.0
  0
ARC
  5
3B2
  8
0
  6
SLD-SOLID
 62
     7
 10
265.3914500173
 20
315.7520363831
 30
0.0
 40
44.07490610071282
 50
264.7049650053
 51
275.0205187859
  0
POLYLINE
  5
3B3
  8
0
  6
SLD-SOLID
 62
     7
 66
     1
 10
0.0
 20
0.0
 30
0.0
  0
VERTEX
  5
961
  8
0
  6
SLD-SOLID
 62
     7
 10
429.918574693
 20
271.8652111784
 30
0.0
  0
VERTEX
  5
962
  8
0
  6
SLD-SOLID
 62
     7
 10
425.7306070648
 20
271.6455382601
 30
0.0
  0
VERTEX
  5
963
  8
0
  6
SLD-SOLID
 62
     7
 10
421.9940477631
 20
271.846227099
 30
0.0
  0
SEQEND
  5
964
  8
0
  6
SLD-SOLID
 62
     7
  0
LINE
  5
3B4
  8
0
  6
SLD-SOLID
 62
     7
 10
542.2490859054
 20
271.8652111784
 30
0.0
 11
542.7172207854
 21
271.8703371778
 31
0.0
  0
LINE
  5
3B5
  8
0
  6
SLD-SOLID
 62
     7
 10
543.2540798209
 20
271.8652111784
 30
0.0
 11
542.2490859054
 21
271.8652111784
 31
0.0
  0
LINE
  5
3B6
  8
0
  6
SLD-SOLID
 62
     7
 10
280.7490775011
 20
271.8652111784
 30
0.0
 11
281.2172272823
 21
271.8703371778
 31
0.0
  0
LINE
  5
3B7
  8
0
  6
SLD-SOLID
 62
     7
 10
281.7540714167
 20
271.8652111784
 30
0.0
 11
280.7490775011
 21
271.8652111784
 31
0.0
  0
LINE
  5
3B8
  8
0
  6
SLD-SOLID
 62
     7
 10
148.9935019634
 20
271.8652111784
 30
0.0
 11
147.9885080479
 21
271.8652111784
 31
0.0
  0
LINE
  5
3B9
  8
0
  6
SLD-SOLID
 62
     7
 10
148.5253670833
 20
271.8703371778
 30
0.0
 11
148.9935019634
 21
271.8652111784
 31
0.0
  0
LINE
  5
3BA
  8
0
  6
SLD-SOLID
 62
     7
 10
410.4944342397
 20
271.8652111784
 30
0.0
 11
409.4885239027
 21
271.8652111784
 31
0.0
  0
LINE
  5
3BB
  8
0
  6
SLD-SOLID
 62
     7
 10
410.0253754876
 20
271.8703371778
 30
0.0
 11
410.4944342397
 21
271.8652111784
 31
0.0
  0
LINE
  5
3BC
  8
0
  6
SLD-SOLID
 62
     7
 10
166.322360339
 20
271.8652111784
 30
0.0
 11
181.3240149639
 21
271.8652111784
 31
0.0
  0
LINE
  5
3BD
  8
0
  6
SLD-SOLID
 62
     7
 10
509.9185729049
 20
271.8652111784
 30
0.0
 11
524.9202461563
 21
271.8652111784
 31
0.0
  0
LINE
  5
3BE
  8
0
  6
SLD-SOLID
 62
     7
 10
249.918574991
 20
271.8652111784
 30
0.0
 11
261.3240280769
 21
271.8652111784
 31
0.0
  0
LINE
  5
3BF
  8
0
  6
SLD-SOLID
 62
     7
 10
189.918587508
 20
271.8652111784
 30
0.0
 11
201.3240256927
 21
271.8652111784
 31
0.0
  0
LINE
  5
3C0
  8
0
  6
SLD-SOLID
 62
     7
 10
229.9185791634
 20
271.8652111784
 30
0.0
 11
241.3240322493
 21
271.8652111784
 31
0.0
  0
LINE
  5
3C1
  8
0
  6
SLD-SOLID
 62
     7
 10
209.9185684345
 20
271.8652111784
 30
0.0
 11
221.3240364216
 21
271.8652111784
 31
0.0
  0
LINE
  5
3C2
  8
0
  6
SLD-SOLID
 62
     7
 10
469.9185733333
 20
271.8652111784
 30
0.0
 11
481.3240259535
 21
271.8652111784
 31
0.0
  0
LINE
  5
3C3
  8
0
  6
SLD-SOLID
 62
     7
 10
449.918574246
 20
271.8652111784
 30
0.0
 11
461.3240264005
 21
271.8652111784
 31
0.0
  0
LINE
  5
3C4
  8
0
  6
SLD-SOLID
 62
     7
 10
489.9185733519
 20
271.8652111784
 30
0.0
 11
501.3240264378
 21
271.8652111784
 31
0.0
  0
LINE
  5
3C5
  8
0
  6
SLD-SOLID
 62
     7
 10
429.918574693
 20
271.8652111784
 30
0.0
 11
441.3240277789
 21
271.8652111784
 31
0.0
  0
LINE
  5
3C6
  8
0
  6
SLD-SOLID
 62
     7
 10
269.9185708187
 20
271.8652111784
 30
0.0
 11
280.7490775011
 21
271.8652111784
 31
0.0
  0
LINE
  5
3C7
  8
0
  6
SLD-SOLID
 62
     7
 10
410.4944342397
 20
271.8652111784
 30
0.0
 11
421.3240245006
 21
271.8652111784
 31
0.0
  0
LINE
  5
3C8
  8
0
  6
SLD-SOLID
 62
     7
 10
137.0258727692
 20
270.8675188318
 30
0.0
 11
292.7167364977
 21
270.8675188318
 31
0.0
  0
LINE
  5
3C9
  8
0
  6
SLD-SOLID
 62
     7
 10
148.9935019634
 20
271.8652111784
 30
0.0
 11
162.908742728
 21
271.8652111784
 31
0.0
  0
ARC
  5
3CA
  8
0
  6
SLD-SOLID
 62
     7
 10
163.4712615631
 20
314.2744429488
 30
0.0
 40
42.41296224971917
 50
269.2400695823
 51
270.7599304177
  0
LINE
  5
3CB
  8
0
  6
SLD-SOLID
 62
     7
 10
164.0337803982
 20
271.8652111784
 30
0.0
 11
164.9202504776
 21
271.8652111784
 31
0.0
  0
LINE
  5
3CC
  8
0
  6
SLD-SOLID
 62
     7
 10
164.9202504776
 20
271.8652111784
 30
0.0
 11
165.6212905071
 21
271.8652111784
 31
0.0
  0
LINE
  5
3CD
  8
0
  6
SLD-SOLID
 62
     7
 10
165.6212905071
 20
271.8652111784
 30
0.0
 11
166.322360339
 21
271.8652111784
 31
0.0
  0
LINE
  5
3CE
  8
0
  6
SLD-SOLID
 62
     7
 10
181.3240149639
 20
271.8652111784
 30
0.0
 11
185.621301236
 21
271.8652111784
 31
0.0
  0
LINE
  5
3CF
  8
0
  6
SLD-SOLID
 62
     7
 10
185.621301236
 20
271.8652111784
 30
0.0
 11
189.918587508
 21
271.8652111784
 31
0.0
  0
LINE
  5
3D0
  8
0
  6
SLD-SOLID
 62
     7
 10
201.3240256927
 20
271.8652111784
 30
0.0
 11
205.6213119648
 21
271.8652111784
 31
0.0
  0
LINE
  5
3D1
  8
0
  6
SLD-SOLID
 62
     7
 10
205.6213119648
 20
271.8652111784
 30
0.0
 11
209.9185684345
 21
271.8652111784
 31
0.0
  0
LINE
  5
3D2
  8
0
  6
SLD-SOLID
 62
     7
 10
221.3240364216
 20
271.8652111784
 30
0.0
 11
225.6212928913
 21
271.8652111784
 31
0.0
  0
LINE
  5
3D3
  8
0
  6
SLD-SOLID
 62
     7
 10
225.6212928913
 20
271.8652111784
 30
0.0
 11
229.9185791634
 21
271.8652111784
 31
0.0
  0
LINE
  5
3D4
  8
0
  6
SLD-SOLID
 62
     7
 10
241.3240322493
 20
271.8652111784
 30
0.0
 11
245.6213036201
 21
271.8652111784
 31
0.0
  0
LINE
  5
3D5
  8
0
  6
SLD-SOLID
 62
     7
 10
245.6213036201
 20
271.8652111784
 30
0.0
 11
249.918574991
 21
271.8652111784
 31
0.0
  0
LINE
  5
3D6
  8
0
  6
SLD-SOLID
 62
     7
 10
269.9185708187
 20
271.8652111784
 30
0.0
 11
269.2485550068
 21
271.846227099
 31
0.0
  0
POLYLINE
  5
3D7
  8
0
  6
SLD-SOLID
 62
     7
 66
     1
 10
0.0
 20
0.0
 30
0.0
  0
VERTEX
  5
965
  8
0
  6
SLD-SOLID
 62
     7
 10
279.9185761831
 20
269.8842508093
 30
0.0
  0
VERTEX
  5
966
  8
0
  6
SLD-SOLID
 62
     7
 10
277.0165601395
 20
269.9522373572
 30
0.0
  0
VERTEX
  5
967
  8
0
  6
SLD-SOLID
 62
     7
 10
276.3776132486
 20
269.9914199606
 30
0.0
  0
SEQEND
  5
968
  8
0
  6
SLD-SOLID
 62
     7
  0
ARC
  5
3D8
  8
0
  6
SLD-SOLID
 62
     7
 10
275.6213048122
 20
220.9964354936
 30
0.0
 40
49.07631839869649
 50
84.9765743303
 51
95.0234256697
  0
POLYLINE
  5
3D9
  8
0
  6
SLD-SOLID
 62
     7
 66
     1
 10
0.0
 20
0.0
 30
0.0
  0
VERTEX
  5
969
  8
0
  6
SLD-SOLID
 62
     7
 10
414.8673699818
 20
269.9915689722
 30
0.0
  0
VERTEX
  5
96A
  8
0
  6
SLD-SOLID
 62
     7
 10
414.2253869794
 20
269.9522075549
 30
0.0
  0
VERTEX
  5
96B
  8
0
  6
SLD-SOLID
 62
     7
 10
411.3240265868
 20
269.8842508093
 30
0.0
  0
SEQEND
  5
96C
  8
0
  6
SLD-SOLID
 62
     7
  0
ARC
  5
3DA
  8
0
  6
SLD-SOLID
 62
     7
 10
415.6212998203
 20
220.9963994726
 30
0.0
 40
49.07635444445758
 50
84.9765758465
 51
95.0234241535
  0
LINE
  5
3DB
  8
0
  6
SLD-SOLID
 62
     7
 10
421.9940477631
 20
271.846227099
 30
0.0
 11
421.3240245006
 21
271.8652111784
 31
0.0
  0
LINE
  5
3DC
  8
0
  6
SLD-SOLID
 62
     7
 10
441.3240277789
 20
271.8652111784
 30
0.0
 11
445.6212991498
 21
271.8652111784
 31
0.0
  0
LINE
  5
3DD
  8
0
  6
SLD-SOLID
 62
     7
 10
445.6212991498
 20
271.8652111784
 30
0.0
 11
449.918574246
 21
271.8652111784
 31
0.0
  0
LINE
  5
3DE
  8
0
  6
SLD-SOLID
 62
     7
 10
461.3240264005
 20
271.8652111784
 30
0.0
 11
465.6212996341
 21
271.8652111784
 31
0.0
  0
LINE
  5
3DF
  8
0
  6
SLD-SOLID
 62
     7
 10
465.6212996341
 20
271.8652111784
 30
0.0
 11
469.9185733333
 21
271.8652111784
 31
0.0
  0
LINE
  5
3E0
  8
0
  6
SLD-SOLID
 62
     7
 10
481.3240259535
 20
271.8652111784
 30
0.0
 11
485.6213001184
 21
271.8652111784
 31
0.0
  0
LINE
  5
3E1
  8
0
  6
SLD-SOLID
 62
     7
 10
485.6213001184
 20
271.8652111784
 30
0.0
 11
489.9185733519
 21
271.8652111784
 31
0.0
  0
LINE
  5
3E2
  8
0
  6
SLD-SOLID
 62
     7
 10
501.3240264378
 20
271.8652111784
 30
0.0
 11
505.6212996713
 21
271.8652111784
 31
0.0
  0
LINE
  5
3E3
  8
0
  6
SLD-SOLID
 62
     7
 10
505.6212996713
 20
271.8652111784
 30
0.0
 11
509.9185729049
 21
271.8652111784
 31
0.0
  0
LINE
  5
3E4
  8
0
  6
SLD-SOLID
 62
     7
 10
524.9202461563
 20
271.8652111784
 30
0.0
 11
525.6213010869
 21
271.8652111784
 31
0.0
  0
LINE
  5
3E5
  8
0
  6
SLD-SOLID
 62
     7
 10
525.6213010869
 20
271.8652111784
 30
0.0
 11
526.3223522923
 21
271.8652111784
 31
0.0
  0
LINE
  5
3E6
  8
0
  6
SLD-SOLID
 62
     7
 10
526.3223522923
 20
271.8652111784
 30
0.0
 11
527.2088074706
 21
271.8652111784
 31
0.0
  0
ARC
  5
3E7
  8
0
  6
SLD-SOLID
 62
     7
 10
527.7713356189
 20
319.0484675706
 30
0.0
 40
47.18660955917053
 50
269.3169407056
 51
270.6830592944
  0
LINE
  5
3E8
  8
0
  6
SLD-SOLID
 62
     7
 10
528.3338637672
 20
271.8652111784
 30
0.0
 11
542.2490859054
 21
271.8652111784
 31
0.0
  0
LINE
  5
3E9
  8
0
  6
SLD-SOLID
 62
     7
 10
398.5258662722
 20
270.8675188318
 30
0.0
 11
554.2167374514
 21
270.8675188318
 31
0.0
  0
LINE
  5
3EA
  8
0
  6
SLD-SOLID
 62
     7
 10
554.2115816496
 20
270.681820561
 30
0.0
 11
554.2167374514
 21
270.8675188318
 31
0.0
  0
ARC
  5
3EB
  8
0
  6
SLD-SOLID
 62
     7
 10
553.4651921145
 20
270.6322401511
 30
0.0
 40
0.7480344611820303
 50
270.62930364
 51
3.8004028948
  0
LINE
  5
3EC
  8
0
  6
SLD-SOLID
 62
     7
 10
544.8269346378
 20
269.8842508093
 30
0.0
 11
553.4734079264
 21
269.8842508093
 31
0.0
  0
POLYLINE
  5
3ED
  8
0
  6
SLD-SOLID
 62
     7
 66
     1
 10
0.0
 20
0.0
 30
0.0
  0
VERTEX
  5
96D
  8
0
  6
SLD-SOLID
 62
     7
 10
541.4708504103
 20
269.8842508093
 30
0.0
  0
VERTEX
  5
96E
  8
0
  6
SLD-SOLID
 62
     7
 10
542.5867834709
 20
269.9497637645
 30
0.0
  0
VERTEX
  5
96F
  8
0
  6
SLD-SOLID
 62
     7
 10
544.8269346378
 20
269.8842508093
 30
0.0
  0
SEQEND
  5
970
  8
0
  6
SLD-SOLID
 62
     7
  0
LINE
  5
3EE
  8
0
  6
SLD-SOLID
 62
     7
 10
536.353299918
 20
269.8842508093
 30
0.0
 11
541.4708504103
 21
269.8842508093
 31
0.0
  0
LINE
  5
3EF
  8
0
  6
SLD-SOLID
 62
     7
 10
534.7058014594
 20
269.8842508093
 30
0.0
 11
536.353299918
 21
269.8842508093
 31
0.0
  0
LINE
  5
3F0
  8
0
  6
SLD-SOLID
 62
     7
 10
519.918574544
 20
269.8842508093
 30
0.0
 11
534.7058014594
 21
269.8842508093
 31
0.0
  0
LINE
  5
3F1
  8
0
  6
SLD-SOLID
 62
     7
 10
515.6212994478
 20
269.8842508093
 30
0.0
 11
519.918574544
 21
269.8842508093
 31
0.0
  0
LINE
  5
3F2
  8
0
  6
SLD-SOLID
 62
     7
 10
511.3240243516
 20
269.8842508093
 30
0.0
 11
515.6212994478
 21
269.8842508093
 31
0.0
  0
LINE
  5
3F3
  8
0
  6
SLD-SOLID
 62
     7
 10
499.9185731284
 20
269.8842508093
 30
0.0
 11
511.3240243516
 21
269.8842508093
 31
0.0
  0
LINE
  5
3F4
  8
0
  6
SLD-SOLID
 62
     7
 10
495.6212998948
 20
269.8842508093
 30
0.0
 11
499.9185731284
 21
269.8842508093
 31
0.0
  0
LINE
  5
3F5
  8
0
  6
SLD-SOLID
 62
     7
 10
491.3240266613
 20
269.8842508093
 30
0.0
 11
495.6212998948
 21
269.8842508093
 31
0.0
  0
LINE
  5
3F6
  8
0
  6
SLD-SOLID
 62
     7
 10
479.9185735754
 20
269.8842508093
 30
0.0
 11
491.3240266613
 21
269.8842508093
 31
0.0
  0
LINE
  5
3F7
  8
0
  6
SLD-SOLID
 62
     7
 10
475.6212997089
 20
269.8842508093
 30
0.0
 11
479.9185735754
 21
269.8842508093
 31
0.0
  0
LINE
  5
3F8
  8
0
  6
SLD-SOLID
 62
     7
 10
471.324026177
 20
269.8842508093
 30
0.0
 11
475.6212997089
 21
269.8842508093
 31
0.0
  0
LINE
  5
3F9
  8
0
  6
SLD-SOLID
 62
     7
 10
459.9185740225
 20
269.8842508093
 30
0.0
 11
471.324026177
 21
269.8842508093
 31
0.0
  0
LINE
  5
3FA
  8
0
  6
SLD-SOLID
 62
     7
 10
455.6212989263
 20
269.8842508093
 30
0.0
 11
459.9185740225
 21
269.8842508093
 31
0.0
  0
LINE
  5
3FB
  8
0
  6
SLD-SOLID
 62
     7
 10
451.3240256927
 20
269.8842508093
 30
0.0
 11
455.6212989263
 21
269.8842508093
 31
0.0
  0
LINE
  5
3FC
  8
0
  6
SLD-SOLID
 62
     7
 10
439.9185726068
 20
269.8842508093
 30
0.0
 11
451.3240256927
 21
269.8842508093
 31
0.0
  0
LINE
  5
3FD
  8
0
  6
SLD-SOLID
 62
     7
 10
435.621301236
 20
269.8842508093
 30
0.0
 11
439.9185726068
 21
269.8842508093
 31
0.0
  0
LINE
  5
3FE
  8
0
  6
SLD-SOLID
 62
     7
 10
431.3240261398
 20
269.8842508093
 30
0.0
 11
435.621301236
 21
269.8842508093
 31
0.0
  0
LINE
  5
3FF
  8
0
  6
SLD-SOLID
 62
     7
 10
419.9185730539
 20
269.8842508093
 30
0.0
 11
431.3240261398
 21
269.8842508093
 31
0.0
  0
LINE
  5
400
  8
0
  6
SLD-SOLID
 62
     7
 10
399.2691957972
 20
269.8842508093
 30
0.0
 11
410.0517207406
 21
269.8842508093
 31
0.0
  0
ARC
  5
401
  8
0
  6
SLD-SOLID
 62
     7
 10
399.2774081605
 20
270.6322439318
 30
0.0
 40
0.748038203799865
 50
176.1999063684
 51
269.370963668
  0
LINE
  5
402
  8
0
  6
SLD-SOLID
 62
     7
 10
398.5258662722
 20
270.8675188318
 30
0.0
 11
398.5310146234
 21
270.681820561
 31
0.0
  0
LINE
  5
403
  8
0
  6
SLD-SOLID
 62
     7
 10
410.0517207406
 20
269.8842508093
 30
0.0
 11
411.3240265868
 21
269.8842508093
 31
0.0
  0
LINE
  5
404
  8
0
  6
SLD-SOLID
 62
     7
 10
259.9185803554
 20
269.8842508093
 30
0.0
 11
271.3240334413
 21
269.8842508093
 31
0.0
  0
LINE
  5
405
  8
0
  6
SLD-SOLID
 62
     7
 10
255.6212940834
 20
269.8842508093
 30
0.0
 11
259.9185803554
 21
269.8842508093
 31
0.0
  0
LINE
  5
406
  8
0
  6
SLD-SOLID
 62
     7
 10
251.3240227125
 20
269.8842508093
 30
0.0
 11
255.6212940834
 21
269.8842508093
 31
0.0
  0
LINE
  5
407
  8
0
  6
SLD-SOLID
 62
     7
 10
239.9185696266
 20
269.8842508093
 30
0.0
 11
251.3240227125
 21
269.8842508093
 31
0.0
  0
LINE
  5
408
  8
0
  6
SLD-SOLID
 62
     7
 10
235.6212982557
 20
269.8842508093
 30
0.0
 11
239.9185696266
 21
269.8842508093
 31
0.0
  0
LINE
  5
409
  8
0
  6
SLD-SOLID
 62
     7
 10
231.3240268848
 20
269.8842508093
 30
0.0
 11
235.6212982557
 21
269.8842508093
 31
0.0
  0
LINE
  5
40A
  8
0
  6
SLD-SOLID
 62
     7
 10
219.9185588978
 20
269.8842508093
 30
0.0
 11
231.3240268848
 21
269.8842508093
 31
0.0
  0
LINE
  5
40B
  8
0
  6
SLD-SOLID
 62
     7
 10
215.621302428
 20
269.8842508093
 30
0.0
 11
219.9185588978
 21
269.8842508093
 31
0.0
  0
LINE
  5
40C
  8
0
  6
SLD-SOLID
 62
     7
 10
211.324016156
 20
269.8842508093
 30
0.0
 11
215.621302428
 21
269.8842508093
 31
0.0
  0
LINE
  5
40D
  8
0
  6
SLD-SOLID
 62
     7
 10
199.9185779713
 20
269.8842508093
 30
0.0
 11
211.324016156
 21
269.8842508093
 31
0.0
  0
LINE
  5
40E
  8
0
  6
SLD-SOLID
 62
     7
 10
195.6212916992
 20
269.8842508093
 30
0.0
 11
199.9185779713
 21
269.8842508093
 31
0.0
  0
LINE
  5
40F
  8
0
  6
SLD-SOLID
 62
     7
 10
191.3240352295
 20
269.8842508093
 30
0.0
 11
195.6212916992
 21
269.8842508093
 31
0.0
  0
LINE
  5
410
  8
0
  6
SLD-SOLID
 62
     7
 10
179.9185672424
 20
269.8842508093
 30
0.0
 11
191.3240352295
 21
269.8842508093
 31
0.0
  0
LINE
  5
411
  8
0
  6
SLD-SOLID
 62
     7
 10
175.6213107727
 20
269.8842508093
 30
0.0
 11
179.9185672424
 21
269.8842508093
 31
0.0
  0
LINE
  5
412
  8
0
  6
SLD-SOLID
 62
     7
 10
171.3240245006
 20
269.8842508093
 30
0.0
 11
175.6213107727
 21
269.8842508093
 31
0.0
  0
LINE
  5
413
  8
0
  6
SLD-SOLID
 62
     7
 10
156.5367975853
 20
269.8842508093
 30
0.0
 11
171.3240245006
 21
269.8842508093
 31
0.0
  0
LINE
  5
414
  8
0
  6
SLD-SOLID
 62
     7
 10
154.8892954014
 20
269.8842508093
 30
0.0
 11
156.5367975853
 21
269.8842508093
 31
0.0
  0
LINE
  5
415
  8
0
  6
SLD-SOLID
 62
     7
 10
149.7717598102
 20
269.8842508093
 30
0.0
 11
154.8892954014
 21
269.8842508093
 31
0.0
  0
POLYLINE
  5
416
  8
0
  6
SLD-SOLID
 62
     7
 66
     1
 10
0.0
 20
0.0
 30
0.0
  0
VERTEX
  5
971
  8
0
  6
SLD-SOLID
 62
     7
 10
146.4156606815
 20
269.8842508093
 30
0.0
  0
VERTEX
  5
972
  8
0
  6
SLD-SOLID
 62
     7
 10
147.5316086433
 20
269.9333724871
 30
0.0
  0
VERTEX
  5
973
  8
0
  6
SLD-SOLID
 62
     7
 10
149.7717598102
 20
269.8842508093
 30
0.0
  0
SEQEND
  5
974
  8
0
  6
SLD-SOLID
 62
     7
  0
LINE
  5
417
  8
0
  6
SLD-SOLID
 62
     7
 10
137.7692022941
 20
269.8842508093
 30
0.0
 11
146.4156606815
 21
269.8842508093
 31
0.0
  0
ARC
  5
418
  8
0
  6
SLD-SOLID
 62
     7
 10
137.7774023815
 20
270.6322255976
 30
0.0
 40
0.7480197359956947
 50
176.1984049743
 51
269.3718884909
  0
LINE
  5
419
  8
0
  6
SLD-SOLID
 62
     7
 10
137.0258727692
 20
270.8675188318
 30
0.0
 11
137.0310285709
 21
270.681820561
 31
0.0
  0
LINE
  5
41A
  8
0
  6
SLD-SOLID
 62
     7
 10
292.7115806959
 20
270.681820561
 30
0.0
 11
292.7167364977
 21
270.8675188318
 31
0.0
  0
ARC
  5
41B
  8
0
  6
SLD-SOLID
 62
     7
 10
291.9651937667
 20
270.6322377393
 30
0.0
 40
0.7480320208978084
 50
270.629106083
 51
3.8006004518
  0
LINE
  5
41C
  8
0
  6
SLD-SOLID
 62
     7
 10
281.1908820293
 20
269.8842508093
 30
0.0
 11
291.9734069727
 21
269.8842508093
 31
0.0
  0
LINE
  5
41D
  8
0
  6
SLD-SOLID
 62
     7
 10
279.9185761831
 20
269.8842508093
 30
0.0
 11
281.1908820293
 21
269.8842508093
 31
0.0
  0
ARC
  5
41E
  8
0
  6
SLD-SOLID
 62
     7
 10
162.9031448979
 20
306.7123304129
 30
0.0
 40
34.84711968412618
 50
270.0092039756
 51
270.98280608
  0
ARC
  5
41F
  8
0
  6
SLD-SOLID
 62
     7
 10
528.3380395485
 20
306.5489339515
 30
0.0
 40
34.68372302454017
 50
269.0149006085
 51
269.9931018176
  0
ARC
  5
420
  8
0
  6
SLD-SOLID
 62
     7
 10
149.92373461
 20
295.6856503481
 30
0.0
 40
25.80184711412904
 50
266.3717838936
 51
269.6625216431
  0
ARC
  5
421
  8
0
  6
SLD-SOLID
 62
     7
 10
541.3200642993
 20
295.6506047079
 30
0.0
 40
25.76679509911268
 50
270.3352942051
 51
273.6304600703
  0
LINE
  5
422
  8
0
  6
SLD-SOLID
 62
     7
 10
155.6214192531
 20
269.8893395558
 30
0.0
 11
154.8892954014
 21
269.8842508093
 31
0.0
  0
LINE
  5
423
  8
0
  6
SLD-SOLID
 62
     7
 10
536.353299918
 20
269.8842508093
 30
0.0
 11
535.6211723409
 21
269.8893395558
 31
0.0
  0
ARC
  5
424
  8
0
  6
SLD-SOLID
 62
     7
 10
410.4092353252
 20
260.2877906606
 30
0.0
 40
9.603117413796326
 50
92.1335583754
 51
131.1315194178
  0
LINE
  5
425
  8
0
  6
SLD-SOLID
 62
     7
 10
404.0924036525
 20
267.5208744899
 30
0.0
 11
394.2989060305
 21
258.2025786236
 31
0.0
  0
ARC
  5
426
  8
0
  6
SLD-SOLID
 62
     7
 10
392.3088033651
 20
260.4400281243
 30
0.0
 40
2.994443001098652
 50
289.4970710151
 51
311.6515394463
  0
ARC
  5
427
  8
0
  6
SLD-SOLID
 62
     7
 10
298.9337807552
 20
260.4400218906
 30
0.0
 40
2.994430900448695
 50
228.3485413956
 51
250.5032255571
  0
LINE
  5
428
  8
0
  6
SLD-SOLID
 62
     7
 10
296.9436892889
 20
258.2025786236
 30
0.0
 11
287.1501991175
 21
267.5208744899
 31
0.0
  0
ARC
  5
429
  8
0
  6
SLD-SOLID
 62
     7
 10
280.8333497106
 20
260.2877459437
 30
0.0
 40
9.603162759907466
 50
48.8685763837
 51
87.8663458231
  0
ARC
  5
42A
  8
0
  6
SLD-SOLID
 62
     7
 10
122.730319568
 20
275.254023119
 30
0.0
 40
15.16448642250303
 50
80.91098246
 51
90.89182276
  0
ARC
  5
42B
  8
0
  6
SLD-SOLID
 62
     7
 10
119.5171815088
 20
257.9549495374
 30
0.0
 40
32.0385969814586
 50
80.9106639602
 51
90.891890661
  0
ARC
  5
42C
  8
0
  6
SLD-SOLID
 62
     7
 10
571.7254217046
 20
257.9549526748
 30
0.0
 40
32.03859395360342
 50
89.1080967221
 51
99.0893377092
  0
ARC
  5
42D
  8
0
  6
SLD-SOLID
 62
     7
 10
568.512281834
 20
275.2541275339
 30
0.0
 40
15.16438192557841
 50
89.1081940789
 51
99.0890469598
  0
POLYLINE
  5
42E
  8
0
  6
SLD-SOLID
 62
     7
 66
     1
 10
0.0
 20
0.0
 30
0.0
  0
VERTEX
  5
975
  8
0
  6
SLD-SOLID
 62
     7
 10
566.1167749784
 20
290.2281058326
 30
0.0
  0
VERTEX
  5
976
  8
0
  6
SLD-SOLID
 62
     7
 10
565.9622275851
 20
290.2252150074
 30
0.0
  0
VERTEX
  5
977
  8
0
  6
SLD-SOLID
 62
     7
 10
565.9238719962
 20
290.218844761
 30
0.0
  0
SEQEND
  5
978
  8
0
  6
SLD-SOLID
 62
     7
  0
ARC
  5
42F
  8
0
  6
SLD-SOLID
 62
     7
 10
310.2254198264
 20
257.9550602239
 30
0.0
 40
32.03848643191957
 50
89.1080920751
 51
99.0893533037
  0
ARC
  5
430
  8
0
  6
SLD-SOLID
 62
     7
 10
307.0122808803
 20
275.2541275339
 30
0.0
 40
15.16438192557841
 50
89.1081940789
 51
99.0890469598
  0
ARC
  5
431
  8
0
  6
SLD-SOLID
 62
     7
 10
384.2303101296
 20
275.2539727429
 30
0.0
 40
15.1645366307546
 50
80.9110015526
 51
90.8917805381
  0
ARC
  5
432
  8
0
  6
SLD-SOLID
 62
     7
 10
381.0171773843
 20
257.9549919714
 30
0.0
 40
32.03855470558136
 50
80.9106561616
 51
90.891909407
  0
POLYLINE
  5
433
  8
0
  6
SLD-SOLID
 62
     7
 66
     1
 10
0.0
 20
0.0
 30
0.0
  0
VERTEX
  5
979
  8
0
  6
SLD-SOLID
 62
     7
 10
386.8187242768
 20
290.218844761
 30
0.0
  0
VERTEX
  5
97A
  8
0
  6
SLD-SOLID
 62
     7
 10
386.7803761385
 20
290.2252150074
 30
0.0
  0
VERTEX
  5
97B
  8
0
  6
SLD-SOLID
 62
     7
 10
386.6258287452
 20
290.2281058326
 30
0.0
  0
SEQEND
  5
97C
  8
0
  6
SLD-SOLID
 62
     7
  0
POLYLINE
  5
434
  8
0
  6
SLD-SOLID
 62
     7
 66
     1
 10
0.0
 20
0.0
 30
0.0
  0
VERTEX
  5
97D
  8
0
  6
SLD-SOLID
 62
     7
 10
304.4238784931
 20
290.218844761
 30
0.0
  0
VERTEX
  5
97E
  8
0
  6
SLD-SOLID
 62
     7
 10
304.462234082
 20
290.2252150074
 30
0.0
  0
VERTEX
  5
97F
  8
0
  6
SLD-SOLID
 62
     7
 10
304.6167740248
 20
290.2281058326
 30
0.0
  0
SEQEND
  5
980
  8
0
  6
SLD-SOLID
 62
     7
  0
POLYLINE
  5
435
  8
0
  6
SLD-SOLID
 62
     7
 66
     1
 10
0.0
 20
0.0
 30
0.0
  0
VERTEX
  5
981
  8
0
  6
SLD-SOLID
 62
     7
 10
125.3187158726
 20
290.218844761
 30
0.0
  0
VERTEX
  5
982
  8
0
  6
SLD-SOLID
 62
     7
 10
125.2803602837
 20
290.2252150074
 30
0.0
  0
VERTEX
  5
983
  8
0
  6
SLD-SOLID
 62
     7
 10
125.1258352421
 20
290.2281058326
 30
0.0
  0
SEQEND
  5
984
  8
0
  6
SLD-SOLID
 62
     7
  0
ARC
  5
436
  8
0
  6
SLD-SOLID
 62
     7
 10
145.8219085418
 20
271.1138996522
 30
0.0
 40
1.955163302394576
 50
256.2825950872
 51
311.9731025022
  0
ARC
  5
437
  8
0
  6
SLD-SOLID
 62
     7
 10
310.35673242
 20
250.2983079222
 30
0.0
 40
23.60047854893419
 50
89.1080088147
 51
99.0895634467
  0
ARC
  5
438
  8
0
  6
SLD-SOLID
 62
     7
 10
380.8858696807
 20
250.2984025554
 30
0.0
 40
23.60038403282281
 50
80.9104165153
 51
90.8920112234
  0
ARC
  5
439
  8
0
  6
SLD-SOLID
 62
     7
 10
571.8567333736
 20
250.2983079222
 30
0.0
 40
23.60047854893421
 50
89.1080088147
 51
99.0895634467
  0
ARC
  5
43A
  8
0
  6
SLD-SOLID
 62
     7
 10
119.3858689149
 20
250.2981972322
 30
0.0
 40
23.60058910206988
 50
80.9104599911
 51
90.8919677475
  0
ARC
  5
43B
  8
0
  6
SLD-SOLID
 62
     7
 10
392.3486009816
 20
260.3978171387
 30
0.0
 40
2.941462949594763
 50
269.3675964074
 51
289.0407339648
  0
ARC
  5
43C
  8
0
  6
SLD-SOLID
 62
     7
 10
298.8939924202
 20
260.3977593245
 30
0.0
 40
2.941405242350846
 50
250.9590711335
 51
270.6325984943
  0
LINE
  5
43D
  8
0
  6
SLD-SOLID
 62
     7
 10
588.8324403785
 20
289.051025857
 30
0.0
 11
589.6213004015
 21
274.0333897367
 31
0.0
  0
ARC
  5
43E
  8
0
  6
SLD-SOLID
 62
     7
 10
588.8678390248
 20
275.8109551724
 30
0.0
 40
1.930658676268433
 50
262.7044473662
 51
292.9707596079
  0
ARC
  5
43F
  8
0
  6
SLD-SOLID
 62
     7
 10
102.3747524131
 20
275.8108452996
 30
0.0
 40
1.930550185945874
 50
247.0284810438
 51
277.2960809867
  0
LINE
  5
440
  8
0
  6
SLD-SOLID
 62
     7
 10
101.621309819
 20
274.0333897367
 30
0.0
 11
102.4101474903
 21
289.051025857
 31
0.0
  0
LINE
  5
441
  8
0
  6
SLD-SOLID
 62
     7
 10
572.224135103
 20
273.8959265247
 30
0.0
 11
588.6226692818
 21
273.8959265247
 31
0.0
  0
LINE
  5
442
  8
0
  6
SLD-SOLID
 62
     7
 10
310.7241341494
 20
273.8959265247
 30
0.0
 11
380.51846117
 21
273.8959265247
 31
0.0
  0
LINE
  5
443
  8
0
  6
SLD-SOLID
 62
     7
 10
102.6199260376
 20
273.8959265247
 30
0.0
 11
119.0184751175
 21
273.8959265247
 31
0.0
  0
LINE
  5
444
  8
0
  6
SLD-SOLID
 62
     7
 10
589.6213004015
 20
274.0333897367
 30
0.0
 11
589.6213004015
 21
274.1712329283
 31
0.0
  0
LINE
  5
445
  8
0
  6
SLD-SOLID
 62
     7
 10
101.621309819
 20
274.1712329283
 30
0.0
 11
101.621309819
 21
274.0333897367
 31
0.0
  0
POLYLINE
  5
446
  8
0
  6
SLD-SOLID
 62
     7
 66
     1
 10
0.0
 20
0.0
 30
0.0
  0
VERTEX
  5
985
  8
0
  6
SLD-SOLID
 62
     7
 10
589.6213004015
 20
274.1712329283
 30
0.0
  0
VERTEX
  5
986
  8
0
  6
SLD-SOLID
 62
     7
 10
589.7173756383
 20
274.3055147424
 30
0.0
  0
VERTEX
  5
987
  8
0
  6
SLD-SOLID
 62
     7
 10
590.0018984101
 20
274.4346258536
 30
0.0
  0
VERTEX
  5
988
  8
0
  6
SLD-SOLID
 62
     7
 10
590.4639536164
 20
274.5536190763
 30
0.0
  0
VERTEX
  5
989
  8
0
  6
SLD-SOLID
 62
     7
 10
591.0857641719
 20
274.6579197541
 30
0.0
  0
VERTEX
  5
98A
  8
0
  6
SLD-SOLID
 62
     7
 10
591.8434509657
 20
274.743512024
 30
0.0
  0
VERTEX
  5
98B
  8
0
  6
SLD-SOLID
 62
     7
 10
592.7078822277
 20
274.8071176306
 30
0.0
  0
VERTEX
  5
98C
  8
0
  6
SLD-SOLID
 62
     7
 10
593.6458507202
 20
274.8462853327
 30
0.0
  0
VERTEX
  5
98D
  8
0
  6
SLD-SOLID
 62
     7
 10
594.6213030837
 20
274.8595101133
 30
0.0
  0
SEQEND
  5
98E
  8
0
  6
SLD-SOLID
 62
     7
  0
POLYLINE
  5
447
  8
0
  6
SLD-SOLID
 62
     7
 66
     1
 10
0.0
 20
0.0
 30
0.0
  0
VERTEX
  5
98F
  8
0
  6
SLD-SOLID
 62
     7
 10
96.6213145874
 20
274.8595101133
 30
0.0
  0
VERTEX
  5
990
  8
0
  6
SLD-SOLID
 62
     7
 10
97.5967445991
 20
274.8462853327
 30
0.0
  0
VERTEX
  5
991
  8
0
  6
SLD-SOLID
 62
     7
 10
98.5347130917
 20
274.8071176306
 30
0.0
  0
VERTEX
  5
992
  8
0
  6
SLD-SOLID
 62
     7
 10
99.3991592548
 20
274.743512024
 30
0.0
  0
VERTEX
  5
993
  8
0
  6
SLD-SOLID
 62
     7
 10
100.1568236969
 20
274.6579197541
 30
0.0
  0
VERTEX
  5
994
  8
0
  6
SLD-SOLID
 62
     7
 10
100.7786491535
 20
274.5536190763
 30
0.0
  0
VERTEX
  5
995
  8
0
  6
SLD-SOLID
 62
     7
 10
101.2407043598
 20
274.4346258536
 30
0.0
  0
VERTEX
  5
996
  8
0
  6
SLD-SOLID
 62
     7
 10
101.5252271316
 20
274.3055147424
 30
0.0
  0
VERTEX
  5
997
  8
0
  6
SLD-SOLID
 62
     7
 10
101.621309819
 20
274.1712329283
 30
0.0
  0
SEQEND
  5
998
  8
0
  6
SLD-SOLID
 62
     7
  0
LINE
  5
448
  8
0
  6
SLD-SOLID
 62
     7
 10
589.6213004015
 20
274.0333897367
 30
0.0
 11
588.8324403785
 21
259.2329417661
 31
0.0
  0
LINE
  5
449
  8
0
  6
SLD-SOLID
 62
     7
 10
102.4101474903
 20
259.2329417661
 30
0.0
 11
101.621309819
 21
274.0333897367
 31
0.0
  0
ARC
  5
44A
  8
0
  6
SLD-SOLID
 62
     7
 10
381.0171257806
 20
226.25890593
 30
0.0
 40
32.03927395074988
 50
80.9107684797
 51
90.891797089
  0
ARC
  5
44B
  8
0
  6
SLD-SOLID
 62
     7
 10
571.7254733084
 20
226.2588666334
 30
0.0
 40
32.03931319877872
 50
89.1082090399
 51
99.0892253914
  0
ARC
  5
44C
  8
0
  6
SLD-SOLID
 62
     7
 10
310.2254714301
 20
226.2589741849
 30
0.0
 40
32.03920567463992
 50
89.1082043931
 51
99.0892409857
  0
ARC
  5
44D
  8
0
  6
SLD-SOLID
 62
     7
 10
119.5171299047
 20
226.258863492
 30
0.0
 40
32.03931623066528
 50
80.9107762785
 51
90.8917783428
  0
LINE
  5
44E
  8
0
  6
SLD-SOLID
 62
     7
 10
383.9942911289
 20
290.426194419
 30
0.0
 11
383.9942911289
 21
290.416672577
 31
0.0
  0
LINE
  5
44F
  8
0
  6
SLD-SOLID
 62
     7
 10
307.2483041904
 20
290.426194419
 30
0.0
 11
307.2483041904
 21
290.416672577
 31
0.0
  0
LINE
  5
450
  8
0
  6
SLD-SOLID
 62
     7
 10
568.7483051441
 20
290.416672577
 30
0.0
 11
568.7483051441
 21
290.426194419
 31
0.0
  0
LINE
  5
451
  8
0
  6
SLD-SOLID
 62
     7
 10
122.4942901752
 20
290.416672577
 30
0.0
 11
122.4942901752
 21
290.426194419
 31
0.0
  0
LINE
  5
452
  8
0
  6
SLD-SOLID
 62
     7
 10
580.7402455829
 20
290.416672577
 30
0.0
 11
580.7402455829
 21
290.426194419
 31
0.0
  0
LINE
  5
453
  8
0
  6
SLD-SOLID
 62
     7
 10
110.5023422859
 20
290.416672577
 30
0.0
 11
110.5023422859
 21
290.426194419
 31
0.0
  0
LINE
  5
454
  8
0
  6
SLD-SOLID
 62
     7
 10
613.8324388883
 20
290.0146094456
 30
0.0
 11
614.621306362
 21
274.9969733253
 31
0.0
  0
ARC
  5
455
  8
0
  6
SLD-SOLID
 62
     7
 10
613.867818976
 20
276.7747277103
 30
0.0
 40
1.930842793708522
 50
262.7059249178
 51
292.9692820563
  0
ARC
  5
456
  8
0
  6
SLD-SOLID
 62
     7
 10
77.3747807593
 20
276.774678113
 30
0.0
 40
1.93079303710646
 50
247.0304300713
 51
277.2941319591
  0
LINE
  5
457
  8
0
  6
SLD-SOLID
 62
     7
 10
76.6213038586
 20
274.9969733253
 30
0.0
 11
77.4101713322
 21
290.0146094456
 31
0.0
  0
LINE
  5
458
  8
0
  6
SLD-SOLID
 62
     7
 10
594.6213030837
 20
274.8595101133
 30
0.0
 11
597.6213017128
 21
274.8595101133
 31
0.0
  0
LINE
  5
459
  8
0
  6
SLD-SOLID
 62
     7
 10
603.621298971
 20
274.8595101133
 30
0.0
 11
613.6226752422
 21
274.8595101133
 31
0.0
  0
LINE
  5
45A
  8
0
  6
SLD-SOLID
 62
     7
 10
77.6199200771
 20
274.8595101133
 30
0.0
 11
87.6213112495
 21
274.8595101133
 31
0.0
  0
LINE
  5
45B
  8
0
  6
SLD-SOLID
 62
     7
 10
93.6212936066
 20
274.8595101133
 30
0.0
 11
96.6213145874
 21
274.8595101133
 31
0.0
  0
LINE
  5
45C
  8
0
  6
SLD-SOLID
 62
     7
 10
614.621306362
 20
307.4839261666
 30
0.0
 11
613.8324388883
 21
322.2843778625
 31
0.0
  0
LINE
  5
45D
  8
0
  6
SLD-SOLID
 62
     7
 10
614.621306362
 20
274.9969733253
 30
0.0
 11
614.621306362
 21
307.4839261666
 31
0.0
  0
LINE
  5
45E
  8
0
  6
SLD-SOLID
 62
     7
 10
77.4101713322
 20
322.2843778625
 30
0.0
 11
76.6213038586
 21
307.4839261666
 31
0.0
  0
LINE
  5
45F
  8
0
  6
SLD-SOLID
 62
     7
 10
76.6213038586
 20
307.4839261666
 30
0.0
 11
76.6213038586
 21
274.9969733253
 31
0.0
  0
LINE
  5
460
  8
0
  6
SLD-SOLID
 62
     7
 10
103.2982864998
 20
291.3802636162
 30
0.0
 11
103.2982864998
 21
291.3897780076
 31
0.0
  0
LINE
  5
461
  8
0
  6
SLD-SOLID
 62
     7
 10
587.944301369
 20
291.3802636162
 30
0.0
 11
587.944301369
 21
291.3897780076
 31
0.0
  0
LINE
  5
462
  8
0
  6
SLD-SOLID
 62
     7
 10
614.621306362
 20
274.9969733253
 30
0.0
 11
613.8324388883
 21
260.1965253547
 31
0.0
  0
LINE
  5
463
  8
0
  6
SLD-SOLID
 62
     7
 10
77.4101713322
 20
260.1965253547
 30
0.0
 11
76.6213038586
 21
274.9969733253
 31
0.0
  0
LINE
  5
464
  8
0
  6
SLD-SOLID
 62
     7
 10
605.7372638605
 20
291.3802636162
 30
0.0
 11
605.7372638605
 21
291.3897780076
 31
0.0
  0
LINE
  5
465
  8
0
  6
SLD-SOLID
 62
     7
 10
85.5053165577
 20
291.3802636162
 30
0.0
 11
85.5053165577
 21
291.3897780076
 31
0.0
  0
LINE
  5
466
  8
0
  6
SLD-SOLID
 62
     7
 10
594.6213030837
 20
323.2325461999
 30
0.0
 11
594.6213030837
 21
323.2230243579
 31
0.0
  0
LINE
  5
467
  8
0
  6
SLD-SOLID
 62
     7
 10
605.8213064096
 20
242.3840609685
 30
0.0
 11
85.4213038109
 21
242.3840609685
 31
0.0
  0
LINE
  5
468
  8
0
  6
SLD-SOLID
 62
     7
 10
605.8213064096
 20
241.8936115995
 30
0.0
 11
605.8213064096
 21
242.3840609685
 31
0.0
  0
LINE
  5
469
  8
0
  6
SLD-SOLID
 62
     7
 10
605.8213064096
 20
241.8936115995
 30
0.0
 11
85.4213038109
 21
241.8936115995
 31
0.0
  0
LINE
  5
46A
  8
0
  6
SLD-SOLID
 62
     7
 10
85.4213038109
 20
241.8936115995
 30
0.0
 11
85.4213038109
 21
242.3840609685
 31
0.0
  0
LINE
  5
46B
  8
0
  6
SLD-SOLID
 62
     7
 10
605.8213064096
 20
224.2383619145
 30
0.0
 11
604.5712927006
 21
224.2383619145
 31
0.0
  0
LINE
  5
46C
  8
0
  6
SLD-SOLID
 62
     7
 10
86.6713026188
 20
224.2383619145
 30
0.0
 11
85.4213038109
 21
224.2383619145
 31
0.0
  0
LINE
  5
46D
  8
0
  6
SLD-SOLID
 62
     7
 10
605.8213064096
 20
241.8936115995
 30
0.0
 11
605.8213064096
 21
224.2383619145
 31
0.0
  0
LINE
  5
46E
  8
0
  6
SLD-SOLID
 62
     7
 10
85.4213038109
 20
241.8936115995
 30
0.0
 11
85.4213038109
 21
224.2383619145
 31
0.0
  0
LINE
  5
46F
  8
0
  6
SLD-SOLID
 62
     7
 10
84.6212902687
 20
224.734939386
 30
0.0
 11
85.4213038109
 21
224.734939386
 31
0.0
  0
LINE
  5
470
  8
0
  6
SLD-SOLID
 62
     7
 10
84.6212902687
 20
224.734939386
 30
0.0
 11
84.6212902687
 21
242.3856479421
 31
0.0
  0
LINE
  5
471
  8
0
  6
SLD-SOLID
 62
     7
 10
84.6212902687
 20
242.3856479421
 30
0.0
 11
85.4213038109
 21
242.3856479421
 31
0.0
  0
LINE
  5
472
  8
0
  6
SLD-SOLID
 62
     7
 10
85.4213038109
 20
242.3840609685
 30
0.0
 11
85.4213038109
 21
242.3856479421
 31
0.0
  0
LINE
  5
473
  8
0
  6
SLD-SOLID
 62
     7
 10
84.6212902687
 20
243.6933701232
 30
0.0
 11
85.4213038109
 21
243.6933701232
 31
0.0
  0
LINE
  5
474
  8
0
  6
SLD-SOLID
 62
     7
 10
84.6212902687
 20
242.3856479421
 30
0.0
 11
84.6212902687
 21
243.6933701232
 31
0.0
  0
LINE
  5
475
  8
0
  6
SLD-SOLID
 62
     7
 10
85.4213038109
 20
242.3856479421
 30
0.0
 11
85.4213038109
 21
243.6933701232
 31
0.0
  0
LINE
  5
476
  8
0
  6
SLD-SOLID
 62
     7
 10
606.6213050506
 20
242.3856479421
 30
0.0
 11
605.8213064096
 21
242.3856479421
 31
0.0
  0
LINE
  5
477
  8
0
  6
SLD-SOLID
 62
     7
 10
606.6213050506
 20
224.734939386
 30
0.0
 11
606.6213050506
 21
242.3856479421
 31
0.0
  0
LINE
  5
478
  8
0
  6
SLD-SOLID
 62
     7
 10
606.6213050506
 20
224.734939386
 30
0.0
 11
605.8213064096
 21
224.734939386
 31
0.0
  0
LINE
  5
479
  8
0
  6
SLD-SOLID
 62
     7
 10
605.8213064096
 20
242.3840609685
 30
0.0
 11
605.8213064096
 21
242.3856479421
 31
0.0
  0
LINE
  5
47A
  8
0
  6
SLD-SOLID
 62
     7
 10
606.6213050506
 20
243.6933701232
 30
0.0
 11
605.8213064096
 21
243.6933701232
 31
0.0
  0
LINE
  5
47B
  8
0
  6
SLD-SOLID
 62
     7
 10
606.6213050506
 20
242.3856479421
 30
0.0
 11
606.6213050506
 21
243.6933701232
 31
0.0
  0
LINE
  5
47C
  8
0
  6
SLD-SOLID
 62
     7
 10
605.8213064096
 20
242.3856479421
 30
0.0
 11
605.8213064096
 21
243.6933701232
 31
0.0
  0
LINE
  5
47D
  8
0
  6
SLD-SOLID
 62
     7
 10
49.621293845
 20
258.4213053182
 30
0.0
 11
60.571292939
 21
258.4213053182
 31
0.0
  0
POLYLINE
  5
47E
  8
0
  6
SLD-SOLID
 62
     7
 66
     1
 10
0.0
 20
0.0
 30
0.0
  0
VERTEX
  5
999
  8
0
  6
SLD-SOLID
 62
     7
 10
44.6212986133
 20
259.1095787779
 30
0.0
  0
VERTEX
  5
99A
  8
0
  6
SLD-SOLID
 62
     7
 10
44.7173813007
 20
258.9753044143
 30
0.0
  0
VERTEX
  5
99B
  8
0
  6
SLD-SOLID
 62
     7
 10
45.0019040726
 20
258.8461895779
 30
0.0
  0
VERTEX
  5
99C
  8
0
  6
SLD-SOLID
 62
     7
 10
45.4639592789
 20
258.7271963552
 30
0.0
  0
VERTEX
  5
99D
  8
0
  6
SLD-SOLID
 62
     7
 10
46.0857549332
 20
258.6228956774
 30
0.0
  0
VERTEX
  5
99E
  8
0
  6
SLD-SOLID
 62
     7
 10
46.8434491775
 20
258.5372996822
 30
0.0
  0
VERTEX
  5
99F
  8
0
  6
SLD-SOLID
 62
     7
 10
47.7078953407
 20
258.4736978009
 30
0.0
  0
VERTEX
  5
9A0
  8
0
  6
SLD-SOLID
 62
     7
 10
48.6458340309
 20
258.4345300987
 30
0.0
  0
VERTEX
  5
9A1
  8
0
  6
SLD-SOLID
 62
     7
 10
49.621293845
 20
258.4213053182
 30
0.0
  0
SEQEND
  5
9A2
  8
0
  6
SLD-SOLID
 62
     7
  0
LINE
  5
47F
  8
0
  6
SLD-SOLID
 62
     7
 10
44.6212986133
 20
264.6157776311
 30
0.0
 11
44.6212986133
 21
259.1095787779
 31
0.0
  0
POLYLINE
  5
480
  8
0
  6
SLD-SOLID
 62
     7
 66
     1
 10
0.0
 20
0.0
 30
0.0
  0
VERTEX
  5
9A3
  8
0
  6
SLD-SOLID
 62
     7
 10
49.621293845
 20
265.3040510908
 30
0.0
  0
VERTEX
  5
9A4
  8
0
  6
SLD-SOLID
 62
     7
 10
48.6458340309
 20
265.2908263102
 30
0.0
  0
VERTEX
  5
9A5
  8
0
  6
SLD-SOLID
 62
     7
 10
47.7078953407
 20
265.2516623333
 30
0.0
  0
VERTEX
  5
9A6
  8
0
  6
SLD-SOLID
 62
     7
 10
46.8434491775
 20
265.1880604521
 30
0.0
  0
VERTEX
  5
9A7
  8
0
  6
SLD-SOLID
 62
     7
 10
46.0857549332
 20
265.1024644569
 30
0.0
  0
VERTEX
  5
9A8
  8
0
  6
SLD-SOLID
 62
     7
 10
45.4639592789
 20
264.9981637791
 30
0.0
  0
VERTEX
  5
9A9
  8
0
  6
SLD-SOLID
 62
     7
 10
45.0019040726
 20
264.8791705564
 30
0.0
  0
VERTEX
  5
9AA
  8
0
  6
SLD-SOLID
 62
     7
 10
44.7173813007
 20
264.7500557199
 30
0.0
  0
VERTEX
  5
9AB
  8
0
  6
SLD-SOLID
 62
     7
 10
44.6212986133
 20
264.6157776311
 30
0.0
  0
SEQEND
  5
9AC
  8
0
  6
SLD-SOLID
 62
     7
  0
LINE
  5
481
  8
0
  6
SLD-SOLID
 62
     7
 10
60.571292939
 20
265.3040510908
 30
0.0
 11
49.621293845
 21
265.3040510908
 31
0.0
  0
ARC
  5
482
  8
0
  6
SLD-SOLID
 62
     7
 10
60.5810199751
 20
256.3810196489
 30
0.0
 40
2.040308855955923
 50
0.2752400774
 51
90.2731548345
  0
ARC
  5
483
  8
0
  6
SLD-SOLID
 62
     7
 10
60.5810273577
 20
263.2637728571
 30
0.0
 40
2.040301455634915
 50
0.2751368811
 51
90.2733631455
  0
LINE
  5
484
  8
0
  6
SLD-SOLID
 62
     7
 10
62.6213052891
 20
263.2735704377
 30
0.0
 11
62.6213052891
 21
256.3908209398
 31
0.0
  0
ARC
  5
485
  8
0
  6
SLD-SOLID
 62
     7
 10
60.5772326568
 20
256.3848619885
 30
0.0
 40
1.244073361441388
 50
0.2744404616
 51
90.2735546536
  0
LINE
  5
486
  8
0
  6
SLD-SOLID
 62
     7
 10
44.6212986133
 20
259.1095787779
 30
0.0
 11
44.6212986133
 21
258.3171946302
 31
0.0
  0
POLYLINE
  5
487
  8
0
  6
SLD-SOLID
 62
     7
 66
     1
 10
0.0
 20
0.0
 30
0.0
  0
VERTEX
  5
9AD
  8
0
  6
SLD-SOLID
 62
     7
 10
44.6212986133
 20
258.3171946302
 30
0.0
  0
VERTEX
  5
9AE
  8
0
  6
SLD-SOLID
 62
     7
 10
44.7173813007
 20
258.1829202667
 30
0.0
  0
VERTEX
  5
9AF
  8
0
  6
SLD-SOLID
 62
     7
 10
45.0019040726
 20
258.0538054302
 30
0.0
  0
VERTEX
  5
9B0
  8
0
  6
SLD-SOLID
 62
     7
 10
45.4639592789
 20
257.9348122075
 30
0.0
  0
VERTEX
  5
9B1
  8
0
  6
SLD-SOLID
 62
     7
 10
46.0857549332
 20
257.8305115298
 30
0.0
  0
VERTEX
  5
9B2
  8
0
  6
SLD-SOLID
 62
     7
 10
46.8434491775
 20
257.7449155346
 30
0.0
  0
VERTEX
  5
9B3
  8
0
  6
SLD-SOLID
 62
     7
 10
47.7078953407
 20
257.6813136533
 30
0.0
  0
VERTEX
  5
9B4
  8
0
  6
SLD-SOLID
 62
     7
 10
48.6458340309
 20
257.6421459511
 30
0.0
  0
VERTEX
  5
9B5
  8
0
  6
SLD-SOLID
 62
     7
 10
49.621293845
 20
257.6289211705
 30
0.0
  0
SEQEND
  5
9B6
  8
0
  6
SLD-SOLID
 62
     7
  0
LINE
  5
488
  8
0
  6
SLD-SOLID
 62
     7
 10
49.621293845
 20
257.6289211705
 30
0.0
 11
60.571292939
 21
257.6289211705
 31
0.0
  0
LINE
  5
489
  8
0
  6
SLD-SOLID
 62
     7
 10
641.6213014744
 20
257.6289211705
 30
0.0
 11
630.6713023804
 21
257.6289211705
 31
0.0
  0
LINE
  5
48A
  8
0
  6
SLD-SOLID
 62
     7
 10
641.6213014744
 20
258.4213053182
 30
0.0
 11
630.6713023804
 21
258.4213053182
 31
0.0
  0
LINE
  5
48B
  8
0
  6
SLD-SOLID
 62
     7
 10
630.6713023804
 20
265.3040510908
 30
0.0
 11
641.6213014744
 21
265.3040510908
 31
0.0
  0
POLYLINE
  5
48C
  8
0
  6
SLD-SOLID
 62
     7
 66
     1
 10
0.0
 20
0.0
 30
0.0
  0
VERTEX
  5
9B7
  8
0
  6
SLD-SOLID
 62
     7
 10
641.6213014744
 20
265.3040510908
 30
0.0
  0
VERTEX
  5
9B8
  8
0
  6
SLD-SOLID
 62
     7
 10
642.5967463873
 20
265.2908263102
 30
0.0
  0
VERTEX
  5
9B9
  8
0
  6
SLD-SOLID
 62
     7
 10
643.5347148798
 20
265.2516623333
 30
0.0
  0
VERTEX
  5
9BA
  8
0
  6
SLD-SOLID
 62
     7
 10
644.3991461418
 20
265.1880604521
 30
0.0
  0
VERTEX
  5
9BB
  8
0
  6
SLD-SOLID
 62
     7
 10
645.1568403862
 20
265.1024644569
 30
0.0
  0
VERTEX
  5
9BC
  8
0
  6
SLD-SOLID
 62
     7
 10
645.7786509416
 20
264.9981637791
 30
0.0
  0
VERTEX
  5
9BD
  8
0
  6
SLD-SOLID
 62
     7
 10
646.2406912468
 20
264.8791705564
 30
0.0
  0
VERTEX
  5
9BE
  8
0
  6
SLD-SOLID
 62
     7
 10
646.5252289198
 20
264.7500557199
 30
0.0
  0
VERTEX
  5
9BF
  8
0
  6
SLD-SOLID
 62
     7
 10
646.621296706
 20
264.6157776311
 30
0.0
  0
SEQEND
  5
9C0
  8
0
  6
SLD-SOLID
 62
     7
  0
LINE
  5
48D
  8
0
  6
SLD-SOLID
 62
     7
 10
646.621296706
 20
264.6157776311
 30
0.0
 11
646.621296706
 21
259.1095787779
 31
0.0
  0
POLYLINE
  5
48E
  8
0
  6
SLD-SOLID
 62
     7
 66
     1
 10
0.0
 20
0.0
 30
0.0
  0
VERTEX
  5
9C1
  8
0
  6
SLD-SOLID
 62
     7
 10
646.621296706
 20
259.1095787779
 30
0.0
  0
VERTEX
  5
9C2
  8
0
  6
SLD-SOLID
 62
     7
 10
646.5252289198
 20
258.9753044143
 30
0.0
  0
VERTEX
  5
9C3
  8
0
  6
SLD-SOLID
 62
     7
 10
646.2406912468
 20
258.8461895779
 30
0.0
  0
VERTEX
  5
9C4
  8
0
  6
SLD-SOLID
 62
     7
 10
645.7786509416
 20
258.7271963552
 30
0.0
  0
VERTEX
  5
9C5
  8
0
  6
SLD-SOLID
 62
     7
 10
645.1568403862
 20
258.6228956774
 30
0.0
  0
VERTEX
  5
9C6
  8
0
  6
SLD-SOLID
 62
     7
 10
644.3991461418
 20
258.5372996822
 30
0.0
  0
VERTEX
  5
9C7
  8
0
  6
SLD-SOLID
 62
     7
 10
643.5347148798
 20
258.4736978009
 30
0.0
  0
VERTEX
  5
9C8
  8
0
  6
SLD-SOLID
 62
     7
 10
642.5967463873
 20
258.4345300987
 30
0.0
  0
VERTEX
  5
9C9
  8
0
  6
SLD-SOLID
 62
     7
 10
641.6213014744
 20
258.4213053182
 30
0.0
  0
SEQEND
  5
9CA
  8
0
  6
SLD-SOLID
 62
     7
  0
LINE
  5
48F
  8
0
  6
SLD-SOLID
 62
     7
 10
646.621296706
 20
259.1095787779
 30
0.0
 11
646.621296706
 21
258.3171946302
 31
0.0
  0
POLYLINE
  5
490
  8
0
  6
SLD-SOLID
 62
     7
 66
     1
 10
0.0
 20
0.0
 30
0.0
  0
VERTEX
  5
9CB
  8
0
  6
SLD-SOLID
 62
     7
 10
646.621296706
 20
258.3171946302
 30
0.0
  0
VERTEX
  5
9CC
  8
0
  6
SLD-SOLID
 62
     7
 10
646.5252289198
 20
258.1829202667
 30
0.0
  0
VERTEX
  5
9CD
  8
0
  6
SLD-SOLID
 62
     7
 10
646.2406912468
 20
258.0538054302
 30
0.0
  0
VERTEX
  5
9CE
  8
0
  6
SLD-SOLID
 62
     7
 10
645.7786509416
 20
257.9348122075
 30
0.0
  0
VERTEX
  5
9CF
  8
0
  6
SLD-SOLID
 62
     7
 10
645.1568403862
 20
257.8305115298
 30
0.0
  0
VERTEX
  5
9D0
  8
0
  6
SLD-SOLID
 62
     7
 10
644.3991461418
 20
257.7449155346
 30
0.0
  0
VERTEX
  5
9D1
  8
0
  6
SLD-SOLID
 62
     7
 10
643.5347148798
 20
257.6813136533
 30
0.0
  0
VERTEX
  5
9D2
  8
0
  6
SLD-SOLID
 62
     7
 10
642.5967463873
 20
257.6421459511
 30
0.0
  0
VERTEX
  5
9D3
  8
0
  6
SLD-SOLID
 62
     7
 10
641.6213014744
 20
257.6289211705
 30
0.0
  0
SEQEND
  5
9D4
  8
0
  6
SLD-SOLID
 62
     7
  0
ARC
  5
491
  8
0
  6
SLD-SOLID
 62
     7
 10
630.6615901273
 20
256.3810196967
 30
0.0
 40
2.040308737645658
 50
89.7272602916
 51
179.7247612515
  0
ARC
  5
492
  8
0
  6
SLD-SOLID
 62
     7
 10
630.6653690899
 20
256.3848554993
 30
0.0
 40
1.244079819870893
 50
89.7267427824
 51
179.7252621024
  0
ARC
  5
493
  8
0
  6
SLD-SOLID
 62
     7
 10
630.6615827446
 20
263.263772905
 30
0.0
 40
2.040301337202555
 50
89.7270519787
 51
179.7248644497
  0
LINE
  5
494
  8
0
  6
SLD-SOLID
 62
     7
 10
628.6213049314
 20
256.3908209398
 30
0.0
 11
628.6213049314
 21
263.2735704377
 31
0.0
  0
LINE
  5
495
  8
0
  6
SLD-SOLID
 62
     7
 10
61.8212917469
 20
245.7926829651
 30
0.0
 11
61.8212917469
 21
256.3908209398
 31
0.0
  0
LINE
  5
496
  8
0
  6
SLD-SOLID
 62
     7
 10
62.6213052891
 20
245.7926829651
 30
0.0
 11
62.6213052891
 21
256.3908209398
 31
0.0
  0
LINE
  5
497
  8
0
  6
SLD-SOLID
 62
     7
 10
628.6213049314
 20
245.7926829651
 30
0.0
 11
628.6213049314
 21
256.3908209398
 31
0.0
  0
LINE
  5
498
  8
0
  6
SLD-SOLID
 62
     7
 10
629.4213035725
 20
245.7926829651
 30
0.0
 11
629.4213035725
 21
256.3908209398
 31
0.0
  0
ARC
  5
499
  8
0
  6
SLD-SOLID
 62
     7
 10
63.8615712105
 20
245.8024783495
 30
0.0
 40
2.040302977324186
 50
180.2750749994
 51
270.2733199124
  0
ARC
  5
49A
  8
0
  6
SLD-SOLID
 62
     7
 10
63.8653903433
 20
245.7986681302
 30
0.0
 40
1.244099451171459
 50
180.2756419674
 51
270.2723531478
  0
ARC
  5
49B
  8
0
  6
SLD-SOLID
 62
     7
 10
63.8653940798
 20
248.4278812123
 30
0.0
 40
1.244103205726453
 50
180.275814869
 51
270.2721802462
  0
ARC
  5
49C
  8
0
  6
SLD-SOLID
 62
     7
 10
627.3810158045
 20
245.802486805
 30
0.0
 40
2.040311322158812
 50
269.7273328664
 51
359.7246886767
  0
ARC
  5
49D
  8
0
  6
SLD-SOLID
 62
     7
 10
627.3772137121
 20
245.7986743545
 30
0.0
 40
1.244105646185248
 50
269.7279321389
 51
359.7240727459
  0
ARC
  5
49E
  8
0
  6
SLD-SOLID
 62
     7
 10
627.3772099754
 20
248.4278874369
 30
0.0
 40
1.24410940096578
 50
269.7281050484
 51
359.7238998364
  0
LINE
  5
49F
  8
0
  6
SLD-SOLID
 62
     7
 10
83.3712914608
 20
251.4373322323
 30
0.0
 11
71.6213086269
 21
251.4373322323
 31
0.0
  0
LINE
  5
4A0
  8
0
  6
SLD-SOLID
 62
     7
 10
65.6212964676
 20
251.4373322323
 30
0.0
 11
63.871304097
 21
251.4373322323
 31
0.0
  0
LINE
  5
4A1
  8
0
  6
SLD-SOLID
 62
     7
 10
63.871304097
 20
244.5545827344
 30
0.0
 11
83.3712914608
 21
244.5545827344
 31
0.0
  0
LINE
  5
4A2
  8
0
  6
SLD-SOLID
 62
     7
 10
63.871304097
 20
247.1837920442
 30
0.0
 11
68.6212876461
 21
247.1837920442
 31
0.0
  0
POLYLINE
  5
4A3
  8
0
  6
SLD-SOLID
 62
     7
 66
     1
 10
0.0
 20
0.0
 30
0.0
  0
VERTEX
  5
9D5
  8
0
  6
SLD-SOLID
 62
     7
 10
68.6212876461
 20
247.1837920442
 30
0.0
  0
VERTEX
  5
9D6
  8
0
  6
SLD-SOLID
 62
     7
 10
70.1483288429
 20
247.2114672259
 30
0.0
  0
VERTEX
  5
9D7
  8
0
  6
SLD-SOLID
 62
     7
 10
71.57130033
 20
247.2926003233
 30
0.0
  0
VERTEX
  5
9D8
  8
0
  6
SLD-SOLID
 62
     7
 10
72.7932253502
 20
247.4216704562
 30
0.0
  0
VERTEX
  5
9D9
  8
0
  6
SLD-SOLID
 62
     7
 10
73.7308362148
 20
247.5898747638
 30
0.0
  0
VERTEX
  5
9DA
  8
0
  6
SLD-SOLID
 62
     7
 10
74.320266547
 20
247.785754253
 30
0.0
  0
VERTEX
  5
9DB
  8
0
  6
SLD-SOLID
 62
     7
 10
74.5213130138
 20
247.9959574834
 30
0.0
  0
VERTEX
  5
9DC
  8
0
  6
SLD-SOLID
 62
     7
 10
74.320266547
 20
248.2061607137
 30
0.0
  0
VERTEX
  5
9DD
  8
0
  6
SLD-SOLID
 62
     7
 10
73.7308362148
 20
248.4020402029
 30
0.0
  0
VERTEX
  5
9DE
  8
0
  6
SLD-SOLID
 62
     7
 10
72.7932253502
 20
248.5702445105
 30
0.0
  0
VERTEX
  5
9DF
  8
0
  6
SLD-SOLID
 62
     7
 10
71.6213086269
 20
248.6952913299
 30
0.0
  0
SEQEND
  5
9E0
  8
0
  6
SLD-SOLID
 62
     7
  0
LINE
  5
4A4
  8
0
  6
SLD-SOLID
 62
     7
 10
65.6212964676
 20
248.8081191972
 30
0.0
 11
63.871304097
 21
248.8081191972
 31
0.0
  0
LINE
  5
4A5
  8
0
  6
SLD-SOLID
 62
     7
 10
63.871304097
 20
243.7621985868
 30
0.0
 11
83.3712914608
 21
243.7621985868
 31
0.0
  0
ARC
  5
4A6
  8
0
  6
SLD-SOLID
 62
     7
 10
83.3740923785
 20
242.4986143837
 30
0.0
 40
2.055970258594964
 50
35.5290240221
 51
90.0780560005
  0
ARC
  5
4A7
  8
0
  6
SLD-SOLID
 62
     7
 10
83.3772311786
 20
242.5181394047
 30
0.0
 40
1.244073361441417
 50
0.2744404616
 51
90.2735546536
  0
ARC
  5
4A8
  8
0
  6
SLD-SOLID
 62
     7
 10
83.3810184969
 20
249.397046563
 30
0.0
 40
2.040308855955923
 50
0.2752400774
 51
90.2731548345
  0
LINE
  5
4A9
  8
0
  6
SLD-SOLID
 62
     7
 10
85.4213038109
 20
249.406847854
 30
0.0
 11
85.4213038109
 21
243.6933701232
 31
0.0
  0
LINE
  5
4AA
  8
0
  6
SLD-SOLID
 62
     7
 10
627.3713061235
 20
244.5545827344
 30
0.0
 11
607.8713038586
 21
244.5545827344
 31
0.0
  0
LINE
  5
4AB
  8
0
  6
SLD-SOLID
 62
     7
 10
607.8713038586
 20
251.4373322323
 30
0.0
 11
619.6213015936
 21
251.4373322323
 31
0.0
  0
LINE
  5
4AC
  8
0
  6
SLD-SOLID
 62
     7
 10
625.6212988518
 20
251.4373322323
 30
0.0
 11
627.3713061235
 21
251.4373322323
 31
0.0
  0
LINE
  5
4AD
  8
0
  6
SLD-SOLID
 62
     7
 10
625.6212988518
 20
248.8081191972
 30
0.0
 11
627.3713061235
 21
248.8081191972
 31
0.0
  0
POLYLINE
  5
4AE
  8
0
  6
SLD-SOLID
 62
     7
 66
     1
 10
0.0
 20
0.0
 30
0.0
  0
VERTEX
  5
9E1
  8
0
  6
SLD-SOLID
 62
     7
 10
622.6212927721
 20
247.1837920442
 30
0.0
  0
VERTEX
  5
9E2
  8
0
  6
SLD-SOLID
 62
     7
 10
621.0942664764
 20
247.2114672259
 30
0.0
  0
VERTEX
  5
9E3
  8
0
  6
SLD-SOLID
 62
     7
 10
619.6712949894
 20
247.2926003233
 30
0.0
  0
VERTEX
  5
9E4
  8
0
  6
SLD-SOLID
 62
     7
 10
618.4493699692
 20
247.4216704562
 30
0.0
  0
VERTEX
  5
9E5
  8
0
  6
SLD-SOLID
 62
     7
 10
617.5117442034
 20
247.5898747638
 30
0.0
  0
VERTEX
  5
9E6
  8
0
  6
SLD-SOLID
 62
     7
 10
616.9223436735
 20
247.785754253
 30
0.0
  0
VERTEX
  5
9E7
  8
0
  6
SLD-SOLID
 62
     7
 10
616.7212972067
 20
247.9959574834
 30
0.0
  0
VERTEX
  5
9E8
  8
0
  6
SLD-SOLID
 62
     7
 10
616.9223436735
 20
248.2061607137
 30
0.0
  0
VERTEX
  5
9E9
  8
0
  6
SLD-SOLID
 62
     7
 10
617.5117442034
 20
248.4020402029
 30
0.0
  0
VERTEX
  5
9EA
  8
0
  6
SLD-SOLID
 62
     7
 10
618.4493699692
 20
248.5702445105
 30
0.0
  0
VERTEX
  5
9EB
  8
0
  6
SLD-SOLID
 62
     7
 10
619.6213015936
 20
248.6952913299
 30
0.0
  0
SEQEND
  5
9EC
  8
0
  6
SLD-SOLID
 62
     7
  0
LINE
  5
4AF
  8
0
  6
SLD-SOLID
 62
     7
 10
627.3713061235
 20
247.1837920442
 30
0.0
 11
622.6212927721
 21
247.1837920442
 31
0.0
  0
LINE
  5
4B0
  8
0
  6
SLD-SOLID
 62
     7
 10
627.3713061235
 20
243.7621985868
 30
0.0
 11
607.8713038586
 21
243.7621985868
 31
0.0
  0
ARC
  5
4B1
  8
0
  6
SLD-SOLID
 62
     7
 10
607.8680294816
 20
242.4995647179
 30
0.0
 40
2.05502062509836
 50
89.9087074555
 51
144.4846266927
  0
ARC
  5
4B2
  8
0
  6
SLD-SOLID
 62
     7
 10
607.8653705681
 20
242.5181329156
 30
0.0
 40
1.244079819870779
 50
89.7267427824
 51
179.7252621024
  0
ARC
  5
4B3
  8
0
  6
SLD-SOLID
 62
     7
 10
607.8615916055
 20
249.3970466109
 30
0.0
 40
2.040308737645544
 50
89.7272602916
 51
179.7247612515
  0
LINE
  5
4B4
  8
0
  6
SLD-SOLID
 62
     7
 10
605.8213064096
 20
243.6933701232
 30
0.0
 11
605.8213064096
 21
249.406847854
 31
0.0
  0
LINE
  5
4B5
  8
0
  6
SLD-SOLID
 62
     7
 10
604.5712927006
 20
224.2383619145
 30
0.0
 11
604.5712927006
 21
223.4451339886
 31
0.0
  0
LINE
  5
4B6
  8
0
  6
SLD-SOLID
 62
     7
 10
86.6713026188
 20
223.4451339886
 30
0.0
 11
86.6713026188
 21
224.2383619145
 31
0.0
  0
ARC
  5
4B7
  8
0
  6
SLD-SOLID
 62
     7
 10
604.5786272332
 20
225.5111167599
 30
0.0
 40
2.046480981537454
 50
269.7946530321
 51
337.7112697263
  0
ARC
  5
4B8
  8
0
  6
SLD-SOLID
 62
     7
 10
86.6662006944
 20
225.5144577204
 30
0.0
 40
2.04981514787752
 50
202.3514697295
 51
270.1426075122
  0
ARC
  5
4B9
  8
0
  6
SLD-SOLID
 62
     7
 10
70.9118667633
 20
235.0920112628
 30
0.0
 40
12.83052461971168
 50
77.1211527259
 51
86.8303115521
  0
ARC
  5
4BA
  8
0
  6
SLD-SOLID
 62
     7
 10
620.3300619581
 20
235.0967049807
 30
0.0
 40
12.8258004070756
 50
93.1678080778
 51
102.8806178831
  0
ARC
  5
4BB
  8
0
  6
SLD-SOLID
 62
     7
 10
63.8653956241
 20
250.0522099245
 30
0.0
 40
1.244104757565655
 50
180.2758863325
 51
270.2721087826
  0
ARC
  5
4BC
  8
0
  6
SLD-SOLID
 62
     7
 10
63.8699817247
 20
250.0774299971
 30
0.0
 40
2.06169537160775
 50
232.7239987161
 51
270.0367495402
  0
LINE
  5
4BD
  8
0
  6
SLD-SOLID
 62
     7
 10
63.871304097
 20
248.0157350496
 30
0.0
 11
65.6212964676
 21
248.0157350496
 31
0.0
  0
ARC
  5
4BE
  8
0
  6
SLD-SOLID
 62
     7
 10
627.372563752
 20
250.0776221618
 30
0.0
 40
2.061887495823706
 50
269.9650529888
 51
307.2741987549
  0
ARC
  5
4BF
  8
0
  6
SLD-SOLID
 62
     7
 10
627.3772084311
 20
250.0522161491
 30
0.0
 40
1.244110952812737
 50
269.7281765112
 51
359.7238283736
  0
LINE
  5
4C0
  8
0
  6
SLD-SOLID
 62
     7
 10
627.3713061235
 20
248.0157350496
 30
0.0
 11
625.6212988518
 21
248.0157350496
 31
0.0
  0
ARC
  5
4C1
  8
0
  6
SLD-SOLID
 62
     7
 10
63.8653903433
 20
252.6814176281
 30
0.0
 40
1.244099451171476
 50
180.2756419674
 51
270.2723531478
  0
ARC
  5
4C2
  8
0
  6
SLD-SOLID
 62
     7
 10
627.3772137121
 20
252.6814238524
 30
0.0
 40
1.244105646185248
 50
269.7279321389
 51
359.7240727459
  0
LINE
  5
4C3
  8
0
  6
SLD-SOLID
 62
     7
 10
605.8213064096
 20
252.0199080303
 30
0.0
 11
85.4213038109
 21
252.0199080303
 31
0.0
  0
LINE
  5
4C4
  8
0
  6
SLD-SOLID
 62
     7
 10
605.8213064096
 20
252.0183210567
 30
0.0
 11
605.8213064096
 21
252.0199080303
 31
0.0
  0
LINE
  5
4C5
  8
0
  6
SLD-SOLID
 62
     7
 10
85.4213038109
 20
252.0183210567
 30
0.0
 11
85.4213038109
 21
252.0199080303
 31
0.0
  0
LINE
  5
4C6
  8
0
  6
SLD-SOLID
 62
     7
 10
85.4213038109
 20
249.4756725922
 30
0.0
 11
85.4213038109
 21
249.406847854
 31
0.0
  0
LINE
  5
4C7
  8
0
  6
SLD-SOLID
 62
     7
 10
605.8213064096
 20
249.406847854
 30
0.0
 11
605.8213064096
 21
249.4756725922
 31
0.0
  0
LINE
  5
4C8
  8
0
  6
SLD-SOLID
 62
     7
 10
84.9402049206
 20
250.7137728229
 30
0.0
 11
85.4213038109
 21
250.7137728229
 31
0.0
  0
LINE
  5
4C9
  8
0
  6
SLD-SOLID
 62
     7
 10
84.6212902687
 20
252.0183210567
 30
0.0
 11
85.4213038109
 21
252.0183210567
 31
0.0
  0
LINE
  5
4CA
  8
0
  6
SLD-SOLID
 62
     7
 10
84.6212902687
 20
251.0161844388
 30
0.0
 11
84.6212902687
 21
252.0183210567
 31
0.0
  0
LINE
  5
4CB
  8
0
  6
SLD-SOLID
 62
     7
 10
85.4213038109
 20
250.7137728229
 30
0.0
 11
85.4213038109
 21
252.0183210567
 31
0.0
  0
LINE
  5
4CC
  8
0
  6
SLD-SOLID
 62
     7
 10
85.4213038109
 20
250.7137728229
 30
0.0
 11
85.4213038109
 21
249.4756725922
 31
0.0
  0
LINE
  5
4CD
  8
0
  6
SLD-SOLID
 62
     7
 10
606.3024052999
 20
250.7137728229
 30
0.0
 11
605.8213064096
 21
250.7137728229
 31
0.0
  0
LINE
  5
4CE
  8
0
  6
SLD-SOLID
 62
     7
 10
606.6213050506
 20
252.0183210567
 30
0.0
 11
605.8213064096
 21
252.0183210567
 31
0.0
  0
LINE
  5
4CF
  8
0
  6
SLD-SOLID
 62
     7
 10
606.6213050506
 20
251.0161844388
 30
0.0
 11
606.6213050506
 21
252.0183210567
 31
0.0
  0
LINE
  5
4D0
  8
0
  6
SLD-SOLID
 62
     7
 10
605.8213064096
 20
250.7137728229
 30
0.0
 11
605.8213064096
 21
252.0183210567
 31
0.0
  0
LINE
  5
4D1
  8
0
  6
SLD-SOLID
 62
     7
 10
605.8213064096
 20
249.4756725922
 30
0.0
 11
605.8213064096
 21
250.7137728229
 31
0.0
  0
ENDSEC
  0
EOF
