  0
SECTION
  2
HEADER
  9
$ACADVER
  1
AC1015
  9
$ACADMAINTVER
 70
     6
  9
$DWGCODEPAGE
  3
ANSI_1252
  9
$INSBASE
 10
0.0
 20
0.0
 30
0.0
  9
$EXTMIN
 10
0.0
 20
0.0
 30
0.0
  9
$EXTMAX
 10
431.8
 20
279.4
 30
0.0
  9
$LIMMIN
 10
0.0
 20
0.0
  9
$LIMMAX
 10
431.8
 20
279.4
  9
$ORTHOMODE
 70
     0
  9
$REGENMODE
 70
     1
  9
$FILLMODE
 70
     1
  9
$QTEXTMODE
 70
     0
  9
$MIRRTEXT
 70
     1
  9
$LTSCALE
 40
1.0
  9
$ATTMODE
 70
     1
  9
$TEXTSIZE
 40
3.5
  9
$TRACEWID
 40
1.0
  9
$TEXTSTYLE
  7
Standard
  9
$CLAYER
  8
0
  9
$CELTYPE
  6
ByLayer
  9
$CECOLOR
 62
   256
  9
$CELTSCALE
 40
1.0
  9
$DISPSILH
 70
     0
  9
$DIMSCALE
 40
1.0
  9
$DIMASZ
 40
3.302
  9
$DIMEXO
 40
1.0
  9
$DIMDLI
 40
3.75
  9
$DIMRND
 40
0.0
  9
$DIMDLE
 40
0.0
  9
$DIMEXE
 40
1.0
  9
$DIMTP
 40
0.0
  9
$DIMTM
 40
0.0
  9
$DIMTXT
 40
3.5
  9
$DIMCEN
 40
2.5
  9
$DIMTSZ
 40
0.0
  9
$DIMTOL
 70
     0
  9
$DIMLIM
 70
     0
  9
$DIMTIH
 70
     1
  9
$DIMTOH
 70
     1
  9
$DIMSE1
 70
     0
  9
$DIMSE2
 70
     0
  9
$DIMTAD
 70
     1
  9
$DIMZIN
 70
     0
  9
$DIMBLK
  1

  9
$DIMASO
 70
     1
  9
$DIMSHO
 70
     1
  9
$DIMPOST
  1

  9
$DIMAPOST
  1

  9
$DIMALT
 70
     0
  9
$DIMALTD
 70
     3
  9
$DIMALTF
 40
0.0393700787
  9
$DIMLFAC
 40
5.0
  9
$DIMTOFL
 70
     1
  9
$DIMTVP
 40
0.0
  9
$DIMTIX
 70
     0
  9
$DIMSOXD
 70
     0
  9
$DIMSAH
 70
     0
  9
$DIMBLK1
  1

  9
$DIMBLK2
  1

  9
$DIMSTYLE
  2
ISO-25
  9
$DIMCLRD
 70
     0
  9
$DIMCLRE
 70
     0
  9
$DIMCLRT
 70
     0
  9
$DIMTFAC
 40
1.0
  9
$DIMGAP
 40
1.524
  9
$DIMJUST
 70
     0
  9
$DIMSD1
 70
     0
  9
$DIMSD2
 70
     0
  9
$DIMTOLJ
 70
     0
  9
$DIMTZIN
 70
     0
  9
$DIMALTZ
 70
     0
  9
$DIMALTTZ
 70
     0
  9
$DIMUPT
 70
     0
  9
$DIMDEC
 70
     3
  9
$DIMTDEC
 70
     3
  9
$DIMALTU
 70
     2
  9
$DIMALTTD
 70
     3
  9
$DIMTXSTY
  7
Standard
  9
$DIMAUNIT
 70
     0
  9
$DIMADEC
 70
     2
  9
$DIMALTRND
 40
0.0
  9
$DIMAZIN
 70
     0
  9
$DIMDSEP
 70
    44
  9
$DIMATFIT
 70
     3
  9
$DIMFRAC
 70
     0
  9
$DIMLDRBLK
  1

  9
$DIMLUNIT
 70
     2
  9
$DIMLWD
 70
    -2
  9
$DIMLWE
 70
    -2
  9
$DIMTMOVE
 70
     0
  9
$LUNITS
 70
     2
  9
$LUPREC
 70
     8
  9
$SKETCHINC
 40
1.0
  9
$FILLETRAD
 40
10.0
  9
$AUNITS
 70
     0
  9
$AUPREC
 70
     8
  9
$MENU
  1
.
  9
$ELEVATION
 40
0.0
  9
$PELEVATION
 40
0.0
  9
$THICKNESS
 40
0.0
  9
$LIMCHECK
 70
     0
  9
$CHAMFERA
 40
0.0
  9
$CHAMFERB
 40
0.0
  9
$CHAMFERC
 40
0.0
  9
$CHAMFERD
 40
0.0
  9
$SKPOLY
 70
     0
  9
$TDCREATE
 40
2458780.479037488
  9
$TDUCREATE
 40
2458780.437370822
  9
$TDUPDATE
 40
2458780.479041829
  9
$TDUUPDATE
 40
2458780.437375162
  9
$TDINDWG
 40
0.0000000116
  9
$TDUSRTIMER
 40
0.0000000116
  9
$USRTIMER
 70
     1
  9
$ANGBASE
 50
0.0
  9
$ANGDIR
 70
     0
  9
$PDMODE
 70
     0
  9
$PDSIZE
 40
-1.0
  9
$PLINEWID
 40
0.0
  9
$SPLFRAME
 70
     0
  9
$SPLINETYPE
 70
     6
  9
$SPLINESEGS
 70
     8
  9
$HANDSEED
  5
432
  9
$SURFTAB1
 70
     6
  9
$SURFTAB2
 70
     6
  9
$SURFTYPE
 70
     6
  9
$SURFU
 70
     6
  9
$SURFV
 70
     6
  9
$UCSBASE
  2

  9
$UCSNAME
  2

  9
$UCSORG
 10
0.0
 20
0.0
 30
0.0
  9
$UCSXDIR
 10
1.0
 20
0.0
 30
0.0
  9
$UCSYDIR
 10
0.0
 20
1.0
 30
0.0
  9
$UCSORTHOREF
  2

  9
$UCSORTHOVIEW
 70
     0
  9
$UCSORGTOP
 10
0.0
 20
0.0
 30
0.0
  9
$UCSORGBOTTOM
 10
0.0
 20
0.0
 30
0.0
  9
$UCSORGLEFT
 10
0.0
 20
0.0
 30
0.0
  9
$UCSORGRIGHT
 10
0.0
 20
0.0
 30
0.0
  9
$UCSORGFRONT
 10
0.0
 20
0.0
 30
0.0
  9
$UCSORGBACK
 10
0.0
 20
0.0
 30
0.0
  9
$PUCSBASE
  2

  9
$PUCSNAME
  2

  9
$PUCSORG
 10
0.0
 20
0.0
 30
0.0
  9
$PUCSXDIR
 10
1.0
 20
0.0
 30
0.0
  9
$PUCSYDIR
 10
0.0
 20
1.0
 30
0.0
  9
$PUCSORTHOREF
  2

  9
$PUCSORTHOVIEW
 70
     0
  9
$PUCSORGTOP
 10
0.0
 20
0.0
 30
0.0
  9
$PUCSORGBOTTOM
 10
0.0
 20
0.0
 30
0.0
  9
$PUCSORGLEFT
 10
0.0
 20
0.0
 30
0.0
  9
$PUCSORGRIGHT
 10
0.0
 20
0.0
 30
0.0
  9
$PUCSORGFRONT
 10
0.0
 20
0.0
 30
0.0
  9
$PUCSORGBACK
 10
0.0
 20
0.0
 30
0.0
  9
$USERI1
 70
     0
  9
$USERI2
 70
     0
  9
$USERI3
 70
     0
  9
$USERI4
 70
     0
  9
$USERI5
 70
     0
  9
$USERR1
 40
0.0
  9
$USERR2
 40
0.0
  9
$USERR3
 40
0.0
  9
$USERR4
 40
0.0
  9
$USERR5
 40
0.0
  9
$WORLDVIEW
 70
     1
  9
$SHADEDGE
 70
     3
  9
$SHADEDIF
 70
    70
  9
$TILEMODE
 70
     1
  9
$MAXACTVP
 70
    64
  9
$PINSBASE
 10
0.0
 20
0.0
 30
0.0
  9
$PLIMCHECK
 70
     0
  9
$PEXTMIN
 10
1.0000000000E+20
 20
1.0000000000E+20
 30
1.0000000000E+20
  9
$PEXTMAX
 10
-1.0000000000E+20
 20
-1.0000000000E+20
 30
-1.0000000000E+20
  9
$PLIMMIN
 10
0.0
 20
0.0
  9
$PLIMMAX
 10
420.0
 20
297.0
  9
$UNITMODE
 70
     0
  9
$VISRETAIN
 70
     1
  9
$PLINEGEN
 70
     0
  9
$PSLTSCALE
 70
     1
  9
$TREEDEPTH
 70
  3020
  9
$CMLSTYLE
  2
Standard
  9
$CMLJUST
 70
     0
  9
$CMLSCALE
 40
20.0
  9
$PROXYGRAPHICS
 70
     1
  9
$MEASUREMENT
 70
     1
  9
$CELWEIGHT
370
    -1
  9
$ENDCAPS
280
     0
  9
$JOINSTYLE
280
     0
  9
$LWDISPLAY
290
     1
  9
$INSUNITS
 70
     4
  9
$HYPERLINKBASE
  1

  9
$STYLESHEET
  1

  9
$XEDIT
290
     1
  9
$CEPSNTYPE
380
     0
  9
$PSTYLEMODE
290
     1
  9
$FINGERPRINTGUID
  2
{339C47D6-6F0C-46C3-A0E5-EEFD8B4F6855}
  9
$VERSIONGUID
  2
{FAEB1C32-E019-11D5-929B-00C0DF256EC4}
  9
$EXTNAMES
290
     1
  9
$PSVPSCALE
 40
0.0
  9
$OLESTARTUP
290
     0
  0
ENDSEC
  0
SECTION
  2
CLASSES
  0
CLASS
  1
ACDBDICTIONARYWDFLT
  2
AcDbDictionaryWithDefault
  3
ObjectDBX Classes
 90
        0
280
     0
281
     0
  0
CLASS
  1
VISUALSTYLE
  2
AcDbVisualStyle
  3
ObjectDBX Classes
 90
     4095
280
     0
281
     0
  0
CLASS
  1
MATERIAL
  2
AcDbMaterial
  3
ObjectDBX Classes
 90
     1153
280
     0
281
     0
  0
CLASS
  1
SCALE
  2
AcDbScale
  3
ObjectDBX Classes
 90
     1153
280
     0
281
     0
  0
CLASS
  1
TABLESTYLE
  2
AcDbTableStyle
  3
ObjectDBX Classes
 90
     4095
280
     0
281
     0
  0
CLASS
  1
MLEADERSTYLE
  2
AcDbMLeaderStyle
  3
ACDB_MLEADERSTYLE_CLASS
 90
     4095
280
     0
281
     0
  0
CLASS
  1
SUN
  2
AcDbSun
  3
SCENEOE
 90
     1153
280
     0
281
     0
  0
CLASS
  1
ACDBPLACEHOLDER
  2
AcDbPlaceHolder
  3
ObjectDBX Classes
 90
        0
280
     0
281
     0
  0
CLASS
  1
LAYOUT
  2
AcDbLayout
  3
ObjectDBX Classes
 90
        0
280
     0
281
     0
  0
ENDSEC
  0
SECTION
  2
TABLES
  0
TABLE
  2
VPORT
  5
8
330
0
100
AcDbSymbolTable
 70
     1
  0
VPORT
  5
29
330
8
100
AcDbSymbolTableRecord
100
AcDbViewportTableRecord
  2
*Active
 70
     0
 10
0.0
 20
0.0
 11
1.0
 21
1.0
 12
215.9
 22
139.7
 13
0.0
 23
0.0
 14
10.0
 24
10.0
 15
10.0
 25
10.0
 16
0.0
 26
0.0
 36
1.0
 17
0.0
 27
0.0
 37
0.0
 40
279.4
 41
1.5454545455
 42
50.0
 43
0.0
 44
0.0
 50
0.0
 51
0.0
 71
     0
 72
  2000
 73
     1
 74
     3
 75
     0
 76
     0
 77
     0
 78
     0
281
     0
 65
     1
110
0.0
120
0.0
130
0.0
111
1.0
121
0.0
131
0.0
112
0.0
122
1.0
132
0.0
 79
     0
146
0.0
  0
ENDTAB
  0
TABLE
  2
LTYPE
  5
5
330
0
100
AcDbSymbolTable
 70
     6
  0
LTYPE
  5
14
330
5
100
AcDbSymbolTableRecord
100
AcDbLinetypeTableRecord
  2
ByBlock
 70
     0
  3

 72
    65
 73
     0
 40
0.0
  0
LTYPE
  5
15
330
5
100
AcDbSymbolTableRecord
100
AcDbLinetypeTableRecord
  2
ByLayer
 70
     0
  3

 72
    65
 73
     0
 40
0.0
  0
LTYPE
  5
16
330
5
100
AcDbSymbolTableRecord
100
AcDbLinetypeTableRecord
  2
Continuous
 70
     0
  3
Solid line
 72
    65
 73
     0
 40
0.0
  0
LTYPE
  5
6E
330
5
100
AcDbSymbolTableRecord
100
AcDbLinetypeTableRecord
  2
HIDDEN
 70
     0
  3
Hidden __ __ __ __ __ __ __ __ __ __ __ __ __ __
 72
    65
 73
     2
 40
1.905
 49
1.27
 74
     0
 49
-0.635
 74
     0
  0
LTYPE
  5
6F
330
5
100
AcDbSymbolTableRecord
100
AcDbLinetypeTableRecord
  2
PHANTOM
 70
     0
  3
Phantom ______  __  __  ______  __  __  ______
 72
    65
 73
     6
 40
12.7
 49
6.35
 74
     0
 49
-1.27
 74
     0
 49
1.27
 74
     0
 49
-1.27
 74
     0
 49
1.27
 74
     0
 49
-1.27
 74
     0
  0
LTYPE
  5
70
330
5
100
AcDbSymbolTableRecord
100
AcDbLinetypeTableRecord
  2
CENTER
 70
     0
  3
Center ____ _ ____ _ ____ _ ____ _ ____ _ ____
 72
    65
 73
     4
 40
10.16
 49
6.35
 74
     0
 49
-1.27
 74
     0
 49
1.27
 74
     0
 49
-1.27
 74
     0
  0
LTYPE
  5
71
330
5
100
AcDbSymbolTableRecord
100
AcDbLinetypeTableRecord
  2
CENTERX2
 70
     0
  3
Center (2x) ________  __  ________  __  _____
 72
    65
 73
     4
 40
20.32
 49
12.7
 74
     0
 49
-2.54
 74
     0
 49
2.54
 74
     0
 49
-2.54
 74
     0
  0
LTYPE
  5
72
330
5
100
AcDbSymbolTableRecord
100
AcDbLinetypeTableRecord
  2
DOT2
 70
     0
  3
Dot (.5x) ........................................
 72
    65
 73
     2
 40
0.635
 49
0.0
 74
     0
 49
-0.635
 74
     0
  0
ENDTAB
  0
TABLE
  2
LAYER
  5
2
330
0
100
AcDbSymbolTable
 70
     1
  0
LAYER
  5
10
330
2
100
AcDbSymbolTableRecord
100
AcDbLayerTableRecord
  2
0
 70
     0
 62
     7
  6
Continuous
370
    -3
390
F
  0
ENDTAB
  0
TABLE
  2
STYLE
  5
3
330
0
100
AcDbSymbolTable
 70
     1
  0
STYLE
  5
11
330
3
100
AcDbSymbolTableRecord
100
AcDbTextStyleTableRecord
  2
Standard
 70
     0
 40
0.0
 41
1.0
 50
0.0
 71
     0
 42
3.5
  3
txt
  4

  0
ENDTAB
  0
TABLE
  2
VIEW
  5
6
330
0
100
AcDbSymbolTable
 70
     0
  0
ENDTAB
  0
TABLE
  2
UCS
  5
7
330
0
100
AcDbSymbolTable
 70
     0
  0
ENDTAB
  0
TABLE
  2
APPID
  5
9
330
0
100
AcDbSymbolTable
 70
     1
  0
APPID
  5
12
330
9
100
AcDbSymbolTableRecord
100
AcDbRegAppTableRecord
  2
ACAD
 70
     0
  0
ENDTAB
  0
TABLE
  2
DIMSTYLE
  5
A
330
0
100
AcDbSymbolTable
 70
     1
100
AcDbDimStyleTable
  0
DIMSTYLE
105
27
330
A
100
AcDbSymbolTableRecord
100
AcDbDimStyleTableRecord
  2
ISO-25
 70
     0
 41
2.5
 42
0.625
 43
3.75
 44
1.25
 73
     0
 74
     0
 77
     1
 78
     8
140
2.5
141
2.5
143
0.0393700787
147
0.625
171
     3
172
     1
178
     0
271
     2
272
     2
274
     3
278
    44
283
     0
284
     8
340
11
  0
ENDTAB
  0
TABLE
  2
BLOCK_RECORD
  5
1
330
0
100
AcDbSymbolTable
 70
     1
  0
BLOCK_RECORD
  5
1F
330
1
100
AcDbSymbolTableRecord
100
AcDbBlockTableRecord
  2
*Model_Space
340
22
  0
BLOCK_RECORD
  5
1B
330
1
100
AcDbSymbolTableRecord
100
AcDbBlockTableRecord
  2
*Paper_Space
340
1E
  0
BLOCK_RECORD
  5
23
330
1
100
AcDbSymbolTableRecord
100
AcDbBlockTableRecord
  2
*Paper_Space0
340
26
  0
ENDTAB
  0
ENDSEC
  0
SECTION
  2
BLOCKS
  0
BLOCK
  5
20
330
1F
100
AcDbEntity
  8
0
100
AcDbBlockBegin
  2
*Model_Space
 70
     0
 10
0.0
 20
0.0
 30
0.0
  3
*Model_Space
  1

  0
ENDBLK
  5
21
330
1F
100
AcDbEntity
  8
0
100
AcDbBlockEnd
  0
BLOCK
  5
1C
330
1B
100
AcDbEntity
 67
     1
  8
0
100
AcDbBlockBegin
  2
*Paper_Space
 70
     0
 10
0.0
 20
0.0
 30
0.0
  3
*Paper_Space
  1

  0
ENDBLK
  5
1D
330
1B
100
AcDbEntity
 67
     1
  8
0
100
AcDbBlockEnd
  0
BLOCK
  5
24
330
23
100
AcDbEntity
  8
0
100
AcDbBlockBegin
  2
*Paper_Space0
 70
     0
 10
0.0
 20
0.0
 30
0.0
  3
*Paper_Space0
  1

  0
ENDBLK
  5
25
330
23
100
AcDbEntity
  8
0
100
AcDbBlockEnd
  0
ENDSEC
  0
SECTION
  2
ENTITIES
  0
LINE
  5
73
330
1F
100
AcDbEntity
  8
0
  6
Continuous
 62
     7
370
    25
100
AcDbLine
 10
294.2289782862
 20
186.7915664742
 30
0.0
 11
294.2037972011
 21
186.5915664742
 31
0.0
  0
SPLINE
  5
74
330
1F
100
AcDbEntity
  8
0
  6
Continuous
 62
     7
370
    25
100
AcDbSpline
210
0.0
220
0.0
230
1.0
 70
     8
 71
     3
 72
     9
 73
     5
 74
     0
 42
0.000000001
 43
0.00000001
 40
0.0
 40
0.0
 40
0.0
 40
0.0
 40
0.0510427219249629
 40
1.0
 40
1.0
 40
1.0
 40
1.0
 10
294.4052859368982
 20
186.5915664741722
 30
0.0
 10
294.4057143473152
 20
186.594969070432
 30
0.0
 10
294.4141075207356
 20
186.6616308026323
 30
0.0
 10
294.4224402132849
 20
186.7283001303805
 30
0.0
 10
294.4303475825255
 20
186.7915664741715
 30
0.0
  0
LINE
  5
75
330
1F
100
AcDbEntity
  8
0
  6
Continuous
 62
     7
370
    25
100
AcDbLine
 10
300.84850162
 20
198.1998501784
 30
0.0
 11
301.2736505481
 21
198.5540886302
 31
0.0
  0
LINE
  5
76
330
1F
100
AcDbEntity
  8
0
  6
Continuous
 62
     7
370
    25
100
AcDbLine
 10
300.294026326
 20
197.7378556706
 30
0.0
 11
300.4615989572
 21
197.8774789074
 31
0.0
  0
LINE
  5
77
330
1F
100
AcDbEntity
  8
0
  6
Continuous
 62
     7
370
    25
100
AcDbLine
 10
299.618751111
 20
197.1752094285
 30
0.0
 11
299.8664910506
 21
197.3816288897
 31
0.0
  0
LINE
  5
78
330
1F
100
AcDbEntity
  8
0
  6
Continuous
 62
     7
370
    25
100
AcDbLine
 10
297.7508568122
 20
209.396132916
 30
0.0
 11
295.6015301841
 21
209.5389441403
 31
0.0
  0
LINE
  5
79
330
1F
100
AcDbEntity
  8
0
  6
Continuous
 62
     7
370
    25
100
AcDbLine
 10
297.8502666671
 20
209.3852848402
 30
0.0
 11
297.7508568122
 21
209.396132916
 31
0.0
  0
LINE
  5
7A
330
1F
100
AcDbEntity
  8
0
  6
Continuous
 62
     7
370
    25
100
AcDbLine
 10
301.2736505481
 20
198.5540886302
 30
0.0
 11
304.4258893804
 21
201.4151469836
 31
0.0
  0
ARC
  5
7B
330
1F
100
AcDbEntity
  8
0
  6
Continuous
 62
     7
370
    25
100
AcDbCircle
 10
304.2914735318
 20
201.5632428297
 30
0.0
 40
0.2000000000000151
100
AcDbArc
 50
312.227745318
 51
18.0
  0
LINE
  5
7C
330
1F
100
AcDbEntity
  8
0
  6
Continuous
 62
     7
370
    25
100
AcDbLine
 10
297.6692520574
 20
201.8807233804
 30
0.0
 11
298.0518322286
 21
201.9976898769
 31
0.0
  0
LINE
  5
7D
330
1F
100
AcDbEntity
  8
0
  6
Continuous
 62
     7
370
    25
100
AcDbLine
 10
299.8504248956
 20
197.3656391453
 30
0.0
 11
300.3122736485
 21
197.7504562681
 31
0.0
  0
LINE
  5
7E
330
1F
100
AcDbEntity
  8
0
  6
Continuous
 62
     7
370
    25
100
AcDbLine
 10
300.4628987092
 20
197.8759586151
 30
0.0
 11
300.86115574
 21
198.2077904621
 31
0.0
  0
LINE
  5
7F
330
1F
100
AcDbEntity
  8
0
  6
Continuous
 62
     7
370
    25
100
AcDbLine
 10
294.6642098993
 20
186.6715664741
 30
0.0
 11
294.6642098993
 21
186.5915664742
 31
0.0
  0
LINE
  5
80
330
1F
100
AcDbEntity
  8
0
  6
Continuous
 62
     7
370
    25
100
AcDbLine
 10
294.9642098993
 20
186.5915664742
 30
0.0
 11
294.9642098993
 21
186.6715664741
 31
0.0
  0
LINE
  5
81
330
1F
100
AcDbEntity
  8
0
  6
Continuous
 62
     7
370
    25
100
AcDbLine
 10
294.660313905
 20
186.7915664742
 30
0.0
 11
294.6642098993
 21
186.6715664741
 31
0.0
  0
LINE
  5
82
330
1F
100
AcDbEntity
  8
0
  6
Continuous
 62
     7
370
    25
100
AcDbLine
 10
294.9642098993
 20
186.6715664741
 30
0.0
 11
294.9608584499
 21
186.7915664742
 31
0.0
  0
LINE
  5
83
330
1F
100
AcDbEntity
  8
0
  6
Continuous
 62
     7
370
    25
100
AcDbLine
 10
293.5273565554
 20
210.6478033674
 30
0.0
 11
293.5083354251
 21
210.6416230275
 31
0.0
  0
LINE
  5
84
330
1F
100
AcDbEntity
  8
0
  6
Continuous
 62
     7
370
    25
100
AcDbLine
 10
295.3442098993
 20
186.2642099766
 30
0.0
 11
295.3242098993
 21
186.2642099766
 31
0.0
  0
LINE
  5
85
330
1F
100
AcDbEntity
  8
0
  6
Continuous
 62
     7
370
    25
100
AcDbLine
 10
145.3442098993
 20
180.9065664742
 30
0.0
 11
144.0242098993
 21
180.9065664742
 31
0.0
  0
LINE
  5
86
330
1F
100
AcDbEntity
  8
0
  6
Continuous
 62
     7
370
    25
100
AcDbLine
 10
144.0242098993
 20
174.1565664742
 30
0.0
 11
145.3442098993
 21
174.1565664742
 31
0.0
  0
ARC
  5
87
330
1F
100
AcDbEntity
  8
0
  6
Continuous
 62
     7
370
    25
100
AcDbCircle
 10
142.7154593989
 20
175.7565664742
 30
0.0
 40
1.600000000000024
100
AcDbArc
 50
192.635625093
 51
270.0
  0
ARC
  5
88
330
1F
100
AcDbEntity
  8
0
  6
Continuous
 62
     7
370
    25
100
AcDbCircle
 10
142.7154593989
 20
179.3065664742
 30
0.0
 40
1.599999999999997
100
AcDbArc
 50
90.0
 51
167.364374907
  0
LINE
  5
89
330
1F
100
AcDbEntity
  8
0
  6
Continuous
 62
     7
370
    25
100
AcDbLine
 10
142.9442098993
 20
180.9065664742
 30
0.0
 11
142.7154593989
 21
180.9065664742
 31
0.0
  0
LINE
  5
8A
330
1F
100
AcDbEntity
  8
0
  6
Continuous
 62
     7
370
    25
100
AcDbLine
 10
142.7154593989
 20
174.1565664742
 30
0.0
 11
142.9442098993
 21
174.1565664742
 31
0.0
  0
LINE
  5
8B
330
1F
100
AcDbEntity
  8
0
  6
Continuous
 62
     7
370
    25
100
AcDbLine
 10
146.4142098993
 20
180.7015664742
 30
0.0
 11
145.3442098993
 21
180.7015664742
 31
0.0
  0
LINE
  5
8C
330
1F
100
AcDbEntity
  8
0
  6
Continuous
 62
     7
370
    25
100
AcDbLine
 10
145.3442098993
 20
174.3615664742
 30
0.0
 11
146.4142098993
 21
174.3615664742
 31
0.0
  0
LINE
  5
8D
330
1F
100
AcDbEntity
  8
0
  6
Continuous
 62
     7
370
    25
100
AcDbLine
 10
147.0042098993
 20
180.5165664742
 30
0.0
 11
146.4142098993
 21
180.5165664742
 31
0.0
  0
LINE
  5
8E
330
1F
100
AcDbEntity
  8
0
  6
Continuous
 62
     7
370
    25
100
AcDbLine
 10
146.4142098993
 20
174.5465664742
 30
0.0
 11
147.0042098993
 21
174.5465664742
 31
0.0
  0
LINE
  5
8F
330
1F
100
AcDbEntity
  8
0
  6
Continuous
 62
     7
370
    25
100
AcDbLine
 10
295.4748784433
 20
204.7678569074
 30
0.0
 11
295.474688232
 21
204.767795104
 31
0.0
  0
LINE
  5
90
330
1F
100
AcDbEntity
  8
0
  6
Continuous
 62
     7
370
    25
100
AcDbLine
 10
295.2790653061
 20
205.3705077762
 30
0.0
 11
295.2788750948
 21
205.3704459728
 31
0.0
  0
LINE
  5
91
330
1F
100
AcDbEntity
  8
0
  6
Continuous
 62
     7
370
    25
100
AcDbLine
 10
295.6092895401
 20
212.4792881595
 30
0.0
 11
295.6083598286
 21
212.4813763256
 31
0.0
  0
LINE
  5
92
330
1F
100
AcDbEntity
  8
0
  6
Continuous
 62
     7
370
    25
100
AcDbLine
 10
301.5817595901
 20
145.6573830001
 30
0.0
 11
295.6588849885
 21
145.6573830001
 31
0.0
  0
LINE
  5
93
330
1F
100
AcDbEntity
  8
0
  6
Continuous
 62
     7
370
    25
100
AcDbLine
 10
295.6588849885
 20
140.6573830001
 30
0.0
 11
301.5817595901
 21
140.6573830001
 31
0.0
  0
LINE
  5
94
330
1F
100
AcDbEntity
  8
0
  6
Continuous
 62
     7
370
    25
100
AcDbLine
 10
303.4588849885
 20
141.0573830001
 30
0.0
 11
303.4588849885
 21
145.2573830001
 31
0.0
  0
ARC
  5
95
330
1F
100
AcDbEntity
  8
0
  6
Continuous
 62
     7
370
    25
100
AcDbCircle
 10
303.0588849885
 20
141.0573830001
 30
0.0
 40
0.4000000000000341
100
AcDbArc
 50
270.0
 51
0.0
  0
ARC
  5
96
330
1F
100
AcDbEntity
  8
0
  6
Continuous
 62
     7
370
    25
100
AcDbCircle
 10
303.0588849885
 20
145.2573830001
 30
0.0
 40
0.4000000000000341
100
AcDbArc
 50
0.0
 51
90.0
  0
ARC
  5
97
330
1F
100
AcDbEntity
  8
0
  6
Continuous
 62
     7
370
    25
100
AcDbCircle
 10
284.9842098993
 20
44.5915664742
 30
0.0
 40
0.4000000000000341
100
AcDbArc
 50
270.0
 51
0.0
  0
ARC
  5
98
330
1F
100
AcDbEntity
  8
0
  6
Continuous
 62
     7
370
    25
100
AcDbCircle
 10
274.3842098993
 20
44.5915664742
 30
0.0
 40
0.4000000000000341
100
AcDbArc
 50
180.0
 51
270.0
  0
LINE
  5
99
330
1F
100
AcDbEntity
  8
0
  6
Continuous
 62
     7
370
    25
100
AcDbLine
 10
285.3842098993
 20
44.5915664742
 30
0.0
 11
285.3842098993
 21
45.3915664742
 31
0.0
  0
LINE
  5
9A
330
1F
100
AcDbEntity
  8
0
  6
Continuous
 62
     7
370
    25
100
AcDbLine
 10
273.9842098993
 20
45.3915664742
 30
0.0
 11
273.9842098993
 21
44.5915664742
 31
0.0
  0
ARC
  5
9B
330
1F
100
AcDbEntity
  8
0
  6
Continuous
 62
     7
370
    25
100
AcDbCircle
 10
167.9842098993
 20
44.5915664742
 30
0.0
 40
0.4000000000000057
100
AcDbArc
 50
270.0
 51
0.0
  0
ARC
  5
9C
330
1F
100
AcDbEntity
  8
0
  6
Continuous
 62
     7
370
    25
100
AcDbCircle
 10
157.3842098993
 20
44.5915664742
 30
0.0
 40
0.3999999999999986
100
AcDbArc
 50
180.0
 51
270.0
  0
LINE
  5
9D
330
1F
100
AcDbEntity
  8
0
  6
Continuous
 62
     7
370
    25
100
AcDbLine
 10
168.3842098993
 20
44.5915664742
 30
0.0
 11
168.3842098993
 21
45.3915664742
 31
0.0
  0
LINE
  5
9E
330
1F
100
AcDbEntity
  8
0
  6
Continuous
 62
     7
370
    25
100
AcDbLine
 10
156.9842098993
 20
45.3915664742
 30
0.0
 11
156.9842098993
 21
44.5915664742
 31
0.0
  0
LINE
  5
9F
330
1F
100
AcDbEntity
  8
0
  6
Continuous
 62
     7
370
    25
100
AcDbLine
 10
285.3442098993
 20
45.3915664742
 30
0.0
 11
285.3442098993
 21
58.9915664742
 31
0.0
  0
LINE
  5
A0
330
1F
100
AcDbEntity
  8
0
  6
Continuous
 62
     7
370
    25
100
AcDbLine
 10
274.0242098993
 20
58.9915664742
 30
0.0
 11
274.0242098993
 21
45.3915664742
 31
0.0
  0
LINE
  5
A1
330
1F
100
AcDbEntity
  8
0
  6
Continuous
 62
     7
370
    25
100
AcDbLine
 10
168.3442098993
 20
45.3915664742
 30
0.0
 11
168.3442098993
 21
58.9915664742
 31
0.0
  0
LINE
  5
A2
330
1F
100
AcDbEntity
  8
0
  6
Continuous
 62
     7
370
    25
100
AcDbLine
 10
157.0242098993
 20
58.9915664742
 30
0.0
 11
157.0242098993
 21
45.3915664742
 31
0.0
  0
ARC
  5
A3
330
1F
100
AcDbEntity
  8
0
  6
Continuous
 62
     7
370
    25
100
AcDbCircle
 10
286.3642098993
 20
77.4915664742
 30
0.0
 40
0.3000000000000114
100
AcDbArc
 50
90.0
 51
180.0
  0
ARC
  5
A4
330
1F
100
AcDbEntity
  8
0
  6
Continuous
 62
     7
370
    25
100
AcDbCircle
 10
273.0042098993
 20
77.4915664742
 30
0.0
 40
0.3000000000000114
100
AcDbArc
 50
0.0
 51
90.0
  0
ARC
  5
A5
330
1F
100
AcDbEntity
  8
0
  6
Continuous
 62
     7
370
    25
100
AcDbCircle
 10
285.1242098993
 20
60.1980796633
 30
0.0
 40
0.9400000000000002
100
AcDbArc
 50
350.5402980318
 51
0.0
  0
ARC
  5
A6
330
1F
100
AcDbEntity
  8
0
  6
Continuous
 62
     7
370
    25
100
AcDbCircle
 10
274.2442098993
 20
60.1980796633
 30
0.0
 40
0.9400000000000002
100
AcDbArc
 50
180.0
 51
189.4597019682
  0
LINE
  5
A7
330
1F
100
AcDbEntity
  8
0
  6
Continuous
 62
     7
370
    25
100
AcDbLine
 10
286.0642098993
 20
60.1980796633
 30
0.0
 11
286.0642098993
 21
77.4915664742
 31
0.0
  0
LINE
  5
A8
330
1F
100
AcDbEntity
  8
0
  6
Continuous
 62
     7
370
    25
100
AcDbLine
 10
273.3042098993
 20
77.4915664742
 30
0.0
 11
273.3042098993
 21
60.1980796633
 31
0.0
  0
LINE
  5
A9
330
1F
100
AcDbEntity
  8
0
  6
Continuous
 62
     7
370
    25
100
AcDbLine
 10
273.3169925447
 20
60.0435870184
 30
0.0
 11
273.4922798552
 21
58.9915664742
 31
0.0
  0
LINE
  5
AA
330
1F
100
AcDbEntity
  8
0
  6
Continuous
 62
     7
370
    25
100
AcDbLine
 10
285.8761399434
 20
58.9915664742
 30
0.0
 11
286.0514272539
 21
60.0435870184
 31
0.0
  0
ARC
  5
AB
330
1F
100
AcDbEntity
  8
0
  6
Continuous
 62
     7
370
    25
100
AcDbCircle
 10
169.3642098993
 20
77.4915664742
 30
0.0
 40
0.3000000000000256
100
AcDbArc
 50
90.0
 51
180.0
  0
ARC
  5
AC
330
1F
100
AcDbEntity
  8
0
  6
Continuous
 62
     7
370
    25
100
AcDbCircle
 10
156.0042098993
 20
77.4915664742
 30
0.0
 40
0.3000000000000256
100
AcDbArc
 50
0.0
 51
90.0
  0
ARC
  5
AD
330
1F
100
AcDbEntity
  8
0
  6
Continuous
 62
     7
370
    25
100
AcDbCircle
 10
168.1242098993
 20
60.1980796633
 30
0.0
 40
0.9400000000000002
100
AcDbArc
 50
350.5402980318
 51
0.0
  0
ARC
  5
AE
330
1F
100
AcDbEntity
  8
0
  6
Continuous
 62
     7
370
    25
100
AcDbCircle
 10
157.2442098993
 20
60.1980796633
 30
0.0
 40
0.9400000000000002
100
AcDbArc
 50
180.0
 51
189.4597019682
  0
LINE
  5
AF
330
1F
100
AcDbEntity
  8
0
  6
Continuous
 62
     7
370
    25
100
AcDbLine
 10
169.0642098993
 20
60.1980796633
 30
0.0
 11
169.0642098993
 21
77.4915664742
 31
0.0
  0
LINE
  5
B0
330
1F
100
AcDbEntity
  8
0
  6
Continuous
 62
     7
370
    25
100
AcDbLine
 10
156.3042098993
 20
77.4915664742
 30
0.0
 11
156.3042098993
 21
60.1980796633
 31
0.0
  0
LINE
  5
B1
330
1F
100
AcDbEntity
  8
0
  6
Continuous
 62
     7
370
    25
100
AcDbLine
 10
156.3169925447
 20
60.0435870184
 30
0.0
 11
156.4922798552
 21
58.9915664742
 31
0.0
  0
LINE
  5
B2
330
1F
100
AcDbEntity
  8
0
  6
Continuous
 62
     7
370
    25
100
AcDbLine
 10
168.8761399434
 20
58.9915664742
 30
0.0
 11
169.0514272539
 21
60.0435870184
 31
0.0
  0
LINE
  5
B3
330
1F
100
AcDbEntity
  8
0
  6
Continuous
 62
     7
370
    25
100
AcDbLine
 10
152.5942098993
 20
78.2915664742
 30
0.0
 11
152.5942098993
 21
78.1915664742
 31
0.0
  0
SPLINE
  5
B4
330
1F
100
AcDbEntity
  8
0
  6
Continuous
 62
     7
370
    25
100
AcDbSpline
210
0.0
220
0.0
230
1.0
 70
     8
 71
     3
 72
    13
 73
     9
 74
     0
 42
0.000000001
 43
0.00000001
 40
0.0
 40
0.0
 40
0.0
 40
0.0
 40
0.1537005146055886
 40
0.4677837651282798
 40
0.6522647620236899
 40
0.8142558356552331
 40
0.9817880838852964
 40
1.0
 40
1.0
 40
1.0
 40
1.0
 10
145.4437327118324
 20
86.8639771258375
 30
0.0
 10
145.4438054998594
 20
86.86256138231218
 30
0.0
 10
145.4440270284432
 20
86.85825260144426
 30
0.0
 10
145.4395736027058
 20
86.85013507580626
 30
0.0
 10
145.4271461139785
 20
86.84051439194766
 30
0.0
 10
145.4128520872887
 20
86.83499208563975
 30
0.0
 10
145.4011098247316
 20
86.83275797352854
 30
0.0
 10
145.3948809349506
 20
86.8331337433744
 30
0.0
 10
145.3942702023412
 20
86.83317058700248
 30
0.0
  0
LINE
  5
B5
330
1F
100
AcDbEntity
  8
0
  6
Continuous
 62
     7
370
    25
100
AcDbLine
 10
145.3942098993
 20
86.8330428951
 30
0.0
 11
144.3742098993
 21
86.8330428951
 31
0.0
  0
ARC
  5
B6
330
1F
100
AcDbEntity
  8
0
  6
Continuous
 62
     7
370
    25
100
AcDbCircle
 10
144.3742098993
 20
86.7830428951
 30
0.0
 40
0.0500000000000114
100
AcDbArc
 50
90.0
 51
180.0
  0
ARC
  5
B7
330
1F
100
AcDbEntity
  8
0
  6
Continuous
 62
     7
370
    25
100
AcDbCircle
 10
144.3742098993
 20
85.8954786522
 30
0.0
 40
0.0500000000000114
100
AcDbArc
 50
180.0
 51
270.0
  0
LINE
  5
B8
330
1F
100
AcDbEntity
  8
0
  6
Continuous
 62
     7
370
    25
100
AcDbLine
 10
144.3742098993
 20
85.8454786522
 30
0.0
 11
145.3942098993
 21
85.8454786522
 31
0.0
  0
ARC
  5
B9
330
1F
100
AcDbEntity
  8
0
  6
Continuous
 62
     7
370
    25
100
AcDbCircle
 10
145.6342098993
 20
86.0415664742
 30
0.0
 40
0.0500000000000114
100
AcDbArc
 50
301.0756875733
 51
0.0
  0
LINE
  5
BA
330
1F
100
AcDbEntity
  8
0
  6
Continuous
 62
     7
370
    25
100
AcDbLine
 10
145.3942098993
 20
89.6176542962
 30
0.0
 11
144.3742098993
 21
89.6176542962
 31
0.0
  0
ARC
  5
BB
330
1F
100
AcDbEntity
  8
0
  6
Continuous
 62
     7
370
    25
100
AcDbCircle
 10
144.3742098993
 20
89.5676542962
 30
0.0
 40
0.0499999999999972
100
AcDbArc
 50
90.0
 51
180.0
  0
SPLINE
  5
BC
330
1F
100
AcDbEntity
  8
0
  6
Continuous
 62
     7
370
    25
100
AcDbSpline
210
0.0
220
0.0
230
1.0
 70
     8
 71
     3
 72
    13
 73
     9
 74
     0
 42
0.000000001
 43
0.00000001
 40
0.0
 40
0.0
 40
0.0
 40
0.0
 40
0.1560186113411802
 40
0.4086735129023806
 40
0.5953335874228342
 40
0.7561090603058461
 40
0.9249103809625765
 40
1.0
 40
1.0
 40
1.0
 40
1.0
 10
145.4444191101101
 20
88.44277580547683
 30
0.0
 10
145.4443678219463
 20
88.44321945927695
 30
0.0
 10
145.4442334782686
 20
88.4443815613842
 30
0.0
 10
145.4463052467899
 20
88.44899166371556
 30
0.0
 10
145.4554493422141
 20
88.45694296442859
 30
0.0
 10
145.4690042378875
 20
88.4630504845255
 30
0.0
 10
145.4827753100176
 20
88.46636991432395
 30
0.0
 10
145.4915180943428
 20
88.46614065320354
 30
0.0
 10
145.4942098398628
 20
88.46607006784187
 30
0.0
  0
LINE
  5
BD
330
1F
100
AcDbEntity
  8
0
  6
Continuous
 62
     7
370
    25
100
AcDbLine
 10
145.4942098993
 20
88.4664483414
 30
0.0
 11
146.5142098993
 21
88.4664483414
 31
0.0
  0
ARC
  5
BE
330
1F
100
AcDbEntity
  8
0
  6
Continuous
 62
     7
370
    25
100
AcDbCircle
 10
146.5142098993
 20
88.5164483414
 30
0.0
 40
0.0500000000000114
100
AcDbArc
 50
270.0
 51
0.0
  0
ARC
  5
BF
330
1F
100
AcDbEntity
  8
0
  6
Continuous
 62
     7
370
    25
100
AcDbCircle
 10
146.5142098993
 20
89.4816817358
 30
0.0
 40
0.0499999999999972
100
AcDbArc
 50
0.0
 51
90.0
  0
LINE
  5
C0
330
1F
100
AcDbEntity
  8
0
  6
Continuous
 62
     7
370
    25
100
AcDbLine
 10
146.5142098993
 20
89.5316817358
 30
0.0
 11
145.4942098993
 21
89.5316817358
 31
0.0
  0
ARC
  5
C1
330
1F
100
AcDbEntity
  8
0
  6
Continuous
 62
     7
370
    25
100
AcDbCircle
 10
145.2542098993
 20
89.4215664742
 30
0.0
 40
0.0500000000000114
100
AcDbArc
 50
90.0
 51
180.0
  0
LINE
  5
C2
330
1F
100
AcDbEntity
  8
0
  6
Continuous
 62
     7
370
    25
100
AcDbLine
 10
145.3068539818
 20
89.4715664742
 30
0.0
 11
145.2542098993
 21
89.4715664742
 31
0.0
  0
LINE
  5
C3
330
1F
100
AcDbEntity
  8
0
  6
Continuous
 62
     7
370
    25
100
AcDbLine
 10
145.6085141027
 20
85.9314512126
 30
0.0
 11
146.5142098993
 21
85.9314512126
 31
0.0
  0
ARC
  5
C4
330
1F
100
AcDbEntity
  8
0
  6
Continuous
 62
     7
370
    25
100
AcDbCircle
 10
146.5142098993
 20
85.9814512126
 30
0.0
 40
0.0500000000000114
100
AcDbArc
 50
270.0
 51
0.0
  0
LINE
  5
C5
330
1F
100
AcDbEntity
  8
0
  6
Continuous
 62
     7
370
    25
100
AcDbLine
 10
146.7242098993
 20
88.7315664742
 30
0.0
 11
146.7065686759
 21
88.7621219694
 31
0.0
  0
LINE
  5
C6
330
1F
100
AcDbEntity
  8
0
  6
Continuous
 62
     7
370
    25
100
AcDbLine
 10
145.6842098993
 20
86.7315664742
 30
0.0
 11
145.7018511227
 21
86.701010979
 31
0.0
  0
LINE
  5
C7
330
1F
100
AcDbEntity
  8
0
  6
Continuous
 62
     7
370
    25
100
AcDbLine
 10
146.7065686759
 20
86.701010979
 30
0.0
 11
146.7242098993
 21
86.7315664742
 31
0.0
  0
LINE
  5
C8
330
1F
100
AcDbEntity
  8
0
  6
Continuous
 62
     7
370
    25
100
AcDbLine
 10
146.7742098993
 20
86.7315664742
 30
0.0
 11
146.8134812861
 21
86.663546437
 31
0.0
  0
LINE
  5
C9
330
1F
100
AcDbEntity
  8
0
  6
Continuous
 62
     7
370
    25
100
AcDbLine
 10
146.8134812861
 20
88.7995865114
 30
0.0
 11
146.7742098993
 21
88.7315664742
 31
0.0
  0
LINE
  5
CA
330
1F
100
AcDbEntity
  8
0
  6
Continuous
 62
     7
370
    25
100
AcDbLine
 10
146.7742098993
 20
88.3315664742
 30
0.0
 11
146.7242098993
 21
88.3315664742
 31
0.0
  0
LINE
  5
CB
330
1F
100
AcDbEntity
  8
0
  6
Continuous
 62
     7
370
    25
100
AcDbLine
 10
146.7242098993
 20
87.1315664742
 30
0.0
 11
146.7742098993
 21
87.1315664742
 31
0.0
  0
ARC
  5
CC
330
1F
100
AcDbEntity
  8
0
  6
Continuous
 62
     7
370
    25
100
AcDbCircle
 10
295.4342098993
 20
183.8615664741
 30
0.0
 40
0.0500000000000114
100
AcDbArc
 50
180.0
 51
322.6298367359
  0
ARC
  5
CD
330
1F
100
AcDbEntity
  8
0
  6
Continuous
 62
     7
370
    25
100
AcDbCircle
 10
295.4342098993
 20
186.1615664741
 30
0.0
 40
0.0500000000000682
100
AcDbArc
 50
37.3701632641
 51
180.0
  0
ARC
  5
CE
330
1F
100
AcDbEntity
  8
0
  6
Continuous
 62
     7
370
    25
100
AcDbCircle
 10
294.0933189419
 20
184.9725680165
 30
0.0
 40
1.791315522442142
100
AcDbArc
 50
320.4198331668
 51
326.3345247097
  0
ARC
  5
CF
330
1F
100
AcDbEntity
  8
0
  6
Continuous
 62
     7
370
    25
100
AcDbCircle
 10
294.0933189419
 20
185.0505649316
 30
0.0
 40
1.791315522442158
100
AcDbArc
 50
33.6654752903
 51
39.5801668332
  0
LINE
  5
D0
330
1F
100
AcDbEntity
  8
0
  6
Continuous
 62
     7
370
    25
100
AcDbLine
 10
295.3042098993
 20
184.5115664741
 30
0.0
 11
295.3842098993
 21
184.5115664741
 31
0.0
  0
LINE
  5
D1
330
1F
100
AcDbEntity
  8
0
  6
Continuous
 62
     7
370
    25
100
AcDbLine
 10
295.3842098993
 20
185.5115664741
 30
0.0
 11
295.3042098993
 21
185.5115664741
 31
0.0
  0
ARC
  5
D2
330
1F
100
AcDbEntity
  8
0
  6
Continuous
 62
     7
370
    25
100
AcDbCircle
 10
295.4342098993
 20
165.9915664742
 30
0.0
 40
0.0500000000000114
100
AcDbArc
 50
180.0
 51
322.6298367359
  0
ARC
  5
D3
330
1F
100
AcDbEntity
  8
0
  6
Continuous
 62
     7
370
    25
100
AcDbCircle
 10
295.4342098993
 20
168.2915664742
 30
0.0
 40
0.0500000000000225
100
AcDbArc
 50
37.370163264
 51
180.0
  0
ARC
  5
D4
330
1F
100
AcDbEntity
  8
0
  6
Continuous
 62
     7
370
    25
100
AcDbCircle
 10
294.0933189419
 20
167.1025680166
 30
0.0
 40
1.791315522442142
100
AcDbArc
 50
320.4198331668
 51
326.3345247097
  0
ARC
  5
D5
330
1F
100
AcDbEntity
  8
0
  6
Continuous
 62
     7
370
    25
100
AcDbCircle
 10
294.0933189419
 20
167.1805649317
 30
0.0
 40
1.79131552244214
100
AcDbArc
 50
33.6654752903
 51
39.5801668332
  0
ARC
  5
D6
330
1F
100
AcDbEntity
  8
0
  6
Continuous
 62
     7
370
    25
100
AcDbCircle
 10
295.4342098993
 20
160.9915664742
 30
0.0
 40
0.0500000000000225
100
AcDbArc
 50
180.0
 51
322.629836736
  0
ARC
  5
D7
330
1F
100
AcDbEntity
  8
0
  6
Continuous
 62
     7
370
    25
100
AcDbCircle
 10
295.4342098993
 20
163.2915664742
 30
0.0
 40
0.0500000000000225
100
AcDbArc
 50
37.370163264
 51
180.0
  0
ARC
  5
D8
330
1F
100
AcDbEntity
  8
0
  6
Continuous
 62
     7
370
    25
100
AcDbCircle
 10
294.0933189419
 20
162.1025680166
 30
0.0
 40
1.791315522442127
100
AcDbArc
 50
320.4198331668
 51
326.3345247097
  0
ARC
  5
D9
330
1F
100
AcDbEntity
  8
0
  6
Continuous
 62
     7
370
    25
100
AcDbCircle
 10
294.0933189419
 20
162.1805649317
 30
0.0
 40
1.791315522442127
100
AcDbArc
 50
33.6654752903
 51
39.5801668332
  0
ARC
  5
DA
330
1F
100
AcDbEntity
  8
0
  6
Continuous
 62
     7
370
    25
100
AcDbCircle
 10
295.4342098993
 20
80.9815664741
 30
0.0
 40
0.0500000000000139
100
AcDbArc
 50
180.0
 51
322.629836736
  0
ARC
  5
DB
330
1F
100
AcDbEntity
  8
0
  6
Continuous
 62
     7
370
    25
100
AcDbCircle
 10
295.4342098993
 20
83.2815664741
 30
0.0
 40
0.0499999999999774
100
AcDbArc
 50
37.3701632641
 51
180.0
  0
ARC
  5
DC
330
1F
100
AcDbEntity
  8
0
  6
Continuous
 62
     7
370
    25
100
AcDbCircle
 10
294.0933189419
 20
82.0925680166
 30
0.0
 40
1.791315522442135
100
AcDbArc
 50
320.4198331668
 51
326.3345247097
  0
ARC
  5
DD
330
1F
100
AcDbEntity
  8
0
  6
Continuous
 62
     7
370
    25
100
AcDbCircle
 10
294.0933189419
 20
82.1705649317
 30
0.0
 40
1.791315522442119
100
AcDbArc
 50
33.6654752903
 51
39.5801668332
  0
ARC
  5
DE
330
1F
100
AcDbEntity
  8
0
  6
Continuous
 62
     7
370
    25
100
AcDbCircle
 10
295.4342098993
 20
85.9815664741
 30
0.0
 40
0.0500000000000139
100
AcDbArc
 50
180.0
 51
322.629836736
  0
ARC
  5
DF
330
1F
100
AcDbEntity
  8
0
  6
Continuous
 62
     7
370
    25
100
AcDbCircle
 10
295.4342098993
 20
88.2815664741
 30
0.0
 40
0.0500000000000139
100
AcDbArc
 50
37.370163264
 51
180.0
  0
ARC
  5
E0
330
1F
100
AcDbEntity
  8
0
  6
Continuous
 62
     7
370
    25
100
AcDbCircle
 10
294.0933189419
 20
87.0925680166
 30
0.0
 40
1.791315522442127
100
AcDbArc
 50
320.4198331668
 51
326.3345247097
  0
ARC
  5
E1
330
1F
100
AcDbEntity
  8
0
  6
Continuous
 62
     7
370
    25
100
AcDbCircle
 10
294.0933189419
 20
87.1705649317
 30
0.0
 40
1.791315522442119
100
AcDbArc
 50
33.6654752903
 51
39.5801668332
  0
ARC
  5
E2
330
1F
100
AcDbEntity
  8
0
  6
Continuous
 62
     7
370
    25
100
AcDbCircle
 10
158.7942098993
 20
222.4215664742
 30
0.0
 40
0.05
100
AcDbArc
 50
37.370163264
 51
180.0
  0
ARC
  5
E3
330
1F
100
AcDbEntity
  8
0
  6
Continuous
 62
     7
370
    25
100
AcDbCircle
 10
157.4533189419
 20
221.3105649317
 30
0.0
 40
1.791315522442158
100
AcDbArc
 50
33.6654752903
 51
39.5801668332
  0
ARC
  5
E4
330
1F
100
AcDbEntity
  8
0
  6
Continuous
 62
     7
370
    25
100
AcDbCircle
 10
295.4342098993
 20
174.7615664742
 30
0.0
 40
0.0500000000000398
100
AcDbArc
 50
180.0
 51
322.6298367359
  0
ARC
  5
E5
330
1F
100
AcDbEntity
  8
0
  6
Continuous
 62
     7
370
    25
100
AcDbCircle
 10
295.4342098993
 20
177.0615664742
 30
0.0
 40
0.0500000000000225
100
AcDbArc
 50
37.370163264
 51
180.0
  0
ARC
  5
E6
330
1F
100
AcDbEntity
  8
0
  6
Continuous
 62
     7
370
    25
100
AcDbCircle
 10
294.0933189419
 20
175.8725680166
 30
0.0
 40
1.791315522442127
100
AcDbArc
 50
320.4198331668
 51
326.3345247097
  0
ARC
  5
E7
330
1F
100
AcDbEntity
  8
0
  6
Continuous
 62
     7
370
    25
100
AcDbCircle
 10
294.0933189419
 20
175.9505649317
 30
0.0
 40
1.791315522442158
100
AcDbArc
 50
33.6654752903
 51
39.5801668332
  0
LINE
  5
E8
330
1F
100
AcDbEntity
  8
0
  6
Continuous
 62
     7
370
    25
100
AcDbLine
 10
295.3042098993
 20
175.4115664742
 30
0.0
 11
295.3842098993
 21
175.4115664742
 31
0.0
  0
LINE
  5
E9
330
1F
100
AcDbEntity
  8
0
  6
Continuous
 62
     7
370
    25
100
AcDbLine
 10
295.3842098993
 20
176.4115664742
 30
0.0
 11
295.3042098993
 21
176.4115664742
 31
0.0
  0
LINE
  5
EA
330
1F
100
AcDbEntity
  8
0
  6
Continuous
 62
     7
370
    25
100
AcDbLine
 10
296.8372664582
 20
204.4413117623
 30
0.0
 11
296.4853755472
 21
204.3269754744
 31
0.0
  0
LINE
  5
EB
330
1F
100
AcDbEntity
  8
0
  6
Continuous
 62
     7
370
    25
100
AcDbLine
 10
297.2702787129
 20
201.911291923
 30
0.0
 11
297.6221696239
 21
202.0256282109
 31
0.0
  0
LINE
  5
EC
330
1F
100
AcDbEntity
  8
0
  6
Continuous
 62
     7
370
    25
100
AcDbLine
 10
296.6941540798
 20
201.4191736372
 30
0.0
 11
297.2888197325
 21
201.854228532
 31
0.0
  0
LINE
  5
ED
330
1F
100
AcDbEntity
  8
0
  6
Continuous
 62
     7
370
    25
100
AcDbLine
 10
296.4668345275
 20
204.3840388654
 30
0.0
 11
295.7300210574
 21
204.3864699681
 31
0.0
  0
LINE
  5
EE
330
1F
100
AcDbEntity
  8
0
  6
Continuous
 62
     7
370
    25
100
AcDbLine
 10
296.5008526066
 20
201.3668808035
 30
0.0
 11
296.6910639099
 21
201.4286842024
 31
0.0
  0
LINE
  5
EF
330
1F
100
AcDbEntity
  8
0
  6
Continuous
 62
     7
370
    25
100
AcDbLine
 10
295.7331112273
 20
204.3769594029
 30
0.0
 11
295.5428999241
 21
204.315156004
 31
0.0
  0
LINE
  5
F0
330
1F
100
AcDbEntity
  8
0
  6
Continuous
 62
     7
370
    25
100
AcDbLine
 10
154.8731287439
 20
230.283544774
 30
0.0
 11
148.2766792319
 21
232.0510580937
 31
0.0
  0
ARC
  5
F1
330
1F
100
AcDbEntity
  8
0
  6
Continuous
 62
     7
370
    25
100
AcDbCircle
 10
153.5842098993
 20
225.4732341591
 30
0.0
 40
4.97999999999999
100
AcDbArc
 50
0.0
 51
75.0
  0
LINE
  5
F2
330
1F
100
AcDbEntity
  8
0
  6
Continuous
 62
     7
370
    25
100
AcDbLine
 10
158.5642098993
 20
222.2715664742
 30
0.0
 11
158.5642098993
 21
225.4732341591
 31
0.0
  0
LINE
  5
F3
330
1F
100
AcDbEntity
  8
0
  6
Continuous
 62
     7
370
    25
100
AcDbLine
 10
148.2042098993
 20
222.2715664742
 30
0.0
 11
158.5642098993
 21
222.2715664742
 31
0.0
  0
LINE
  5
F4
330
1F
100
AcDbEntity
  8
0
  6
Continuous
 62
     7
370
    25
100
AcDbLine
 10
148.2042098993
 20
232.0605988623
 30
0.0
 11
148.2042098993
 21
222.2715664742
 31
0.0
  0
ARC
  5
F5
330
1F
100
AcDbEntity
  8
0
  6
Continuous
 62
     7
370
    25
100
AcDbCircle
 10
148.2042098993
 20
231.7805988623
 30
0.0
 40
0.280000000000008
100
AcDbArc
 50
75.0
 51
90.0
  0
LINE
  5
F6
330
1F
100
AcDbEntity
  8
0
  6
Continuous
 62
     7
370
    25
100
AcDbLine
 10
147.7442098993
 20
222.2715664742
 30
0.0
 11
147.7442098993
 21
231.7805988623
 31
0.0
  0
LINE
  5
F7
330
1F
100
AcDbEntity
  8
0
  6
Continuous
 62
     7
370
    25
100
AcDbLine
 10
148.2042098993
 20
222.2715664742
 30
0.0
 11
147.7442098993
 21
222.2715664742
 31
0.0
  0
SPLINE
  5
F8
330
1F
100
AcDbEntity
  8
0
  6
Continuous
 62
     7
370
    25
100
AcDbSpline
210
0.0
220
0.0
230
1.0
 70
     8
 71
     3
 72
    16
 73
    12
 74
     0
 42
0.000000001
 43
0.00000001
 40
0.0
 40
0.0
 40
0.0
 40
0.0
 40
0.1045396062630179
 40
0.2116278742840663
 40
0.3251882731996751
 40
0.4420410254571378
 40
0.5556101102403899
 40
0.6724723355468363
 40
0.7860412510146665
 40
0.9029032995394606
 40
1.0
 40
1.0
 40
1.0
 40
1.0
 10
147.7442098992885
 20
231.7805988623204
 30
0.0
 10
147.7454082171699
 20
231.7903546804258
 30
0.0
 10
147.7478340677639
 20
231.8101041621903
 30
0.0
 10
147.7678799538376
 20
231.8404503575283
 30
0.0
 10
147.8010648171459
 20
231.8719539701968
 30
0.0
 10
147.8482857486985
 20
231.9040616020771
 30
0.0
 10
147.9075397475384
 20
231.9364763479501
 30
0.0
 10
147.9759329933079
 20
231.9685865603226
 30
0.0
 10
148.0524276489542
 20
232.0010007391371
 30
0.0
 10
148.12931836825
 20
232.0315771410947
 30
0.0
 10
148.1808323292468
 20
232.0515396628184
 30
0.0
 10
148.2042098992886
 20
232.0605988623204
 30
0.0
  0
ARC
  5
F9
330
1F
100
AcDbEntity
  8
0
  6
Continuous
 62
     7
370
    25
100
AcDbCircle
 10
153.5842098993
 20
225.4732341591
 30
0.0
 40
5.159999999999997
100
AcDbArc
 50
0.0
 51
75.0
  0
LINE
  5
FA
330
1F
100
AcDbEntity
  8
0
  6
Continuous
 62
     7
370
    25
100
AcDbLine
 10
158.7442098993
 20
225.4732341591
 30
0.0
 11
158.5842098993
 21
225.4732341591
 31
0.0
  0
ARC
  5
FB
330
1F
100
AcDbEntity
  8
0
  6
Continuous
 62
     7
370
    25
100
AcDbCircle
 10
153.5842098993
 20
225.4732341591
 30
0.0
 40
5.0
100
AcDbArc
 50
0.0
 51
75.0
  0
LINE
  5
FC
330
1F
100
AcDbEntity
  8
0
  6
Continuous
 62
     7
370
    25
100
AcDbLine
 10
154.8783051248
 20
230.3028632906
 30
0.0
 11
154.919716172
 21
230.4574114228
 31
0.0
  0
LINE
  5
FD
330
1F
100
AcDbEntity
  8
0
  6
Continuous
 62
     7
370
    25
100
AcDbLine
 10
158.7442098993
 20
225.4732341591
 30
0.0
 11
158.7442098993
 21
222.249869099
 31
0.0
  0
LINE
  5
FE
330
1F
100
AcDbEntity
  8
0
  6
Continuous
 62
     7
370
    25
100
AcDbLine
 10
158.5842098993
 20
225.4732341591
 30
0.0
 11
158.5842098993
 21
222.249869099
 31
0.0
  0
LINE
  5
FF
330
1F
100
AcDbEntity
  8
0
  6
Continuous
 62
     7
370
    25
100
AcDbLine
 10
158.5842098993
 20
222.249869099
 30
0.0
 11
158.7442098993
 21
222.249869099
 31
0.0
  0
LINE
  5
100
330
1F
100
AcDbEntity
  8
0
  6
Continuous
 62
     7
370
    25
100
AcDbLine
 10
148.32326666
 20
232.2249247424
 30
0.0
 11
154.919716172
 21
230.4574114228
 31
0.0
  0
LINE
  5
101
330
1F
100
AcDbEntity
  8
0
  6
Continuous
 62
     7
370
    25
100
AcDbLine
 10
148.2818556128
 20
232.0703766102
 30
0.0
 11
154.8783051248
 21
230.3028632906
 31
0.0
  0
LINE
  5
102
330
1F
100
AcDbEntity
  8
0
  6
Continuous
 62
     7
370
    25
100
AcDbLine
 10
148.32326666
 20
232.2249247424
 30
0.0
 11
148.2818556128
 21
232.0703766102
 31
0.0
  0
ARC
  5
103
330
1F
100
AcDbEntity
  8
0
  6
Continuous
 62
     7
370
    25
100
AcDbCircle
 10
148.2042098993
 20
231.7805988623
 30
0.0
 40
0.4600000000000364
100
AcDbArc
 50
75.0
 51
180.0
  0
ARC
  5
104
330
1F
100
AcDbEntity
  8
0
  6
Continuous
 62
     7
370
    25
100
AcDbCircle
 10
148.2042098993
 20
231.7805988623
 30
0.0
 40
0.3000000000000106
100
AcDbArc
 50
75.0
 51
140.6037089774
  0
LINE
  5
105
330
1F
100
AcDbEntity
  8
0
  6
Continuous
 62
     7
370
    25
100
AcDbLine
 10
147.7442098993
 20
222.2715664742
 30
0.0
 11
147.7442098993
 21
222.0176134938
 31
0.0
  0
LINE
  5
106
330
1F
100
AcDbEntity
  8
0
  6
Continuous
 62
     7
370
    25
100
AcDbLine
 10
147.9042098993
 20
222.2715664742
 30
0.0
 11
147.9042098993
 21
222.0176134938
 31
0.0
  0
LINE
  5
107
330
1F
100
AcDbEntity
  8
0
  6
Continuous
 62
     7
370
    25
100
AcDbLine
 10
298.0475268277
 20
208.4830764933
 30
0.0
 11
297.7508568122
 21
209.396132916
 31
0.0
  0
SPLINE
  5
108
330
1F
100
AcDbEntity
  8
0
  6
Continuous
 62
     7
370
    25
100
AcDbSpline
210
0.0
220
0.0
230
1.0
 70
     8
 71
     3
 72
     9
 73
     5
 74
     0
 42
0.000000001
 43
0.00000001
 40
0.0
 40
0.0
 40
0.0
 40
0.0
 40
0.5209744652335364
 40
1.0
 40
1.0
 40
1.0
 40
1.0
 10
297.9962331611829
 20
208.2340976658609
 30
0.0
 10
297.9865112192962
 20
208.2822002703833
 30
0.0
 10
297.9678501475252
 20
208.3745322515694
 30
0.0
 10
298.0217212121761
 20
208.4479212764183
 30
0.0
 10
298.047526827729
 20
208.4830764932925
 30
0.0
  0
LINE
  5
109
330
1F
100
AcDbEntity
  8
0
  6
Continuous
 62
     7
370
    25
100
AcDbLine
 10
300.7891370017
 20
199.6384234949
 30
0.0
 11
297.9962331612
 21
208.2340976659
 31
0.0
  0
SPLINE
  5
10A
330
1F
100
AcDbEntity
  8
0
  6
Continuous
 62
     7
370
    25
100
AcDbSpline
210
0.0
220
0.0
230
1.0
 70
     8
 71
     3
 72
     9
 73
     5
 74
     0
 42
0.000000001
 43
0.00000001
 40
0.0
 40
0.0
 40
0.0
 40
0.0
 40
0.4790255347664638
 40
1.0
 40
1.0
 40
1.0
 40
1.0
 10
300.9769805325809
 20
199.4671450529529
 30
0.0
 10
300.9354396330285
 20
199.4804180605968
 30
0.0
 10
300.8487200397345
 20
199.508126411573
 30
0.0
 10
300.8095457870745
 20
199.5937932562559
 30
0.0
 10
300.789137001744
 20
199.6384234948529
 30
0.0
  0
LINE
  5
10B
330
1F
100
AcDbEntity
  8
0
  6
Continuous
 62
     7
370
    25
100
AcDbLine
 10
301.2736505481
 20
198.5540886302
 30
0.0
 11
300.9769805326
 21
199.467145053
 31
0.0
  0
SPLINE
  5
10C
330
1F
100
AcDbEntity
  8
0
  6
Continuous
 62
     7
370
    25
100
AcDbSpline
210
0.0
220
0.0
230
1.0
 70
     8
 71
     3
 72
    11
 73
     7
 74
     0
 42
0.000000001
 43
0.00000001
 40
0.0
 40
0.0
 40
0.0
 40
0.0
 40
0.3317904084755023
 40
0.6632024950170669
 40
0.9943878970438267
 40
1.0
 40
1.0
 40
1.0
 40
1.0
 10
298.0035072780712
 20
205.3349203050481
 30
0.0
 10
297.9997689099686
 20
205.3495904708126
 30
0.0
 10
297.992296436414
 20
205.3789140747769
 30
0.0
 10
297.9967525009901
 20
205.4220549225538
 30
0.0
 10
298.0060167027746
 20
205.4501740160632
 30
0.0
 10
298.0156617415598
 20
205.4605938813863
 30
0.0
 10
298.0158224581621
 20
205.4607675090294
 30
0.0
  0
SPLINE
  5
10D
330
1F
100
AcDbEntity
  8
0
  6
Continuous
 62
     7
370
    25
100
AcDbSpline
210
0.0
220
0.0
230
1.0
 70
     8
 71
     3
 72
    12
 73
     8
 74
     0
 42
0.000000001
 43
0.00000001
 40
0.0
 40
0.0
 40
0.0
 40
0.0
 40
0.1252184458021093
 40
0.2503750359562194
 40
0.5001604898441347
 40
0.7499713793520985
 40
1.0
 40
1.0
 40
1.0
 40
1.0
 10
298.108990360312
 20
205.2200177784045
 30
0.0
 10
298.1028090477881
 20
205.2227674166724
 30
0.0
 10
298.0904494761968
 20
205.2282653349367
 30
0.0
 10
298.0672137396987
 20
205.2424583621891
 30
0.0
 10
298.0410283701524
 20
205.2646488016131
 30
0.0
 10
298.0172488749928
 20
205.2979996114987
 30
0.0
 10
298.0080891403782
 20
205.3226098337769
 30
0.0
 10
298.0035072780712
 20
205.3349203050481
 30
0.0
  0
SPLINE
  5
10E
330
1F
100
AcDbEntity
  8
0
  6
Continuous
 62
     7
370
    25
100
AcDbSpline
210
0.0
220
0.0
230
1.0
 70
     8
 71
     3
 72
     9
 73
     5
 74
     0
 42
0.000000001
 43
0.00000001
 40
0.0
 40
0.0
 40
0.0
 40
0.0
 40
0.5015873634574092
 40
1.0
 40
1.0
 40
1.0
 40
1.0
 10
298.3152982455301
 20
205.2156290170568
 30
0.0
 10
298.281411963792
 20
205.2094207139185
 30
0.0
 10
298.2138538787867
 20
205.1970434022262
 30
0.0
 10
298.1438708074235
 20
205.2123758784868
 30
0.0
 10
298.1089903603121
 20
205.2200177784045
 30
0.0
  0
SPLINE
  5
10F
330
1F
100
AcDbEntity
  8
0
  6
Continuous
 62
     7
370
    25
100
AcDbSpline
210
0.0
220
0.0
230
1.0
 70
     8
 71
     3
 72
    10
 73
     6
 74
     0
 42
0.000000001
 43
0.00000001
 40
0.0
 40
0.0
 40
0.0
 40
0.0
 40
0.2065375096034035
 40
0.6024056751183219
 40
1.0
 40
1.0
 40
1.0
 40
1.0
 10
298.5030783039938
 20
205.3112951115129
 30
0.0
 10
298.493999847008
 20
205.2998180427246
 30
0.0
 10
298.4675208116984
 20
205.2663430028395
 30
0.0
 10
298.400530663588
 20
205.2342575654069
 30
0.0
 10
298.3437502263937
 20
205.2218475324205
 30
0.0
 10
298.3152982455301
 20
205.2156290170568
 30
0.0
  0
SPLINE
  5
110
330
1F
100
AcDbEntity
  8
0
  6
Continuous
 62
     7
370
    25
100
AcDbSpline
210
0.0
220
0.0
230
1.0
 70
     8
 71
     3
 72
    11
 73
     7
 74
     0
 42
0.000000001
 43
0.00000001
 40
0.0
 40
0.0
 40
0.0
 40
0.0
 40
0.2502103285382477
 40
0.5001167610101475
 40
0.7415004812671734
 40
0.9999999999999999
 40
0.9999999999999999
 40
0.9999999999999999
 40
0.9999999999999999
 10
298.1251276125287
 20
204.9736583119115
 30
0.0
 10
298.1213574472985
 20
204.9884444291758
 30
0.0
 10
298.113821695939
 20
205.0179987050417
 30
0.0
 10
298.1170432420922
 20
205.0620673591662
 30
0.0
 10
298.1332092923541
 20
205.1025504020691
 30
0.0
 10
298.1531905210793
 20
205.1227266570589
 30
0.0
 10
298.163523210008
 20
205.1331601979298
 30
0.0
  0
SPLINE
  5
111
330
1F
100
AcDbEntity
  8
0
  6
Continuous
 62
     7
370
    25
100
AcDbSpline
210
0.0
220
0.0
230
1.0
 70
     8
 71
     3
 72
    12
 73
     8
 74
     0
 42
0.000000001
 43
0.00000001
 40
0.0
 40
0.0
 40
0.0
 40
0.0
 40
0.1252258433356692
 40
0.2503820516371588
 40
0.500186971075603
 40
0.7499829350851726
 40
0.9999999999999999
 40
0.9999999999999999
 40
0.9999999999999999
 40
0.9999999999999999
 10
298.2300018329116
 20
204.8592395524741
 30
0.0
 10
298.223895875513
 20
204.861914279795
 30
0.0
 10
298.2116873560898
 20
204.8672622470862
 30
0.0
 10
298.1885542710521
 20
204.8809684942277
 30
0.0
 10
298.1627949331049
 20
204.9032232341136
 30
0.0
 10
298.1388874755384
 20
204.9364081594308
 30
0.0
 10
298.1297155859798
 20
204.9612379331252
 30
0.0
 10
298.1251276125287
 20
204.9736583119115
 30
0.0
  0
SPLINE
  5
112
330
1F
100
AcDbEntity
  8
0
  6
Continuous
 62
     7
370
    25
100
AcDbSpline
210
0.0
220
0.0
230
1.0
 70
     8
 71
     3
 72
     9
 73
     5
 74
     0
 42
0.000000001
 43
0.00000001
 40
0.0
 40
0.0
 40
0.0
 40
0.0
 40
0.5016062504514952
 40
1.0
 40
1.0
 40
1.0
 40
1.0
 10
298.4334429508689
 20
204.8588446103126
 30
0.0
 10
298.400077934265
 20
204.8518699633144
 30
0.0
 10
298.3335615848894
 20
204.8379653379396
 30
0.0
 10
298.2644477408087
 20
204.8521633513396
 30
0.0
 10
298.2300018329116
 20
204.8592395524741
 30
0.0
  0
SPLINE
  5
113
330
1F
100
AcDbEntity
  8
0
  6
Continuous
 62
     7
370
    25
100
AcDbSpline
210
0.0
220
0.0
230
1.0
 70
     8
 71
     3
 72
     9
 73
     5
 74
     0
 42
0.000000001
 43
0.00000001
 40
0.0
 40
0.0
 40
0.0
 40
0.0
 40
0.4989046076334726
 40
1.0
 40
1.0
 40
1.0
 40
1.0
 10
298.5894786553883
 20
204.9258241953706
 30
0.0
 10
298.5659331855932
 20
204.9098938569662
 30
0.0
 10
298.5187388533806
 20
204.8779632270208
 30
0.0
 10
298.4619164136174
 20
204.8652267834841
 30
0.0
 10
298.4334429508689
 20
204.8588446103126
 30
0.0
  0
LINE
  5
114
330
1F
100
AcDbEntity
  8
0
  6
Continuous
 62
     7
370
    25
100
AcDbLine
 10
298.2787543818
 20
204.5326968549
 30
0.0
 11
298.2344935142
 21
204.6735903586
 31
0.0
  0
LINE
  5
115
330
1F
100
AcDbEntity
  8
0
  6
Continuous
 62
     7
370
    25
100
AcDbLine
 10
298.3805493157
 20
204.498687911
 30
0.0
 11
298.2787543818
 21
204.5326968549
 31
0.0
  0
LINE
  5
116
330
1F
100
AcDbEntity
  8
0
  6
Continuous
 62
     7
370
    25
100
AcDbLine
 10
298.7395683775
 20
204.6961038426
 30
0.0
 11
298.3489591086
 21
204.6008844706
 31
0.0
  0
SPLINE
  5
117
330
1F
100
AcDbEntity
  8
0
  6
Continuous
 62
     7
370
    25
100
AcDbSpline
210
0.0
220
0.0
230
1.0
 70
     8
 71
     3
 72
    13
 73
     9
 74
     0
 42
0.000000001
 43
0.00000001
 40
0.0
 40
0.0
 40
0.0
 40
0.0
 40
0.1250946590097862
 40
0.250018308142113
 40
0.3732637540954861
 40
0.4999580819930403
 40
0.7494782435957552
 40
1.0
 40
1.0
 40
1.0
 40
1.0
 10
299.5252086174065
 20
200.6422537288657
 30
0.0
 10
299.5217627768701
 20
200.6556131931663
 30
0.0
 10
299.5148758064123
 20
200.6823138587949
 30
0.0
 10
299.5175768211708
 20
200.7272828887292
 30
0.0
 10
299.5326152446692
 20
200.7721345699668
 30
0.0
 10
299.5669435150816
 20
200.8261558603357
 30
0.0
 10
299.6257448267916
 20
200.8799490725042
 30
0.0
 10
299.6774271832562
 20
200.9110603969799
 30
0.0
 10
299.7033201219286
 20
200.9266472175464
 30
0.0
  0
SPLINE
  5
118
330
1F
100
AcDbEntity
  8
0
  6
Continuous
 62
     7
370
    25
100
AcDbSpline
210
0.0
220
0.0
230
1.0
 70
     8
 71
     3
 72
     9
 73
     5
 74
     0
 42
0.000000001
 43
0.00000001
 40
0.0
 40
0.0
 40
0.0
 40
0.0
 40
0.4996573194712207
 40
0.9999999999999999
 40
0.9999999999999999
 40
0.9999999999999999
 40
0.9999999999999999
 10
299.5606261717556
 20
200.586548893467
 30
0.0
 10
299.5529332091036
 20
200.594244539033
 30
0.0
 10
299.5375367316536
 20
200.6096463859913
 30
0.0
 10
299.5293198659954
 20
200.63137964953
 30
0.0
 10
299.5252086174065
 20
200.6422537288657
 30
0.0
  0
SPLINE
  5
119
330
1F
100
AcDbEntity
  8
0
  6
Continuous
 62
     7
370
    25
100
AcDbSpline
210
0.0
220
0.0
230
1.0
 70
     8
 71
     3
 72
    11
 73
     7
 74
     0
 42
0.000000001
 43
0.00000001
 40
0.0
 40
0.0
 40
0.0
 40
0.0
 40
0.3365906328099026
 40
0.6718966953820618
 40
0.8487117983875296
 40
1.0
 40
1.0
 40
1.0
 40
1.0
 10
299.7033201219286
 20
200.9266472175464
 30
0.0
 10
299.7295538314223
 20
200.9409969670932
 30
0.0
 10
299.7819211316328
 20
200.9696417015577
 30
0.0
 10
299.8519295637137
 20
200.988994226596
 30
0.0
 10
299.9057525543192
 20
200.9877878438561
 30
0.0
 10
299.9278699279947
 20
200.9762934091587
 30
0.0
 10
299.9380682333475
 20
200.9709933334525
 30
0.0
  0
LINE
  5
11A
330
1F
100
AcDbEntity
  8
0
  6
Continuous
 62
     7
370
    25
100
AcDbLine
 10
299.6621995272
 20
200.2752672223
 30
0.0
 11
299.5992713894
 21
200.4673936722
 31
0.0
  0
SPLINE
  5
11B
330
1F
100
AcDbEntity
  8
0
  6
Continuous
 62
     7
370
    25
100
AcDbSpline
210
0.0
220
0.0
230
1.0
 70
     8
 71
     3
 72
    10
 73
     6
 74
     0
 42
0.000000001
 43
0.00000001
 40
0.0
 40
0.0
 40
0.0
 40
0.0
 40
0.2500228055565349
 40
0.5002898346981767
 40
1.0
 40
1.0
 40
1.0
 40
1.0
 10
299.868317724282
 20
200.4738945063729
 30
0.0
 10
299.8702709379247
 20
200.4693770984594
 30
0.0
 10
299.8741792731194
 20
200.4603378700046
 30
0.0
 10
299.8881048697667
 20
200.4475740465482
 30
0.0
 10
299.9018256851786
 20
200.4434519705301
 30
0.0
 10
299.9109678710855
 20
200.4407054292971
 30
0.0
  0
SPLINE
  5
11C
330
1F
100
AcDbEntity
  8
0
  6
Continuous
 62
     7
370
    25
100
AcDbSpline
210
0.0
220
0.0
230
1.0
 70
     8
 71
     3
 72
    11
 73
     7
 74
     0
 42
0.000000001
 43
0.00000001
 40
0.0
 40
0.0
 40
0.0
 40
0.0
 40
0.2503854304788557
 40
0.5003835892901539
 40
0.7501929379334579
 40
1.0
 40
1.0
 40
1.0
 40
1.0
 10
299.9853204857429
 20
200.468684134945
 30
0.0
 10
299.9900762811263
 20
200.4751366269355
 30
0.0
 10
299.9995805160946
 20
200.4880316308338
 30
0.0
 10
300.0082789474064
 20
200.5099599840574
 30
0.0
 10
300.0118003275818
 20
200.5322088649494
 30
0.0
 10
300.0088250951842
 20
200.545276458552
 30
0.0
 10
300.0073374857937
 20
200.5518102254503
 30
0.0
  0
LINE
  5
11D
330
1F
100
AcDbEntity
  8
0
  6
Continuous
 62
     7
370
    25
100
AcDbLine
 10
300.0107029231
 20
200.3877542788
 30
0.0
 11
299.9853204857
 21
200.4686841349
 31
0.0
  0
SPLINE
  5
11E
330
1F
100
AcDbEntity
  8
0
  6
Continuous
 62
     7
370
    25
100
AcDbSpline
210
0.0
220
0.0
230
1.0
 70
     8
 71
     3
 72
    10
 73
     6
 74
     0
 42
0.000000001
 43
0.00000001
 40
0.0
 40
0.0
 40
0.0
 40
0.0
 40
0.3620682692866877
 40
0.7238597575297285
 40
1.0
 40
1.0
 40
1.0
 40
1.0
 10
299.8884375316589
 20
200.6473181679576
 30
0.0
 10
299.9084201798874
 20
200.6570558151123
 30
0.0
 10
299.9483702007219
 20
200.6765236655325
 30
0.0
 10
300.0055496539384
 20
200.6752431735899
 30
0.0
 10
300.0322640487867
 20
200.6573259326908
 30
0.0
 10
300.0438278558771
 20
200.6495701321748
 30
0.0
  0
SPLINE
  5
11F
330
1F
100
AcDbEntity
  8
0
  6
Continuous
 62
     7
370
    25
100
AcDbSpline
210
0.0
220
0.0
230
1.0
 70
     8
 71
     3
 72
    13
 73
     9
 74
     0
 42
0.000000001
 43
0.00000001
 40
0.0
 40
0.0
 40
0.0
 40
0.0
 40
0.2493130816151135
 40
0.3731822940571634
 40
0.4997797385837083
 40
0.6260349616047205
 40
0.7502793475926758
 40
0.9999999999999999
 40
0.9999999999999999
 40
0.9999999999999999
 40
0.9999999999999999
 10
299.7897635514155
 20
200.4322341418305
 30
0.0
 10
299.7857741081995
 20
200.450854430089
 30
0.0
 10
299.7798025419995
 20
200.4787260597818
 30
0.0
 10
299.7876151012023
 20
200.5205575074784
 30
0.0
 10
299.799116638299
 20
200.5514781503617
 30
0.0
 10
299.8156596911049
 20
200.5808605746321
 30
0.0
 10
299.8436706172228
 20
200.6163372599239
 30
0.0
 10
299.8705130815006
 20
200.6349135662801
 30
0.0
 10
299.8884375316589
 20
200.6473181679576
 30
0.0
  0
LINE
  5
120
330
1F
100
AcDbEntity
  8
0
  6
Continuous
 62
     7
370
    25
100
AcDbLine
 10
299.8025206628
 20
200.4083954129
 30
0.0
 11
299.7897635514
 21
200.4322341418
 31
0.0
  0
LINE
  5
121
330
1F
100
AcDbEntity
  8
0
  6
Continuous
 62
     7
370
    25
100
AcDbLine
 10
299.7188877941
 20
200.3781980635
 30
0.0
 11
299.8025206628
 21
200.4083954129
 31
0.0
  0
LINE
  5
122
330
1F
100
AcDbEntity
  8
0
  6
Continuous
 62
     7
370
    25
100
AcDbLine
 10
299.5992713894
 20
200.4673936722
 30
0.0
 11
299.6745182538
 21
200.5124376801
 31
0.0
  0
LINE
  5
123
330
1F
100
AcDbEntity
  8
0
  6
Continuous
 62
     7
370
    25
100
AcDbLine
 10
299.7573623014
 20
199.9781174087
 30
0.0
 11
299.721327438
 21
200.0893133647
 31
0.0
  0
LINE
  5
124
330
1F
100
AcDbEntity
  8
0
  6
Continuous
 62
     7
370
    25
100
AcDbLine
 10
299.721327438
 20
200.0893133647
 30
0.0
 11
300.1482838325
 21
200.3565617117
 31
0.0
  0
SPLINE
  5
125
330
1F
100
AcDbEntity
  8
0
  6
Continuous
 62
     7
370
    25
100
AcDbSpline
210
0.0
220
0.0
230
1.0
 70
     8
 71
     3
 72
     9
 73
     5
 74
     0
 42
0.000000001
 43
0.00000001
 40
0.0
 40
0.0
 40
0.0
 40
0.0
 40
0.9324844981119549
 40
1.0
 40
1.0
 40
1.0
 40
1.0
 10
297.0006148367556
 20
208.4244321208827
 30
0.0
 10
296.9976271929477
 20
208.4331724089308
 30
0.0
 10
296.9944232321164
 20
208.4425455278038
 30
0.0
 10
296.9979035319507
 20
208.4508715273201
 30
0.0
 10
296.9981385061408
 20
208.4514336613562
 30
0.0
  0
SPLINE
  5
126
330
1F
100
AcDbEntity
  8
0
  6
Continuous
 62
     7
370
    25
100
AcDbSpline
210
0.0
220
0.0
230
1.0
 70
     8
 71
     3
 72
    12
 73
     8
 74
     0
 42
0.000000001
 43
0.00000001
 40
0.0
 40
0.0
 40
0.0
 40
0.0
 40
0.1252224657523213
 40
0.2503785590382711
 40
0.5001546872170842
 40
0.749977677126238
 40
1.0
 40
1.0
 40
1.0
 40
1.0
 10
297.0946657667274
 20
208.347846115383
 30
0.0
 10
297.0886468885864
 20
208.3501209020047
 30
0.0
 10
297.0766123225289
 20
208.3546692695284
 30
0.0
 10
297.054292166816
 20
208.3652539081561
 30
0.0
 10
297.0302651706245
 20
208.3808573161435
 30
0.0
 10
297.0099648442852
 20
208.4022792342364
 30
0.0
 10
297.0037323344182
 20
208.4170458624095
 30
0.0
 10
297.0006148367556
 20
208.4244321208827
 30
0.0
  0
SPLINE
  5
127
330
1F
100
AcDbEntity
  8
0
  6
Continuous
 62
     7
370
    25
100
AcDbSpline
210
0.0
220
0.0
230
1.0
 70
     8
 71
     3
 72
     9
 73
     5
 74
     0
 42
0.000000001
 43
0.00000001
 40
0.0
 40
0.0
 40
0.0
 40
0.0
 40
0.5016078361045572
 40
1.0
 40
1.0
 40
1.0
 40
1.0
 10
297.3072059488999
 20
208.3221545803399
 30
0.0
 10
297.2714270948471
 20
208.3223977735338
 30
0.0
 10
297.2000987553008
 20
208.3228826008757
 30
0.0
 10
297.1297346736446
 20
208.3395428017956
 30
0.0
 10
297.0946657667274
 20
208.347846115383
 30
0.0
  0
SPLINE
  5
128
330
1F
100
AcDbEntity
  8
0
  6
Continuous
 62
     7
370
    25
100
AcDbSpline
210
0.0
220
0.0
230
1.0
 70
     8
 71
     3
 72
    12
 73
     8
 74
     0
 42
0.000000001
 43
0.00000001
 40
0.0
 40
0.0
 40
0.0
 40
0.0
 40
0.1427780665840751
 40
0.284760253631448
 40
0.4284265149143303
 40
0.7136062948432891
 40
1.0
 40
1.0
 40
1.0
 40
1.0
 10
297.5424072380961
 20
208.3993197411846
 30
0.0
 10
297.5405669891566
 20
208.3910918463994
 30
0.0
 10
297.5368967492708
 20
208.3746819211081
 30
0.0
 10
297.5135196086468
 20
208.35429192444
 30
0.0
 10
297.4690621850403
 20
208.3347584959985
 30
0.0
 10
297.3978289970461
 20
208.3230715408798
 30
0.0
 10
297.3374563720237
 20
208.3224606663179
 30
0.0
 10
297.3072059488999
 20
208.3221545803399
 30
0.0
  0
LINE
  5
129
330
1F
100
AcDbEntity
  8
0
  6
Continuous
 62
     7
370
    25
100
AcDbLine
 10
297.3595567482
 20
208.1076714768
 30
0.0
 11
297.0751152506
 21
208.1866503612
 31
0.0
  0
SPLINE
  5
12A
330
1F
100
AcDbEntity
  8
0
  6
Continuous
 62
     7
370
    25
100
AcDbSpline
210
0.0
220
0.0
230
1.0
 70
     8
 71
     3
 72
     9
 73
     5
 74
     0
 42
0.000000001
 43
0.00000001
 40
0.0
 40
0.0
 40
0.0
 40
0.0
 40
0.4985895329910633
 40
1.0
 40
1.0
 40
1.0
 40
1.0
 10
297.4892843763623
 20
208.0836499897523
 30
0.0
 10
297.4672354165494
 20
208.0853249672543
 30
0.0
 10
297.4230127476929
 20
208.0886843989937
 30
0.0
 10
297.3807484896234
 20
208.1013305595485
 30
0.0
 10
297.359556748247
 20
208.1076714768182
 30
0.0
  0
SPLINE
  5
12B
330
1F
100
AcDbEntity
  8
0
  6
Continuous
 62
     7
370
    25
100
AcDbSpline
210
0.0
220
0.0
230
1.0
 70
     8
 71
     3
 72
    11
 73
     7
 74
     0
 42
0.000000001
 43
0.00000001
 40
0.0
 40
0.0
 40
0.0
 40
0.0
 40
0.1652370214540178
 40
0.3343176816366659
 40
0.6674188686606188
 40
1.0
 40
1.0
 40
1.0
 40
1.0
 10
297.6175336439752
 20
208.1485294990058
 30
0.0
 10
297.6149242377828
 20
208.1425966414056
 30
0.0
 10
297.6096447270473
 20
208.1305929198369
 30
0.0
 10
297.5882279154321
 20
208.1103103842382
 30
0.0
 10
297.5511612452395
 20
208.0890492586933
 30
0.0
 10
297.5098992541893
 20
208.0854488084642
 30
0.0
 10
297.4892843763623
 20
208.0836499897523
 30
0.0
  0
LINE
  5
12C
330
1F
100
AcDbEntity
  8
0
  6
Continuous
 62
     7
370
    25
100
AcDbLine
 10
297.2925977304
 20
208.1851376149
 30
0.0
 11
297.2925114201
 21
208.2124448155
 31
0.0
  0
SPLINE
  5
12D
330
1F
100
AcDbEntity
  8
0
  6
Continuous
 62
     7
370
    25
100
AcDbSpline
210
0.0
220
0.0
230
1.0
 70
     8
 71
     3
 72
    18
 73
    14
 74
     0
 42
0.000000001
 43
0.00000001
 40
0.0
 40
0.0
 40
0.0
 40
0.0
 40
0.0909091516512361
 40
0.1818181652277709
 40
0.2727270955153386
 40
0.3636361020248081
 40
0.4545452479551754
 40
0.5454544605413153
 40
0.636363679365354
 40
0.7272728922622813
 40
0.818182042118143
 40
0.9090910598407637
 40
1.0
 40
1.0
 40
1.0
 40
1.0
 10
299.9501802842405
 20
198.2066315305636
 30
0.0
 10
299.9604090786416
 20
198.2210797545614
 30
0.0
 10
299.980866651908
 20
198.2499761806129
 30
0.0
 10
299.9910884525591
 20
198.2876774846596
 30
0.0
 10
299.9833332637552
 20
198.3139471644
 30
0.0
 10
299.957657734787
 20
198.3248410603015
 30
0.0
 10
299.9184055469545
 20
198.3185415511689
 30
0.0
 10
299.8716524880417
 20
198.295797316646
 30
0.0
 10
299.8246994030329
 20
198.2599523601435
 30
0.0
 10
299.784580340988
 20
198.2163613747491
 30
0.0
 10
299.757680474166
 20
198.1721845556216
 30
0.0
 10
299.7463971562553
 20
198.1329237710667
 30
0.0
 10
299.7541105973787
 20
198.117654996126
 30
0.0
 10
299.7579673162951
 20
198.1100206119125
 30
0.0
  0
SPLINE
  5
12E
330
1F
100
AcDbEntity
  8
0
  6
Continuous
 62
     7
370
    25
100
AcDbSpline
210
0.0
220
0.0
230
1.0
 70
     8
 71
     3
 72
    15
 73
    11
 74
     0
 42
0.000000001
 43
0.00000001
 40
0.0
 40
0.0
 40
0.0
 40
0.0
 40
0.1250001307476069
 40
0.2500002756065639
 40
0.3750004159288563
 40
0.5000004858297884
 40
0.6250003805289831
 40
0.7500001454011281
 40
0.8749999806423497
 40
1.0
 40
1.0
 40
1.0
 40
1.0
 10
298.5526525521615
 20
202.5338361157641
 30
0.0
 10
298.5348965494005
 20
202.5373311877629
 30
0.0
 10
298.499384541874
 20
202.5443213321552
 30
0.0
 10
298.4461820578851
 20
202.5255034971134
 30
0.0
 10
298.4033371389353
 20
202.4876585170461
 30
0.0
 10
298.376723396147
 20
202.434603865321
 30
0.0
 10
298.3703851348321
 20
202.3748193814758
 30
0.0
 10
298.3853075856807
 20
202.3178101048003
 30
0.0
 10
298.418618245795
 20
202.270312297194
 30
0.0
 10
298.4512297023442
 20
202.2547420655628
 30
0.0
 10
298.4675354426274
 20
202.2469569440137
 30
0.0
  0
LINE
  5
12F
330
1F
100
AcDbEntity
  8
0
  6
Continuous
 62
     7
370
    25
100
AcDbLine
 10
297.212755146
 20
206.7084437945
 30
0.0
 11
297.2297332976
 21
206.7511566706
 31
0.0
  0
SPLINE
  5
130
330
1F
100
AcDbEntity
  8
0
  6
Continuous
 62
     7
370
    25
100
AcDbSpline
210
0.0
220
0.0
230
1.0
 70
     8
 71
     3
 72
    16
 73
    12
 74
     0
 42
0.000000001
 43
0.00000001
 40
0.0
 40
0.0
 40
0.0
 40
0.0
 40
0.0205383528236738
 40
0.1513930325343237
 40
0.2822201239900433
 40
0.4131114934078172
 40
0.5439119152836601
 40
0.6747802833656907
 40
0.8056046193068136
 40
0.936416048445002
 40
1.0
 40
1.0
 40
1.0
 40
1.0
 10
297.4732461276703
 20
205.0596427466089
 30
0.0
 10
297.469085685163
 20
205.0560222930704
 30
0.0
 10
297.4384180842463
 20
205.0293350779343
 30
0.0
 10
297.4156459683365
 20
204.9506404593698
 30
0.0
 10
297.4153511086992
 20
204.8399493728744
 30
0.0
 10
297.461755775305
 20
204.7305198349522
 30
0.0
 10
297.5435972092819
 20
204.6432863104339
 30
0.0
 10
297.6499979981298
 20
204.5896140842631
 30
0.0
 10
297.7630950425783
 20
204.5813211771491
 30
0.0
 10
297.8547191698219
 20
204.6057199594956
 30
0.0
 10
297.8915099083338
 20
204.6443210244255
 30
0.0
 10
297.9035436332447
 20
204.6569468812423
 30
0.0
  0
SPLINE
  5
131
330
1F
100
AcDbEntity
  8
0
  6
Continuous
 62
     7
370
    25
100
AcDbSpline
210
0.0
220
0.0
230
1.0
 70
     8
 71
     3
 72
    15
 73
    11
 74
     0
 42
0.000000001
 43
0.00000001
 40
0.0
 40
0.0
 40
0.0
 40
0.0
 40
0.0865498117600839
 40
0.2170811276855593
 40
0.347557735358661
 40
0.4780522115079366
 40
0.6085575863570564
 40
0.7390315376409685
 40
0.8695480467134019
 40
0.9999999999999999
 40
0.9999999999999999
 40
0.9999999999999999
 40
0.9999999999999999
 10
299.4285297347284
 20
200.3430027362892
 30
0.0
 10
299.4122455032271
 20
200.3549285476977
 30
0.0
 10
299.3714019789499
 20
200.3848404393178
 30
0.0
 10
299.2807250463332
 20
200.3874011782662
 30
0.0
 10
299.1786245073424
 20
200.3517792244822
 30
0.0
 10
299.0872930072916
 20
200.2775794262332
 30
0.0
 10
299.0221427849639
 20
200.1766945839417
 30
0.0
 10
298.9920944050562
 20
200.0659615236466
 30
0.0
 10
298.9991390134006
 20
199.9593522113081
 30
0.0
 10
299.0343027453538
 20
199.9098486219718
 30
0.0
 10
299.051880262103
 20
199.8851029501567
 30
0.0
  0
LINE
  5
132
330
1F
100
AcDbEntity
  8
0
  6
Continuous
 62
     7
370
    25
100
AcDbLine
 10
296.8790003688
 20
208.2257303353
 30
0.0
 11
296.8876634928
 21
208.2579372047
 31
0.0
  0
SPLINE
  5
133
330
1F
100
AcDbEntity
  8
0
  6
Continuous
 62
     7
370
    25
100
AcDbSpline
210
0.0
220
0.0
230
1.0
 70
     8
 71
     3
 72
    13
 73
     9
 74
     0
 42
0.000000001
 43
0.00000001
 40
0.0
 40
0.0
 40
0.0
 40
0.0
 40
0.1250881265863703
 40
0.2500222122082221
 40
0.3699850468268092
 40
0.4999192399464889
 40
0.7494622781911489
 40
1.0
 40
1.0
 40
1.0
 40
1.0
 10
300.4323052804135
 20
197.8611358895706
 30
0.0
 10
300.4327682157199
 20
197.8624567096581
 30
0.0
 10
300.4336935162469
 20
197.8650967232965
 30
0.0
 10
300.4463798633757
 20
197.8787947922878
 30
0.0
 10
300.4686336775268
 20
197.9002433720816
 30
0.0
 10
300.5084598768556
 20
197.9364074326327
 30
0.0
 10
300.5679449701086
 20
197.987857838012
 30
0.0
 10
300.6162608072058
 20
198.028242832187
 30
0.0
 10
300.6404667769622
 20
198.0484754930771
 30
0.0
  0
SPLINE
  5
134
330
1F
100
AcDbEntity
  8
0
  6
Continuous
 62
     7
370
    25
100
AcDbSpline
210
0.0
220
0.0
230
1.0
 70
     8
 71
     3
 72
    13
 73
     9
 74
     0
 42
0.000000001
 43
0.00000001
 40
0.0
 40
0.0
 40
0.0
 40
0.0
 40
0.250545209601638
 40
0.500148369784462
 40
0.632075644226515
 40
0.750033829688198
 40
0.8748918299079814
 40
1.0
 40
1.0
 40
1.0
 40
1.0
 10
300.6404667769622
 20
198.0484754930771
 30
0.0
 10
300.6646107698633
 20
198.0685147224997
 30
0.0
 10
300.7128079743072
 20
198.1085178338875
 30
0.0
 10
300.7734329047971
 20
198.1570948875861
 30
0.0
 10
300.8155086456653
 20
198.189212993731
 30
0.0
 10
300.840390356362
 20
198.2070542712093
 30
0.0
 10
300.8545488308091
 20
198.2156711993875
 30
0.0
 10
300.8562763504279
 20
198.2152293066557
 30
0.0
 10
300.857140974701
 20
198.2150081391634
 30
0.0
  0
SPLINE
  5
135
330
1F
100
AcDbEntity
  8
0
  6
Continuous
 62
     7
370
    25
100
AcDbSpline
210
0.0
220
0.0
230
1.0
 70
     8
 71
     3
 72
    15
 73
    11
 74
     0
 42
0.000000001
 43
0.00000001
 40
0.0
 40
0.0
 40
0.0
 40
0.0
 40
0.0074317265559416
 40
0.1716326864338756
 40
0.3357605672250549
 40
0.4999726485520625
 40
0.6641268095444957
 40
0.8282730055193346
 40
0.9925063449720422
 40
1.0
 40
1.0
 40
1.0
 40
1.0
 10
300.2939988925502
 20
197.7378885955669
 30
0.0
 10
300.2937543996852
 20
197.7376664279354
 30
0.0
 10
300.2881079369228
 20
197.732535557318
 30
0.0
 10
300.2445715780217
 20
197.6977438055009
 30
0.0
 10
300.1700226144235
 20
197.637382485538
 30
0.0
 10
300.0784078372167
 20
197.562015582903
 30
0.0
 10
299.9882969171364
 20
197.4859511226453
 30
0.0
 10
299.9137538518158
 20
197.4219744764975
 30
0.0
 10
299.8760866986465
 20
197.3894585160587
 30
0.0
 10
299.8668805302642
 20
197.3819703532258
 30
0.0
 10
299.866478800471
 20
197.3816435920824
 30
0.0
  0
LINE
  5
136
330
1F
100
AcDbEntity
  8
0
  6
Continuous
 62
     7
370
    25
100
AcDbLine
 10
299.618751111
 20
197.1752094285
 30
0.0
 11
295.6015301841
 21
209.5389441403
 31
0.0
  0
SPLINE
  5
137
330
1F
100
AcDbEntity
  8
0
  6
Continuous
 62
     7
370
    25
100
AcDbSpline
210
0.0
220
0.0
230
1.0
 70
    11
 71
     3
 72
    23
 73
    19
 74
     0
 42
0.000000001
 43
0.00000001
 40
0.0
 40
0.0
 40
0.0
 40
0.0
 40
0.0623517778379324
 40
0.1250443094289759
 40
0.1876209276750782
 40
0.2501176953898008
 40
0.3126706421103233
 40
0.3751698536986693
 40
0.4377022347276117
 40
0.5002610842484795
 40
0.5627673169523307
 40
0.6253564820539341
 40
0.6878437940749708
 40
0.750405484178525
 40
0.8129209916998824
 40
0.8754831220333047
 40
0.9382159222259564
 40
1.0
 40
1.0
 40
1.0
 40
1.0
 10
297.9865575025178
 20
204.7942592619401
 30
0.0
 10
297.9889601275561
 20
204.8313740497109
 30
0.0
 10
297.9937785080281
 20
204.905806458334
 30
0.0
 10
297.9461615450294
 20
205.0152238159423
 30
0.0
 10
297.8630351529188
 20
205.1013036687903
 30
0.0
 10
297.7550448824355
 20
205.1523507260286
 30
0.0
 10
297.6396171377749
 20
205.1614623690977
 30
0.0
 10
297.5345039030158
 20
205.1263562246646
 30
0.0
 10
297.4550473162336
 20
205.0535970977889
 30
0.0
 10
297.4141534105095
 20
204.952768516612
 30
0.0
 10
297.4165609304429
 20
204.8396019800498
 30
0.0
 10
297.4624682470467
 20
204.7308102216987
 30
0.0
 10
297.5448119861076
 20
204.6433655718678
 30
0.0
 10
297.6509138780498
 20
204.5902928558369
 30
0.0
 10
297.7656392192287
 20
204.5807648902583
 30
0.0
 10
297.8707052177248
 20
204.6161195894345
 30
0.0
 10
297.9528334836215
 20
204.6904559995808
 30
0.0
 10
297.9753734084907
 20
204.7598343777021
 30
0.0
 10
297.9865575025178
 20
204.7942592619401
 30
0.0
  0
SPLINE
  5
138
330
1F
100
AcDbEntity
  8
0
  6
Continuous
 62
     7
370
    25
100
AcDbSpline
210
0.0
220
0.0
230
1.0
 70
    11
 71
     3
 72
    23
 73
    19
 74
     0
 42
0.000000001
 43
0.00000001
 40
0.0
 40
0.0
 40
0.0
 40
0.0
 40
0.0625056299826526
 40
0.1250148300657217
 40
0.1875221854309127
 40
0.2500233690228274
 40
0.3125177100232313
 40
0.3750085993252806
 40
0.4375014226430844
 40
0.5000003216242099
 40
0.5625058345008485
 40
0.6250147242160821
 40
0.6875218731413795
 40
0.7500231293482161
 40
0.8125176706767422
 40
0.8750086019144592
 40
0.9375012508432669
 40
1.0
 40
1.0
 40
1.0
 40
1.0
 10
298.6412603828661
 20
202.3471320594908
 30
0.0
 10
298.6449534530537
 20
202.3665478009428
 30
0.0
 10
298.6523398043641
 20
202.4053803928051
 30
0.0
 10
298.636432623783
 20
202.4631088536233
 30
0.0
 10
298.6026988172795
 20
202.5092985015421
 30
0.0
 10
298.5545409963224
 20
202.5375033752121
 30
0.0
 10
298.4998991910253
 20
202.5432533048439
 30
0.0
 10
298.4470605370303
 20
202.5257052563394
 30
0.0
 10
298.4041200158156
 20
202.4875186569745
 30
0.0
 10
298.3775297951826
 20
202.4345189889534
 30
0.0
 10
298.3712181500365
 20
202.3747877071502
 30
0.0
 10
298.3860440422748
 20
202.3174318181228
 30
0.0
 10
298.4197429126839
 20
202.2711842536592
 30
0.0
 10
298.4672247304214
 20
202.2430893802337
 30
0.0
 10
298.5215146146926
 20
202.237364764476
 30
0.0
 10
298.5739626451804
 20
202.255026788898
 30
0.0
 10
298.6184097896487
 20
202.2927849540183
 30
0.0
 10
298.633643270636
 20
202.3290157682495
 30
0.0
 10
298.6412603828661
 20
202.3471320594908
 30
0.0
  0
LINE
  5
139
330
1F
100
AcDbEntity
  8
0
  6
Continuous
 62
     7
370
    25
100
AcDbLine
 10
298.2793750712
 20
204.5331902603
 30
0.0
 11
298.235100303
 21
204.6741265455
 31
0.0
  0
LINE
  5
13A
330
1F
100
AcDbEntity
  8
0
  6
Continuous
 62
     7
370
    25
100
AcDbLine
 10
298.235100303
 20
204.6741265455
 30
0.0
 11
298.7106978373
 21
204.7900707484
 31
0.0
  0
LINE
  5
13B
330
1F
100
AcDbEntity
  8
0
  6
Continuous
 62
     7
370
    25
100
AcDbLine
 10
298.7106978373
 20
204.7900707484
 30
0.0
 11
298.7401849639
 21
204.6966098757
 31
0.0
  0
LINE
  5
13C
330
1F
100
AcDbEntity
  8
0
  6
Continuous
 62
     7
370
    25
100
AcDbLine
 10
298.7401849639
 20
204.6966098757
 30
0.0
 11
298.3495752183
 21
204.6013919708
 31
0.0
  0
LINE
  5
13D
330
1F
100
AcDbEntity
  8
0
  6
Continuous
 62
     7
370
    25
100
AcDbLine
 10
298.3495752183
 20
204.6013919708
 30
0.0
 11
298.3811755527
 21
204.4991642424
 31
0.0
  0
LINE
  5
13E
330
1F
100
AcDbEntity
  8
0
  6
Continuous
 62
     7
370
    25
100
AcDbLine
 10
298.3811755527
 20
204.4991642424
 30
0.0
 11
298.2793750712
 21
204.5331902603
 31
0.0
  0
LINE
  5
13F
330
1F
100
AcDbEntity
  8
0
  6
Continuous
 62
     7
370
    25
100
AcDbLine
 10
298.2793750712
 20
204.5331902603
 30
0.0
 11
298.2787543818
 21
204.5326968549
 31
0.0
  0
LINE
  5
140
330
1F
100
AcDbEntity
  8
0
  6
Continuous
 62
     7
370
    25
100
AcDbLine
 10
298.3811755527
 20
204.4991642424
 30
0.0
 11
298.3805493157
 21
204.498687911
 31
0.0
  0
LINE
  5
141
330
1F
100
AcDbEntity
  8
0
  6
Continuous
 62
     7
370
    25
100
AcDbLine
 10
298.235100303
 20
204.6741265455
 30
0.0
 11
298.2344935142
 21
204.6735903586
 31
0.0
  0
LINE
  5
142
330
1F
100
AcDbEntity
  8
0
  6
Continuous
 62
     7
370
    25
100
AcDbLine
 10
298.7401849639
 20
204.6966098757
 30
0.0
 11
298.7395683775
 21
204.6961038426
 31
0.0
  0
LINE
  5
143
330
1F
100
AcDbEntity
  8
0
  6
Continuous
 62
     7
370
    25
100
AcDbLine
 10
298.1257044709
 20
204.9742866154
 30
0.0
 11
298.1251276125
 21
204.9736583119
 31
0.0
  0
SPLINE
  5
144
330
1F
100
AcDbEntity
  8
0
  6
Continuous
 62
     7
370
    25
100
AcDbSpline
210
0.0
220
0.0
230
1.0
 70
     8
 71
     3
 72
    12
 73
     8
 74
     0
 42
0.000000001
 43
0.00000001
 40
0.0
 40
0.0
 40
0.0
 40
0.0
 40
0.2499765339086735
 40
0.4997794214609682
 40
0.7495889956695383
 40
0.8747639455525492
 40
1.0
 40
1.0
 40
1.0
 40
1.0
 10
298.2305907191815
 20
204.8598288447198
 30
0.0
 10
298.2184619056652
 20
204.8654869468769
 30
0.0
 10
298.1942127039204
 20
204.876799220787
 30
0.0
 10
298.1633081902717
 20
204.9038957211789
 30
0.0
 10
298.1437346007677
 20
204.9315548855548
 30
0.0
 10
298.1320783877414
 20
204.955557568838
 30
0.0
 10
298.1278294554296
 20
204.9680425843925
 30
0.0
 10
298.1257044708677
 20
204.9742866154484
 30
0.0
  0
LINE
  5
145
330
1F
100
AcDbEntity
  8
0
  6
Continuous
 62
     7
370
    25
100
AcDbLine
 10
298.2305914745
 20
204.8598285132
 30
0.0
 11
298.2300018329
 21
204.8592395525
 31
0.0
  0
SPLINE
  5
146
330
1F
100
AcDbEntity
  8
0
  6
Continuous
 62
     7
370
    25
100
AcDbSpline
210
0.0
220
0.0
230
1.0
 70
     8
 71
     3
 72
    13
 73
     9
 74
     0
 42
0.000000001
 43
0.00000001
 40
0.0
 40
0.0
 40
0.0
 40
0.0
 40
0.1251109399680214
 40
0.2500651219519551
 40
0.3707387855364945
 40
0.4999778519002145
 40
0.749487985849013
 40
1.0
 40
1.0
 40
1.0
 40
1.0
 10
298.1257044708677
 20
204.9742866154484
 30
0.0
 10
298.1219396092027
 20
204.9890694012163
 30
0.0
 10
298.1144146030632
 20
205.0186164506331
 30
0.0
 10
298.1175317907275
 20
205.0628089334451
 30
0.0
 10
298.134068343506
 20
205.1028757506523
 30
0.0
 10
298.1720355063941
 20
205.145439546573
 30
0.0
 10
298.2369085911902
 20
205.1796931645831
 30
0.0
 10
298.2936394155696
 20
205.1934976323809
 30
0.0
 10
298.3220616627315
 20
205.2004136960901
 30
0.0
  0
SPLINE
  5
147
330
1F
100
AcDbEntity
  8
0
  6
Continuous
 62
     7
370
    25
100
AcDbSpline
210
0.0
220
0.0
230
1.0
 70
     8
 71
     3
 72
    13
 73
     9
 74
     0
 42
0.000000001
 43
0.00000001
 40
0.0
 40
0.0
 40
0.0
 40
0.0
 40
0.2505128141109155
 40
0.5000941149027721
 40
0.6317215230534985
 40
0.7499635860908996
 40
0.8748507676610122
 40
0.9999999999999999
 40
0.9999999999999999
 40
0.9999999999999999
 40
0.9999999999999999
 10
298.3220616627315
 20
205.2004136960901
 30
0.0
 10
298.3507934234518
 20
205.2059357165357
 30
0.0
 10
298.4081501079712
 20
205.2169592242033
 30
0.0
 10
298.4851014045225
 20
205.2134019540488
 30
0.0
 10
298.5437222303117
 20
205.1930695554684
 30
0.0
 10
298.5827783460041
 20
205.1660947652522
 30
0.0
 10
298.6110711561824
 20
205.1288485470835
 30
0.0
 10
298.6217031924694
 20
205.1001594571221
 30
0.0
 10
298.6270247820678
 20
205.085799878335
 30
0.0
  0
SPLINE
  5
148
330
1F
100
AcDbEntity
  8
0
  6
Continuous
 62
     7
370
    25
100
AcDbSpline
210
0.0
220
0.0
230
1.0
 70
     8
 71
     3
 72
    13
 73
     9
 74
     0
 42
0.000000001
 43
0.00000001
 40
0.0
 40
0.0
 40
0.0
 40
0.0
 40
0.1251507043608839
 40
0.2500936280880618
 40
0.3701074616710307
 40
0.4999949947390806
 40
0.7494526575597005
 40
0.9999999999999999
 40
0.9999999999999999
 40
0.9999999999999999
 40
0.9999999999999999
 10
298.6270247820678
 20
205.085799878335
 30
0.0
 10
298.6308087205197
 20
205.0712002448109
 30
0.0
 10
298.6383703151645
 20
205.0420252167084
 30
0.0
 10
298.636050539639
 20
204.9979525297971
 30
0.0
 10
298.6194906781319
 20
204.9579008896926
 30
0.0
 10
298.5824317076091
 20
204.9146634368196
 30
0.0
 10
298.5181892703674
 20
204.8798276663272
 30
0.0
 10
298.4621285715328
 20
204.8662321598429
 30
0.0
 10
298.4340371345261
 20
204.8594195920027
 30
0.0
  0
SPLINE
  5
149
330
1F
100
AcDbEntity
  8
0
  6
Continuous
 62
     7
370
    25
100
AcDbSpline
210
0.0
220
0.0
230
1.0
 70
     8
 71
     3
 72
     9
 73
     5
 74
     0
 42
0.000000001
 43
0.00000001
 40
0.0
 40
0.0
 40
0.0
 40
0.0
 40
0.5015970926501868
 40
1.0
 40
1.0
 40
1.0
 40
1.0
 10
298.4340371345261
 20
204.8594195920027
 30
0.0
 10
298.4006716976396
 20
204.8524453391019
 30
0.0
 10
298.3341532959676
 20
204.8385412455517
 30
0.0
 10
298.2650384931693
 20
204.8527478835099
 30
0.0
 10
298.2305914745138
 20
204.8598285131719
 30
0.0
  0
SPLINE
  5
14A
330
1F
100
AcDbEntity
  8
0
  6
Continuous
 62
     7
370
    25
100
AcDbSpline
210
0.0
220
0.0
230
1.0
 70
     8
 71
     3
 72
    11
 73
     7
 74
     0
 42
0.000000001
 43
0.00000001
 40
0.0
 40
0.0
 40
0.0
 40
0.0
 40
0.2499508199442816
 40
0.4997814623155399
 40
0.7497504918583128
 40
1.0
 40
1.0
 40
1.0
 40
1.0
 10
298.5426575173238
 20
205.0671687619573
 30
0.0
 10
298.5405342667693
 20
205.072640645036
 30
0.0
 10
298.5362887865295
 20
205.0835817802854
 30
0.0
 10
298.5242915780199
 20
205.0972837855726
 30
0.0
 10
298.5094443756701
 20
205.1075387818966
 30
0.0
 10
298.4983956426072
 20
205.1116194356769
 30
0.0
 10
298.4928681784965
 20
205.1136609066031
 30
0.0
  0
SPLINE
  5
14B
330
1F
100
AcDbEntity
  8
0
  6
Continuous
 62
     7
370
    25
100
AcDbSpline
210
0.0
220
0.0
230
1.0
 70
     8
 71
     3
 72
     9
 73
     5
 74
     0
 42
0.000000001
 43
0.00000001
 40
0.0
 40
0.0
 40
0.0
 40
0.0
 40
0.4986107364193725
 40
1.0
 40
1.0
 40
1.0
 40
1.0
 10
298.4928681784965
 20
205.1136609066031
 30
0.0
 10
298.4690021936107
 20
205.1169746979219
 30
0.0
 10
298.421137229737
 20
205.1236207467868
 30
0.0
 10
298.3755076633847
 20
205.1138746495862
 30
0.0
 10
298.3526294887138
 20
205.1089880610879
 30
0.0
  0
SPLINE
  5
14C
330
1F
100
AcDbEntity
  8
0
  6
Continuous
 62
     7
370
    25
100
AcDbSpline
210
0.0
220
0.0
230
1.0
 70
     8
 71
     3
 72
    13
 73
     9
 74
     0
 42
0.000000001
 43
0.00000001
 40
0.0
 40
0.0
 40
0.0
 40
0.0
 40
0.5002107466124052
 40
0.6311126833658391
 40
0.7502707260275485
 40
0.8748546018030139
 40
0.9374062529239412
 40
1.0
 40
1.0
 40
1.0
 40
1.0
 10
298.3526294887138
 20
205.1089880610879
 30
0.0
 10
298.3188132667093
 20
205.101227616453
 30
0.0
 10
298.2761475567957
 20
205.0914363133455
 30
0.0
 10
298.2334261131744
 20
205.0642655461795
 30
0.0
 10
298.216770093639
 20
205.04542209254
 30
0.0
 10
298.2086443959158
 20
205.0259295944671
 30
0.0
 10
298.2081440085751
 20
205.0083978685771
 30
0.0
 10
298.2103653192315
 20
204.999718993551
 30
0.0
 10
298.2114763481579
 20
204.9953780963537
 30
0.0
  0
SPLINE
  5
14D
330
1F
100
AcDbEntity
  8
0
  6
Continuous
 62
     7
370
    25
100
AcDbSpline
210
0.0
220
0.0
230
1.0
 70
     8
 71
     3
 72
    13
 73
     9
 74
     0
 42
0.000000001
 43
0.00000001
 40
0.0
 40
0.0
 40
0.0
 40
0.0
 40
0.1245132687762457
 40
0.1872570917194822
 40
0.2496681308381512
 40
0.3605929645242793
 40
0.4997584796810015
 40
1.0
 40
1.0
 40
1.0
 40
1.0
 10
298.2114763481579
 20
204.9953780963537
 30
0.0
 10
298.215209821026
 20
204.9866668319882
 30
0.0
 10
298.2208246384518
 20
204.9735658504919
 30
0.0
 10
298.2345541570915
 20
204.9599756452355
 30
0.0
 10
298.2494120891203
 20
204.9496784828189
 30
0.0
 10
298.2719854806224
 20
204.9420958298737
 30
0.0
 10
298.3270504216815
 20
204.9365591868229
 30
0.0
 10
298.3721127270275
 20
204.9458535042006
 30
0.0
 10
298.4073673221205
 20
204.9531249341307
 30
0.0
  0
SPLINE
  5
14E
330
1F
100
AcDbEntity
  8
0
  6
Continuous
 62
     7
370
    25
100
AcDbSpline
210
0.0
220
0.0
230
1.0
 70
     8
 71
     3
 72
    12
 73
     8
 74
     0
 42
0.000000001
 43
0.00000001
 40
0.0
 40
0.0
 40
0.0
 40
0.0
 40
0.5003945545406555
 40
0.62559719369465
 40
0.7506992559572375
 40
0.875382672213397
 40
1.0
 40
1.0
 40
1.0
 40
1.0
 10
298.4073673221205
 20
204.9531249341307
 30
0.0
 10
298.4404182744342
 20
204.960855595794
 30
0.0
 10
298.4817388340381
 20
204.970520529591
 30
0.0
 10
298.523176215218
 20
204.9980142425625
 30
0.0
 10
298.5386723714313
 20
205.0172309820566
 30
0.0
 10
298.5478219701284
 20
205.0412818483282
 30
0.0
 10
298.5443786973268
 20
205.0585413158825
 30
0.0
 10
298.5426575173238
 20
205.0671687619573
 30
0.0
  0
LINE
  5
14F
330
1F
100
AcDbEntity
  8
0
  6
Continuous
 62
     7
370
    25
100
AcDbLine
 10
298.4340371345
 20
204.859419592
 30
0.0
 11
298.4334429509
 21
204.8588446103
 31
0.0
  0
SPLINE
  5
150
330
1F
100
AcDbEntity
  8
0
  6
Continuous
 62
     7
370
    25
100
AcDbSpline
210
0.0
220
0.0
230
1.0
 70
     8
 71
     3
 72
     9
 73
     5
 74
     0
 42
0.000000001
 43
0.00000001
 40
0.0
 40
0.0
 40
0.0
 40
0.0
 40
0.7925909218628576
 40
1.0
 40
1.0
 40
1.0
 40
1.0
 10
298.3520603956684
 20
205.1083358584353
 30
0.0
 10
298.3178127656816
 20
205.1010626956169
 30
0.0
 10
298.2746030479798
 20
205.0918862558951
 30
0.0
 10
298.2401812711819
 20
205.0673232634713
 30
0.0
 10
298.2330418821884
 20
205.0622286758563
 30
0.0
  0
SPLINE
  5
151
330
1F
100
AcDbEntity
  8
0
  6
Continuous
 62
     7
370
    25
100
AcDbSpline
210
0.0
220
0.0
230
1.0
 70
     8
 71
     3
 72
     9
 73
     5
 74
     0
 42
0.000000001
 43
0.00000001
 40
0.0
 40
0.0
 40
0.0
 40
0.0
 40
0.4986042597148579
 40
1.0
 40
1.0
 40
1.0
 40
1.0
 10
298.4922965790188
 20
205.1130164179554
 30
0.0
 10
298.4684312646082
 20
205.1163276570176
 30
0.0
 10
298.4205670236885
 20
205.1229686734104
 30
0.0
 10
298.3749383954848
 20
205.1132225321483
 30
0.0
 10
298.3520603956684
 20
205.1083358584353
 30
0.0
  0
SPLINE
  5
152
330
1F
100
AcDbEntity
  8
0
  6
Continuous
 62
     7
370
    25
100
AcDbSpline
210
0.0
220
0.0
230
1.0
 70
     8
 71
     3
 72
    11
 73
     7
 74
     0
 42
0.000000001
 43
0.00000001
 40
0.0
 40
0.0
 40
0.0
 40
0.0
 40
0.2499273471646157
 40
0.4997464442853216
 40
0.7497241171374808
 40
1.0
 40
1.0
 40
1.0
 40
1.0
 10
298.5420804558217
 20
205.0665410836925
 30
0.0
 10
298.5399577378487
 20
205.072011272628
 30
0.0
 10
298.535713221307
 20
205.0829492812177
 30
0.0
 10
298.5237171938567
 20
205.0966466349869
 30
0.0
 10
298.5088712388408
 20
205.1068974353425
 30
0.0
 10
298.4978236608451
 20
205.1109759466602
 30
0.0
 10
298.4922965790188
 20
205.1130164179554
 30
0.0
  0
SPLINE
  5
153
330
1F
100
AcDbEntity
  8
0
  6
Continuous
 62
     7
370
    25
100
AcDbSpline
210
0.0
220
0.0
230
1.0
 70
     8
 71
     3
 72
     9
 73
     5
 74
     0
 42
0.000000001
 43
0.00000001
 40
0.0
 40
0.0
 40
0.0
 40
0.0
 40
0.5001561431354992
 40
1.0
 40
1.0
 40
1.0
 40
1.0
 10
298.5370500370096
 20
205.0174527111551
 30
0.0
 10
298.5405356716628
 20
205.025122991016
 30
0.0
 10
298.547504764617
 20
205.0404587615871
 30
0.0
 10
298.5438881822838
 20
205.057848786546
 30
0.0
 10
298.5420804558217
 20
205.0665410836925
 30
0.0
  0
LINE
  5
154
330
1F
100
AcDbEntity
  8
0
  6
Continuous
 62
     7
370
    25
100
AcDbLine
 10
298.3520603957
 20
205.1083358584
 30
0.0
 11
298.3526294887
 21
205.1089880611
 31
0.0
  0
LINE
  5
155
330
1F
100
AcDbEntity
  8
0
  6
Continuous
 62
     7
370
    25
100
AcDbLine
 10
298.0040483489
 20
205.3356587511
 30
0.0
 11
298.0035072781
 21
205.334920305
 31
0.0
  0
SPLINE
  5
156
330
1F
100
AcDbEntity
  8
0
  6
Continuous
 62
     7
370
    25
100
AcDbSpline
210
0.0
220
0.0
230
1.0
 70
     8
 71
     3
 72
    12
 73
     8
 74
     0
 42
0.000000001
 43
0.00000001
 40
0.0
 40
0.0
 40
0.0
 40
0.0
 40
0.2499424037923479
 40
0.4997392185310989
 40
0.749577464352847
 40
0.8747587609800296
 40
1.0
 40
1.0
 40
1.0
 40
1.0
 10
298.1095433917248
 20
205.2207175065115
 30
0.0
 10
298.09731399423
 20
205.2265932355238
 30
0.0
 10
298.0728623227473
 20
205.2383412709927
 30
0.0
 10
298.0415197580546
 20
205.2654515951005
 30
0.0
 10
298.0220425025419
 20
205.293225938779
 30
0.0
 10
298.0104048109563
 20
205.3170940568915
 30
0.0
 10
298.0061675076915
 20
205.329469532298
 30
0.0
 10
298.004048348928
 20
205.3356587511292
 30
0.0
  0
LINE
  5
157
330
1F
100
AcDbEntity
  8
0
  6
Continuous
 62
     7
370
    25
100
AcDbLine
 10
298.1095441163
 20
205.2207171836
 30
0.0
 11
298.1089903603
 21
205.2200177784
 31
0.0
  0
SPLINE
  5
158
330
1F
100
AcDbEntity
  8
0
  6
Continuous
 62
     7
370
    25
100
AcDbSpline
210
0.0
220
0.0
230
1.0
 70
     8
 71
     3
 72
    13
 73
     9
 74
     0
 42
0.000000001
 43
0.00000001
 40
0.0
 40
0.0
 40
0.0
 40
0.0
 40
0.1251065401394881
 40
0.250065642443253
 40
0.3749291841250882
 40
0.4999756507712015
 40
0.7494853163767177
 40
1.0
 40
1.0
 40
1.0
 40
1.0
 10
298.004048348928
 20
205.3356587511292
 30
0.0
 10
298.0003717659147
 20
205.3502830479537
 30
0.0
 10
297.9930229327343
 20
205.3795144068948
 30
0.0
 10
297.9965279625488
 20
205.4234178414459
 30
0.0
 10
298.0139043051627
 20
205.4624161079321
 30
0.0
 10
298.0528684190114
 20
205.5033414758628
 30
0.0
 10
298.118501703193
 20
205.5355818276736
 30
0.0
 10
298.1761502554761
 20
205.5480409003208
 30
0.0
 10
298.20503246663
 20
205.5542829576272
 30
0.0
  0
SPLINE
  5
159
330
1F
100
AcDbEntity
  8
0
  6
Continuous
 62
     7
370
    25
100
AcDbSpline
210
0.0
220
0.0
230
1.0
 70
     8
 71
     3
 72
    13
 73
     9
 74
     0
 42
0.000000001
 43
0.00000001
 40
0.0
 40
0.0
 40
0.0
 40
0.0
 40
0.2505177320876786
 40
0.5000965304089794
 40
0.6251669124330956
 40
0.7499768044752656
 40
0.8748591777859921
 40
1.0
 40
1.0
 40
1.0
 40
1.0
 10
298.20503246663
 20
205.5542829576272
 30
0.0
 10
298.2342221082694
 20
205.5592022088548
 30
0.0
 10
298.2924919895511
 20
205.5690222740877
 30
0.0
 10
298.3697506710445
 20
205.5640209096173
 30
0.0
 10
298.4290644296387
 20
205.5432745941302
 30
0.0
 10
298.4687207960337
 20
205.5162039261359
 30
0.0
 10
298.4977127328766
 20
205.4784038948225
 30
0.0
 10
298.5082603924979
 20
205.4499325416576
 30
0.0
 10
298.513539673865
 20
205.4356821496605
 30
0.0
  0
SPLINE
  5
15A
330
1F
100
AcDbEntity
  8
0
  6
Continuous
 62
     7
370
    25
100
AcDbSpline
210
0.0
220
0.0
230
1.0
 70
     8
 71
     3
 72
    13
 73
     9
 74
     0
 42
0.000000001
 43
0.00000001
 40
0.0
 40
0.0
 40
0.0
 40
0.0
 40
0.1251724877760606
 40
0.2501422104930742
 40
0.369898096011229
 40
0.5000535804361063
 40
0.7494858259702651
 40
1.0
 40
1.0
 40
1.0
 40
1.0
 10
298.513539673865
 20
205.4356821496605
 30
0.0
 10
298.5172849097957
 20
205.4212179077527
 30
0.0
 10
298.524769314805
 20
205.3923128543483
 30
0.0
 10
298.5219455599752
 20
205.348944982512
 30
0.0
 10
298.5049188860596
 20
205.3097251564157
 30
0.0
 10
298.46693956395
 20
205.2678057805592
 30
0.0
 10
298.4014476229787
 20
205.2347016465372
 30
0.0
 10
298.3444280149431
 20
205.2224524095692
 30
0.0
 10
298.315856513175
 20
205.2163145368664
 30
0.0
  0
SPLINE
  5
15B
330
1F
100
AcDbEntity
  8
0
  6
Continuous
 62
     7
370
    25
100
AcDbSpline
210
0.0
220
0.0
230
1.0
 70
     8
 71
     3
 72
     9
 73
     5
 74
     0
 42
0.000000001
 43
0.00000001
 40
0.0
 40
0.0
 40
0.0
 40
0.0
 40
0.5015782158014424
 40
1.0
 40
1.0
 40
1.0
 40
1.0
 10
298.315856513175
 20
205.2163145368664
 30
0.0
 10
298.2819698062788
 20
205.2101066369099
 30
0.0
 10
298.2144096415255
 20
205.1977299033099
 30
0.0
 10
298.1444256581706
 20
205.2130708977701
 30
0.0
 10
298.1095441163215
 20
205.2207171836004
 30
0.0
  0
SPLINE
  5
15C
330
1F
100
AcDbEntity
  8
0
  6
Continuous
 62
     7
370
    25
100
AcDbSpline
210
0.0
220
0.0
230
1.0
 70
     8
 71
     3
 72
    11
 73
     7
 74
     0
 42
0.000000001
 43
0.00000001
 40
0.0
 40
0.0
 40
0.0
 40
0.0
 40
0.2499760919526336
 40
0.4997145480685054
 40
0.749647402475847
 40
0.9999999999999999
 40
0.9999999999999999
 40
0.9999999999999999
 40
0.9999999999999999
 10
298.4278169267993
 20
205.4189114675685
 30
0.0
 10
298.4256801336308
 20
205.4243219435659
 30
0.0
 10
298.4214085786026
 20
205.4351377521769
 30
0.0
 10
298.4094646232023
 20
205.4489156573373
 30
0.0
 10
298.3944424124971
 20
205.4591995528394
 30
0.0
 10
298.3833048859137
 20
205.4634771652737
 30
0.0
 10
298.3777314503893
 20
205.4656177659648
 30
0.0
  0
SPLINE
  5
15D
330
1F
100
AcDbEntity
  8
0
  6
Continuous
 62
     7
370
    25
100
AcDbSpline
210
0.0
220
0.0
230
1.0
 70
     8
 71
     3
 72
    10
 73
     6
 74
     0
 42
0.000000001
 43
0.00000001
 40
0.0
 40
0.0
 40
0.0
 40
0.0
 40
0.4984292457102851
 40
0.7491818509087497
 40
1.0
 40
1.0
 40
1.0
 40
1.0
 10
298.3777314503893
 20
205.4656177659648
 30
0.0
 10
298.3535668241543
 20
205.4694359472315
 30
0.0
 10
298.317245321022
 20
205.4751750007345
 30
0.0
 10
298.2700584638579
 20
205.469814146127
 30
0.0
 10
298.2469059326609
 20
205.4657632844643
 30
0.0
 10
298.2353281543076
 20
205.4637375889552
 30
0.0
  0
SPLINE
  5
15E
330
1F
100
AcDbEntity
  8
0
  6
Continuous
 62
     7
370
    25
100
AcDbSpline
210
0.0
220
0.0
230
1.0
 70
     8
 71
     3
 72
    13
 73
     9
 74
     0
 42
0.000000001
 43
0.00000001
 40
0.0
 40
0.0
 40
0.0
 40
0.0
 40
0.500248376621191
 40
0.625422842396734
 40
0.7504122033123932
 40
0.8154395700399849
 40
0.8755906537134406
 40
1.0
 40
1.0
 40
1.0
 40
1.0
 10
298.2353281543076
 20
205.4637375889552
 30
0.0
 10
298.2010482578178
 20
205.4566140618795
 30
0.0
 10
298.1581906868556
 20
205.4477080528651
 30
0.0
 10
298.1142892507826
 20
205.4223916989719
 30
0.0
 10
298.0999281199749
 20
205.4069357419334
 30
0.0
 10
298.0919344620437
 20
205.3924686757474
 30
0.0
 10
298.0871151021939
 20
205.3762726657252
 30
0.0
 10
298.0895593594215
 20
205.3633438958356
 30
0.0
 10
298.0912069956125
 20
205.3546288109683
 30
0.0
  0
SPLINE
  5
15F
330
1F
100
AcDbEntity
  8
0
  6
Continuous
 62
     7
370
    25
100
AcDbSpline
210
0.0
220
0.0
230
1.0
 70
     8
 71
     3
 72
    13
 73
     9
 74
     0
 42
0.000000001
 43
0.00000001
 40
0.0
 40
0.0
 40
0.0
 40
0.0
 40
0.1244986683194373
 40
0.1870715628524852
 40
0.2496296411425833
 40
0.3609948977064777
 40
0.4997601890439996
 40
1.0
 40
1.0
 40
1.0
 40
1.0
 10
298.0912069956125
 20
205.3546288109683
 30
0.0
 10
298.0949166692379
 20
205.3459590694096
 30
0.0
 10
298.1004908207701
 20
205.3329319252256
 30
0.0
 10
298.1144498667484
 20
205.3194118548271
 30
0.0
 10
298.129377167926
 20
205.3088172892847
 30
0.0
 10
298.1523217366549
 20
205.3010743731464
 30
0.0
 10
298.2081150464742
 20
205.2944589583012
 30
0.0
 10
298.2538848982427
 20
205.3028392232622
 30
0.0
 10
298.2897154446875
 20
205.3093996437421
 30
0.0
  0
SPLINE
  5
160
330
1F
100
AcDbEntity
  8
0
  6
Continuous
 62
     7
370
    25
100
AcDbSpline
210
0.0
220
0.0
230
1.0
 70
     8
 71
     3
 72
    12
 73
     8
 74
     0
 42
0.000000001
 43
0.00000001
 40
0.0
 40
0.0
 40
0.0
 40
0.0
 40
0.5004394301618327
 40
0.6256702280929619
 40
0.7507565706533088
 40
0.8753835030206377
 40
1.0
 40
1.0
 40
1.0
 40
1.0
 10
298.2897154446875
 20
205.3093996437421
 30
0.0
 10
298.3232590133785
 20
205.3163624504053
 30
0.0
 10
298.3651965806624
 20
205.3250676414245
 30
0.0
 10
298.4074607985823
 20
205.3512525030579
 30
0.0
 10
298.4232609179414
 20
205.3698995163248
 30
0.0
 10
298.4327883274359
 20
205.3933419329846
 30
0.0
 10
298.42947401409
 20
205.4103885272775
 30
0.0
 10
298.4278169267993
 20
205.4189114675685
 30
0.0
  0
LINE
  5
161
330
1F
100
AcDbEntity
  8
0
  6
Continuous
 62
     7
370
    25
100
AcDbLine
 10
298.3158565132
 20
205.2163145369
 30
0.0
 11
298.3152982455
 21
205.2156290171
 31
0.0
  0
LINE
  5
162
330
1F
100
AcDbEntity
  8
0
  6
Continuous
 62
     7
370
    25
100
AcDbLine
 10
298.5420804558
 20
205.0665410837
 30
0.0
 11
298.5426575173
 21
205.067168762
 31
0.0
  0
SPLINE
  5
163
330
1F
100
AcDbEntity
  8
0
  6
Continuous
 62
     7
370
    25
100
AcDbSpline
210
0.0
220
0.0
230
1.0
 70
     8
 71
     3
 72
     9
 73
     5
 74
     0
 42
0.000000001
 43
0.00000001
 40
0.0
 40
0.0
 40
0.0
 40
0.0
 40
0.7998612404803835
 40
1.0
 40
1.0
 40
1.0
 40
1.0
 10
298.2347947540405
 20
205.4629755352266
 30
0.0
 10
298.2000834350593
 20
205.4563627335839
 30
0.0
 10
298.1566867592055
 20
205.4480952975487
 30
0.0
 10
298.1215799707521
 20
205.4252439243774
 30
0.0
 10
298.1145537416604
 20
205.4206704788976
 30
0.0
  0
SPLINE
  5
164
330
1F
100
AcDbEntity
  8
0
  6
Continuous
 62
     7
370
    25
100
AcDbSpline
210
0.0
220
0.0
230
1.0
 70
     8
 71
     3
 72
    10
 73
     6
 74
     0
 42
0.000000001
 43
0.00000001
 40
0.0
 40
0.0
 40
0.0
 40
0.0
 40
0.4984228663784504
 40
0.749178293221617
 40
0.9999999999999999
 40
0.9999999999999999
 40
0.9999999999999999
 40
0.9999999999999999
 10
298.3771955605655
 20
205.4648633743033
 30
0.0
 10
298.3530315621668
 20
205.4686790135021
 30
0.0
 10
298.3167107103382
 20
205.4744142922289
 30
0.0
 10
298.2695249697947
 20
205.4690522942818
 30
0.0
 10
298.2463725124373
 20
205.4650013000153
 30
0.0
 10
298.2347947540405
 20
205.4629755352266
 30
0.0
  0
SPLINE
  5
165
330
1F
100
AcDbEntity
  8
0
  6
Continuous
 62
     7
370
    25
100
AcDbSpline
210
0.0
220
0.0
230
1.0
 70
     8
 71
     3
 72
    11
 73
     7
 74
     0
 42
0.000000001
 43
0.00000001
 40
0.0
 40
0.0
 40
0.0
 40
0.0
 40
0.2499527459291676
 40
0.4996795260428928
 40
0.7496212364743209
 40
0.9999999999999999
 40
0.9999999999999999
 40
0.9999999999999999
 40
0.9999999999999999
 10
298.4272756284568
 20
205.4181737216162
 30
0.0
 10
298.4251393638737
 20
205.4235825220511
 30
0.0
 10
298.4208687659634
 20
205.4343952331807
 30
0.0
 10
298.408925955274
 20
205.448168547263
 30
0.0
 10
298.3939049987695
 20
205.4584482914113
 30
0.0
 10
298.3827686160154
 20
205.462723768397
 30
0.0
 10
298.3771955605655
 20
205.4648633743033
 30
0.0
  0
SPLINE
  5
166
330
1F
100
AcDbEntity
  8
0
  6
Continuous
 62
     7
370
    25
100
AcDbSpline
210
0.0
220
0.0
230
1.0
 70
     8
 71
     3
 72
    10
 73
     6
 74
     0
 42
0.000000001
 43
0.00000001
 40
0.0
 40
0.0
 40
0.0
 40
0.0
 40
0.3341935346191317
 40
0.6671264745306527
 40
1.0
 40
1.0
 40
1.0
 40
1.0
 10
298.4060348268783
 20
205.3514687469367
 30
0.0
 10
298.4116800359525
 20
205.3572959251505
 30
0.0
 10
298.4229491600901
 20
205.3689283011708
 30
0.0
 10
298.4321858635736
 20
205.3926722216264
 30
0.0
 10
298.4289122761209
 20
205.4096737273396
 30
0.0
 10
298.4272756284568
 20
205.4181737216162
 30
0.0
  0
LINE
  5
167
330
1F
100
AcDbEntity
  8
0
  6
Continuous
 62
     7
370
    25
100
AcDbLine
 10
298.492296579
 20
205.113016418
 30
0.0
 11
298.4928681785
 21
205.1136609066
 31
0.0
  0
LINE
  5
168
330
1F
100
AcDbEntity
  8
0
  6
Continuous
 62
     7
370
    25
100
AcDbLine
 10
298.234794754
 20
205.4629755352
 30
0.0
 11
298.2353281543
 21
205.463737589
 31
0.0
  0
LINE
  5
169
330
1F
100
AcDbEntity
  8
0
  6
Continuous
 62
     7
370
    25
100
AcDbLine
 10
298.4272756285
 20
205.4181737216
 30
0.0
 11
298.4278169268
 21
205.4189114676
 31
0.0
  0
LINE
  5
16A
330
1F
100
AcDbEntity
  8
0
  6
Continuous
 62
     7
370
    25
100
AcDbLine
 10
298.1608976886
 20
208.1341568611
 30
0.0
 11
300.8636096717
 21
199.8160646851
 31
0.0
  0
ARC
  5
16B
330
1F
100
AcDbEntity
  8
0
  6
Continuous
 62
     7
370
    25
100
AcDbCircle
 10
300.705251381
 20
199.7780221523
 30
0.0
 40
0.1628636930761597
100
AcDbArc
 50
301.0018952571
 51
13.508234223
  0
ARC
  5
16C
330
1F
100
AcDbEntity
  8
0
  6
Continuous
 62
     7
370
    25
100
AcDbCircle
 10
298.0104223005
 20
208.0718532489
 30
0.0
 40
0.1628636930761886
100
AcDbArc
 50
22.491765777
 51
94.998104743
  0
LINE
  5
16D
330
1F
100
AcDbEntity
  8
0
  6
Continuous
 62
     7
370
    25
100
AcDbLine
 10
298.3771955606
 20
205.4648633743
 30
0.0
 11
298.3777314504
 21
205.465617766
 31
0.0
  0
SPLINE
  5
16E
330
1F
100
AcDbEntity
  8
0
  6
Continuous
 62
     7
370
    25
100
AcDbSpline
210
0.0
220
0.0
230
1.0
 70
    11
 71
     3
 72
    23
 73
    19
 74
     0
 42
0.000000001
 43
0.00000001
 40
0.0
 40
0.0
 40
0.0
 40
0.0
 40
0.0623466001878552
 40
0.1250380084989562
 40
0.1876192900816288
 40
0.2501213159404438
 40
0.3126791307554976
 40
0.3751791279510017
 40
0.4377078294553754
 40
0.5002602307751731
 40
0.5627627381277958
 40
0.6253510717303011
 40
0.6878411966132023
 40
0.750409232742465
 40
0.8129292318582129
 40
0.8754921505832487
 40
0.938221249580495
 40
1.0
 40
1.0
 40
1.0
 40
1.0
 10
299.4768859644472
 20
200.038188141122
 30
0.0
 10
299.4901410349401
 20
200.0737567472899
 30
0.0
 10
299.5167244831465
 20
200.1450906719453
 30
0.0
 10
299.5080965907879
 20
200.2497000151317
 30
0.0
 10
299.461031209111
 20
200.3320728309931
 30
0.0
 10
299.3812597409828
 20
200.3804725547987
 30
0.0
 10
299.2822092989022
 20
200.3875620009933
 30
0.0
 10
299.179217216068
 20
200.3507006885739
 30
0.0
 10
299.0880740352846
 20
200.2766248241109
 30
0.0
 10
299.0230578738577
 20
200.1756572905569
 30
0.0
 10
298.9927089551643
 20
200.0643101488043
 30
0.0
 10
299.0016500993666
 20
199.9596523764349
 30
0.0
 10
299.0482345899925
 20
199.8781333241066
 30
0.0
 10
299.1250277477675
 20
199.8314480186207
 30
0.0
 10
299.2216921987788
 20
199.8270199971493
 30
0.0
 10
299.3231254299591
 20
199.8647335328011
 30
0.0
 10
299.4164379525786
 20
199.9381905038786
 30
0.0
 10
299.4568394198118
 20
200.0050256426963
 30
0.0
 10
299.4768859644472
 20
200.038188141122
 30
0.0
  0
SPLINE
  5
16F
330
1F
100
AcDbEntity
  8
0
  6
Continuous
 62
     7
370
    25
100
AcDbSpline
210
0.0
220
0.0
230
1.0
 70
    11
 71
     3
 72
    23
 73
    19
 74
     0
 42
0.000000001
 43
0.00000001
 40
0.0
 40
0.0
 40
0.0
 40
0.0
 40
0.0625087269204065
 40
0.1250171218339365
 40
0.1875202443599515
 40
0.2500162727500606
 40
0.3125075987227103
 40
0.3749993713655986
 40
0.4374963791695169
 40
0.5000002651215951
 40
0.5625087091231085
 40
0.6250168400561203
 40
0.6875199602584421
 40
0.7500161837614603
 40
0.8125076155787874
 40
0.8749992581198953
 40
0.9374960806015012
 40
1.0
 40
1.0
 40
1.0
 40
1.0
 10
297.2301313391142
 20
206.7523353158425
 30
0.0
 10
297.2299109102462
 20
206.7681267877998
 30
0.0
 10
297.2294700536808
 20
206.7997096478399
 30
0.0
 10
297.2005508731029
 20
206.8453004761131
 30
0.0
 10
297.1553959038841
 20
206.8807744145495
 30
0.0
 10
297.0989002824161
 20
206.9013002707754
 30
0.0
 10
297.0402638986354
 20
206.9038148270289
 30
0.0
 10
296.9882886748581
 20
206.8880236688625
 30
0.0
 10
296.9509020653427
 20
206.8562421632844
 30
0.0
 10
296.933728705366
 20
206.8131383087665
 30
0.0
 10
296.9393312716434
 20
206.7651113611505
 30
0.0
 10
296.9668318584743
 20
206.719415015841
 30
0.0
 10
297.0120800938994
 20
206.683081197836
 30
0.0
 10
297.0682059406547
 20
206.6618169574473
 30
0.0
 10
297.1268661835023
 20
206.6589940057173
 30
0.0
 10
297.17860518487
 20
206.6752113872255
 30
0.0
 10
297.2175533786204
 20
206.7075320561136
 30
0.0
 10
297.2259385269273
 20
206.7374003306758
 30
0.0
 10
297.2301313391142
 20
206.7523353158425
 30
0.0
  0
SPLINE
  5
170
330
1F
100
AcDbEntity
  8
0
  6
Continuous
 62
     7
370
    25
100
AcDbSpline
210
0.0
220
0.0
230
1.0
 70
     8
 71
     3
 72
    13
 73
     9
 74
     0
 42
0.000000001
 43
0.00000001
 40
0.0
 40
0.0
 40
0.0
 40
0.0
 40
0.1251184144110742
 40
0.2500611703263086
 40
0.3733319042016495
 40
0.5000061642944128
 40
0.7495054703154885
 40
1.0
 40
1.0
 40
1.0
 40
1.0
 10
299.5262132557505
 20
200.6415654609233
 30
0.0
 10
299.5227662405274
 20
200.6549287488122
 30
0.0
 10
299.5158770494769
 20
200.6816365633624
 30
0.0
 10
299.5185726497804
 20
200.7266179307904
 30
0.0
 10
299.5336135443001
 20
200.771477336644
 30
0.0
 10
299.5679326057661
 20
200.8255094803437
 30
0.0
 10
299.6267341248097
 20
200.8793067852255
 30
0.0
 10
299.6784166053848
 20
200.910419343539
 30
0.0
 10
299.7043092819341
 20
200.9260065870317
 30
0.0
  0
SPLINE
  5
171
330
1F
100
AcDbEntity
  8
0
  6
Continuous
 62
     7
370
    25
100
AcDbSpline
210
0.0
220
0.0
230
1.0
 70
     8
 71
     3
 72
    13
 73
     9
 74
     0
 42
0.000000001
 43
0.00000001
 40
0.0
 40
0.0
 40
0.0
 40
0.0
 40
0.2505015521607409
 40
0.5000525987393246
 40
0.6264952240746611
 40
0.7499659006311961
 40
0.8748525784796041
 40
1.0
 40
1.0
 40
1.0
 40
1.0
 10
299.7043092819341
 20
200.9260065870317
 30
0.0
 10
299.7305150852814
 20
200.9403163929874
 30
0.0
 10
299.782827256415
 20
200.9688817076287
 30
0.0
 10
299.8526158013161
 20
200.988568745519
 30
0.0
 10
299.9063462193108
 20
200.9865242275481
 30
0.0
 10
299.9423438056598
 20
200.9718575397017
 30
0.0
 10
299.9688271324025
 20
200.9434148114148
 30
0.0
 10
299.9785884052441
 20
200.9184929099096
 30
0.0
 10
299.9834741313509
 20
200.9060189644733
 30
0.0
  0
SPLINE
  5
172
330
1F
100
AcDbEntity
  8
0
  6
Continuous
 62
     7
370
    25
100
AcDbSpline
210
0.0
220
0.0
230
1.0
 70
     8
 71
     3
 72
    13
 73
     9
 74
     0
 42
0.000000001
 43
0.00000001
 40
0.0
 40
0.0
 40
0.0
 40
0.0
 40
0.1251450025344915
 40
0.2500599250222413
 40
0.3701772573018853
 40
0.4999969842027634
 40
0.7494643987529623
 40
1.0
 40
1.0
 40
1.0
 40
1.0
 10
299.9834741313509
 20
200.9060189644733
 30
0.0
 10
299.9869222366589
 20
200.8928767281769
 30
0.0
 10
299.993812107907
 20
200.8666164176863
 30
0.0
 10
299.9915038380306
 20
200.8230287328312
 30
0.0
 10
299.9765213284892
 20
200.7790450616964
 30
0.0
 10
299.9424620223856
 20
200.7257801762397
 30
0.0
 10
299.8838367851745
 20
200.672075805775
 30
0.0
 10
299.8326327942483
 20
200.6415286613612
 30
0.0
 10
299.8069761036932
 20
200.6262224592979
 30
0.0
  0
SPLINE
  5
173
330
1F
100
AcDbEntity
  8
0
  6
Continuous
 62
     7
370
    25
100
AcDbSpline
210
0.0
220
0.0
230
1.0
 70
     8
 71
     3
 72
     9
 73
     5
 74
     0
 42
0.000000001
 43
0.00000001
 40
0.0
 40
0.0
 40
0.0
 40
0.0
 40
0.5015966211652897
 40
1.0
 40
1.0
 40
1.0
 40
1.0
 10
299.8069761036932
 20
200.6262224592979
 30
0.0
 10
299.7765723523867
 20
200.6090564482112
 30
0.0
 10
299.7159584047968
 20
200.574833707542
 30
0.0
 10
299.6531022438397
 20
200.5668281500333
 30
0.0
 10
299.6217745208381
 20
200.5628381531215
 30
0.0
  0
SPLINE
  5
174
330
1F
100
AcDbEntity
  8
0
  6
Continuous
 62
     7
370
    25
100
AcDbSpline
210
0.0
220
0.0
230
1.0
 70
     8
 71
     3
 72
    12
 73
     8
 74
     0
 42
0.000000001
 43
0.00000001
 40
0.0
 40
0.0
 40
0.0
 40
0.0
 40
0.2499744251564509
 40
0.499769493166152
 40
0.7495452907731947
 40
0.8747439722087883
 40
1.0
 40
1.0
 40
1.0
 40
1.0
 10
299.6217738715526
 20
200.5628382294789
 30
0.0
 10
299.6107467348282
 20
200.5645303439522
 30
0.0
 10
299.5887003733719
 20
200.5679133588032
 30
0.0
 10
299.5605119334616
 20
200.5844216961924
 30
0.0
 10
299.5426479882601
 20
200.6052798834059
 30
0.0
 10
299.5321382156894
 20
200.6252251928026
 30
0.0
 10
299.5281885438475
 20
200.6361178735211
 30
0.0
 10
299.5262132557505
 20
200.6415654609233
 30
0.0
  0
SPLINE
  5
175
330
1F
100
AcDbEntity
  8
0
  6
Continuous
 62
     7
370
    25
100
AcDbSpline
210
0.0
220
0.0
230
1.0
 70
     8
 71
     3
 72
    11
 73
     7
 74
     0
 42
0.000000001
 43
0.00000001
 40
0.0
 40
0.0
 40
0.0
 40
0.0
 40
0.2498712548602514
 40
0.4996515344798655
 40
0.7496147673117224
 40
1.0
 40
1.0
 40
1.0
 40
1.0
 10
299.9064223817022
 20
200.8616439264961
 30
0.0
 10
299.9044905783812
 20
200.8663620851109
 30
0.0
 10
299.9006276750864
 20
200.8757966845134
 30
0.0
 10
299.8895560783875
 20
200.8854479205783
 30
0.0
 10
299.8760016436634
 20
200.8909703222063
 30
0.0
 10
299.8659198527999
 20
200.8916304932952
 30
0.0
 10
299.8608747058168
 20
200.8919608572378
 30
0.0
  0
SPLINE
  5
176
330
1F
100
AcDbEntity
  8
0
  6
Continuous
 62
     7
370
    25
100
AcDbSpline
210
0.0
220
0.0
230
1.0
 70
     8
 71
     3
 72
     9
 73
     5
 74
     0
 42
0.000000001
 43
0.00000001
 40
0.0
 40
0.0
 40
0.0
 40
0.0
 40
0.498618481386756
 40
1.0
 40
1.0
 40
1.0
 40
1.0
 10
299.8608747058168
 20
200.8919608572378
 30
0.0
 10
299.8390824264152
 20
200.8879119380102
 30
0.0
 10
299.7953771081908
 20
200.8797916629327
 30
0.0
 10
299.7537877304117
 20
200.8561139767626
 30
0.0
 10
299.7329355850227
 20
200.8442424225133
 30
0.0
  0
SPLINE
  5
177
330
1F
100
AcDbEntity
  8
0
  6
Continuous
 62
     7
370
    25
100
AcDbSpline
210
0.0
220
0.0
230
1.0
 70
     8
 71
     3
 72
    13
 73
     9
 74
     0
 42
0.000000001
 43
0.00000001
 40
0.0
 40
0.0
 40
0.0
 40
0.0
 40
0.5001446823876512
 40
0.6252855640042807
 40
0.7502824509020144
 40
0.8748517432010982
 40
0.9373967543515677
 40
1.0
 40
1.0
 40
1.0
 40
1.0
 10
299.7329355850227
 20
200.8442424225133
 30
0.0
 10
299.7021771809842
 20
200.8260504313393
 30
0.0
 10
299.6637227363119
 20
200.80330663367
 30
0.0
 10
299.6244979903823
 20
200.7637941509127
 30
0.0
 10
299.6091927548308
 20
200.7400486663173
 30
0.0
 10
299.6019094379487
 20
200.7179304758105
 30
0.0
 10
299.6012822510643
 20
200.7004890106938
 30
0.0
 10
299.6033613201639
 20
200.6926676169254
 30
0.0
 10
299.6044013384341
 20
200.6887551002997
 30
0.0
  0
SPLINE
  5
178
330
1F
100
AcDbEntity
  8
0
  6
Continuous
 62
     7
370
    25
100
AcDbSpline
210
0.0
220
0.0
230
1.0
 70
     8
 71
     3
 72
    13
 73
     9
 74
     0
 42
0.000000001
 43
0.00000001
 40
0.0
 40
0.0
 40
0.0
 40
0.0
 40
0.1244925679189015
 40
0.1866188962460016
 40
0.2496299294625931
 40
0.3591224997428248
 40
0.499736568932177
 40
1.0
 40
1.0
 40
1.0
 40
1.0
 10
299.6044013384341
 20
200.6887551002997
 30
0.0
 10
299.6078471731846
 20
200.6813908151593
 30
0.0
 10
299.6130126050537
 20
200.670351483354
 30
0.0
 10
299.625535856813
 20
200.6613397379795
 30
0.0
 10
299.6389813235957
 20
200.6558752649167
 30
0.0
 10
299.6596101575232
 20
200.6555265906955
 30
0.0
 10
299.7098373881778
 20
200.6671528833218
 30
0.0
 10
299.7510344764449
 20
200.6903845218339
 30
0.0
 10
299.7831925670602
 20
200.7085189378288
 30
0.0
  0
SPLINE
  5
179
330
1F
100
AcDbEntity
  8
0
  6
Continuous
 62
     7
370
    25
100
AcDbSpline
210
0.0
220
0.0
230
1.0
 70
     8
 71
     3
 72
    12
 73
     8
 74
     0
 42
0.000000001
 43
0.00000001
 40
0.0
 40
0.0
 40
0.0
 40
0.0
 40
0.5003787383999775
 40
0.6264183582887495
 40
0.7507141396954748
 40
0.8753968028127092
 40
1.0
 40
1.0
 40
1.0
 40
1.0
 10
299.7831925670602
 20
200.7085189378288
 30
0.0
 10
299.8133434382551
 20
200.7262570863577
 30
0.0
 10
299.8510889653638
 20
200.7484632694504
 30
0.0
 10
299.8887522727957
 20
200.7881849544669
 30
0.0
 10
299.902926880551
 20
200.8116683792166
 30
0.0
 10
299.9111975574789
 20
200.8379179431406
 30
0.0
 10
299.9080137686577
 20
200.8537369462749
 30
0.0
 10
299.9064223817022
 20
200.8616439264961
 30
0.0
  0
LINE
  5
17A
330
1F
100
AcDbEntity
  8
0
  6
Continuous
 62
     7
370
    25
100
AcDbLine
 10
299.5262132558
 20
200.6415654609
 30
0.0
 11
299.5252086174
 21
200.6422537289
 31
0.0
  0
LINE
  5
17B
330
1F
100
AcDbEntity
  8
0
  6
Continuous
 62
     7
370
    25
100
AcDbLine
 10
299.7043092819
 20
200.926006587
 30
0.0
 11
299.7033201219
 21
200.9266472175
 31
0.0
  0
SPLINE
  5
17C
330
1F
100
AcDbEntity
  8
0
  6
Continuous
 62
     7
370
    25
100
AcDbSpline
210
0.0
220
0.0
230
1.0
 70
     8
 71
     3
 72
    12
 73
     8
 74
     0
 42
0.000000001
 43
0.00000001
 40
0.0
 40
0.0
 40
0.0
 40
0.0
 40
0.5004189696252778
 40
0.6264639326962571
 40
0.7507567508741718
 40
0.8754238509092117
 40
1.0
 40
1.0
 40
1.0
 40
1.0
 10
299.7821811569029
 20
200.7092280472692
 30
0.0
 10
299.8123317635404
 20
200.7269658436102
 30
0.0
 10
299.8500766708158
 20
200.7491714159958
 30
0.0
 10
299.8877418870055
 20
200.7888884474684
 30
0.0
 10
299.9019177176214
 20
200.8123672352635
 30
0.0
 10
299.9101908954545
 20
200.838611204147
 30
0.0
 10
299.9070085687968
 20
200.8544266233526
 30
0.0
 10
299.9054179860967
 20
200.8623314473661
 30
0.0
  0
SPLINE
  5
17D
330
1F
100
AcDbEntity
  8
0
  6
Continuous
 62
     7
370
    25
100
AcDbSpline
210
0.0
220
0.0
230
1.0
 70
     8
 71
     3
 72
    13
 73
     9
 74
     0
 42
0.000000001
 43
0.00000001
 40
0.0
 40
0.0
 40
0.0
 40
0.0
 40
0.1244657118204992
 40
0.1865824484048078
 40
0.2495875181199025
 40
0.3590786292330918
 40
0.4996989116947429
 40
1.0
 40
1.0
 40
1.0
 40
1.0
 10
299.6033969107386
 20
200.6894427199329
 30
0.0
 10
299.6068420712174
 20
200.6820807634857
 30
0.0
 10
299.6120065977998
 20
200.6710446970952
 30
0.0
 10
299.624528425639
 20
200.6620373803763
 30
0.0
 10
299.6379731569564
 20
200.6565763065359
 30
0.0
 10
299.6586009918534
 20
200.656231092715
 30
0.0
 10
299.7088269575671
 20
200.6678620428915
 30
0.0
 10
299.7500233725307
 20
200.6910935837871
 30
0.0
 10
299.7821811569029
 20
200.7092280472692
 30
0.0
  0
LINE
  5
17E
330
1F
100
AcDbEntity
  8
0
  6
Continuous
 62
     7
370
    25
100
AcDbLine
 10
299.7821811569
 20
200.7092280473
 30
0.0
 11
299.7831925671
 21
200.7085189378
 31
0.0
  0
LINE
  5
17F
330
1F
100
AcDbEntity
  8
0
  6
Continuous
 62
     7
370
    25
100
AcDbLine
 10
299.9054179861
 20
200.8623314474
 30
0.0
 11
299.9064223817
 21
200.8616439265
 31
0.0
  0
LINE
  5
180
330
1F
100
AcDbEntity
  8
0
  6
Continuous
 62
     7
370
    25
100
AcDbLine
 10
299.6755409388
 20
200.5116938703
 30
0.0
 11
299.6745182538
 21
200.5124376801
 31
0.0
  0
LINE
  5
181
330
1F
100
AcDbEntity
  8
0
  6
Continuous
 62
     7
370
    25
100
AcDbLine
 10
299.6002941441
 20
200.4666496477
 30
0.0
 11
299.6755409388
 21
200.5116938703
 31
0.0
  0
LINE
  5
182
330
1F
100
AcDbEntity
  8
0
  6
Continuous
 62
     7
370
    25
100
AcDbLine
 10
299.6002941441
 20
200.4666496477
 30
0.0
 11
299.5992713894
 21
200.4673936722
 31
0.0
  0
LINE
  5
183
330
1F
100
AcDbEntity
  8
0
  6
Continuous
 62
     7
370
    25
100
AcDbLine
 10
299.6632413091
 20
200.2744646382
 30
0.0
 11
299.6621995272
 21
200.2752672223
 31
0.0
  0
LINE
  5
184
330
1F
100
AcDbEntity
  8
0
  6
Continuous
 62
     7
370
    25
100
AcDbLine
 10
299.6632413091
 20
200.2744646382
 30
0.0
 11
299.6002941441
 21
200.4666496477
 31
0.0
  0
LINE
  5
185
330
1F
100
AcDbEntity
  8
0
  6
Continuous
 62
     7
370
    25
100
AcDbLine
 10
299.6755409388
 20
200.5116938703
 30
0.0
 11
299.7199238683
 21
200.3774130459
 31
0.0
  0
LINE
  5
186
330
1F
100
AcDbEntity
  8
0
  6
Continuous
 62
     7
370
    25
100
AcDbLine
 10
299.7199238683
 20
200.3774130459
 30
0.0
 11
299.8035583063
 21
200.4076052205
 31
0.0
  0
LINE
  5
187
330
1F
100
AcDbEntity
  8
0
  6
Continuous
 62
     7
370
    25
100
AcDbLine
 10
299.803558381
 20
200.4076052911
 30
0.0
 11
299.7907991831
 21
200.4314506457
 31
0.0
  0
SPLINE
  5
188
330
1F
100
AcDbEntity
  8
0
  6
Continuous
 62
     7
370
    25
100
AcDbSpline
210
0.0
220
0.0
230
1.0
 70
     8
 71
     3
 72
    13
 73
     9
 74
     0
 42
0.000000001
 43
0.00000001
 40
0.0
 40
0.0
 40
0.0
 40
0.0
 40
0.2493497925799044
 40
0.3732161785359785
 40
0.4998308883735033
 40
0.6260619068612677
 40
0.7503146606016297
 40
1.0
 40
1.0
 40
1.0
 40
1.0
 10
299.790798658822
 20
200.4314520997559
 30
0.0
 10
299.7868073899351
 20
200.4500774645571
 30
0.0
 10
299.7808334281922
 20
200.4779551194893
 30
0.0
 10
299.7886420872303
 20
200.5197964066725
 30
0.0
 10
299.8001404667618
 20
200.5507219128676
 30
0.0
 10
299.8166823808088
 20
200.5801104146646
 30
0.0
 10
299.8446903965817
 20
200.6155928751018
 30
0.0
 10
299.8715348796661
 20
200.634171485509
 30
0.0
 10
299.88945943454
 20
200.6465767652336
 30
0.0
  0
SPLINE
  5
189
330
1F
100
AcDbEntity
  8
0
  6
Continuous
 62
     7
370
    25
100
AcDbSpline
210
0.0
220
0.0
230
1.0
 70
     8
 71
     3
 72
    11
 73
     7
 74
     0
 42
0.000000001
 43
0.00000001
 40
0.0
 40
0.0
 40
0.0
 40
0.0
 40
0.2501147198117513
 40
0.5000591530775369
 40
0.7499822953594723
 40
1.0
 40
1.0
 40
1.0
 40
1.0
 10
299.88945943454
 20
200.6465767652336
 30
0.0
 10
299.9095742827685
 20
200.6564713990595
 30
0.0
 10
299.9497902843577
 20
200.6762539301104
 30
0.0
 10
300.009893549608
 20
200.672492000247
 30
0.0
 10
300.0606165106554
 20
200.6470553635154
 30
0.0
 10
300.0766913900395
 20
200.612192625338
 30
0.0
 10
300.0847303499898
 20
200.5947579591565
 30
0.0
  0
SPLINE
  5
18A
330
1F
100
AcDbEntity
  8
0
  6
Continuous
 62
     7
370
    25
100
AcDbSpline
210
0.0
220
0.0
230
1.0
 70
     8
 71
     3
 72
    11
 73
     7
 74
     0
 42
0.000000001
 43
0.00000001
 40
0.0
 40
0.0
 40
0.0
 40
0.0
 40
0.2502235732092052
 40
0.5000884391592643
 40
0.7498457273135316
 40
1.0
 40
1.0
 40
1.0
 40
1.0
 10
300.0847303499898
 20
200.5947579591565
 30
0.0
 10
300.0886305117681
 20
200.5778173470458
 30
0.0
 10
300.0964252442593
 20
200.5439604079886
 30
0.0
 10
300.0847299330788
 20
200.4859604755685
 30
0.0
 10
300.0562325006434
 20
200.4301862222282
 30
0.0
 10
300.0265873636983
 20
200.4013537661668
 30
0.0
 10
300.0117530244829
 20
200.3869260900721
 30
0.0
  0
LINE
  5
18B
330
1F
100
AcDbEntity
  8
0
  6
Continuous
 62
     7
370
    25
100
AcDbLine
 10
300.0117530245
 20
200.3869260901
 30
0.0
 11
299.9863624324
 21
200.4678810438
 31
0.0
  0
SPLINE
  5
18C
330
1F
100
AcDbEntity
  8
0
  6
Continuous
 62
     7
370
    25
100
AcDbSpline
210
0.0
220
0.0
230
1.0
 70
     8
 71
     3
 72
    11
 73
     7
 74
     0
 42
0.000000001
 43
0.00000001
 40
0.0
 40
0.0
 40
0.0
 40
0.0
 40
0.2503609227097407
 40
0.5003549716560501
 40
0.7501812288679259
 40
1.0
 40
1.0
 40
1.0
 40
1.0
 10
299.9863624324064
 20
200.467881043802
 30
0.0
 10
299.9911179769798
 20
200.4743345912471
 30
0.0
 10
300.0006220974491
 20
200.4872322292412
 30
0.0
 10
300.0093188189447
 20
200.5091650178759
 30
0.0
 10
300.0128381053245
 20
200.5314182049692
 30
0.0
 10
300.0098619558376
 20
200.5444887958273
 30
0.0
 10
300.0083739033897
 20
200.5510239933394
 30
0.0
  0
SPLINE
  5
18D
330
1F
100
AcDbEntity
  8
0
  6
Continuous
 62
     7
370
    25
100
AcDbSpline
210
0.0
220
0.0
230
1.0
 70
     8
 71
     3
 72
    13
 73
     9
 74
     0
 42
0.000000001
 43
0.00000001
 40
0.0
 40
0.0
 40
0.0
 40
0.0
 40
0.2491646507024021
 40
0.3729077973017585
 40
0.4997327286732772
 40
0.6250318025645745
 40
0.750276658545753
 40
1.0
 40
1.0
 40
1.0
 40
1.0
 10
300.0083735006953
 20
200.5510253903934
 30
0.0
 10
300.0046772443861
 20
200.5589673776391
 30
0.0
 10
299.9991453087979
 20
200.5708536101431
 30
0.0
 10
299.9851272928589
 20
200.5800823546969
 30
0.0
 10
299.9730886477196
 20
200.5842429036821
 30
0.0
 10
299.9598566923073
 20
200.5856983094004
 30
0.0
 10
299.9412291679684
 20
200.5832737492606
 30
0.0
 10
299.927530156671
 20
200.5762529031462
 30
0.0
 10
299.9184068152805
 20
200.5715771222039
 30
0.0
  0
SPLINE
  5
18E
330
1F
100
AcDbEntity
  8
0
  6
Continuous
 62
     7
370
    25
100
AcDbSpline
210
0.0
220
0.0
230
1.0
 70
     8
 71
     3
 72
    12
 73
     8
 74
     0
 42
0.000000001
 43
0.00000001
 40
0.0
 40
0.0
 40
0.0
 40
0.0
 40
0.2502314325085285
 40
0.4998960182221227
 40
0.6285584136776232
 40
0.7507642887923154
 40
1.0
 40
1.0
 40
1.0
 40
1.0
 10
299.9184068152805
 20
200.5715771222039
 30
0.0
 10
299.910105297861
 20
200.5659236758782
 30
0.0
 10
299.8935210683677
 20
200.554629589923
 30
0.0
 10
299.877948119776
 20
200.5327173620212
 30
0.0
 10
299.8699848085843
 20
200.5140920543776
 30
0.0
 10
299.8652869641038
 20
200.4947714030131
 30
0.0
 10
299.8677202305045
 20
200.4818096148213
 30
0.0
 10
299.8693529418224
 20
200.4731123105412
 30
0.0
  0
SPLINE
  5
18F
330
1F
100
AcDbEntity
  8
0
  6
Continuous
 62
     7
370
    25
100
AcDbSpline
210
0.0
220
0.0
230
1.0
 70
     8
 71
     3
 72
    10
 73
     6
 74
     0
 42
0.000000001
 43
0.00000001
 40
0.0
 40
0.0
 40
0.0
 40
0.0
 40
0.250040371233884
 40
0.5003148379223525
 40
1.0
 40
1.0
 40
1.0
 40
1.0
 10
299.8693532832744
 20
200.47311107446
 30
0.0
 10
299.871306953326
 20
200.4685922214041
 30
0.0
 10
299.8752161225148
 20
200.4595502846036
 30
0.0
 10
299.8891428471406
 20
200.4467811958753
 30
0.0
 10
299.9028652758213
 20
200.4426555871069
 30
0.0
 10
299.9120082933071
 20
200.4399067651611
 30
0.0
  0
LINE
  5
190
330
1F
100
AcDbEntity
  8
0
  6
Continuous
 62
     7
370
    25
100
AcDbLine
 10
299.9120083866
 20
200.4399067429
 30
0.0
 11
299.9170546618
 21
200.3680574429
 31
0.0
  0
LINE
  5
191
330
1F
100
AcDbEntity
  8
0
  6
Continuous
 62
     7
370
    25
100
AcDbLine
 10
299.9170545727
 20
200.36805741
 30
0.0
 11
299.6632413091
 21
200.2744646382
 31
0.0
  0
LINE
  5
192
330
1F
100
AcDbEntity
  8
0
  6
Continuous
 62
     7
370
    25
100
AcDbLine
 10
299.8894594345
 20
200.6465767652
 30
0.0
 11
299.8884375317
 21
200.647318168
 31
0.0
  0
LINE
  5
193
330
1F
100
AcDbEntity
  8
0
  6
Continuous
 62
     7
370
    25
100
AcDbLine
 10
299.7907986588
 20
200.4314520998
 30
0.0
 11
299.7897635514
 21
200.4322341418
 31
0.0
  0
LINE
  5
194
330
1F
100
AcDbEntity
  8
0
  6
Continuous
 62
     7
370
    25
100
AcDbLine
 10
299.8035584066
 20
200.4076052568
 30
0.0
 11
299.8025206628
 21
200.4083954129
 31
0.0
  0
LINE
  5
195
330
1F
100
AcDbEntity
  8
0
  6
Continuous
 62
     7
370
    25
100
AcDbLine
 10
300.0083735007
 20
200.5510253904
 30
0.0
 11
300.0073374858
 21
200.5518102255
 31
0.0
  0
LINE
  5
196
330
1F
100
AcDbEntity
  8
0
  6
Continuous
 62
     7
370
    25
100
AcDbLine
 10
299.9120083866
 20
200.4399067429
 30
0.0
 11
299.9109678711
 21
200.4407054293
 31
0.0
  0
LINE
  5
197
330
1F
100
AcDbEntity
  8
0
  6
Continuous
 62
     7
370
    25
100
AcDbLine
 10
299.9863624324
 20
200.4678810438
 30
0.0
 11
299.9853204857
 21
200.4686841349
 31
0.0
  0
LINE
  5
198
330
1F
100
AcDbEntity
  8
0
  6
Continuous
 62
     7
370
    25
100
AcDbLine
 10
300.0117530245
 20
200.3869260901
 30
0.0
 11
300.0107029231
 21
200.3877542788
 31
0.0
  0
LINE
  5
199
330
1F
100
AcDbEntity
  8
0
  6
Continuous
 62
     7
370
    25
100
AcDbLine
 10
299.7584334017
 20
199.977224592
 30
0.0
 11
299.722387546
 21
200.0884543787
 31
0.0
  0
LINE
  5
19A
330
1F
100
AcDbEntity
  8
0
  6
Continuous
 62
     7
370
    25
100
AcDbLine
 10
299.722387546
 20
200.0884543787
 30
0.0
 11
300.1493437694
 21
200.3557032524
 31
0.0
  0
LINE
  5
19B
330
1F
100
AcDbEntity
  8
0
  6
Continuous
 62
     7
370
    25
100
AcDbLine
 10
300.1493437694
 20
200.3557032524
 30
0.0
 11
300.1734618221
 21
200.2816602343
 31
0.0
  0
LINE
  5
19C
330
1F
100
AcDbEntity
  8
0
  6
Continuous
 62
     7
370
    25
100
AcDbLine
 10
300.1734618221
 20
200.2816602343
 30
0.0
 11
299.8229119673
 21
200.0622187788
 31
0.0
  0
LINE
  5
19D
330
1F
100
AcDbEntity
  8
0
  6
Continuous
 62
     7
370
    25
100
AcDbLine
 10
299.8229119673
 20
200.0622187788
 30
0.0
 11
299.8483167343
 21
199.9824550728
 31
0.0
  0
LINE
  5
19E
330
1F
100
AcDbEntity
  8
0
  6
Continuous
 62
     7
370
    25
100
AcDbLine
 10
299.8483167343
 20
199.9824550728
 30
0.0
 11
299.7584334017
 21
199.977224592
 31
0.0
  0
LINE
  5
19F
330
1F
100
AcDbEntity
  8
0
  6
Continuous
 62
     7
370
    25
100
AcDbLine
 10
300.1493437694
 20
200.3557032524
 30
0.0
 11
300.1482838325
 21
200.3565617117
 31
0.0
  0
LINE
  5
1A0
330
1F
100
AcDbEntity
  8
0
  6
Continuous
 62
     7
370
    25
100
AcDbLine
 10
299.722387546
 20
200.0884543787
 30
0.0
 11
299.721327438
 21
200.0893133647
 31
0.0
  0
LINE
  5
1A1
330
1F
100
AcDbEntity
  8
0
  6
Continuous
 62
     7
370
    25
100
AcDbLine
 10
299.7584334017
 20
199.977224592
 30
0.0
 11
299.7573623014
 21
199.9781174087
 31
0.0
  0
SPLINE
  5
1A2
330
1F
100
AcDbEntity
  8
0
  6
Continuous
 62
     7
370
    25
100
AcDbSpline
210
0.0
220
0.0
230
1.0
 70
    11
 71
     3
 72
    23
 73
    19
 74
     0
 42
0.000000001
 43
0.00000001
 40
0.0
 40
0.0
 40
0.0
 40
0.0
 40
0.0623529891271138
 40
0.1250441514605815
 40
0.1876154907358909
 40
0.2501075545845807
 40
0.3126591351607582
 40
0.3751608703529699
 40
0.4376974155839798
 40
0.5002609497134477
 40
0.5627687402879266
 40
0.6253554674653617
 40
0.687839078530205
 40
0.7503958985951583
 40
0.8129094249211481
 40
0.8754737621876045
 40
0.9382116897747941
 40
1.0
 40
1.0
 40
1.0
 40
1.0
 10
296.8879155996677
 20
208.2595649904998
 30
0.0
 10
296.885252862998
 20
208.2821406665524
 30
0.0
 10
296.8799129482305
 20
208.3274144584773
 30
0.0
 10
296.8168565467899
 20
208.3907310195334
 30
0.0
 10
296.7212224444714
 20
208.4385682308495
 30
0.0
 10
296.6052326062383
 20
208.4651629720349
 30
0.0
 10
296.4872467960874
 20
208.4675434100483
 30
0.0
 10
296.3853779988116
 20
208.444739585181
 30
0.0
 10
296.3142702031532
 20
208.4002909263637
 30
0.0
 10
296.2858604311299
 20
208.3393290823509
 30
0.0
 10
296.3030925328047
 20
208.2708249143738
 30
0.0
 10
296.3641396389303
 20
208.2049723703667
 30
0.0
 10
296.4596297459673
 20
208.1526168487987
 30
0.0
 10
296.5748329768373
 20
208.1223001351923
 30
0.0
 10
296.6929057628284
 20
208.1198955718407
 30
0.0
 10
296.7948890766999
 20
208.1456201913581
 30
0.0
 10
296.868020182967
 20
208.1948653102361
 30
0.0
 10
296.8813175954211
 20
208.2381083519404
 30
0.0
 10
296.8879155996677
 20
208.2595649904998
 30
0.0
  0
LINE
  5
1A3
330
1F
100
AcDbEntity
  8
0
  6
Continuous
 62
     7
370
    25
100
AcDbLine
 10
297.0753745217
 20
208.1882560975
 30
0.0
 11
297.0751152506
 21
208.1866503612
 31
0.0
  0
LINE
  5
1A4
330
1F
100
AcDbEntity
  8
0
  6
Continuous
 62
     7
370
    25
100
AcDbLine
 10
297.3598242616
 20
208.1092518464
 30
0.0
 11
297.0753746144
 21
208.1882560722
 31
0.0
  0
LINE
  5
1A5
330
1F
100
AcDbEntity
  8
0
  6
Continuous
 62
     7
370
    25
100
AcDbLine
 10
297.3598242616
 20
208.1092518464
 30
0.0
 11
297.3595567482
 21
208.1076714768
 31
0.0
  0
LINE
  5
1A6
330
1F
100
AcDbEntity
  8
0
  6
Continuous
 62
     7
370
    25
100
AcDbLine
 10
297.0753745217
 20
208.1882560975
 30
0.0
 11
297.1002216432
 21
208.2392602826
 31
0.0
  0
LINE
  5
1A7
330
1F
100
AcDbEntity
  8
0
  6
Continuous
 62
     7
370
    25
100
AcDbLine
 10
297.1002216432
 20
208.2392602826
 30
0.0
 11
297.2928572989
 21
208.1867421165
 31
0.0
  0
SPLINE
  5
1A8
330
1F
100
AcDbEntity
  8
0
  6
Continuous
 62
     7
370
    25
100
AcDbSpline
210
0.0
220
0.0
230
1.0
 70
     8
 71
     3
 72
    12
 73
     8
 74
     0
 42
0.000000001
 43
0.00000001
 40
0.0
 40
0.0
 40
0.0
 40
0.0
 40
0.2495719914680009
 40
0.3731158872071991
 40
0.5004974952790507
 40
0.7500799493679855
 40
1.0
 40
1.0
 40
1.0
 40
1.0
 10
297.2928574040963
 20
208.1867421161514
 30
0.0
 10
297.2908017507853
 20
208.1996725362397
 30
0.0
 10
297.2877285016422
 20
208.2190038126976
 30
0.0
 10
297.3017278645547
 20
208.2414408729322
 30
0.0
 10
297.3229777347064
 20
208.260689119259
 30
0.0
 10
297.3623717426723
 20
208.2792621277443
 30
0.0
 10
297.4037850660122
 20
208.281976496633
 30
0.0
 10
297.4245057226017
 20
208.2833345983515
 30
0.0
  0
SPLINE
  5
1A9
330
1F
100
AcDbEntity
  8
0
  6
Continuous
 62
     7
370
    25
100
AcDbSpline
210
0.0
220
0.0
230
1.0
 70
     8
 71
     3
 72
    11
 73
     7
 74
     0
 42
0.000000001
 43
0.00000001
 40
0.0
 40
0.0
 40
0.0
 40
0.0
 40
0.2499850951129041
 40
0.4999008845914593
 40
0.7499436036084185
 40
1.0
 40
1.0
 40
1.0
 40
1.0
 10
297.4245057226017
 20
208.2833345983515
 30
0.0
 10
297.4460632826371
 20
208.2823095454616
 30
0.0
 10
297.4891724261098
 20
208.2802597238665
 30
0.0
 10
297.5493373511856
 20
208.2582692360075
 30
0.0
 10
297.5977136382355
 20
208.2271057229784
 30
0.0
 10
297.6104697767236
 20
208.2013196923467
 30
0.0
 10
297.6168480204036
 20
208.1884263244156
 30
0.0
  0
SPLINE
  5
1AA
330
1F
100
AcDbEntity
  8
0
  6
Continuous
 62
     7
370
    25
100
AcDbSpline
210
0.0
220
0.0
230
1.0
 70
     8
 71
     3
 72
    12
 73
     8
 74
     0
 42
0.000000001
 43
0.00000001
 40
0.0
 40
0.0
 40
0.0
 40
0.0
 40
0.2497878893744769
 40
0.37375450708425
 40
0.500623468534413
 40
0.7505177363100227
 40
1.0
 40
1.0
 40
1.0
 40
1.0
 10
297.6168480204036
 20
208.1884263244156
 30
0.0
 10
297.6191101354598
 20
208.1753746170661
 30
0.0
 10
297.6224949100376
 20
208.1558455099535
 30
0.0
 10
297.6095246119088
 20
208.1322365307255
 30
0.0
 10
297.5887183898184
 20
208.1118595741933
 30
0.0
 10
297.5513642544917
 20
208.0906335047765
 30
0.0
 10
297.5101464377334
 20
208.0870249930151
 30
0.0
 10
297.4895545324649
 20
208.0852222257122
 30
0.0
  0
SPLINE
  5
1AB
330
1F
100
AcDbEntity
  8
0
  6
Continuous
 62
     7
370
    25
100
AcDbSpline
210
0.0
220
0.0
230
1.0
 70
     8
 71
     3
 72
     9
 73
     5
 74
     0
 42
0.000000001
 43
0.00000001
 40
0.0
 40
0.0
 40
0.0
 40
0.0
 40
0.4985783857799169
 40
1.0
 40
1.0
 40
1.0
 40
1.0
 10
297.4895545324649
 20
208.0852222257122
 30
0.0
 10
297.4675051297829
 20
208.0868979296157
 30
0.0
 10
297.4232805839322
 20
208.0902588934105
 30
0.0
 10
297.3810164245746
 20
208.102908873163
 30
0.0
 10
297.3598242615659
 20
208.1092518464303
 30
0.0
  0
SPLINE
  5
1AC
330
1F
100
AcDbEntity
  8
0
  6
Continuous
 62
     7
370
    25
100
AcDbSpline
210
0.0
220
0.0
230
1.0
 70
     8
 71
     3
 72
    13
 73
     9
 74
     0
 42
0.000000001
 43
0.00000001
 40
0.0
 40
0.0
 40
0.0
 40
0.0
 40
0.249310063778239
 40
0.4987096028630565
 40
0.6236065873611307
 40
0.7492385011185078
 40
0.8745403452683105
 40
1.0
 40
1.0
 40
1.0
 40
1.0
 10
297.525752735653
 20
208.186330830706
 30
0.0
 10
297.5229712744043
 20
208.1918472244523
 30
0.0
 10
297.5174073536637
 20
208.2028819917326
 30
0.0
 10
297.4993614562927
 20
208.2138994784665
 30
0.0
 10
297.4830487890857
 20
208.2204166328123
 30
0.0
 10
297.4696649160973
 20
208.2238279918909
 30
0.0
 10
297.4558565476158
 20
208.2257783097654
 30
0.0
 10
297.4468050126869
 20
208.225879640309
 30
0.0
 10
297.442276397042
 20
208.2259303374657
 30
0.0
  0
SPLINE
  5
1AD
330
1F
100
AcDbEntity
  8
0
  6
Continuous
 62
     7
370
    25
100
AcDbSpline
210
0.0
220
0.0
230
1.0
 70
     8
 71
     3
 72
    14
 73
    10
 74
     0
 42
0.000000001
 43
0.00000001
 40
0.0
 40
0.0
 40
0.0
 40
0.0
 40
0.2492484916602248
 40
0.3748492835033614
 40
0.4994302710631857
 40
0.6260594354819834
 40
0.7496793522397536
 40
0.8747386526450198
 40
1.0
 40
1.0
 40
1.0
 40
1.0
 10
297.442276397042
 20
208.2259303374657
 30
0.0
 10
297.4334238903119
 20
208.2253806111171
 30
0.0
 10
297.4201104464355
 20
208.2245538677875
 30
0.0
 10
297.405603392415
 20
208.2194130743506
 30
0.0
 10
297.3965669754855
 20
208.2142473246559
 30
0.0
 10
297.389780377132
 20
208.2079210987401
 30
0.0
 10
297.3856149350402
 20
208.200621230534
 30
0.0
 10
297.3844537529685
 20
208.19263640593
 30
0.0
 10
297.3857536122584
 20
208.1871305273308
 30
0.0
 10
297.3864040664958
 20
208.1843753659892
 30
0.0
  0
SPLINE
  5
1AE
330
1F
100
AcDbEntity
  8
0
  6
Continuous
 62
     7
370
    25
100
AcDbSpline
210
0.0
220
0.0
230
1.0
 70
     8
 71
     3
 72
    13
 73
     9
 74
     0
 42
0.000000001
 43
0.00000001
 40
0.0
 40
0.0
 40
0.0
 40
0.0
 40
0.2492818469979433
 40
0.3716888617381978
 40
0.4998689020058188
 40
0.7492277506817683
 40
0.8745380455322719
 40
1.0
 40
1.0
 40
1.0
 40
1.0
 10
297.3864040664958
 20
208.1843753659892
 30
0.0
 10
297.3890527454029
 20
208.1789451371171
 30
0.0
 10
297.3930020279517
 20
208.1708484561403
 30
0.0
 10
297.4052720674316
 20
208.1615702332696
 30
0.0
 10
297.4196738428811
 20
208.1536839174482
 30
0.0
 10
297.4370620121279
 20
208.1480260674242
 30
0.0
 10
297.4550051833456
 20
208.1456427744023
 30
0.0
 10
297.4638713765466
 20
208.1454906419515
 30
0.0
 10
297.4683071541525
 20
208.1454145297236
 30
0.0
  0
SPLINE
  5
1AF
330
1F
100
AcDbEntity
  8
0
  6
Continuous
 62
     7
370
    25
100
AcDbSpline
210
0.0
220
0.0
230
1.0
 70
     8
 71
     3
 72
    12
 73
     8
 74
     0
 42
0.000000001
 43
0.00000001
 40
0.0
 40
0.0
 40
0.0
 40
0.0
 40
0.2499654939133215
 40
0.4995326708485865
 40
0.7491807308971616
 40
0.8745085216314878
 40
1.0
 40
1.0
 40
1.0
 40
1.0
 10
297.4683071541525
 20
208.1454145297236
 30
0.0
 10
297.4770328052887
 20
208.1460070049826
 30
0.0
 10
297.494470203342
 20
208.1471910113985
 30
0.0
 10
297.5145670493104
 20
208.1566177021897
 30
0.0
 10
297.524861898623
 20
208.1677240351003
 30
0.0
 10
297.5277295604537
 20
208.1781428376286
 30
0.0
 10
297.5264119638796
 20
208.1836003124759
 30
0.0
 10
297.525752735653
 20
208.186330830706
 30
0.0
  0
LINE
  5
1B0
330
1F
100
AcDbEntity
  8
0
  6
Continuous
 62
     7
370
    25
100
AcDbLine
 10
297.4895545325
 20
208.0852222257
 30
0.0
 11
297.4892843764
 21
208.0836499898
 31
0.0
  0
SPLINE
  5
1B1
330
1F
100
AcDbEntity
  8
0
  6
Continuous
 62
     7
370
    25
100
AcDbSpline
210
0.0
220
0.0
230
1.0
 70
     8
 71
     3
 72
    14
 73
    10
 74
     0
 42
0.000000001
 43
0.00000001
 40
0.0
 40
0.0
 40
0.0
 40
0.0
 40
0.2492839411662105
 40
0.3748960038096863
 40
0.499481156553216
 40
0.6261067992471729
 40
0.7497158608195146
 40
0.8747582403938094
 40
1.0
 40
1.0
 40
1.0
 40
1.0
 10
297.4420204784897
 20
208.2243142828313
 30
0.0
 10
297.4331680306486
 20
208.2237647353207
 30
0.0
 10
297.4198549094581
 20
208.2229382754826
 30
0.0
 10
297.4053471388326
 20
208.2177990582165
 30
0.0
 10
297.3963101745688
 20
208.2126349211287
 30
0.0
 10
297.3895228676971
 20
208.2063106613463
 30
0.0
 10
297.3853565897333
 20
208.1990130140213
 30
0.0
 10
297.3841945339708
 20
208.19103054703
 30
0.0
 10
297.3854938538946
 20
208.1855262978109
 30
0.0
 10
297.3861440313852
 20
208.1827719808183
 30
0.0
  0
SPLINE
  5
1B2
330
1F
100
AcDbEntity
  8
0
  6
Continuous
 62
     7
370
    25
100
AcDbSpline
210
0.0
220
0.0
230
1.0
 70
     8
 71
     3
 72
    13
 73
     9
 74
     0
 42
0.000000001
 43
0.00000001
 40
0.0
 40
0.0
 40
0.0
 40
0.0
 40
0.2492726306596792
 40
0.4986587138883269
 40
0.6235600758993424
 40
0.7492034651405075
 40
0.8745217123513697
 40
1.0
 40
1.0
 40
1.0
 40
1.0
 10
297.5254927222987
 20
208.1847273785761
 30
0.0
 10
297.522711685864
 20
208.190242133382
 30
0.0
 10
297.5171483472488
 20
208.201274152949
 30
0.0
 10
297.499103401948
 20
208.2122877163155
 30
0.0
 10
297.4827919107985
 20
208.2188025367103
 30
0.0
 10
297.4694084806873
 20
208.222212724682
 30
0.0
 10
297.4556004833844
 20
208.2241623486462
 30
0.0
 10
297.4465490721093
 20
208.2242636165623
 30
0.0
 10
297.4420204784897
 20
208.2243142828313
 30
0.0
  0
LINE
  5
1B3
330
1F
100
AcDbEntity
  8
0
  6
Continuous
 62
     7
370
    25
100
AcDbLine
 10
297.5254927223
 20
208.1847273786
 30
0.0
 11
297.5257527357
 21
208.1863308307
 31
0.0
  0
LINE
  5
1B4
330
1F
100
AcDbEntity
  8
0
  6
Continuous
 62
     7
370
    25
100
AcDbLine
 10
297.4420204785
 20
208.2243142828
 30
0.0
 11
297.442276397
 21
208.2259303375
 31
0.0
  0
SPLINE
  5
1B5
330
1F
100
AcDbEntity
  8
0
  6
Continuous
 62
     7
370
    25
100
AcDbSpline
210
0.0
220
0.0
230
1.0
 70
     8
 71
     3
 72
    13
 73
     9
 74
     0
 42
0.000000001
 43
0.00000001
 40
0.0
 40
0.0
 40
0.0
 40
0.0
 40
0.1251071428656688
 40
0.250044526344552
 40
0.3722968266575015
 40
0.4999330805620528
 40
0.7494744421470327
 40
1.0
 40
1.0
 40
1.0
 40
1.0
 10
297.0008506130636
 20
208.4261101669709
 30
0.0
 10
296.9989463400925
 20
208.4346529114388
 30
0.0
 10
296.9951403780813
 20
208.4517268086221
 30
0.0
 10
297.0046966914888
 20
208.4753037812689
 30
0.0
 10
297.0275680322715
 20
208.4948160636989
 30
0.0
 10
297.0731579189023
 20
208.5129645975494
 30
0.0
 10
297.145353548205
 20
208.5235305610805
 30
0.0
 10
297.2064442384897
 20
208.5241152033944
 30
0.0
 10
297.2370497008155
 20
208.5244080998772
 30
0.0
  0
SPLINE
  5
1B6
330
1F
100
AcDbEntity
  8
0
  6
Continuous
 62
     7
370
    25
100
AcDbSpline
210
0.0
220
0.0
230
1.0
 70
     8
 71
     3
 72
    13
 73
     9
 74
     0
 42
0.000000001
 43
0.00000001
 40
0.0
 40
0.0
 40
0.0
 40
0.0
 40
0.2505223607763963
 40
0.5000848383455333
 40
0.6260933529135972
 40
0.7499822898358468
 40
0.874843399523458
 40
1.0
 40
1.0
 40
1.0
 40
1.0
 10
297.2370497008155
 20
208.5244080998772
 30
0.0
 10
297.2677838031763
 20
208.5239539573662
 30
0.0
 10
297.3291342493526
 20
208.5230474124035
 30
0.0
 10
297.4080936425914
 20
208.5121828474433
 30
0.0
 10
297.4664293016687
 20
208.4946523005684
 30
0.0
 10
297.5035345766659
 20
208.4755928078143
 30
0.0
 10
297.5283841918138
 20
208.4517810622458
 30
0.0
 10
297.5355577759834
 20
208.4348041539884
 30
0.0
 10
297.539148807224
 20
208.4263056675304
 30
0.0
  0
SPLINE
  5
1B7
330
1F
100
AcDbEntity
  8
0
  6
Continuous
 62
     7
370
    25
100
AcDbSpline
210
0.0
220
0.0
230
1.0
 70
     8
 71
     3
 72
    13
 73
     9
 74
     0
 42
0.000000001
 43
0.00000001
 40
0.0
 40
0.0
 40
0.0
 40
0.0
 40
0.1251478835149415
 40
0.2500808380558554
 40
0.3743068652871621
 40
0.499995036766631
 40
0.749469610816058
 40
0.9999999999999999
 40
0.9999999999999999
 40
0.9999999999999999
 40
0.9999999999999999
 10
297.539148807224
 20
208.4263056675304
 30
0.0
 10
297.5411210134969
 20
208.4178152306398
 30
0.0
 10
297.5450620389757
 20
208.4008489383348
 30
0.0
 10
297.5364971357398
 20
208.3763871713878
 30
0.0
 10
297.5139335066625
 20
208.3559382538876
 30
0.0
 10
297.4692117369673
 20
208.3364157885098
 30
0.0
 10
297.3981066875679
 20
208.3247163384106
 30
0.0
 10
297.3377126914702
 20
208.3241066898466
 30
0.0
 10
297.3074519291593
 20
208.3238012218948
 30
0.0
  0
SPLINE
  5
1B8
330
1F
100
AcDbEntity
  8
0
  6
Continuous
 62
     7
370
    25
100
AcDbSpline
210
0.0
220
0.0
230
1.0
 70
     8
 71
     3
 72
     9
 73
     5
 74
     0
 42
0.000000001
 43
0.00000001
 40
0.0
 40
0.0
 40
0.0
 40
0.0
 40
0.5015991098043108
 40
1.0
 40
1.0
 40
1.0
 40
1.0
 10
297.3074519291593
 20
208.3238012218948
 30
0.0
 10
297.271672728408
 20
208.3240446183004
 30
0.0
 10
297.2003424567789
 20
208.3245298592046
 30
0.0
 10
297.1299785555827
 20
208.3411949378277
 30
0.0
 10
297.0949091245889
 20
208.3495008278487
 30
0.0
  0
SPLINE
  5
1B9
330
1F
100
AcDbEntity
  8
0
  6
Continuous
 62
     7
370
    25
100
AcDbSpline
210
0.0
220
0.0
230
1.0
 70
     8
 71
     3
 72
    12
 73
     8
 74
     0
 42
0.000000001
 43
0.00000001
 40
0.0
 40
0.0
 40
0.0
 40
0.0
 40
0.2499813737583738
 40
0.4997557855790941
 40
0.749593163548649
 40
0.87476602124162
 40
1.0
 40
1.0
 40
1.0
 40
1.0
 10
297.09490843789
 20
208.3495010878684
 30
0.0
 10
297.083004790693
 20
208.3542112043486
 30
0.0
 10
297.0592073514408
 20
208.3636275377593
 30
0.0
 10
297.0304406053474
 20
208.382569418624
 30
0.0
 10
297.0138924907157
 20
208.4003739321996
 30
0.0
 10
297.0049769822631
 20
208.4150469426361
 30
0.0
 10
297.0022262932659
 20
208.4224218254882
 30
0.0
 10
297.0008506130636
 20
208.4261101669709
 30
0.0
  0
SPLINE
  5
1BA
330
1F
100
AcDbEntity
  8
0
  6
Continuous
 62
     7
370
    25
100
AcDbSpline
210
0.0
220
0.0
230
1.0
 70
     8
 71
     3
 72
    11
 73
     7
 74
     0
 42
0.000000001
 43
0.00000001
 40
0.0
 40
0.0
 40
0.0
 40
0.0
 40
0.2499503397089892
 40
0.4995998992414479
 40
0.7496092951369591
 40
1.0
 40
1.0
 40
1.0
 40
1.0
 10
297.4485704344185
 20
208.4263437140803
 30
0.0
 10
297.4470653194586
 20
208.4295908549099
 30
0.0
 10
297.4440569007334
 20
208.4360812290904
 30
0.0
 10
297.4335295655954
 20
208.4450118510864
 30
0.0
 10
297.4194366809389
 20
208.4523517524224
 30
0.0
 10
297.4085234119078
 20
208.4559264838192
 30
0.0
 10
297.403062619392
 20
208.4577152115048
 30
0.0
  0
SPLINE
  5
1BB
330
1F
100
AcDbEntity
  8
0
  6
Continuous
 62
     7
370
    25
100
AcDbSpline
210
0.0
220
0.0
230
1.0
 70
     8
 71
     3
 72
     9
 73
     5
 74
     0
 42
0.000000001
 43
0.00000001
 40
0.0
 40
0.0
 40
0.0
 40
0.0
 40
0.49861034844663
 40
1.0
 40
1.0
 40
1.0
 40
1.0
 10
297.403062619392
 20
208.4577152115048
 30
0.0
 10
297.3786214247144
 20
208.4623570426953
 30
0.0
 10
297.3296027977371
 20
208.4716665790996
 30
0.0
 10
297.2806497077027
 20
208.4718726466849
 30
0.0
 10
297.2561051349479
 20
208.4719759668396
 30
0.0
  0
SPLINE
  5
1BC
330
1F
100
AcDbEntity
  8
0
  6
Continuous
 62
     7
370
    25
100
AcDbSpline
210
0.0
220
0.0
230
1.0
 70
     8
 71
     3
 72
    13
 73
     9
 74
     0
 42
0.000000001
 43
0.00000001
 40
0.0
 40
0.0
 40
0.0
 40
0.0
 40
0.5001692595923494
 40
0.6253306204935939
 40
0.7502738571976628
 40
0.8748638693158484
 40
0.9374239132637878
 40
1.0
 40
1.0
 40
1.0
 40
1.0
 10
297.2561051349479
 20
208.4719759668396
 30
0.0
 10
297.2198065234242
 20
208.4717805048433
 30
0.0
 10
297.174424619535
 20
208.4715361308257
 30
0.0
 10
297.125874454854
 20
208.4622667309082
 30
0.0
 10
297.1057475037446
 20
208.4540930628037
 30
0.0
 10
297.0945847274656
 20
208.444231627621
 30
0.0
 10
297.0914917683833
 20
208.434751292578
 30
0.0
 10
297.0926508198723
 20
208.4297226517045
 30
0.0
 10
297.0932304199137
 20
208.4272080089251
 30
0.0
  0
SPLINE
  5
1BD
330
1F
100
AcDbEntity
  8
0
  6
Continuous
 62
     7
370
    25
100
AcDbSpline
210
0.0
220
0.0
230
1.0
 70
     8
 71
     3
 72
    13
 73
     9
 74
     0
 42
0.000000001
 43
0.00000001
 40
0.0
 40
0.0
 40
0.0
 40
0.0
 40
0.1245583036893556
 40
0.1872233927059706
 40
0.2496789448384819
 40
0.3747192602987677
 40
0.4997089642721403
 40
1.0
 40
1.0
 40
1.0
 40
1.0
 10
297.0932304199137
 20
208.4272080089251
 30
0.0
 10
297.095962006461
 20
208.4219674943893
 30
0.0
 10
297.1000678499555
 20
208.4140904851345
 30
0.0
 10
297.1125479811458
 20
208.4049004908534
 30
0.0
 10
297.127488954771
 20
208.3969087158558
 30
0.0
 10
297.1503513634029
 20
208.3901932429453
 30
0.0
 10
297.2070015379323
 20
208.3804998738922
 30
0.0
 10
297.2542697952885
 20
208.3801566930264
 30
0.0
 10
297.2920894240221
 20
208.3798821118665
 30
0.0
  0
SPLINE
  5
1BE
330
1F
100
AcDbEntity
  8
0
  6
Continuous
 62
     7
370
    25
100
AcDbSpline
210
0.0
220
0.0
230
1.0
 70
     8
 71
     3
 72
    12
 73
     8
 74
     0
 42
0.000000001
 43
0.00000001
 40
0.0
 40
0.0
 40
0.0
 40
0.0
 40
0.5003329875186985
 40
0.6255463004560765
 40
0.7506189492383143
 40
0.8753508707448632
 40
1.0
 40
1.0
 40
1.0
 40
1.0
 10
297.2920894240221
 20
208.3798821118665
 30
0.0
 10
297.3276011965199
 20
208.3801185076359
 30
0.0
 10
297.3720001437467
 20
208.380414063801
 30
0.0
 10
297.4188616750713
 20
208.3906272355477
 30
0.0
 10
297.4376467438456
 20
208.3993432492566
 30
0.0
 10
297.4505019128789
 20
208.4114967091384
 30
0.0
 10
297.4492141180599
 20
208.4213958079034
 30
0.0
 10
297.4485704344185
 20
208.4263437140803
 30
0.0
  0
LINE
  5
1BF
330
1F
100
AcDbEntity
  8
0
  6
Continuous
 62
     7
370
    25
100
AcDbLine
 10
297.0949091246
 20
208.3495008278
 30
0.0
 11
297.0946657667
 21
208.3478461154
 31
0.0
  0
LINE
  5
1C0
330
1F
100
AcDbEntity
  8
0
  6
Continuous
 62
     7
370
    25
100
AcDbLine
 10
297.3074519292
 20
208.3238012219
 30
0.0
 11
297.3072059489
 21
208.3221545803
 31
0.0
  0
LINE
  5
1C1
330
1F
100
AcDbEntity
  8
0
  6
Continuous
 62
     7
370
    25
100
AcDbLine
 10
297.0008506131
 20
208.426110167
 30
0.0
 11
297.0006148368
 21
208.4244321209
 31
0.0
  0
SPLINE
  5
1C2
330
1F
100
AcDbEntity
  8
0
  6
Continuous
 62
     7
370
    25
100
AcDbSpline
210
0.0
220
0.0
230
1.0
 70
     8
 71
     3
 72
    12
 73
     8
 74
     0
 42
0.000000001
 43
0.00000001
 40
0.0
 40
0.0
 40
0.0
 40
0.0
 40
0.0304717459515723
 40
0.0888135668585802
 40
0.3925556175486934
 40
0.696277439417355
 40
1.0
 40
1.0
 40
1.0
 40
1.0
 10
298.1951907479045
 20
208.3242027742517
 30
0.0
 10
298.194581991248
 20
208.3262346654671
 30
0.0
 10
298.1928076967882
 20
208.3321568566861
 30
0.0
 10
298.1835396732025
 20
208.3581746078726
 30
0.0
 10
298.1594072779393
 20
208.4007956665219
 30
0.0
 10
298.1110724441511
 20
208.450118338138
 30
0.0
 10
298.0715082651214
 20
208.4691085989316
 30
0.0
 10
298.0517261515495
 20
208.4786037408754
 30
0.0
  0
SPLINE
  5
1C3
330
1F
100
AcDbEntity
  8
0
  6
Continuous
 62
     7
370
    25
100
AcDbSpline
210
0.0
220
0.0
230
1.0
 70
     8
 71
     3
 72
     9
 73
     5
 74
     0
 42
0.000000001
 43
0.00000001
 40
0.0
 40
0.0
 40
0.0
 40
0.0
 40
0.468441057325213
 40
1.0
 40
1.0
 40
1.0
 40
1.0
 10
298.1951907479045
 20
208.3242027742517
 30
0.0
 10
298.1765949076579
 20
208.2994416985449
 30
0.0
 10
298.1368976182
 20
208.2465832325339
 30
0.0
 10
298.1525679719533
 20
208.1731767391328
 30
0.0
 10
298.1608976886258
 20
208.134156861115
 30
0.0
  0
SPLINE
  5
1C4
330
1F
100
AcDbEntity
  8
0
  6
Continuous
 62
     7
370
    25
100
AcDbSpline
210
0.0
220
0.0
230
1.0
 70
     8
 71
     3
 72
    11
 73
     7
 74
     0
 42
0.000000001
 43
0.00000001
 40
0.0
 40
0.0
 40
0.0
 40
0.0
 40
0.3704320937893262
 40
0.7442498469315187
 40
0.9442480537681082
 40
1.0
 40
1.0
 40
1.0
 40
1.0
 10
298.047526827729
 20
208.4830764932925
 30
0.0
 10
298.0477545888397
 20
208.4824869289609
 30
0.0
 10
298.0482121927424
 20
208.481302411823
 30
0.0
 10
298.0494914440902
 20
208.4797948951917
 30
0.0
 10
298.0509016096904
 20
208.4789336405836
 30
0.0
 10
298.0515785768991
 20
208.4786627855843
 30
0.0
 10
298.0517261515495
 20
208.4786037408754
 30
0.0
  0
SPLINE
  5
1C5
330
1F
100
AcDbEntity
  8
0
  6
Continuous
 62
     7
370
    25
100
AcDbSpline
210
0.0
220
0.0
230
1.0
 70
     8
 71
     3
 72
     9
 73
     5
 74
     0
 42
0.000000001
 43
0.00000001
 40
0.0
 40
0.0
 40
0.0
 40
0.0
 40
0.5315589426747975
 40
1.0
 40
1.0
 40
1.0
 40
1.0
 10
300.8636096716841
 20
199.8160646851304
 30
0.0
 10
300.8798060981828
 20
199.7796008560797
 30
0.0
 10
300.9102757699322
 20
199.7110029525863
 30
0.0
 10
300.9734609785144
 20
199.6915730365862
 30
0.0
 10
301.0030595244299
 20
199.6824712661914
 30
0.0
  0
SPLINE
  5
1C6
330
1F
100
AcDbEntity
  8
0
  6
Continuous
 62
     7
370
    25
100
AcDbSpline
210
0.0
220
0.0
230
1.0
 70
     8
 71
     3
 72
    12
 73
     8
 74
     0
 42
0.000000001
 43
0.00000001
 40
0.0
 40
0.0
 40
0.0
 40
0.0
 40
0.0304717459458985
 40
0.0888135668586214
 40
0.3925556175487348
 40
0.6962774394173754
 40
1.0
 40
1.0
 40
1.0
 40
1.0
 10
301.0030595244299
 20
199.6824712661914
 30
0.0
 10
301.0037613456399
 20
199.6804696134828
 30
0.0
 10
301.005806887929
 20
199.6746355560261
 30
0.0
 10
301.0136017497889
 20
199.6481391455791
 30
0.0
 10
301.0191302616171
 20
199.599473318775
 30
0.0
 10
301.009017698642
 20
199.5311599367569
 30
0.0
 10
300.98817180067
 20
199.4925412520946
 30
0.0
 10
300.9777488390087
 20
199.4732318862813
 30
0.0
  0
SPLINE
  5
1C7
330
1F
100
AcDbEntity
  8
0
  6
Continuous
 62
     7
370
    25
100
AcDbSpline
210
0.0
220
0.0
230
1.0
 70
     8
 71
     3
 72
    10
 73
     6
 74
     0
 42
0.000000001
 43
0.00000001
 40
0.0
 40
0.0
 40
0.0
 40
0.0
 40
0.2117958997121066
 40
0.4880069094723093
 40
1.0
 40
1.0
 40
1.0
 40
1.0
 10
300.9777488390087
 20
199.4732318862813
 30
0.0
 10
300.9774607107162
 20
199.4727151045251
 30
0.0
 10
300.9767968234657
 20
199.4715243682169
 30
0.0
 10
300.9764444576127
 20
199.469317549891
 30
0.0
 10
300.9767694363858
 20
199.4680005412044
 30
0.0
 10
300.9769805325808
 20
199.4671450529528
 30
0.0
  0
SPLINE
  5
1C8
330
1F
100
AcDbEntity
  8
0
  6
Continuous
 62
     7
370
    25
100
AcDbSpline
210
0.0
220
0.0
230
1.0
 70
     8
 71
     3
 72
    13
 73
     9
 74
     0
 42
0.000000001
 43
0.00000001
 40
0.0
 40
0.0
 40
0.0
 40
0.0
 40
0.5002067711445147
 40
0.6253734220217214
 40
0.7503144145933791
 40
0.8748901131385304
 40
0.9374379659999732
 40
1.0
 40
1.0
 40
1.0
 40
1.0
 10
297.2558740448929
 20
208.4702834979475
 30
0.0
 10
297.2195756958923
 20
208.4700882063506
 30
0.0
 10
297.1741944175136
 20
208.4698440469724
 30
0.0
 10
297.1256430251294
 20
208.4605776515191
 30
0.0
 10
297.1055154222136
 20
208.4524068309229
 30
0.0
 10
297.0943510110209
 20
208.4425483959207
 30
0.0
 10
297.0912568644645
 20
208.4330706342027
 30
0.0
 10
297.0924154303854
 20
208.4280434320869
 30
0.0
 10
297.0929947790073
 20
208.4255295461137
 30
0.0
  0
SPLINE
  5
1C9
330
1F
100
AcDbEntity
  8
0
  6
Continuous
 62
     7
370
    25
100
AcDbSpline
210
0.0
220
0.0
230
1.0
 70
     8
 71
     3
 72
     9
 73
     5
 74
     0
 42
0.000000001
 43
0.00000001
 40
0.0
 40
0.0
 40
0.0
 40
0.0
 40
0.4986042877410601
 40
1.0
 40
1.0
 40
1.0
 40
1.0
 10
297.4028301671831
 20
208.4560269348916
 30
0.0
 10
297.3783892826646
 20
208.4606673536305
 30
0.0
 10
297.3293706819036
 20
208.4699741703848
 30
0.0
 10
297.2804184726955
 20
208.4701801970573
 30
0.0
 10
297.2558740448929
 20
208.4702834979475
 30
0.0
  0
SPLINE
  5
1CA
330
1F
100
AcDbEntity
  8
0
  6
Continuous
 62
     7
370
    25
100
AcDbSpline
210
0.0
220
0.0
230
1.0
 70
     8
 71
     3
 72
    11
 73
     7
 74
     0
 42
0.000000001
 43
0.00000001
 40
0.0
 40
0.0
 40
0.0
 40
0.0
 40
0.2499266668755731
 40
0.4995646701623652
 40
0.7495830234032062
 40
1.0
 40
1.0
 40
1.0
 40
1.0
 10
297.4483348117945
 20
208.4246651950015
 30
0.0
 10
297.44683000037
 20
208.4279113469619
 30
0.0
 10
297.4438221155678
 20
208.4343999015993
 30
0.0
 10
297.4332953057284
 20
208.4433278585715
 30
0.0
 10
297.4192031144204
 20
208.4506653453146
 30
0.0
 10
297.4082907136981
 20
208.4542387895531
 30
0.0
 10
297.4028301671831
 20
208.4560269348916
 30
0.0
  0
LINE
  5
1CB
330
1F
100
AcDbEntity
  8
0
  6
Continuous
 62
     7
370
    25
100
AcDbLine
 10
297.4483348118
 20
208.424665195
 30
0.0
 11
297.4485704344
 21
208.4263437141
 31
0.0
  0
LINE
  5
1CC
330
1F
100
AcDbEntity
  8
0
  6
Continuous
 62
     7
370
    25
100
AcDbLine
 10
297.2558740449
 20
208.4702834979
 30
0.0
 11
297.2561051349
 21
208.4719759668
 31
0.0
  0
SPLINE
  5
1CD
330
1F
100
AcDbEntity
  8
0
  6
Continuous
 62
     7
370
    25
100
AcDbSpline
210
0.0
220
0.0
230
1.0
 70
     8
 71
     3
 72
    11
 73
     7
 74
     0
 42
0.000000001
 43
0.00000001
 40
0.0
 40
0.0
 40
0.0
 40
0.0
 40
0.3658281109894576
 40
0.7252591430831395
 40
0.9820690181776722
 40
1.0
 40
1.0
 40
1.0
 40
1.0
 10
298.7034573785166
 20
208.3720843179414
 30
0.0
 10
298.6281761681414
 20
208.383032254338
 30
0.0
 10
298.4789301575509
 20
208.4047366852745
 30
0.0
 10
298.3040685239461
 20
208.38627992528
 30
0.0
 10
298.2225676931497
 20
208.3481317085956
 30
0.0
 10
298.1968680377649
 20
208.3256688165214
 30
0.0
 10
298.1951907479045
 20
208.3242027742517
 30
0.0
  0
LINE
  5
1CE
330
1F
100
AcDbEntity
  8
0
  6
Continuous
 62
     7
370
    25
100
AcDbLine
 10
298.7034573785
 20
208.3720843179
 30
0.0
 11
301.4423999315
 21
199.9424859133
 31
0.0
  0
SPLINE
  5
1CF
330
1F
100
AcDbEntity
  8
0
  6
Continuous
 62
     7
370
    25
100
AcDbSpline
210
0.0
220
0.0
230
1.0
 70
     8
 71
     3
 72
    11
 73
     7
 74
     0
 42
0.000000001
 43
0.00000001
 40
0.0
 40
0.0
 40
0.0
 40
0.0
 40
0.2357948537758854
 40
0.2749019968045157
 40
0.6342531696138713
 40
1.0
 40
1.0
 40
1.0
 40
1.0
 10
301.0030595244299
 20
199.6824712661914
 30
0.0
 10
301.0338532608082
 20
199.6833616125432
 30
0.0
 10
301.0697542123511
 20
199.6843996249767
 30
0.0
 10
301.1610957713758
 20
199.7159822787923
 30
0.0
 10
301.2800674846407
 20
199.7839894425244
 30
0.0
 10
301.3879718624704
 20
199.8893439998005
 30
0.0
 10
301.4423999315066
 20
199.9424859133357
 30
0.0
  0
LINE
  5
1D0
330
1F
100
AcDbEntity
  8
0
  6
Continuous
 62
     7
370
    25
100
AcDbLine
 10
297.4028301672
 20
208.4560269349
 30
0.0
 11
297.4030626194
 21
208.4577152115
 31
0.0
  0
SPLINE
  5
1D1
330
1F
100
AcDbEntity
  8
0
  6
Continuous
 62
     7
370
    25
100
AcDbSpline
210
0.0
220
0.0
230
1.0
 70
     8
 71
     3
 72
    12
 73
     8
 74
     0
 42
0.000000001
 43
0.00000001
 40
0.0
 40
0.0
 40
0.0
 40
0.0
 40
0.2238925571850786
 40
0.4477848984198624
 40
0.6716824862031926
 40
0.8955821585468983
 40
0.9999999999999999
 40
0.9999999999999999
 40
0.9999999999999999
 40
0.9999999999999999
 10
297.8967393615229
 20
209.3799848540867
 30
0.0
 10
297.8911991764292
 20
209.3805975006303
 30
0.0
 10
297.8801188115854
 20
209.3818227931264
 30
0.0
 10
297.8658190888566
 20
209.3834569895204
 30
0.0
 10
297.8554106889659
 20
209.3846687484877
 30
0.0
 10
297.850776112003
 20
209.3852188238209
 30
0.0
 10
297.8503895298348
 20
209.3852683157006
 30
0.0
 10
297.8502665815489
 20
209.3852840560587
 30
0.0
  0
LINE
  5
1D2
330
1F
100
AcDbEntity
  8
0
  6
Continuous
 62
     7
370
    25
100
AcDbLine
 10
297.8967393615
 20
209.3799848541
 30
0.0
 11
301.6923113709
 21
208.9558772601
 31
0.0
  0
LINE
  5
1D3
330
1F
100
AcDbEntity
  8
0
  6
Continuous
 62
     7
370
    25
100
AcDbLine
 10
301.6923113709
 20
208.9558772601
 30
0.0
 11
301.9862822988
 21
208.9234855359
 31
0.0
  0
LINE
  5
1D4
330
1F
100
AcDbEntity
  8
0
  6
Continuous
 62
     7
370
    25
100
AcDbLine
 10
302.1956523073
 20
208.2791109076
 30
0.0
 11
301.9862822988
 21
208.9234855359
 31
0.0
  0
LINE
  5
1D5
330
1F
100
AcDbEntity
  8
0
  6
Continuous
 62
     7
370
    25
100
AcDbLine
 10
298.7071809342
 20
208.6149225556
 30
0.0
 11
302.1956523073
 21
208.2791109076
 31
0.0
  0
SPLINE
  5
1D6
330
1F
100
AcDbEntity
  8
0
  6
Continuous
 62
     7
370
    25
100
AcDbSpline
210
0.0
220
0.0
230
1.0
 70
     8
 71
     3
 72
    10
 73
     6
 74
     0
 42
0.000000001
 43
0.00000001
 40
0.0
 40
0.0
 40
0.0
 40
0.0
 40
0.2857669779336533
 40
0.6445560549562706
 40
1.0
 40
1.0
 40
1.0
 40
1.0
 10
298.0517261515495
 20
208.4786037408754
 30
0.0
 10
298.0915518350046
 20
208.508377881505
 30
0.0
 10
298.1813798676183
 20
208.5755343555061
 30
0.0
 10
298.4157214432155
 20
208.6247863837355
 30
0.0
 10
298.6103315913466
 20
208.6182002161549
 30
0.0
 10
298.7071809341522
 20
208.6149225556221
 30
0.0
  0
ARC
  5
1D7
330
1F
100
AcDbEntity
  8
0
  6
Continuous
 62
     7
370
    25
100
AcDbCircle
 10
297.8757983892
 20
208.5062228782
 30
0.0
 40
0.8384584401574967
100
AcDbArc
 50
350.794127652
 51
7.4489224795
  0
LINE
  5
1D8
330
1F
100
AcDbEntity
  8
0
  6
Continuous
 62
     7
370
    25
100
AcDbLine
 10
304.2129965771
 20
202.0703636596
 30
0.0
 11
301.5881490861
 21
199.7482143033
 31
0.0
  0
SPLINE
  5
1D9
330
1F
100
AcDbEntity
  8
0
  6
Continuous
 62
     7
370
    25
100
AcDbSpline
210
0.0
220
0.0
230
1.0
 70
     8
 71
     3
 72
    10
 73
     6
 74
     0
 42
0.000000001
 43
0.00000001
 40
0.0
 40
0.0
 40
0.0
 40
0.0
 40
0.3554439450437301
 40
0.7142330220663671
 40
1.0
 40
1.0
 40
1.0
 40
1.0
 10
301.5881490860967
 20
199.7482143032566
 30
0.0
 10
301.511722882396
 20
199.6886360047885
 30
0.0
 10
301.3581512174533
 20
199.5689187082701
 30
0.0
 10
301.1396152844678
 20
199.4710219139801
 30
0.0
 10
301.0274692944982
 20
199.4725530499164
 30
0.0
 10
300.9777488390087
 20
199.4732318862813
 30
0.0
  0
ARC
  5
1DA
330
1F
100
AcDbEntity
  8
0
  6
Continuous
 62
     7
370
    25
100
AcDbCircle
 10
300.8516544111
 20
199.3474797907
 30
0.0
 40
0.8384584401564417
100
AcDbArc
 50
28.5510775205
 51
45.205872348
  0
SPLINE
  5
1DB
330
1F
100
AcDbEntity
  8
0
  6
Continuous
 62
     7
370
    25
100
AcDbSpline
210
0.0
220
0.0
230
1.0
 70
    11
 71
     3
 72
    23
 73
    19
 74
     0
 42
0.000000001
 43
0.00000001
 40
0.0
 40
0.0
 40
0.0
 40
0.0
 40
0.0624997816890504
 40
0.1250061981099197
 40
0.1875154768985804
 40
0.2500221568877411
 40
0.3125223099417657
 40
0.3750158774846395
 40
0.437506706570877
 40
0.5000002051704484
 40
0.5625001050327174
 40
0.6250063646155891
 40
0.6875153284163399
 40
0.7500218378775504
 40
0.812522097801947
 40
0.8750158588647158
 40
0.9375066943841622
 40
1.0
 40
1.0
 40
1.0
 40
1.0
 10
299.9514031302279
 20
198.2052716885494
 30
0.0
 10
299.9616315148666
 20
198.2197217871827
 30
0.0
 10
299.9820893699491
 20
198.248623518415
 30
0.0
 10
299.9923072470181
 20
198.2863300403956
 30
0.0
 10
299.9845499422258
 20
198.3126061516659
 30
0.0
 10
299.9588739355912
 20
198.3235080466395
 30
0.0
 10
299.9196192645711
 20
198.3172140425753
 30
0.0
 10
299.8728688089338
 20
198.2944775113941
 30
0.0
 10
299.8258949992031
 20
198.2586134173685
 30
0.0
 10
299.7858453974349
 20
198.21508311166
 30
0.0
 10
299.7586896241568
 20
198.1706571656245
 30
0.0
 10
299.7483749998228
 20
198.1323004529976
 30
0.0
 10
299.7563448717764
 20
198.105996160828
 30
0.0
 10
299.7813602933271
 20
198.0957549115387
 30
0.0
 10
299.8198207502974
 20
198.1029944647588
 30
0.0
 10
299.8657560293324
 20
198.1264243216079
 30
0.0
 10
299.9134288664648
 20
198.1622732449374
 30
0.0
 10
299.9387448755311
 20
198.190938685171
 30
0.0
 10
299.9514031302279
 20
198.2052716885494
 30
0.0
  0
LINE
  5
1DC
330
1F
100
AcDbEntity
  8
0
  6
Continuous
 62
     7
370
    25
100
AcDbLine
 10
302.1828374592
 20
208.0642527909
 30
0.0
 11
298.7034573785
 21
208.3720843179
 31
0.0
  0
ARC
  5
1DD
330
1F
100
AcDbEntity
  8
0
  6
Continuous
 62
     7
370
    25
100
AcDbCircle
 10
301.0660798737
 20
208.2386711219
 30
0.0
 40
1.130296093513945
100
AcDbArc
 50
351.1230991873
 51
2.0503686317
  0
LINE
  5
1DE
330
1F
100
AcDbEntity
  8
0
  6
Continuous
 62
     7
370
    25
100
AcDbLine
 10
301.4423999315
 20
199.9424859133
 30
0.0
 11
304.0763387149
 21
202.2366551486
 31
0.0
  0
ARC
  5
1DF
330
1F
100
AcDbEntity
  8
0
  6
Continuous
 62
     7
370
    25
100
AcDbCircle
 10
303.2753833723
 20
201.4391341156
 30
0.0
 40
1.130296093515005
100
AcDbArc
 50
33.9496313683
 51
44.8769008127
  0
LINE
  5
1E0
330
1F
100
AcDbEntity
  8
0
  6
Continuous
 62
     7
370
    25
100
AcDbLine
 10
304.0763387149
 20
202.2366551486
 30
0.0
 11
302.1828374592
 21
208.0642527909
 31
0.0
  0
ARC
  5
1E1
330
1F
100
AcDbEntity
  8
0
  6
Continuous
 62
     7
370
    25
100
AcDbCircle
 10
302.153719652
 20
208.3005875675
 30
0.0
 40
0.2381217615818214
100
AcDbArc
 50
277.0237736414
 51
327.4085911735
  0
ARC
  5
1E2
330
1F
100
AcDbEntity
  8
0
  6
Continuous
 62
     7
370
    25
100
AcDbCircle
 10
302.198465795
 20
208.1119838228
 30
0.0
 40
0.1671507647682795
100
AcDbArc
 50
21.1613837537
 51
90.9644501975
  0
ARC
  5
1E3
330
1F
100
AcDbEntity
  8
0
  6
Continuous
 62
     7
370
    25
100
AcDbCircle
 10
304.1916960103
 20
202.0283412803
 30
0.0
 40
0.2381217615810979
100
AcDbArc
 50
68.5914088265
 51
118.9762263586
  0
ARC
  5
1E4
330
1F
100
AcDbEntity
  8
0
  6
Continuous
 62
     7
370
    25
100
AcDbCircle
 10
304.1170379008
 20
202.207226038
 30
0.0
 40
0.1671507647680274
100
AcDbArc
 50
305.0355498024
 51
14.8386162464
  0
LINE
  5
1E5
330
1F
100
AcDbEntity
  8
0
  6
Continuous
 62
     7
370
    25
100
AcDbLine
 10
302.3543451353
 20
208.1723246003
 30
0.0
 11
304.2786143553
 21
202.2500329009
 31
0.0
  0
LINE
  5
1E6
330
1F
100
AcDbEntity
  8
0
  6
Continuous
 62
     7
370
    25
100
AcDbLine
 10
302.154968374
 20
208.7859431765
 30
0.0
 11
302.3543451353
 21
208.1723246003
 31
0.0
  0
SPLINE
  5
1E7
330
1F
100
AcDbEntity
  8
0
  6
Continuous
 62
     7
370
    25
100
AcDbSpline
210
0.0
220
0.0
230
1.0
 70
     8
 71
     3
 72
    11
 73
     7
 74
     0
 42
0.000000001
 43
0.00000001
 40
0.0
 40
0.0
 40
0.0
 40
0.0
 40
0.293311876092708
 40
0.5865991201419654
 40
0.8805021461502848
 40
1.0
 40
1.0
 40
1.0
 40
1.0
 10
301.9862822987792
 20
208.9234855358615
 30
0.0
 10
302.0084187558257
 20
208.9188189111908
 30
0.0
 10
302.0526898109209
 20
208.9094860537481
 30
0.0
 10
302.1082685830602
 20
208.8685668249899
 30
0.0
 10
302.1407878526414
 20
208.8241525704203
 30
0.0
 10
302.1517885167876
 20
208.7945112970268
 30
0.0
 10
302.1549683739684
 20
208.7859431765208
 30
0.0
  0
LINE
  5
1E8
330
1F
100
AcDbEntity
  8
0
  6
Continuous
 62
     7
370
    25
100
AcDbLine
 10
304.2786143553
 20
202.2500329009
 30
0.0
 11
304.481684835
 21
201.6250462286
 31
0.0
  0
LINE
  5
1E9
330
1F
100
AcDbEntity
  8
0
  6
Continuous
 62
     7
370
    25
100
AcDbLine
 10
297.1524637925
 20
203.4712341157
 30
0.0
 11
297.1768138948
 21
203.3962922065
 31
0.0
  0
SPLINE
  5
1EA
330
1F
100
AcDbEntity
  8
0
  6
Continuous
 62
     7
370
    25
100
AcDbSpline
210
0.0
220
0.0
230
1.0
 70
    24
 71
     3
 72
    15
 73
    11
 74
     0
 42
0.000000001
 43
0.00000001
 40
0.0
 40
0.0
 40
0.0
 40
0.0
 40
0.000673327633154
 40
0.0023142441085681
 40
0.0045734058911506
 40
0.0115322399874959
 40
0.0184429270204282
 40
0.034682465161025
 40
0.8279184510198859
 40
1.0
 40
1.0
 40
1.0
 40
1.0
 10
297.1524637924528
 20
203.4712341156966
 30
0.0
 10
297.1524679109172
 20
203.4712354538668
 30
0.0
 10
297.1524820661834
 20
203.4712400531916
 30
0.0
 10
297.152688165832
 20
203.4713070190268
 30
0.0
 10
297.15354674905
 20
203.4715859896252
 30
0.0
 10
297.1553443337085
 20
203.4721700602864
 30
0.0
 10
297.1588564249845
 20
203.4733112079169
 30
0.0
 10
297.2594593908823
 20
203.5059990930364
 30
0.0
 10
297.3877666083928
 20
203.5476886351746
 30
0.0
 10
297.5109306591557
 20
203.5877070611353
 30
0.0
 10
297.5328863989708
 20
203.5948409134466
 30
0.0
  0
LINE
  5
1EB
330
1F
100
AcDbEntity
  8
0
  6
Continuous
 62
     7
370
    25
100
AcDbLine
 10
297.1768138948
 20
203.3962922065
 30
0.0
 11
297.2760705902
 21
203.0908115092
 31
0.0
  0
LINE
  5
1EC
330
1F
100
AcDbEntity
  8
0
  6
Continuous
 62
     7
370
    25
100
AcDbLine
 10
297.2760705902
 20
203.0908115092
 30
0.0
 11
297.3069722896
 21
202.9957058575
 31
0.0
  0
LINE
  5
1ED
330
1F
100
AcDbEntity
  8
0
  6
Continuous
 62
     7
370
    25
100
AcDbLine
 10
297.6895524608
 20
203.112672354
 30
0.0
 11
297.3069722896
 21
202.9957058575
 31
0.0
  0
LINE
  5
1EE
330
1F
100
AcDbEntity
  8
0
  6
Continuous
 62
     7
370
    25
100
AcDbLine
 10
297.8734875813
 20
202.5465782618
 30
0.0
 11
297.492836609
 21
202.4236743018
 31
0.0
  0
LINE
  5
1EF
330
1F
100
AcDbEntity
  8
0
  6
Continuous
 62
     7
370
    25
100
AcDbLine
 10
297.3069722896
 20
202.9957058575
 30
0.0
 11
297.492836609
 21
202.4236743018
 31
0.0
  0
LINE
  5
1F0
330
1F
100
AcDbEntity
  8
0
  6
Continuous
 62
     7
370
    25
100
AcDbLine
 10
297.5620485336
 20
202.2106619007
 30
0.0
 11
297.5988017716
 21
202.0975470654
 31
0.0
  0
LINE
  5
1F1
330
1F
100
AcDbEntity
  8
0
  6
Continuous
 62
     7
370
    25
100
AcDbLine
 10
297.492836609
 20
202.4236743018
 30
0.0
 11
297.5620485336
 21
202.2106619007
 31
0.0
  0
LINE
  5
1F2
330
1F
100
AcDbEntity
  8
0
  6
Continuous
 62
     7
370
    25
100
AcDbLine
 10
297.5988017716
 20
202.0975470654
 30
0.0
 11
297.6639531684
 21
201.8970316838
 31
0.0
  0
LINE
  5
1F3
330
1F
100
AcDbEntity
  8
0
  6
Continuous
 62
     7
370
    25
100
AcDbLine
 10
297.6639531684
 20
201.8970316838
 30
0.0
 11
297.6692520574
 21
201.8807233804
 31
0.0
  0
LINE
  5
1F4
330
1F
100
AcDbEntity
  8
0
  6
Continuous
 62
     7
370
    25
100
AcDbLine
 10
300.4335849104
 20
197.8596012842
 30
0.0
 11
300.4323052804
 21
197.8611358896
 31
0.0
  0
LINE
  5
1F5
330
1F
100
AcDbEntity
  8
0
  6
Continuous
 62
     7
370
    25
100
AcDbLine
 10
300.6417452971
 20
198.0469443035
 30
0.0
 11
300.640466777
 21
198.0484754931
 31
0.0
  0
SPLINE
  5
1F6
330
1F
100
AcDbEntity
  8
0
  6
Continuous
 62
     7
370
    25
100
AcDbSpline
210
0.0
220
0.0
230
1.0
 70
     8
 71
     3
 72
    13
 73
     9
 74
     0
 42
0.000000001
 43
0.00000001
 40
0.0
 40
0.0
 40
0.0
 40
0.0
 40
0.125111584730532
 40
0.2500644580942055
 40
0.3700265497736848
 40
0.4999685535844191
 40
0.7494901169627388
 40
1.0
 40
1.0
 40
1.0
 40
1.0
 10
300.4335849104491
 20
197.8596012842261
 30
0.0
 10
300.4340477543578
 20
197.8609223066034
 30
0.0
 10
300.4349728550307
 20
197.8635626755637
 30
0.0
 10
300.4476580674809
 20
197.8772606021356
 30
0.0
 10
300.4699106205597
 20
197.8987090530156
 30
0.0
 10
300.5097358728296
 20
197.9348733034237
 30
0.0
 10
300.5692227316572
 20
197.986325921497
 30
0.0
 10
300.6175392758593
 20
198.0267115685531
 30
0.0
 10
300.6417452971477
 20
198.0469443035
 30
0.0
  0
SPLINE
  5
1F7
330
1F
100
AcDbEntity
  8
0
  6
Continuous
 62
     7
370
    25
100
AcDbSpline
210
0.0
220
0.0
230
1.0
 70
     8
 71
     3
 72
    13
 73
     9
 74
     0
 42
0.000000001
 43
0.00000001
 40
0.0
 40
0.0
 40
0.0
 40
0.0
 40
0.2505173583883926
 40
0.5000982881272672
 40
0.6320130013564078
 40
0.7499891047179722
 40
0.8748669193773129
 40
1.0
 40
1.0
 40
1.0
 40
1.0
 10
300.6417452971477
 20
198.0469443035
 30
0.0
 10
300.6658893323753
 20
198.0669835590618
 30
0.0
 10
300.7140871529318
 20
198.106987163867
 30
0.0
 10
300.7747124592763
 20
198.1555638961538
 30
0.0
 10
300.8167880248399
 20
198.1876809671807
 30
0.0
 10
300.8416700263107
 20
198.2055215750858
 30
0.0
 10
300.8558282918735
 20
198.2141373357148
 30
0.0
 10
300.8575559035664
 20
198.2136949790836
 30
0.0
 10
300.8584205913754
 20
198.2134735749407
 30
0.0
  0
SPLINE
  5
1F8
330
1F
100
AcDbEntity
  8
0
  6
Continuous
 62
     7
370
    25
100
AcDbSpline
210
0.0
220
0.0
230
1.0
 70
     8
 71
     3
 72
    13
 73
     9
 74
     0
 42
0.000000001
 43
0.00000001
 40
0.0
 40
0.0
 40
0.0
 40
0.0
 40
0.1251620177313985
 40
0.250109520769894
 40
0.3698568257067631
 40
0.5000384139620709
 40
0.749474706389007
 40
1.0
 40
1.0
 40
1.0
 40
1.0
 10
300.8584205913754
 20
198.2134735749407
 30
0.0
 10
300.8579834292183
 20
198.2122625272898
 30
0.0
 10
300.8571098541548
 20
198.2098425075978
 30
0.0
 10
300.8447525954238
 20
198.1977077294728
 30
0.0
 10
300.8221073761446
 20
198.1775827240184
 30
0.0
 10
300.7822074162852
 20
198.1433821544929
 30
0.0
 10
300.7227559596204
 20
198.0934456556184
 30
0.0
 10
300.6749675170515
 20
198.053617619204
 30
0.0
 10
300.6510212500978
 20
198.0336602248855
 30
0.0
  0
SPLINE
  5
1F9
330
1F
100
AcDbEntity
  8
0
  6
Continuous
 62
     7
370
    25
100
AcDbSpline
210
0.0
220
0.0
230
1.0
 70
     8
 71
     3
 72
     9
 73
     5
 74
     0
 42
0.000000001
 43
0.00000001
 40
0.0
 40
0.0
 40
0.0
 40
0.0
 40
0.501604324400465
 40
1.0
 40
1.0
 40
1.0
 40
1.0
 10
300.6510212500978
 20
198.0336602248855
 30
0.0
 10
300.6228591250108
 20
198.0101966493409
 30
0.0
 10
300.5667150215471
 20
197.9634195894088
 30
0.0
 10
300.5153108099831
 20
197.9213601570767
 30
0.0
 10
300.489691173232
 20
197.9003979178842
 30
0.0
  0
SPLINE
  5
1FA
330
1F
100
AcDbEntity
  8
0
  6
Continuous
 62
     7
370
    25
100
AcDbSpline
210
0.0
220
0.0
230
1.0
 70
     8
 71
     3
 72
    12
 73
     8
 74
     0
 42
0.000000001
 43
0.00000001
 40
0.0
 40
0.0
 40
0.0
 40
0.0
 40
0.2500128312144245
 40
0.4998243404296315
 40
0.7495862285488707
 40
0.8747655307630268
 40
0.9999999999999999
 40
0.9999999999999999
 40
0.9999999999999999
 40
0.9999999999999999
 10
300.4896907070927
 20
197.9003975428009
 30
0.0
 10
300.4814457618899
 20
197.8937842959082
 30
0.0
 10
300.4649625106988
 20
197.8805631274178
 30
0.0
 10
300.4467475970714
 20
197.8666536096222
 30
0.0
 10
300.4379511428032
 20
197.860765464305
 30
0.0
 10
300.4342720780547
 20
197.8590481850389
 30
0.0
 10
300.4338139999563
 20
197.8594168907547
 30
0.0
 10
300.4335849104491
 20
197.8596012842261
 30
0.0
  0
SPLINE
  5
1FB
330
1F
100
AcDbEntity
  8
0
  6
Continuous
 62
     7
370
    25
100
AcDbSpline
210
0.0
220
0.0
230
1.0
 70
     8
 71
     3
 72
    11
 73
     7
 74
     0
 42
0.000000001
 43
0.00000001
 40
0.0
 40
0.0
 40
0.0
 40
0.0
 40
0.2499690632433963
 40
0.4997391479174081
 40
0.7497360711055071
 40
1.0
 40
1.0
 40
1.0
 40
1.0
 10
300.7869046718211
 20
198.1539117847182
 30
0.0
 10
300.7865113651964
 20
198.1539336195915
 30
0.0
 10
300.7857250650241
 20
198.1539772719572
 30
0.0
 10
300.7792316599977
 20
198.1496019634496
 30
0.0
 10
300.7698631337165
 20
198.1427006506104
 30
0.0
 10
300.7619982016219
 20
198.1365999813671
 30
0.0
 10
300.7580636366878
 20
198.1335480186813
 30
0.0
  0
SPLINE
  5
1FC
330
1F
100
AcDbEntity
  8
0
  6
Continuous
 62
     7
370
    25
100
AcDbSpline
210
0.0
220
0.0
230
1.0
 70
     8
 71
     3
 72
     9
 73
     5
 74
     0
 42
0.000000001
 43
0.00000001
 40
0.0
 40
0.0
 40
0.0
 40
0.0
 40
0.4985671949632067
 40
1.0
 40
1.0
 40
1.0
 40
1.0
 10
300.7580636366879
 20
198.1335480186813
 30
0.0
 10
300.7398363350778
 20
198.1189825545862
 30
0.0
 10
300.7032769669641
 20
198.0897679086122
 30
0.0
 10
300.6647165727602
 20
198.0576790720985
 30
0.0
 10
300.6453811261312
 20
198.041588676795
 30
0.0
  0
SPLINE
  5
1FD
330
1F
100
AcDbEntity
  8
0
  6
Continuous
 62
     7
370
    25
100
AcDbSpline
210
0.0
220
0.0
230
1.0
 70
     8
 71
     3
 72
    13
 73
     9
 74
     0
 42
0.000000001
 43
0.00000001
 40
0.0
 40
0.0
 40
0.0
 40
0.0
 40
0.5001806219015885
 40
0.6253175645763442
 40
0.7503019178271769
 40
0.8748529771536401
 40
0.9374198978360813
 40
1.0
 40
1.0
 40
1.0
 40
1.0
 10
300.6453811261312
 20
198.041588676795
 30
0.0
 10
300.6167255903842
 20
198.0176803941212
 30
0.0
 10
300.5809009121772
 20
197.9877906534151
 30
0.0
 10
300.540436090735
 20
197.9528576273739
 30
0.0
 10
300.5228244003201
 20
197.93712348538
 30
0.0
 10
300.5116160286499
 20
197.9266026942659
 30
0.0
 10
300.5071283626518
 20
197.9217838840491
 30
0.0
 10
300.5068750694298
 20
197.921036793522
 30
0.0
 10
300.5067484094794
 20
197.9206632089137
 30
0.0
  0
SPLINE
  5
1FE
330
1F
100
AcDbEntity
  8
0
  6
Continuous
 62
     7
370
    25
100
AcDbSpline
210
0.0
220
0.0
230
1.0
 70
     8
 71
     3
 72
    13
 73
     9
 74
     0
 42
0.000000001
 43
0.00000001
 40
0.0
 40
0.0
 40
0.0
 40
0.0
 40
0.1245276035146781
 40
0.1883326612044353
 40
0.249717626368371
 40
0.3616751808222719
 40
0.4997741275501441
 40
1.0
 40
1.0
 40
1.0
 40
1.0
 10
300.5067484094794
 20
197.9206632089137
 30
0.0
 10
300.5077221547522
 20
197.9209416322435
 30
0.0
 10
300.5091948245329
 20
197.9213627132342
 30
0.0
 10
300.5168066111256
 20
197.9268630444862
 30
0.0
 10
300.5262675108139
 20
197.934087146766
 30
0.0
 10
300.5424045445452
 20
197.9469659253462
 30
0.0
 10
300.5848237029159
 20
197.9815353754085
 30
0.0
 10
300.6228057349282
 20
198.0131518357802
 30
0.0
 10
300.6525705106818
 20
198.0379282051115
 30
0.0
  0
SPLINE
  5
1FF
330
1F
100
AcDbEntity
  8
0
  6
Continuous
 62
     7
370
    25
100
AcDbSpline
210
0.0
220
0.0
230
1.0
 70
     8
 71
     3
 72
    12
 73
     8
 74
     0
 42
0.000000001
 43
0.00000001
 40
0.0
 40
0.0
 40
0.0
 40
0.0
 40
0.5003806496473667
 40
0.6256212777620749
 40
0.7507647116690711
 40
0.8754137090267515
 40
1.0
 40
1.0
 40
1.0
 40
1.0
 10
300.6525705106818
 20
198.0379282051115
 30
0.0
 10
300.6806377037294
 20
198.061316159582
 30
0.0
 10
300.7157298544552
 20
198.0905579017845
 30
0.0
 10
300.755178231845
 20
198.1241885634411
 30
0.0
 10
300.7720241142715
 20
198.1389359917048
 30
0.0
 10
300.7849797580692
 20
198.1507994703388
 30
0.0
 10
300.7862631415348
 20
198.1528745206159
 30
0.0
 10
300.7869046718211
 20
198.1539117847182
 30
0.0
  0
LINE
  5
200
330
1F
100
AcDbEntity
  8
0
  6
Continuous
 62
     7
370
    25
100
AcDbLine
 10
300.8584205914
 20
198.2134735749
 30
0.0
 11
300.8571409747
 21
198.2150081392
 31
0.0
  0
SPLINE
  5
201
330
1F
100
AcDbEntity
  8
0
  6
Continuous
 62
     7
370
    25
100
AcDbSpline
210
0.0
220
0.0
230
1.0
 70
     8
 71
     3
 72
    12
 73
     8
 74
     0
 42
0.000000001
 43
0.00000001
 40
0.0
 40
0.0
 40
0.0
 40
0.0
 40
0.5004207995697942
 40
0.6256668266190907
 40
0.7508072588068723
 40
0.8754407572050624
 40
1.0
 40
1.0
 40
1.0
 40
1.0
 10
300.6512905646172
 20
198.0394637830931
 30
0.0
 10
300.6793574722938
 20
198.06285149293
 30
0.0
 10
300.7144490054078
 20
198.0920927119362
 30
0.0
 10
300.7538977160568
 20
198.1257234006896
 30
0.0
 10
300.7707434565609
 20
198.1404704602099
 30
0.0
 10
300.7836997161587
 20
198.152334091142
 30
0.0
 10
300.7849834018907
 20
198.1544091391699
 30
0.0
 10
300.7856250534973
 20
198.1554463540177
 30
0.0
  0
SPLINE
  5
202
330
1F
100
AcDbEntity
  8
0
  6
Continuous
 62
     7
370
    25
100
AcDbSpline
210
0.0
220
0.0
230
1.0
 70
     8
 71
     3
 72
    13
 73
     9
 74
     0
 42
0.000000001
 43
0.00000001
 40
0.0
 40
0.0
 40
0.0
 40
0.0
 40
0.1245007467621001
 40
0.1882958797885869
 40
0.24967510510723
 40
0.3616312845215355
 40
0.4997363919341641
 40
1.0
 40
1.0
 40
1.0
 40
1.0
 10
300.5054687910228
 20
197.9221977786215
 30
0.0
 10
300.5064425555608
 20
197.9224763738609
 30
0.0
 10
300.5079152844813
 20
197.9228977234278
 30
0.0
 10
300.515527034422
 20
197.9283982963085
 30
0.0
 10
300.5249881677749
 20
197.935622784579
 30
0.0
 10
300.541125241545
 20
197.9485017837887
 30
0.0
 10
300.5835445379829
 20
197.9830715842463
 30
0.0
 10
300.6215260207733
 20
198.014687598298
 30
0.0
 10
300.6512905646172
 20
198.0394637830931
 30
0.0
  0
LINE
  5
203
330
1F
100
AcDbEntity
  8
0
  6
Continuous
 62
     7
370
    25
100
AcDbLine
 10
300.6512905646
 20
198.0394637831
 30
0.0
 11
300.6525705107
 21
198.0379282051
 31
0.0
  0
LINE
  5
204
330
1F
100
AcDbEntity
  8
0
  6
Continuous
 62
     7
370
    25
100
AcDbLine
 10
300.505468791
 20
197.9221977786
 30
0.0
 11
300.5067484095
 21
197.9206632089
 31
0.0
  0
LINE
  5
205
330
1F
100
AcDbEntity
  8
0
  6
Continuous
 62
     7
370
    25
100
AcDbLine
 10
300.7856250535
 20
198.155446354
 30
0.0
 11
300.7869046718
 21
198.1539117847
 31
0.0
  0
SPLINE
  5
206
330
1F
100
AcDbEntity
  8
0
  6
Continuous
 62
     7
370
    25
100
AcDbSpline
210
0.0
220
0.0
230
1.0
 70
     8
 71
     3
 72
    15
 73
    11
 74
     0
 42
0.000000001
 43
0.00000001
 40
0.0
 40
0.0
 40
0.0
 40
0.0
 40
0.008108642565649
 40
0.1725277381807671
 40
0.3366751584498193
 40
0.5010179505843664
 40
0.6652570108282511
 40
0.829637363103951
 40
0.994476943786216
 40
1.0
 40
1.0
 40
1.0
 40
1.0
 10
300.295204896041
 20
197.7362949824355
 30
0.0
 10
300.2949366662079
 20
197.7360514711577
 30
0.0
 10
300.2892295350775
 20
197.7308702771882
 30
0.0
 10
300.245551224879
 20
197.6959661659721
 30
0.0
 10
300.1707879021969
 20
197.6354256615293
 30
0.0
 10
300.0792157594024
 20
197.5600937381253
 30
0.0
 10
299.9886432439667
 20
197.483600142135
 30
0.0
 10
299.9157228804414
 20
197.4210911267508
 30
0.0
 10
299.8743071249361
 20
197.3851557741256
 30
0.0
 10
299.8681723640409
 20
197.3804532564808
 30
0.0
 10
299.8679734787107
 20
197.3803008036322
 30
0.0
  0
LINE
  5
207
330
1F
100
AcDbEntity
  8
0
  6
Continuous
 62
     7
370
    25
100
AcDbLine
 10
300.4353945368
 20
197.8541703137
 30
0.0
 11
300.4341143673
 21
197.8557065793
 31
0.0
  0
LINE
  5
208
330
1F
100
AcDbEntity
  8
0
  6
Continuous
 62
     7
370
    25
100
AcDbLine
 10
300.6470344757
 20
198.0300528553
 30
0.0
 11
300.6457542715
 21
198.0315892277
 31
0.0
  0
SPLINE
  5
209
330
1F
100
AcDbEntity
  8
0
  6
Continuous
 62
     7
370
    25
100
AcDbSpline
210
0.0
220
0.0
230
1.0
 70
     8
 71
     3
 72
    13
 73
     9
 74
     0
 42
0.000000001
 43
0.00000001
 40
0.0
 40
0.0
 40
0.0
 40
0.0
 40
0.1251085010289456
 40
0.2500584291583599
 40
0.3749787537603154
 40
0.4999626776854132
 40
0.7494913647543924
 40
1.0
 40
1.0
 40
1.0
 40
1.0
 10
300.4353945367509
 20
197.8541703137481
 30
0.0
 10
300.4361614945296
 20
197.8545188709083
 30
0.0
 10
300.4376944379808
 20
197.8552155434385
 30
0.0
 10
300.4513418475358
 20
197.8662988750725
 30
0.0
 10
300.4746217711482
 20
197.8857413477642
 30
0.0
 10
300.5150841034922
 20
197.9197354106247
 30
0.0
 10
300.5745230944717
 20
197.9695832697558
 30
0.0
 10
300.6228324572137
 20
198.00987000947
 30
0.0
 10
300.6470344757233
 20
198.0300528552976
 30
0.0
  0
SPLINE
  5
20A
330
1F
100
AcDbEntity
  8
0
  6
Continuous
 62
     7
370
    25
100
AcDbSpline
210
0.0
220
0.0
230
1.0
 70
     8
 71
     3
 72
    13
 73
     9
 74
     0
 42
0.000000001
 43
0.00000001
 40
0.0
 40
0.0
 40
0.0
 40
0.0
 40
0.2505262713420269
 40
0.5001291105932492
 40
0.6322154968997126
 40
0.750018031080942
 40
0.8748565557177927
 40
0.9999999999999999
 40
0.9999999999999999
 40
0.9999999999999999
 40
0.9999999999999999
 10
300.6470344757233
 20
198.0300528552976
 30
0.0
 10
300.6711662834844
 20
198.0501533973993
 30
0.0
 10
300.7193409499091
 20
198.090280391626
 30
0.0
 10
300.7794907244613
 20
198.1400792623835
 30
0.0
 10
300.8209601217852
 20
198.1743382589382
 30
0.0
 10
300.8451119352398
 20
198.1943829521864
 30
0.0
 10
300.8583769695567
 20
198.2056680282472
 30
0.0
 10
300.8595024594302
 20
198.2071611390002
 30
0.0
 10
300.8600658907845
 20
198.207908605
 30
0.0
  0
LINE
  5
20B
330
1F
100
AcDbEntity
  8
0
  6
Continuous
 62
     7
370
    25
100
AcDbLine
 10
300.8600658908
 20
198.207908605
 30
0.0
 11
300.8587857161
 21
198.2094448865
 31
0.0
  0
LINE
  5
20C
330
1F
100
AcDbEntity
  8
0
  6
Continuous
 62
     7
370
    25
100
AcDbLine
 10
294.2142098993
 20
186.7915664742
 30
0.0
 11
294.2142098993
 21
186.674269012
 31
0.0
  0
LINE
  5
20D
330
1F
100
AcDbEntity
  8
0
  6
Continuous
 62
     7
370
    25
100
AcDbLine
 10
289.0842098993
 20
214.5405743774
 30
0.0
 11
289.0842098993
 21
214.4453420221
 31
0.0
  0
LINE
  5
20E
330
1F
100
AcDbEntity
  8
0
  6
Continuous
 62
     7
370
    25
100
AcDbLine
 10
289.0842098993
 20
186.8515664742
 30
0.0
 11
289.0842098993
 21
186.5915664742
 31
0.0
  0
LINE
  5
20F
330
1F
100
AcDbEntity
  8
0
  6
Continuous
 62
     7
370
    25
100
AcDbLine
 10
288.8442098993
 20
186.8153747894
 30
0.0
 11
288.8442098993
 21
186.627758159
 31
0.0
  0
LINE
  5
210
330
1F
100
AcDbEntity
  8
0
  6
Continuous
 62
     7
370
    25
100
AcDbLine
 10
295.3042098993
 20
186.2115664733
 30
0.0
 11
295.1442098993
 21
186.2115664733
 31
0.0
  0
LINE
  5
211
330
1F
100
AcDbEntity
  8
0
  6
Continuous
 62
     7
370
    25
100
AcDbLine
 10
295.1442098993
 20
186.6115664733
 30
0.0
 11
295.3042098993
 21
186.6115664733
 31
0.0
  0
LINE
  5
212
330
1F
100
AcDbEntity
  8
0
  6
Continuous
 62
     7
370
    25
100
AcDbLine
 10
295.3042098993
 20
186.6115664733
 30
0.0
 11
295.3042098993
 21
186.2115664733
 31
0.0
  0
LINE
  5
213
330
1F
100
AcDbEntity
  8
0
  6
Continuous
 62
     7
370
    25
100
AcDbLine
 10
295.1442098993
 20
186.5915664742
 30
0.0
 11
295.1442098993
 21
186.6115664733
 31
0.0
  0
LINE
  5
214
330
1F
100
AcDbEntity
  8
0
  6
Continuous
 62
     7
370
    25
100
AcDbLine
 10
295.1442098993
 20
174.7115664733
 30
0.0
 11
295.3042098993
 21
174.7115664733
 31
0.0
  0
LINE
  5
215
330
1F
100
AcDbEntity
  8
0
  6
Continuous
 62
     7
370
    25
100
AcDbLine
 10
295.3042098993
 20
186.2115664733
 30
0.0
 11
295.3042098993
 21
174.7115664733
 31
0.0
  0
LINE
  5
216
330
1F
100
AcDbEntity
  8
0
  6
Continuous
 62
     7
370
    25
100
AcDbLine
 10
295.3042098993
 20
174.3115664733
 30
0.0
 11
295.1442098993
 21
174.3115664733
 31
0.0
  0
LINE
  5
217
330
1F
100
AcDbEntity
  8
0
  6
Continuous
 62
     7
370
    25
100
AcDbLine
 10
295.3042098993
 20
174.7115664733
 30
0.0
 11
295.3042098993
 21
174.3115664733
 31
0.0
  0
LINE
  5
218
330
1F
100
AcDbEntity
  8
0
  6
Continuous
 62
     7
370
    25
100
AcDbLine
 10
295.3042098993
 20
186.7615664733
 30
0.0
 11
295.1442098993
 21
186.7615664733
 31
0.0
  0
LINE
  5
219
330
1F
100
AcDbEntity
  8
0
  6
Continuous
 62
     7
370
    25
100
AcDbLine
 10
295.1453089333
 20
186.7915664742
 30
0.0
 11
295.1442098993
 21
186.7615664733
 31
0.0
  0
LINE
  5
21A
330
1F
100
AcDbEntity
  8
0
  6
Continuous
 62
     7
370
    25
100
AcDbLine
 10
295.3060164265
 20
186.7915664742
 30
0.0
 11
295.3042098993
 21
186.7615664733
 31
0.0
  0
LINE
  5
21B
330
1F
100
AcDbEntity
  8
0
  6
Continuous
 62
     7
370
    25
100
AcDbLine
 10
295.3042098993
 20
186.7615664733
 30
0.0
 11
295.3042098993
 21
186.6115664733
 31
0.0
  0
LINE
  5
21C
330
1F
100
AcDbEntity
  8
0
  6
Continuous
 62
     7
370
    25
100
AcDbLine
 10
295.1442098993
 20
186.7615664733
 30
0.0
 11
295.1442098993
 21
186.6115664733
 31
0.0
  0
LINE
  5
21D
330
1F
100
AcDbEntity
  8
0
  6
Continuous
 62
     7
370
    25
100
AcDbLine
 10
148.0842098993
 20
214.4474868165
 30
0.0
 11
148.0842098993
 21
214.3869147571
 31
0.0
  0
LINE
  5
21E
330
1F
100
AcDbEntity
  8
0
  6
Continuous
 62
     7
370
    25
100
AcDbLine
 10
147.9242098993
 20
214.5619065931
 30
0.0
 11
147.9242098993
 21
214.52657438
 31
0.0
  0
LINE
  5
21F
330
1F
100
AcDbEntity
  8
0
  6
Continuous
 62
     7
370
    25
100
AcDbLine
 10
147.9242098993
 20
222.2715664742
 30
0.0
 11
147.9242098993
 21
222.0315664742
 31
0.0
  0
LINE
  5
220
330
1F
100
AcDbEntity
  8
0
  6
Continuous
 62
     7
370
    25
100
AcDbLine
 10
288.6842098993
 20
78.2915664742
 30
0.0
 11
288.5842098993
 21
78.2915664742
 31
0.0
  0
LINE
  5
221
330
1F
100
AcDbEntity
  8
0
  6
Continuous
 62
     7
370
    25
100
AcDbLine
 10
152.9042098993
 20
78.2915664742
 30
0.0
 11
152.8042098993
 21
78.2915664742
 31
0.0
  0
LINE
  5
222
330
1F
100
AcDbEntity
  8
0
  6
Continuous
 62
     7
370
    25
100
AcDbLine
 10
301.4730237594
 20
186.7915664742
 30
0.0
 11
301.4730237594
 21
186.9515664742
 31
0.0
  0
LINE
  5
223
330
1F
100
AcDbEntity
  8
0
  6
Continuous
 62
     7
370
    25
100
AcDbLine
 10
289.7442098993
 20
186.7915664742
 30
0.0
 11
301.4730237594
 21
186.7915664742
 31
0.0
  0
LINE
  5
224
330
1F
100
AcDbEntity
  8
0
  6
Continuous
 62
     7
370
    25
100
AcDbLine
 10
289.7442098993
 20
186.9515664742
 30
0.0
 11
289.7442098993
 21
186.7915664742
 31
0.0
  0
LINE
  5
225
330
1F
100
AcDbEntity
  8
0
  6
Continuous
 62
     7
370
    25
100
AcDbLine
 10
289.7442098993
 20
186.9515664742
 30
0.0
 11
301.4730237594
 21
186.9515664742
 31
0.0
  0
ARC
  5
226
330
1F
100
AcDbEntity
  8
0
  6
Continuous
 62
     7
370
    25
100
AcDbCircle
 10
301.4730237594
 20
187.2015664742
 30
0.0
 40
0.25
100
AcDbArc
 50
270.0
 51
320.0
  0
LINE
  5
227
330
1F
100
AcDbEntity
  8
0
  6
Continuous
 62
     7
370
    25
100
AcDbLine
 10
301.6645348702
 20
187.0408695717
 30
0.0
 11
301.7871019811
 21
186.9380235542
 31
0.0
  0
ARC
  5
228
330
1F
100
AcDbEntity
  8
0
  6
Continuous
 62
     7
370
    25
100
AcDbCircle
 10
301.4730237594
 20
187.2015664742
 30
0.0
 40
0.4100000000000013
100
AcDbArc
 50
270.0
 51
320.0
  0
LINE
  5
229
330
1F
100
AcDbEntity
  8
0
  6
Continuous
 62
     7
370
    25
100
AcDbLine
 10
289.7442098993
 20
211.2491013796
 30
0.0
 11
289.7442098993
 21
211.0891013796
 31
0.0
  0
LINE
  5
22A
330
1F
100
AcDbEntity
  8
0
  6
Continuous
 62
     7
370
    25
100
AcDbLine
 10
289.3442098993
 20
211.0891013796
 30
0.0
 11
289.3442098993
 21
211.2491013796
 31
0.0
  0
LINE
  5
22B
330
1F
100
AcDbEntity
  8
0
  6
Continuous
 62
     7
370
    25
100
AcDbLine
 10
289.3442098993
 20
211.2491013796
 30
0.0
 11
289.7442098993
 21
211.2491013796
 31
0.0
  0
LINE
  5
22C
330
1F
100
AcDbEntity
  8
0
  6
Continuous
 62
     7
370
    25
100
AcDbLine
 10
289.7442098993
 20
211.0891013796
 30
0.0
 11
289.3442098993
 21
211.0891013796
 31
0.0
  0
ARC
  5
22D
330
1F
100
AcDbEntity
  8
0
  6
Continuous
 62
     7
370
    25
100
AcDbCircle
 10
302.6161864133
 20
191.2864513708
 30
0.0
 40
1.999999999999995
100
AcDbArc
 50
320.0
 51
70.0
  0
LINE
  5
22E
330
1F
100
AcDbEntity
  8
0
  6
Continuous
 62
     7
370
    25
100
AcDbLine
 10
303.3002266999
 20
193.1658366124
 30
0.0
 11
303.3549499229
 21
193.3161874317
 31
0.0
  0
ARC
  5
22F
330
1F
100
AcDbEntity
  8
0
  6
Continuous
 62
     7
370
    25
100
AcDbCircle
 10
302.6161864133
 20
191.2864513708
 30
0.0
 40
2.160000000000014
100
AcDbArc
 50
320.0
 51
70.0
  0
LINE
  5
230
330
1F
100
AcDbEntity
  8
0
  6
Continuous
 62
     7
370
    25
100
AcDbLine
 10
304.2708424104
 20
189.8980301339
 30
0.0
 11
304.1482752995
 21
190.0008761514
 31
0.0
  0
LINE
  5
231
330
1F
100
AcDbEntity
  8
0
  6
Continuous
 62
     7
370
    25
100
AcDbLine
 10
299.4648713708
 20
194.7320602336
 30
0.0
 11
299.4101481479
 21
194.5817094143
 31
0.0
  0
LINE
  5
232
330
1F
100
AcDbEntity
  8
0
  6
Continuous
 62
     7
370
    25
100
AcDbLine
 10
303.3002266999
 20
193.1658366124
 30
0.0
 11
299.4101481479
 21
194.5817094143
 31
0.0
  0
LINE
  5
233
330
1F
100
AcDbEntity
  8
0
  6
Continuous
 62
     7
370
    25
100
AcDbLine
 10
303.3549499229
 20
193.3161874317
 30
0.0
 11
299.4648713708
 21
194.7320602336
 31
0.0
  0
ARC
  5
234
330
1F
100
AcDbEntity
  8
0
  6
Continuous
 62
     7
370
    25
100
AcDbCircle
 10
300.1489116574
 20
196.6114454752
 30
0.0
 40
2.159999999999988
100
AcDbArc
 50
198.0
 51
250.0
  0
LINE
  5
235
330
1F
100
AcDbEntity
  8
0
  6
Continuous
 62
     7
370
    25
100
AcDbLine
 10
298.0946295822
 20
195.9439687673
 30
0.0
 11
298.2467986249
 21
195.9934114864
 31
0.0
  0
ARC
  5
236
330
1F
100
AcDbEntity
  8
0
  6
Continuous
 62
     7
370
    25
100
AcDbCircle
 10
300.1489116574
 20
196.6114454752
 30
0.0
 40
1.999999999999997
100
AcDbArc
 50
198.0
 51
250.0
  0
LINE
  5
237
330
1F
100
AcDbEntity
  8
0
  6
Continuous
 62
     7
370
    25
100
AcDbLine
 10
301.6645348702
 20
187.0408695717
 30
0.0
 11
304.1482752995
 21
190.0008761514
 31
0.0
  0
LINE
  5
238
330
1F
100
AcDbEntity
  8
0
  6
Continuous
 62
     7
370
    25
100
AcDbLine
 10
301.7871019811
 20
186.9380235542
 30
0.0
 11
304.2708424104
 21
189.8980301339
 31
0.0
  0
LINE
  5
239
330
1F
100
AcDbEntity
  8
0
  6
Continuous
 62
     7
370
    25
100
AcDbLine
 10
293.2298061915
 20
210.9163556282
 30
0.0
 11
293.3819752341
 21
210.9657983473
 31
0.0
  0
ARC
  5
23A
330
1F
100
AcDbEntity
  8
0
  6
Continuous
 62
     7
370
    25
100
AcDbCircle
 10
292.9920420625
 20
210.8391013796
 30
0.0
 40
0.2499999999999716
100
AcDbArc
 50
18.0
 51
90.0
  0
LINE
  5
23B
330
1F
100
AcDbEntity
  8
0
  6
Continuous
 62
     7
370
    25
100
AcDbLine
 10
292.9920420625
 20
211.0891013796
 30
0.0
 11
292.9920420625
 21
211.2491013796
 31
0.0
  0
ARC
  5
23C
330
1F
100
AcDbEntity
  8
0
  6
Continuous
 62
     7
370
    25
100
AcDbCircle
 10
292.9920420625
 20
210.8391013796
 30
0.0
 40
0.4100000000000149
100
AcDbArc
 50
18.0
 51
90.0
  0
LINE
  5
23D
330
1F
100
AcDbEntity
  8
0
  6
Continuous
 62
     7
370
    25
100
AcDbLine
 10
298.0946295822
 20
195.9439687673
 30
0.0
 11
293.2298061915
 21
210.9163556282
 31
0.0
  0
LINE
  5
23E
330
1F
100
AcDbEntity
  8
0
  6
Continuous
 62
     7
370
    25
100
AcDbLine
 10
298.2467986249
 20
195.9934114864
 30
0.0
 11
293.3819752341
 21
210.9657983473
 31
0.0
  0
LINE
  5
23F
330
1F
100
AcDbEntity
  8
0
  6
Continuous
 62
     7
370
    25
100
AcDbLine
 10
289.7442098993
 20
211.2491013796
 30
0.0
 11
292.9920420625
 21
211.2491013796
 31
0.0
  0
LINE
  5
240
330
1F
100
AcDbEntity
  8
0
  6
Continuous
 62
     7
370
    25
100
AcDbLine
 10
289.7442098993
 20
211.0891013796
 30
0.0
 11
292.9920420625
 21
211.0891013796
 31
0.0
  0
LINE
  5
241
330
1F
100
AcDbEntity
  8
0
  6
Continuous
 62
     7
370
    25
100
AcDbLine
 10
289.7442098993
 20
186.7915664742
 30
0.0
 11
289.3442098993
 21
186.7915664742
 31
0.0
  0
LINE
  5
242
330
1F
100
AcDbEntity
  8
0
  6
Continuous
 62
     7
370
    25
100
AcDbLine
 10
289.3442098993
 20
186.7915664742
 30
0.0
 11
289.3442098993
 21
186.9515664742
 31
0.0
  0
LINE
  5
243
330
1F
100
AcDbEntity
  8
0
  6
Continuous
 62
     7
370
    25
100
AcDbLine
 10
289.3442098993
 20
186.9515664742
 30
0.0
 11
289.7442098993
 21
186.9515664742
 31
0.0
  0
LINE
  5
244
330
1F
100
AcDbEntity
  8
0
  6
Continuous
 62
     7
370
    25
100
AcDbLine
 10
293.3027016766
 20
211.2097772702
 30
0.0
 11
293.3819752341
 21
210.9657983473
 31
0.0
  0
LINE
  5
245
330
1F
100
AcDbEntity
  8
0
  6
Continuous
 62
     7
370
    25
100
AcDbLine
 10
293.4387816449
 20
211.5154178832
 30
0.0
 11
293.5664595077
 21
211.5722637302
 31
0.0
  0
LINE
  5
246
330
1F
100
AcDbEntity
  8
0
  6
Continuous
 62
     7
370
    25
100
AcDbLine
 10
295.9679924953
 20
212.6570654655
 30
0.0
 11
295.9737780117
 21
212.6440709828
 31
0.0
  0
LINE
  5
247
330
1F
100
AcDbEntity
  8
0
  6
Continuous
 62
     7
370
    25
100
AcDbLine
 10
295.3690796977
 20
212.3748419475
 30
0.0
 11
295.9737780117
 21
212.6440709828
 31
0.0
  0
ARC
  5
248
330
1F
100
AcDbEntity
  8
0
  6
Continuous
 62
     7
370
    25
100
AcDbCircle
 10
293.5404658057
 20
211.2870315188
 30
0.0
 40
0.4100000000000676
100
AcDbArc
 50
158.7926076914
 51
188.9569988013
  0
ARC
  5
249
330
1F
100
AcDbEntity
  8
0
  6
Continuous
 62
     7
370
    25
100
AcDbCircle
 10
293.5404658057
 20
211.2870315188
 30
0.0
 40
0.2500000000000729
100
AcDbArc
 50
114.0
 51
198.0
  0
LINE
  5
24A
330
1F
100
AcDbEntity
  8
0
  6
Continuous
 62
     7
370
    25
100
AcDbLine
 10
293.5410805824
 20
211.5609643046
 30
0.0
 11
293.3728589926
 21
211.2308108453
 31
0.0
  0
ARC
  5
24B
330
1F
100
AcDbEntity
  8
0
  6
Continuous
 62
     7
370
    25
100
AcDbCircle
 10
293.5956106237
 20
211.1173132204
 30
0.0
 40
0.2500000000000259
100
AcDbArc
 50
153.0
 51
198.0
  0
LINE
  5
24C
330
1F
100
AcDbEntity
  8
0
  6
Continuous
 62
     7
370
    25
100
AcDbLine
 10
295.3842098993
 20
174.3115664742
 30
0.0
 11
295.1442098993
 21
174.3115664742
 31
0.0
  0
LINE
  5
24D
330
1F
100
AcDbEntity
  8
0
  6
Continuous
 62
     7
370
    25
100
AcDbLine
 10
295.3842098993
 20
174.3115664742
 30
0.0
 11
295.3842098993
 21
173.9115664742
 31
0.0
  0
LINE
  5
24E
330
1F
100
AcDbEntity
  8
0
  6
Continuous
 62
     7
370
    25
100
AcDbLine
 10
295.3842098993
 20
173.9115664742
 30
0.0
 11
295.1442098993
 21
173.9115664742
 31
0.0
  0
LINE
  5
24F
330
1F
100
AcDbEntity
  8
0
  6
Continuous
 62
     7
370
    25
100
AcDbLine
 10
295.3842098993
 20
173.9115664742
 30
0.0
 11
295.3842098993
 21
88.5615664742
 31
0.0
  0
LINE
  5
250
330
1F
100
AcDbEntity
  8
0
  6
Continuous
 62
     7
370
    25
100
AcDbLine
 10
295.3842098993
 20
88.5615664742
 30
0.0
 11
295.1442098993
 21
88.5615664742
 31
0.0
  0
SPLINE
  5
251
330
1F
100
AcDbEntity
  8
0
  6
Continuous
 62
     7
370
    25
100
AcDbSpline
210
0.0
220
0.0
230
1.0
 70
     8
 71
     3
 72
    11
 73
     7
 74
     0
 42
0.000000001
 43
0.00000001
 40
0.0
 40
0.0
 40
0.0
 40
0.0
 40
0.250000000000006
 40
0.5000000000000078
 40
0.7499999999999991
 40
1.0
 40
1.0
 40
1.0
 40
1.0
 10
148.2642098992878
 20
221.7315664741731
 30
0.0
 10
148.2403884105898
 20
221.770877587315
 30
0.0
 10
148.1927454331938
 20
221.8494998135988
 30
0.0
 10
148.1212809670997
 20
221.9486632947278
 30
0.0
 10
148.0498165010056
 20
222.0180380586645
 30
0.0
 10
148.0021735236096
 20
222.0270570023369
 30
0.0
 10
147.9783520349116
 20
222.0315664741731
 30
0.0
  0
LINE
  5
252
330
1F
100
AcDbEntity
  8
0
  6
Continuous
 62
     7
370
    25
100
AcDbLine
 10
147.9783520349
 20
222.0315664742
 30
0.0
 11
147.9783520349
 21
222.2715664742
 31
0.0
  0
SPLINE
  5
253
330
1F
100
AcDbEntity
  8
0
  6
Continuous
 62
     7
370
    25
100
AcDbSpline
210
0.0
220
0.0
230
1.0
 70
     8
 71
     3
 72
    11
 73
     7
 74
     0
 42
0.000000001
 43
0.00000001
 40
0.0
 40
0.0
 40
0.0
 40
0.0
 40
0.2500000000000014
 40
0.5000000000000012
 40
0.7499999999999987
 40
1.0
 40
1.0
 40
1.0
 40
1.0
 10
148.2642098992878
 20
221.7315664741731
 30
0.0
 10
148.2403884105898
 20
221.8023264778285
 30
0.0
 10
148.1927454331938
 20
221.9438464851392
 30
0.0
 10
148.1212809670997
 20
222.1223407511715
 30
0.0
 10
148.0498165010056
 20
222.2472153262576
 30
0.0
 10
148.0021735236096
 20
222.263449424868
 30
0.0
 10
147.9783520349116
 20
222.2715664741731
 30
0.0
  0
LINE
  5
254
330
1F
100
AcDbEntity
  8
0
  6
Continuous
 62
     7
370
    25
100
AcDbLine
 10
290.7242098993
 20
222.2715664742
 30
0.0
 11
290.7242098993
 21
221.7315664742
 31
0.0
  0
LINE
  5
255
330
1F
100
AcDbEntity
  8
0
  6
Continuous
 62
     7
370
    25
100
AcDbLine
 10
148.2642098993
 20
221.7315664742
 30
0.0
 11
290.7242098993
 21
221.7315664742
 31
0.0
  0
LINE
  5
256
330
1F
100
AcDbEntity
  8
0
  6
Continuous
 62
     7
370
    25
100
AcDbLine
 10
158.5642098993
 20
222.2715664742
 30
0.0
 11
158.5842098993
 21
222.2715664742
 31
0.0
  0
LINE
  5
257
330
1F
100
AcDbEntity
  8
0
  6
Continuous
 62
     7
370
    25
100
AcDbLine
 10
158.7442098993
 20
222.2715664742
 30
0.0
 11
290.7242098993
 21
222.2715664742
 31
0.0
  0
LINE
  5
258
330
1F
100
AcDbEntity
  8
0
  6
Continuous
 62
     7
370
    25
100
AcDbLine
 10
148.2642098993
 20
214.7515664742
 30
0.0
 11
147.7242098993
 21
214.7515664742
 31
0.0
  0
LINE
  5
259
330
1F
100
AcDbEntity
  8
0
  6
Continuous
 62
     7
370
    25
100
AcDbLine
 10
147.7242098993
 20
222.0174243385
 30
0.0
 11
147.7242098993
 21
214.7515664742
 31
0.0
  0
SPLINE
  5
25A
330
1F
100
AcDbEntity
  8
0
  6
Continuous
 62
     7
370
    25
100
AcDbSpline
210
0.0
220
0.0
230
1.0
 70
     8
 71
     3
 72
    12
 73
     8
 74
     0
 42
0.000000001
 43
0.00000001
 40
0.0
 40
0.0
 40
0.0
 40
0.0
 40
0.1926146673761708
 40
0.3852693171550107
 40
0.5799164887518887
 40
0.783852284861276
 40
1.0
 40
1.0
 40
1.0
 40
1.0
 10
147.7242098992878
 20
222.0174243385494
 30
0.0
 10
147.729689215661
 20
222.0132946988913
 30
0.0
 10
147.7406489857883
 20
222.0050345623564
 30
0.0
 10
147.8249201737444
 20
221.9683984909236
 30
0.0
 10
147.9457666394227
 20
221.9067334944375
 30
0.0
 10
148.095727559462
 20
221.8232758811558
 30
0.0
 10
148.2069711607849
 20
221.762723037941
 30
0.0
 10
148.2642098992879
 20
221.7315664741731
 30
0.0
  0
LINE
  5
25B
330
1F
100
AcDbEntity
  8
0
  6
Continuous
 62
     7
370
    25
100
AcDbLine
 10
148.2642098993
 20
221.7315664742
 30
0.0
 11
148.2642098993
 21
214.7515664742
 31
0.0
  0
SPLINE
  5
25C
330
1F
100
AcDbEntity
  8
0
  6
Continuous
 62
     7
370
    25
100
AcDbSpline
210
0.0
220
0.0
230
1.0
 70
     8
 71
     3
 72
    12
 73
     8
 74
     0
 42
0.000000001
 43
0.00000001
 40
0.0
 40
0.0
 40
0.0
 40
0.0
 40
0.1598173936130926
 40
0.3194667545980562
 40
0.4853174478350881
 40
0.7468598806433127
 40
1.0
 40
1.0
 40
1.0
 40
1.0
 10
147.9642098992878
 20
222.0174243385494
 30
0.0
 10
147.9668658224834
 20
222.0136942192158
 30
0.0
 10
147.9721748764265
 20
222.0062379024105
 30
0.0
 10
148.0117229199165
 20
221.9748835041167
 30
0.0
 10
148.0757439936474
 20
221.9187662249031
 30
0.0
 10
148.1610506630415
 20
221.8324214119673
 30
0.0
 10
148.2301997790548
 20
221.7648169002648
 30
0.0
 10
148.2642098992878
 20
221.7315664741731
 30
0.0
  0
LINE
  5
25D
330
1F
100
AcDbEntity
  8
0
  6
Continuous
 62
     7
370
    25
100
AcDbLine
 10
147.7242098993
 20
222.0174243385
 30
0.0
 11
147.9642098993
 21
222.0174243385
 31
0.0
  0
LINE
  5
25E
330
1F
100
AcDbEntity
  8
0
  6
Continuous
 62
     7
370
    25
100
AcDbLine
 10
290.7242098993
 20
221.7315664742
 30
0.0
 11
290.7242098993
 21
214.7515664742
 31
0.0
  0
LINE
  5
25F
330
1F
100
AcDbEntity
  8
0
  6
Continuous
 62
     7
370
    25
100
AcDbLine
 10
290.7242098993
 20
214.7515664742
 30
0.0
 11
148.2642098993
 21
214.7515664742
 31
0.0
  0
LINE
  5
260
330
1F
100
AcDbEntity
  8
0
  6
Continuous
 62
     7
370
    25
100
AcDbLine
 10
296.4498810293
 20
221.7315664742
 30
0.0
 11
296.4098810293
 21
221.7315664742
 31
0.0
  0
LINE
  5
261
330
1F
100
AcDbEntity
  8
0
  6
Continuous
 62
     7
370
    25
100
AcDbLine
 10
296.4498810293
 20
221.8715288593
 30
0.0
 11
296.4498810293
 21
221.7315664742
 31
0.0
  0
LINE
  5
262
330
1F
100
AcDbEntity
  8
0
  6
Continuous
 62
     7
370
    25
100
AcDbLine
 10
297.522899561
 20
221.8715288593
 30
0.0
 11
296.4498810293
 21
221.8715288593
 31
0.0
  0
ARC
  5
263
330
1F
100
AcDbEntity
  8
0
  6
Continuous
 62
     7
370
    25
100
AcDbCircle
 10
296.4242098993
 20
217.6315664742
 30
0.0
 40
4.379999999999932
100
AcDbArc
 50
293.5
 51
75.4726340134
  0
LINE
  5
264
330
1F
100
AcDbEntity
  8
0
  6
Continuous
 62
     7
370
    25
100
AcDbLine
 10
293.9981921832
 20
211.5824836927
 30
0.0
 11
293.9184423694
 21
211.7658957076
 31
0.0
  0
LINE
  5
265
330
1F
100
AcDbEntity
  8
0
  6
Continuous
 62
     7
370
    25
100
AcDbLine
 10
293.6313681534
 20
211.4229840652
 30
0.0
 11
293.9981921832
 21
211.5824836927
 31
0.0
  0
LINE
  5
266
330
1F
100
AcDbEntity
  8
0
  6
Continuous
 62
     7
370
    25
100
AcDbLine
 10
293.5516183396
 20
211.6063960801
 30
0.0
 11
293.6313681534
 21
211.4229840652
 31
0.0
  0
LINE
  5
267
330
1F
100
AcDbEntity
  8
0
  6
Continuous
 62
     7
370
    25
100
AcDbLine
 10
292.781562966
 20
211.2715664742
 30
0.0
 11
293.5516183396
 21
211.6063960801
 31
0.0
  0
LINE
  5
268
330
1F
100
AcDbEntity
  8
0
  6
Continuous
 62
     7
370
    25
100
AcDbLine
 10
289.3442098993
 20
211.2715664742
 30
0.0
 11
292.781562966
 21
211.2715664742
 31
0.0
  0
LINE
  5
269
330
1F
100
AcDbEntity
  8
0
  6
Continuous
 62
     7
370
    25
100
AcDbLine
 10
289.3442098993
 20
214.7315664742
 30
0.0
 11
289.3442098993
 21
211.2715664742
 31
0.0
  0
LINE
  5
26A
330
1F
100
AcDbEntity
  8
0
  6
Continuous
 62
     7
370
    25
100
AcDbLine
 10
290.7642098993
 20
214.7315664742
 30
0.0
 11
289.3442098993
 21
214.7315664742
 31
0.0
  0
LINE
  5
26B
330
1F
100
AcDbEntity
  8
0
  6
Continuous
 62
     7
370
    25
100
AcDbLine
 10
290.7642098993
 20
221.7415664742
 30
0.0
 11
290.7642098993
 21
214.7315664742
 31
0.0
  0
LINE
  5
26C
330
1F
100
AcDbEntity
  8
0
  6
Continuous
 62
     7
370
    25
100
AcDbLine
 10
296.4098810293
 20
221.7415664742
 30
0.0
 11
290.7642098993
 21
221.7415664742
 31
0.0
  0
LINE
  5
26D
330
1F
100
AcDbEntity
  8
0
  6
Continuous
 62
     7
370
    25
100
AcDbLine
 10
296.4098810293
 20
221.7315664742
 30
0.0
 11
296.4098810293
 21
221.7415664742
 31
0.0
  0
ARC
  5
26E
330
1F
100
AcDbEntity
  8
0
  6
Continuous
 62
     7
370
    25
100
AcDbCircle
 10
293.9242253088
 20
215.1115650234
 30
0.0
 40
0.5200000181389647
100
AcDbArc
 50
98.2458074472
 51
261.7541925528
  0
ARC
  5
26F
330
1F
100
AcDbEntity
  8
0
  6
Continuous
 62
     7
370
    25
100
AcDbCircle
 10
293.8496467996
 20
215.6766002321
 30
0.0
 40
0.0504110109779106
100
AcDbArc
 50
270.0000000001
 51
90.0000000003
  0
ARC
  5
270
330
1F
100
AcDbEntity
  8
0
  6
Continuous
 62
     7
370
    25
100
AcDbCircle
 10
293.9242253088
 20
215.1115650234
 30
0.0
 40
0.6199483876010805
100
AcDbArc
 50
96.9092974083
 51
263.0907025918
  0
ARC
  5
271
330
1F
100
AcDbEntity
  8
0
  6
Continuous
 62
     7
370
    25
100
AcDbCircle
 10
293.8496467996
 20
214.5465298148
 30
0.0
 40
0.0504110109779106
100
AcDbArc
 50
269.9999999997
 51
89.9999999999
  0
ARC
  5
272
330
1F
100
AcDbEntity
  8
0
  6
Continuous
 62
     7
370
    25
100
AcDbCircle
 10
293.998803818
 20
215.6766002321
 30
0.0
 40
0.050411010977939
100
AcDbArc
 50
90.0000000001
 51
269.9999999999
  0
ARC
  5
273
330
1F
100
AcDbEntity
  8
0
  6
Continuous
 62
     7
370
    25
100
AcDbCircle
 10
293.9242253088
 20
215.1115650234
 30
0.0
 40
0.5200000181389647
100
AcDbArc
 50
278.2458074472
 51
81.7541925528
  0
ARC
  5
274
330
1F
100
AcDbEntity
  8
0
  6
Continuous
 62
     7
370
    25
100
AcDbCircle
 10
293.998803818
 20
214.5465298148
 30
0.0
 40
0.050411010977939
100
AcDbArc
 50
89.9999999999
 51
270.0
  0
ARC
  5
275
330
1F
100
AcDbEntity
  8
0
  6
Continuous
 62
     7
370
    25
100
AcDbCircle
 10
293.9242253088
 20
215.1115650234
 30
0.0
 40
0.6199483876010676
100
AcDbArc
 50
276.9092974082
 51
83.0907025918
  0
LINE
  5
276
330
1F
100
AcDbEntity
  8
0
  6
Continuous
 62
     7
370
    25
100
AcDbLine
 10
293.9184423694
 20
211.7658957076
 30
0.0
 11
298.1707308212
 21
213.6148433484
 31
0.0
  0
LINE
  5
277
330
1F
100
AcDbEntity
  8
0
  6
Continuous
 62
     7
370
    25
100
AcDbLine
 10
296.4098810293
 20
222.1858400385
 30
0.0
 11
296.4098810293
 21
221.7415664742
 31
0.0
  0
LINE
  5
278
330
1F
100
AcDbEntity
  8
0
  6
Continuous
 62
     7
370
    25
100
AcDbLine
 10
290.7642098993
 20
222.2715664742
 30
0.0
 11
296.4098810293
 21
222.2715664742
 31
0.0
  0
LINE
  5
279
330
1F
100
AcDbEntity
  8
0
  6
Continuous
 62
     7
370
    25
100
AcDbLine
 10
290.7642098993
 20
221.7415664742
 30
0.0
 11
290.7642098993
 21
222.2715664742
 31
0.0
  0
LINE
  5
27A
330
1F
100
AcDbEntity
  8
0
  6
Continuous
 62
     7
370
    25
100
AcDbLine
 10
296.4242098993
 20
222.2715664742
 30
0.0
 11
296.4242098993
 21
222.0315664742
 31
0.0
  0
ARC
  5
27B
330
1F
100
AcDbEntity
  8
0
  6
Continuous
 62
     7
370
    25
100
AcDbCircle
 10
296.4242098993
 20
217.6315664742
 30
0.0
 40
4.640000000000017
100
AcDbArc
 50
293.5
 51
90.0
  0
LINE
  5
27C
330
1F
100
AcDbEntity
  8
0
  6
Continuous
 62
     7
370
    25
100
AcDbLine
 10
298.1787058026
 20
213.5965021469
 30
0.0
 11
298.2744055791
 21
213.376407729
 31
0.0
  0
ARC
  5
27D
330
1F
100
AcDbEntity
  8
0
  6
Continuous
 62
     7
370
    25
100
AcDbCircle
 10
296.4242098993
 20
217.6315664742
 30
0.0
 40
4.400000000000009
100
AcDbArc
 50
293.5
 51
90.0
  0
LINE
  5
27E
330
1F
100
AcDbEntity
  8
0
  6
Continuous
 62
     7
370
    25
100
AcDbLine
 10
298.2744055791
 20
213.376407729
 30
0.0
 11
293.6552930976
 21
211.3679604607
 31
0.0
  0
LINE
  5
27F
330
1F
100
AcDbEntity
  8
0
  6
Continuous
 62
     7
370
    25
100
AcDbLine
 10
293.6552930976
 20
211.3679604607
 30
0.0
 11
293.6313681534
 21
211.4229840652
 31
0.0
  0
LINE
  5
280
330
1F
100
AcDbEntity
  8
0
  6
Continuous
 62
     7
370
    25
100
AcDbLine
 10
298.1787058026
 20
213.5965021469
 30
0.0
 11
293.9264173508
 21
211.7475545061
 31
0.0
  0
LINE
  5
281
330
1F
100
AcDbEntity
  8
0
  6
Continuous
 62
     7
370
    25
100
AcDbLine
 10
296.4098810293
 20
222.1858400385
 30
0.0
 11
296.4098810293
 21
222.2715664742
 31
0.0
  0
LINE
  5
282
330
1F
100
AcDbEntity
  8
0
  6
Continuous
 62
     7
370
    25
100
AcDbLine
 10
296.4098810293
 20
222.2715664742
 30
0.0
 11
296.4242098993
 21
222.2715664742
 31
0.0
  0
LINE
  5
283
330
1F
100
AcDbEntity
  8
0
  6
Continuous
 62
     7
370
    25
100
AcDbLine
 10
296.4098810293
 20
222.0315664742
 30
0.0
 11
296.4242098993
 21
222.0315664742
 31
0.0
  0
LINE
  5
284
330
1F
100
AcDbEntity
  8
0
  6
Continuous
 62
     7
370
    25
100
AcDbLine
 10
290.7642098993
 20
221.7315664742
 30
0.0
 11
290.7242098993
 21
221.7315664742
 31
0.0
  0
LINE
  5
285
330
1F
100
AcDbEntity
  8
0
  6
Continuous
 62
     7
370
    25
100
AcDbLine
 10
290.7642098993
 20
221.9326600539
 30
0.0
 11
290.7242098993
 21
221.7315664742
 31
0.0
  0
SPLINE
  5
286
330
1F
100
AcDbEntity
  8
0
  6
Continuous
 62
     7
370
    25
100
AcDbSpline
210
0.0
220
0.0
230
1.0
 70
     8
 71
     3
 72
     9
 73
     5
 74
     0
 42
0.000000001
 43
0.00000001
 40
0.0
 40
0.0
 40
0.0
 40
0.0
 40
0.910250727029287
 40
1.0
 40
1.0
 40
1.0
 40
1.0
 10
290.7642098992879
 20
217.1590475417261
 30
0.0
 10
290.7532659654424
 20
217.1458036312235
 30
0.0
 10
290.7412429771376
 20
217.1312538922238
 30
0.0
 10
290.7256127048611
 20
217.124033215928
 30
0.0
 10
290.7242098992879
 20
217.1233851654801
 30
0.0
  0
LINE
  5
287
330
1F
100
AcDbEntity
  8
0
  6
Continuous
 62
     7
370
    25
100
AcDbLine
 10
290.7642098993
 20
217.5715664742
 30
0.0
 11
290.7242098993
 21
217.5715664742
 31
0.0
  0
LINE
  5
288
330
1F
100
AcDbEntity
  8
0
  6
Continuous
 62
     7
370
    25
100
AcDbLine
 10
147.9242098993
 20
214.5479597557
 30
0.0
 11
147.8842098993
 21
214.5479597557
 31
0.0
  0
LINE
  5
289
330
1F
100
AcDbEntity
  8
0
  6
Continuous
 62
     7
370
    25
100
AcDbLine
 10
294.8842779375
 20
206.406907409
 30
0.0
 11
294.8652568071
 21
206.4007270691
 31
0.0
  0
LINE
  5
28A
330
1F
100
AcDbEntity
  8
0
  6
Continuous
 62
     7
370
    25
100
AcDbLine
 10
293.3819752341
 20
210.9657983473
 30
0.0
 11
294.8652568071
 21
206.4007270691
 31
0.0
  0
LINE
  5
28B
330
1F
100
AcDbEntity
  8
0
  6
Continuous
 62
     7
370
    25
100
AcDbLine
 10
293.4009963645
 20
210.9719786872
 30
0.0
 11
293.3819752341
 21
210.9657983473
 31
0.0
  0
LINE
  5
28C
330
1F
100
AcDbEntity
  8
0
  6
Continuous
 62
     7
370
    25
100
AcDbLine
 10
293.4009963645
 20
210.9719786872
 30
0.0
 11
294.8842779375
 21
206.406907409
 31
0.0
  0
LINE
  5
28D
330
1F
100
AcDbEntity
  8
0
  6
Continuous
 62
     7
370
    25
100
AcDbLine
 10
294.7479736832
 20
206.891130128
 30
0.0
 11
294.7289525528
 21
206.8849497882
 31
0.0
  0
LINE
  5
28E
330
1F
100
AcDbEntity
  8
0
  6
Continuous
 62
     7
370
    25
100
AcDbLine
 10
294.7943262323
 20
206.7484716506
 30
0.0
 11
294.775305102
 21
206.7422913107
 31
0.0
  0
LINE
  5
28F
330
1F
100
AcDbEntity
  8
0
  6
Continuous
 62
     7
370
    25
100
AcDbLine
 10
294.7479736832
 20
206.891130128
 30
0.0
 11
294.7943262323
 21
206.7484716506
 31
0.0
  0
LINE
  5
290
330
1F
100
AcDbEntity
  8
0
  6
Continuous
 62
     7
370
    25
100
AcDbLine
 10
293.5428074051
 20
210.6002505416
 30
0.0
 11
293.5237862748
 21
210.5940702017
 31
0.0
  0
LINE
  5
291
330
1F
100
AcDbEntity
  8
0
  6
Continuous
 62
     7
370
    25
100
AcDbLine
 10
293.5428074051
 20
210.6002505416
 30
0.0
 11
294.7479736832
 21
206.891130128
 31
0.0
  0
LINE
  5
292
330
1F
100
AcDbEntity
  8
0
  6
Continuous
 62
     7
370
    25
100
AcDbLine
 10
293.5273565554
 20
210.6478033674
 30
0.0
 11
293.5428074051
 21
210.6002505416
 31
0.0
  0
LINE
  5
293
330
1F
100
AcDbEntity
  8
0
  6
Continuous
 62
     7
370
    25
100
AcDbLine
 10
295.3242098993
 20
186.6115664733
 30
0.0
 11
295.3242098993
 21
185.5115664741
 31
0.0
  0
LINE
  5
294
330
1F
100
AcDbEntity
  8
0
  6
Continuous
 62
     7
370
    25
100
AcDbLine
 10
295.3242098993
 20
184.5115664741
 30
0.0
 11
295.3242098993
 21
181.8115664733
 31
0.0
  0
LINE
  5
295
330
1F
100
AcDbEntity
  8
0
  6
Continuous
 62
     7
370
    25
100
AcDbLine
 10
295.3242098993
 20
181.8115664733
 30
0.0
 11
295.3042098993
 21
181.8115664733
 31
0.0
  0
LINE
  5
296
330
1F
100
AcDbEntity
  8
0
  6
Continuous
 62
     7
370
    25
100
AcDbLine
 10
295.3242098993
 20
186.6115664733
 30
0.0
 11
295.3042098993
 21
186.6115664733
 31
0.0
  0
LINE
  5
297
330
1F
100
AcDbEntity
  8
0
  6
Continuous
 62
     7
370
    25
100
AcDbLine
 10
295.3442098993
 20
182.3142099766
 30
0.0
 11
295.3242098993
 21
182.3142099766
 31
0.0
  0
LINE
  5
298
330
1F
100
AcDbEntity
  8
0
  6
Continuous
 62
     7
370
    25
100
AcDbLine
 10
295.3442098993
 20
182.3142099766
 30
0.0
 11
295.3442098993
 21
182.1642099766
 31
0.0
  0
LINE
  5
299
330
1F
100
AcDbEntity
  8
0
  6
Continuous
 62
     7
370
    25
100
AcDbLine
 10
295.3442098993
 20
182.1642099766
 30
0.0
 11
295.3242098993
 21
182.1642099766
 31
0.0
  0
LINE
  5
29A
330
1F
100
AcDbEntity
  8
0
  6
Continuous
 62
     7
370
    25
100
AcDbLine
 10
295.3442098993
 20
186.2142099766
 30
0.0
 11
295.3242098993
 21
186.2142099766
 31
0.0
  0
LINE
  5
29B
330
1F
100
AcDbEntity
  8
0
  6
Continuous
 62
     7
370
    25
100
AcDbLine
 10
295.3442098993
 20
186.2142099766
 30
0.0
 11
295.3442098993
 21
185.5115664741
 31
0.0
  0
LINE
  5
29C
330
1F
100
AcDbEntity
  8
0
  6
Continuous
 62
     7
370
    25
100
AcDbLine
 10
295.3442098993
 20
184.5115664741
 30
0.0
 11
295.3442098993
 21
182.3142099766
 31
0.0
  0
LINE
  5
29D
330
1F
100
AcDbEntity
  8
0
  6
Continuous
 62
     7
370
    25
100
AcDbLine
 10
295.3442098993
 20
186.2642099766
 30
0.0
 11
295.3442098993
 21
186.2142099766
 31
0.0
  0
LINE
  5
29E
330
1F
100
AcDbEntity
  8
0
  6
Continuous
 62
     7
370
    25
100
AcDbLine
 10
298.3042949652
 20
196.851997699
 30
0.0
 11
296.7960967632
 21
201.4937544763
 31
0.0
  0
LINE
  5
29F
330
1F
100
AcDbEntity
  8
0
  6
Continuous
 62
     7
370
    25
100
AcDbLine
 10
295.856331938
 20
204.3860532076
 30
0.0
 11
294.8425853114
 21
207.506044511
 31
0.0
  0
LINE
  5
2A0
330
1F
100
AcDbEntity
  8
0
  6
Continuous
 62
     7
370
    25
100
AcDbLine
 10
294.4863171333
 20
207.8096885631
 30
0.0
 11
294.7193259798
 21
207.8853977267
 31
0.0
  0
SPLINE
  5
2A1
330
1F
100
AcDbEntity
  8
0
  6
Continuous
 62
     7
370
    25
100
AcDbSpline
210
0.0
220
0.0
230
1.0
 70
    24
 71
     3
 72
    11
 73
     7
 74
     0
 42
0.000000001
 43
0.00000001
 40
0.0
 40
0.0
 40
0.0
 40
0.0
 40
0.2833534124411268
 40
0.5581116990962641
 40
0.7754835424211722
 40
1.0
 40
1.0
 40
1.0
 40
1.0
 10
294.8425853114246
 20
207.5060445110081
 30
0.0
 10
294.8242266998706
 20
207.5625465075533
 30
0.0
 10
294.7880663593291
 20
207.6738365923364
 30
0.0
 10
294.7480109726739
 20
207.7971143964205
 30
0.0
 10
294.723666279988
 20
207.872039656317
 30
0.0
 10
294.7207882575192
 20
207.8808972986891
 30
0.0
 10
294.7193259798164
 20
207.8853977267018
 30
0.0
  0
LINE
  5
2A2
330
1F
100
AcDbEntity
  8
0
  6
Continuous
 62
     7
370
    25
100
AcDbLine
 10
298.1947112771
 20
196.3970721709
 30
0.0
 11
298.4275299123
 21
196.4727195312
 31
0.0
  0
SPLINE
  5
2A3
330
1F
100
AcDbEntity
  8
0
  6
Continuous
 62
     7
370
    25
100
AcDbSpline
210
0.0
220
0.0
230
1.0
 70
    24
 71
     3
 72
    11
 73
     7
 74
     0
 42
0.000000001
 43
0.00000001
 40
0.0
 40
0.0
 40
0.0
 40
0.0
 40
0.2832771686238233
 40
0.5580022489005091
 40
0.7754022428539229
 40
0.9999999999999999
 40
0.9999999999999999
 40
0.9999999999999999
 40
0.9999999999999999
 10
298.4275299123158
 20
196.47271953116
 30
0.0
 10
298.4251638413654
 20
196.4800015487721
 30
0.0
 10
298.420503130734
 20
196.4943457411538
 30
0.0
 10
298.3875657097758
 20
196.5957166993938
 30
0.0
 10
298.3473672692969
 20
196.7194347778761
 30
0.0
 10
298.3188074285871
 20
196.8073329294527
 30
0.0
 10
298.3042949652275
 20
196.8519976990184
 30
0.0
  0
SPLINE
  5
2A4
330
1F
100
AcDbEntity
  8
0
  6
Continuous
 62
     7
370
    25
100
AcDbSpline
210
0.0
220
0.0
230
1.0
 70
     8
 71
     3
 72
    11
 73
     7
 74
     0
 42
0.000000001
 43
0.00000001
 40
0.0
 40
0.0
 40
0.0
 40
0.0
 40
0.2371516183831872
 40
0.4978002014463999
 40
0.7485397230460095
 40
1.0
 40
1.0
 40
1.0
 40
1.0
 10
294.8425853114246
 20
207.5060445110081
 30
0.0
 10
294.8815725318238
 20
207.5122536149839
 30
0.0
 10
294.9634098235147
 20
207.5252870204949
 30
0.0
 10
295.0560067317015
 20
207.5273998531616
 30
0.0
 10
295.1220269988544
 20
207.5165926682531
 30
0.0
 10
295.1356433176919
 20
207.4983531558669
 30
0.0
 10
295.1424612481568
 20
207.4892203110324
 30
0.0
  0
LINE
  5
2A5
330
1F
100
AcDbEntity
  8
0
  6
Continuous
 62
     7
370
    25
100
AcDbLine
 10
295.1424612482
 20
207.489220311
 30
0.0
 11
296.151057326
 21
204.3850807665
 31
0.0
  0
LINE
  5
2A6
330
1F
100
AcDbEntity
  8
0
  6
Continuous
 62
     7
370
    25
100
AcDbLine
 10
297.0339630242
 20
201.6677764343
 30
0.0
 11
298.5369862931
 21
197.0419464637
 31
0.0
  0
SPLINE
  5
2A7
330
1F
100
AcDbEntity
  8
0
  6
Continuous
 62
     7
370
    25
100
AcDbSpline
210
0.0
220
0.0
230
1.0
 70
     8
 71
     3
 72
    11
 73
     7
 74
     0
 42
0.000000001
 43
0.00000001
 40
0.0
 40
0.0
 40
0.0
 40
0.0
 40
0.2371429336589617
 40
0.49779710432832
 40
0.7485377110304123
 40
1.0
 40
1.0
 40
1.0
 40
1.0
 10
298.3042949652276
 20
196.8519976990184
 30
0.0
 10
298.3394836515099
 20
196.8698944070944
 30
0.0
 10
298.4133497619869
 20
196.9074621697925
 30
0.0
 10
298.4894984880316
 20
196.9601980786757
 30
0.0
 10
298.5365509833061
 20
197.0077685562518
 30
0.0
 10
298.5368410508903
 20
197.0305429186981
 30
0.0
 10
298.5369862931008
 20
197.0419464636794
 30
0.0
  0
SPLINE
  5
2A8
330
1F
100
AcDbEntity
  8
0
  6
Continuous
 62
     7
370
    25
100
AcDbSpline
210
0.0
220
0.0
230
1.0
 70
     8
 71
     3
 72
    11
 73
     7
 74
     0
 42
0.000000001
 43
0.00000001
 40
0.0
 40
0.0
 40
0.0
 40
0.0
 40
0.2371941589275915
 40
0.4978619749471103
 40
0.7485798819786955
 40
1.0
 40
1.0
 40
1.0
 40
1.0
 10
294.7193259798163
 20
207.8853977267018
 30
0.0
 10
294.7652460846589
 20
207.8702633916534
 30
0.0
 10
294.8616307266333
 20
207.8384969688595
 30
0.0
 10
294.9845377719513
 20
207.7473416464913
 30
0.0
 10
295.0853152846696
 20
207.6295764786148
 30
0.0
 10
295.1233948429743
 20
207.5360492976778
 30
0.0
 10
295.1424612481567
 20
207.4892203110324
 30
0.0
  0
SPLINE
  5
2A9
330
1F
100
AcDbEntity
  8
0
  6
Continuous
 62
     7
370
    25
100
AcDbSpline
210
0.0
220
0.0
230
1.0
 70
    24
 71
     3
 72
    13
 73
     9
 74
     0
 42
0.000000001
 43
0.00000001
 40
0.0
 40
0.0
 40
0.0
 40
0.0
 40
0.1275360740474384
 40
0.2545887198592393
 40
0.4999418984797892
 40
0.7453299828649801
 40
0.8725055605771216
 40
1.0
 40
1.0
 40
1.0
 40
1.0
 10
294.7193259798163
 20
207.8853977267018
 30
0.0
 10
294.7197751201881
 20
207.884015414774
 30
0.0
 10
294.7206716984552
 20
207.8812560306014
 30
0.0
 10
294.730590595468
 20
207.8507288045581
 30
0.0
 10
294.7531970059584
 20
207.7811534271573
 30
0.0
 10
294.7870390014942
 20
207.6769984746318
 30
0.0
 10
294.8179312440188
 20
207.5819219283872
 30
0.0
 10
294.8343604321888
 20
207.5313580864272
 30
0.0
 10
294.8425853114246
 20
207.5060445110081
 30
0.0
  0
SPLINE
  5
2AA
330
1F
100
AcDbEntity
  8
0
  6
Continuous
 62
     7
370
    25
100
AcDbSpline
210
0.0
220
0.0
230
1.0
 70
     8
 71
     3
 72
    11
 73
     7
 74
     0
 42
0.000000001
 43
0.00000001
 40
0.0
 40
0.0
 40
0.0
 40
0.0
 40
0.2514201137491399
 40
0.5021380165204784
 40
0.7627995894819122
 40
1.0
 40
1.0
 40
1.0
 40
1.0
 10
298.5369862931008
 20
197.0419464636794
 30
0.0
 10
298.5490866365739
 20
196.9928540670925
 30
0.0
 10
298.5732535275206
 20
196.8948063879281
 30
0.0
 10
298.5609435130858
 20
196.7402980752299
 30
0.0
 10
298.5150898800167
 20
196.5943089201609
 30
0.0
 10
298.4557850107309
 20
196.511955728279
 30
0.0
 10
298.4275299123158
 20
196.47271953116
 30
0.0
  0
SPLINE
  5
2AB
330
1F
100
AcDbEntity
  8
0
  6
Continuous
 62
     7
370
    25
100
AcDbSpline
210
0.0
220
0.0
230
1.0
 70
    24
 71
     3
 72
    13
 73
     9
 74
     0
 42
0.000000001
 43
0.00000001
 40
0.0
 40
0.0
 40
0.0
 40
0.0
 40
0.1275872441294489
 40
0.2546759233236648
 40
0.5000487292309116
 40
0.7453982611490079
 40
0.8725397565424713
 40
1.0
 40
1.0
 40
1.0
 40
1.0
 10
298.3042949652276
 20
196.8519976990184
 30
0.0
 10
298.3125254166506
 20
196.8266669741703
 30
0.0
 10
298.3289541578608
 20
196.7761045078111
 30
0.0
 10
298.3598400253156
 20
196.6810475820141
 30
0.0
 10
298.3936714144599
 20
196.5769252726048
 30
0.0
 10
298.4162761791757
 20
196.5073549603773
 30
0.0
 10
298.4261808127802
 20
196.4768716325912
 30
0.0
 10
298.4270798372934
 20
196.4741047196472
 30
0.0
 10
298.4275299123158
 20
196.47271953116
 30
0.0
  0
LINE
  5
2AC
330
1F
100
AcDbEntity
  8
0
  6
Continuous
 62
     7
370
    25
100
AcDbLine
 10
142.9442098993
 20
179.4922459387
 30
0.0
 11
144.0242098993
 21
179.4922459387
 31
0.0
  0
LINE
  5
2AD
330
1F
100
AcDbEntity
  8
0
  6
Continuous
 62
     7
370
    25
100
AcDbLine
 10
142.9442098993
 20
179.4922459387
 30
0.0
 11
142.9442098993
 21
181.4575473978
 31
0.0
  0
LINE
  5
2AE
330
1F
100
AcDbEntity
  8
0
  6
Continuous
 62
     7
370
    25
100
AcDbLine
 10
142.9442098993
 20
181.4575473978
 30
0.0
 11
144.0242098993
 21
181.4575473978
 31
0.0
  0
LINE
  5
2AF
330
1F
100
AcDbEntity
  8
0
  6
Continuous
 62
     7
370
    25
100
AcDbLine
 10
144.0242098993
 20
179.4922459387
 30
0.0
 11
144.0242098993
 21
181.4575473978
 31
0.0
  0
LINE
  5
2B0
330
1F
100
AcDbEntity
  8
0
  6
Continuous
 62
     7
370
    25
100
AcDbLine
 10
142.9442098993
 20
175.5662650151
 30
0.0
 11
144.0242098993
 21
175.5662650151
 31
0.0
  0
LINE
  5
2B1
330
1F
100
AcDbEntity
  8
0
  6
Continuous
 62
     7
370
    25
100
AcDbLine
 10
144.0242098993
 20
175.5662650151
 30
0.0
 11
144.0242098993
 21
179.4922459387
 31
0.0
  0
LINE
  5
2B2
330
1F
100
AcDbEntity
  8
0
  6
Continuous
 62
     7
370
    25
100
AcDbLine
 10
142.9442098993
 20
175.5662650151
 30
0.0
 11
142.9442098993
 21
179.4922459387
 31
0.0
  0
LINE
  5
2B3
330
1F
100
AcDbEntity
  8
0
  6
Continuous
 62
     7
370
    25
100
AcDbLine
 10
142.9442098993
 20
173.6055855506
 30
0.0
 11
144.0242098993
 21
173.6055855506
 31
0.0
  0
LINE
  5
2B4
330
1F
100
AcDbEntity
  8
0
  6
Continuous
 62
     7
370
    25
100
AcDbLine
 10
144.0242098993
 20
173.6055855506
 30
0.0
 11
144.0242098993
 21
175.5662650151
 31
0.0
  0
LINE
  5
2B5
330
1F
100
AcDbEntity
  8
0
  6
Continuous
 62
     7
370
    25
100
AcDbLine
 10
142.9442098993
 20
173.6055855506
 30
0.0
 11
142.9442098993
 21
175.5662650151
 31
0.0
  0
LINE
  5
2B6
330
1F
100
AcDbEntity
  8
0
  6
Continuous
 62
     7
370
    25
100
AcDbLine
 10
145.3442098993
 20
174.1565664742
 30
0.0
 11
145.3442098993
 21
180.9065664742
 31
0.0
  0
LINE
  5
2B7
330
1F
100
AcDbEntity
  8
0
  6
Continuous
 62
     7
370
    25
100
AcDbLine
 10
141.1542098993
 20
175.4065664742
 30
0.0
 11
141.1542098993
 21
179.6565664742
 31
0.0
  0
LINE
  5
2B8
330
1F
100
AcDbEntity
  8
0
  6
Continuous
 62
     7
370
    25
100
AcDbLine
 10
147.0042098993
 20
175.7206337331
 30
0.0
 11
147.7442098993
 21
175.7206337331
 31
0.0
  0
LINE
  5
2B9
330
1F
100
AcDbEntity
  8
0
  6
Continuous
 62
     7
370
    25
100
AcDbLine
 10
147.0042098993
 20
175.7206337331
 30
0.0
 11
147.0042098993
 21
179.3424992152
 31
0.0
  0
LINE
  5
2BA
330
1F
100
AcDbEntity
  8
0
  6
Continuous
 62
     7
370
    25
100
AcDbLine
 10
147.0042098993
 20
179.3424992152
 30
0.0
 11
147.7442098993
 21
179.3424992152
 31
0.0
  0
LINE
  5
2BB
330
1F
100
AcDbEntity
  8
0
  6
Continuous
 62
     7
370
    25
100
AcDbLine
 10
147.0042098993
 20
179.3424992152
 30
0.0
 11
147.0042098993
 21
179.5056345712
 31
0.0
  0
LINE
  5
2BC
330
1F
100
AcDbEntity
  8
0
  6
Continuous
 62
     7
370
    25
100
AcDbLine
 10
147.0042098993
 20
179.5056345712
 30
0.0
 11
147.7442098993
 21
179.5056345712
 31
0.0
  0
LINE
  5
2BD
330
1F
100
AcDbEntity
  8
0
  6
Continuous
 62
     7
370
    25
100
AcDbLine
 10
147.0042098993
 20
175.5574983771
 30
0.0
 11
147.7442098993
 21
175.5574983771
 31
0.0
  0
LINE
  5
2BE
330
1F
100
AcDbEntity
  8
0
  6
Continuous
 62
     7
370
    25
100
AcDbLine
 10
147.0042098993
 20
175.5574983771
 30
0.0
 11
147.0042098993
 21
175.7206337331
 31
0.0
  0
LINE
  5
2BF
330
1F
100
AcDbEntity
  8
0
  6
Continuous
 62
     7
370
    25
100
AcDbLine
 10
147.0042098993
 20
181.3165664742
 30
0.0
 11
147.7442098993
 21
181.3165664742
 31
0.0
  0
LINE
  5
2C0
330
1F
100
AcDbEntity
  8
0
  6
Continuous
 62
     7
370
    25
100
AcDbLine
 10
147.0042098993
 20
179.5056345712
 30
0.0
 11
147.0042098993
 21
181.3165664742
 31
0.0
  0
LINE
  5
2C1
330
1F
100
AcDbEntity
  8
0
  6
Continuous
 62
     7
370
    25
100
AcDbLine
 10
147.0042098993
 20
173.7465664742
 30
0.0
 11
147.7442098993
 21
173.7465664742
 31
0.0
  0
LINE
  5
2C2
330
1F
100
AcDbEntity
  8
0
  6
Continuous
 62
     7
370
    25
100
AcDbLine
 10
147.0042098993
 20
173.7465664742
 30
0.0
 11
147.0042098993
 21
175.5574983771
 31
0.0
  0
LINE
  5
2C3
330
1F
100
AcDbEntity
  8
0
  6
Continuous
 62
     7
370
    25
100
AcDbLine
 10
146.4142098993
 20
174.3615664742
 30
0.0
 11
146.4142098993
 21
180.7015664742
 31
0.0
  0
LINE
  5
2C4
330
1F
100
AcDbEntity
  8
0
  6
Continuous
 62
     7
370
    25
100
AcDbLine
 10
168.6342098993
 20
56.1915664742
 30
0.0
 11
168.3442098993
 21
56.1915664742
 31
0.0
  0
LINE
  5
2C5
330
1F
100
AcDbEntity
  8
0
  6
Continuous
 62
     7
370
    25
100
AcDbLine
 10
168.6342098993
 20
58.9915664742
 30
0.0
 11
168.6342098993
 21
56.1915664742
 31
0.0
  0
LINE
  5
2C6
330
1F
100
AcDbEntity
  8
0
  6
Continuous
 62
     7
370
    25
100
AcDbLine
 10
156.3042098993
 20
75.7915664742
 30
0.0
 11
148.6342098993
 21
75.7915664742
 31
0.0
  0
LINE
  5
2C7
330
1F
100
AcDbEntity
  8
0
  6
Continuous
 62
     7
370
    25
100
AcDbLine
 10
148.6342098993
 20
75.7915664742
 30
0.0
 11
148.6342098993
 21
77.6415664742
 31
0.0
  0
LINE
  5
2C8
330
1F
100
AcDbEntity
  8
0
  6
Continuous
 62
     7
370
    25
100
AcDbLine
 10
148.6342098993
 20
77.6415664742
 30
0.0
 11
148.6342098993
 21
78.1915664742
 31
0.0
  0
LINE
  5
2C9
330
1F
100
AcDbEntity
  8
0
  6
Continuous
 62
     7
370
    25
100
AcDbLine
 10
148.6342098993
 20
78.1915664742
 30
0.0
 11
152.9042098993
 21
78.1915664742
 31
0.0
  0
LINE
  5
2CA
330
1F
100
AcDbEntity
  8
0
  6
Continuous
 62
     7
370
    25
100
AcDbLine
 10
303.2660246856
 20
193.0718673503
 30
0.0
 11
303.3002266999
 21
193.1658366124
 31
0.0
  0
LINE
  5
2CB
330
1F
100
AcDbEntity
  8
0
  6
Continuous
 62
     7
370
    25
100
AcDbLine
 10
303.2660246856
 20
193.0718673503
 30
0.0
 11
299.3759461335
 21
194.4877401522
 31
0.0
  0
LINE
  5
2CC
330
1F
100
AcDbEntity
  8
0
  6
Continuous
 62
     7
370
    25
100
AcDbLine
 10
299.4101481479
 20
194.5817094143
 30
0.0
 11
299.3759461335
 21
194.4877401522
 31
0.0
  0
ARC
  5
2CD
330
1F
100
AcDbEntity
  8
0
  6
Continuous
 62
     7
370
    25
100
AcDbCircle
 10
293.0283691889
 20
210.8891013796
 30
0.0
 40
0.1000000000000075
100
AcDbArc
 50
18.0
 51
90.0
  0
LINE
  5
2CE
330
1F
100
AcDbEntity
  8
0
  6
Continuous
 62
     7
370
    25
100
AcDbLine
 10
301.5879304259
 20
187.1051483327
 30
0.0
 11
304.0716708552
 21
190.0651549124
 31
0.0
  0
LINE
  5
2CF
330
1F
100
AcDbEntity
  8
0
  6
Continuous
 62
     7
370
    25
100
AcDbLine
 10
304.0716708552
 20
190.0651549124
 30
0.0
 11
304.1482752995
 21
190.0008761514
 31
0.0
  0
LINE
  5
2D0
330
1F
100
AcDbEntity
  8
0
  6
Continuous
 62
     7
370
    25
100
AcDbLine
 10
301.5879304259
 20
187.1051483327
 30
0.0
 11
301.6645348702
 21
187.0408695717
 31
0.0
  0
ARC
  5
2D1
330
1F
100
AcDbEntity
  8
0
  6
Continuous
 62
     7
370
    25
100
AcDbCircle
 10
302.6161864133
 20
191.2864513708
 30
0.0
 40
1.900000000000011
100
AcDbArc
 50
320.0
 51
70.0
  0
LINE
  5
2D2
330
1F
100
AcDbEntity
  8
0
  6
Continuous
 62
     7
370
    25
100
AcDbLine
 10
289.3442098993
 20
187.1515664742
 30
0.0
 11
289.3442098993
 21
210.8891013796
 31
0.0
  0
LINE
  5
2D3
330
1F
100
AcDbEntity
  8
0
  6
Continuous
 62
     7
370
    25
100
AcDbLine
 10
289.3442098993
 20
210.8891013796
 30
0.0
 11
289.4442098993
 21
210.8891013796
 31
0.0
  0
LINE
  5
2D4
330
1F
100
AcDbEntity
  8
0
  6
Continuous
 62
     7
370
    25
100
AcDbLine
 10
289.4442098993
 20
210.8891013796
 30
0.0
 11
289.4442098993
 21
187.1515664742
 31
0.0
  0
LINE
  5
2D5
330
1F
100
AcDbEntity
  8
0
  6
Continuous
 62
     7
370
    25
100
AcDbLine
 10
289.4442098993
 20
187.1515664742
 30
0.0
 11
289.3442098993
 21
187.1515664742
 31
0.0
  0
ARC
  5
2D6
330
1F
100
AcDbEntity
  8
0
  6
Continuous
 62
     7
370
    25
100
AcDbCircle
 10
301.4730237594
 20
187.2015664742
 30
0.0
 40
0.1500000000000057
100
AcDbArc
 50
270.0
 51
320.0
  0
LINE
  5
2D7
330
1F
100
AcDbEntity
  8
0
  6
Continuous
 62
     7
370
    25
100
AcDbLine
 10
301.4730237594
 20
187.0515664742
 30
0.0
 11
301.4730237594
 21
186.9515664742
 31
0.0
  0
ARC
  5
2D8
330
1F
100
AcDbEntity
  8
0
  6
Continuous
 62
     7
370
    25
100
AcDbCircle
 10
300.1489116574
 20
196.6114454752
 30
0.0
 40
2.260000000000005
100
AcDbArc
 50
198.0
 51
250.0
  0
LINE
  5
2D9
330
1F
100
AcDbEntity
  8
0
  6
Continuous
 62
     7
370
    25
100
AcDbLine
 10
298.0946295822
 20
195.9439687673
 30
0.0
 11
297.9995239306
 21
195.9130670679
 31
0.0
  0
ARC
  5
2DA
330
1F
100
AcDbEntity
  8
0
  6
Continuous
 62
     7
370
    25
100
AcDbCircle
 10
289.5442098993
 20
210.8891013796
 30
0.0
 40
0.1999999999999886
100
AcDbArc
 50
90.0
 51
180.0
  0
LINE
  5
2DB
330
1F
100
AcDbEntity
  8
0
  6
Continuous
 62
     7
370
    25
100
AcDbLine
 10
289.5442098993
 20
211.0891013796
 30
0.0
 11
289.5442098993
 21
210.9891013796
 31
0.0
  0
ARC
  5
2DC
330
1F
100
AcDbEntity
  8
0
  6
Continuous
 62
     7
370
    25
100
AcDbCircle
 10
289.5442098993
 20
210.8891013796
 30
0.0
 40
0.1000000000000227
100
AcDbArc
 50
90.0
 51
180.0
  0
LINE
  5
2DD
330
1F
100
AcDbEntity
  8
0
  6
Continuous
 62
     7
370
    25
100
AcDbLine
 10
289.5442098993
 20
187.0515664742
 30
0.0
 11
301.4730237594
 21
187.0515664742
 31
0.0
  0
LINE
  5
2DE
330
1F
100
AcDbEntity
  8
0
  6
Continuous
 62
     7
370
    25
100
AcDbLine
 10
289.5442098993
 20
187.0515664742
 30
0.0
 11
289.5442098993
 21
186.9515664742
 31
0.0
  0
LINE
  5
2DF
330
1F
100
AcDbEntity
  8
0
  6
Continuous
 62
     7
370
    25
100
AcDbLine
 10
297.9995239306
 20
195.9130670679
 30
0.0
 11
293.1234748405
 21
210.920003079
 31
0.0
  0
ARC
  5
2E0
330
1F
100
AcDbEntity
  8
0
  6
Continuous
 62
     7
370
    25
100
AcDbCircle
 10
289.5442098993
 20
187.1515664742
 30
0.0
 40
0.1000000000000227
100
AcDbArc
 50
180.0
 51
270.0
  0
LINE
  5
2E1
330
1F
100
AcDbEntity
  8
0
  6
Continuous
 62
     7
370
    25
100
AcDbLine
 10
293.0283691889
 20
210.9891013796
 30
0.0
 11
289.5442098993
 21
210.9891013796
 31
0.0
  0
ARC
  5
2E2
330
1F
100
AcDbEntity
  8
0
  6
Continuous
 62
     7
370
    25
100
AcDbCircle
 10
289.5442098993
 20
187.1515664742
 30
0.0
 40
0.1999999999999886
100
AcDbArc
 50
180.0
 51
270.0
  0
LINE
  5
2E3
330
1F
100
AcDbEntity
  8
0
  6
Continuous
 62
     7
370
    25
100
AcDbLine
 10
293.4974627513
 20
210.8530694152
 30
0.0
 11
293.4451546429
 21
210.8360734805
 31
0.0
  0
LINE
  5
2E4
330
1F
100
AcDbEntity
  8
0
  6
Continuous
 62
     7
370
    25
100
AcDbLine
 10
293.4974627513
 20
210.8530694152
 30
0.0
 11
295.6142291628
 21
204.3383322786
 31
0.0
  0
LINE
  5
2E5
330
1F
100
AcDbEntity
  8
0
  6
Continuous
 62
     7
370
    25
100
AcDbLine
 10
296.5721818454
 20
201.3900570781
 30
0.0
 11
298.4417346613
 21
195.6361651545
 31
0.0
  0
LINE
  5
2E6
330
1F
100
AcDbEntity
  8
0
  6
Continuous
 62
     7
370
    25
100
AcDbLine
 10
298.40883591
 20
195.6254757022
 30
0.0
 11
298.4417346613
 21
195.6361651545
 31
0.0
  0
LINE
  5
2E7
330
1F
100
AcDbEntity
  8
0
  6
Continuous
 62
     7
370
    25
100
AcDbLine
 10
295.552378921
 20
204.5293349632
 30
0.0
 11
295.5521887097
 21
204.5292731598
 31
0.0
  0
LINE
  5
2E8
330
1F
100
AcDbEntity
  8
0
  6
Continuous
 62
     7
370
    25
100
AcDbLine
 10
295.552378921
 20
204.5293349632
 30
0.0
 11
295.6144193741
 21
204.338394082
 31
0.0
  0
LINE
  5
2E9
330
1F
100
AcDbEntity
  8
0
  6
Continuous
 62
     7
370
    25
100
AcDbLine
 10
295.5547912399
 20
204.5219106089
 30
0.0
 11
295.4748784433
 21
204.7678569074
 31
0.0
  0
LINE
  5
2EA
330
1F
100
AcDbEntity
  8
0
  6
Continuous
 62
     7
370
    25
100
AcDbLine
 10
295.4752684698
 20
204.7666565293
 30
0.0
 11
295.2790653061
 21
205.3705077762
 31
0.0
  0
LINE
  5
2EB
330
1F
100
AcDbEntity
  8
0
  6
Continuous
 62
     7
370
    25
100
AcDbLine
 10
296.5723720567
 20
201.3901188815
 30
0.0
 11
297.6693823867
 21
198.0138682486
 31
0.0
  0
LINE
  5
2EC
330
1F
100
AcDbEntity
  8
0
  6
Continuous
 62
     7
370
    25
100
AcDbLine
 10
297.6693823867
 20
198.0138682486
 30
0.0
 11
298.1947112771
 21
196.3970721709
 31
0.0
  0
LINE
  5
2ED
330
1F
100
AcDbEntity
  8
0
  6
Continuous
 62
     7
370
    25
100
AcDbLine
 10
297.6693823867
 20
198.0138682486
 30
0.0
 11
297.6691921754
 21
198.0138064452
 31
0.0
  0
LINE
  5
2EE
330
1F
100
AcDbEntity
  8
0
  6
Continuous
 62
     7
370
    25
100
AcDbLine
 10
298.1947112771
 20
196.3970721709
 30
0.0
 11
298.1945210658
 21
196.3970103675
 31
0.0
  0
LINE
  5
2EF
330
1F
100
AcDbEntity
  8
0
  6
Continuous
 62
     7
370
    25
100
AcDbLine
 10
301.5817595901
 20
145.6573830001
 30
0.0
 11
302.3672573343
 21
145.6573830001
 31
0.0
  0
SPLINE
  5
2F0
330
1F
100
AcDbEntity
  8
0
  6
Continuous
 62
     7
370
    25
100
AcDbSpline
210
0.0
220
0.0
230
1.0
 70
     8
 71
     3
 72
    26
 73
    22
 74
     0
 42
0.000000001
 43
0.00000001
 40
0.0
 40
0.0
 40
0.0
 40
0.0
 40
0.0339805752055346
 40
0.0871371142358087
 40
0.14182636685499
 40
0.1945638263609081
 40
0.2488058337636834
 40
0.3011750697226449
 40
0.355034607088496
 40
0.4073096129567872
 40
0.4610846648124787
 40
0.5136041717305542
 40
0.5676528320847549
 40
0.6206053506038339
 40
0.6751174891583623
 40
0.728431528916171
 40
0.7833183999291088
 40
0.8367169443544303
 40
0.8916773944470614
 40
0.9450622178665604
 40
1.0
 40
1.0
 40
1.0
 40
1.0
 10
302.3672573342782
 20
140.6573830000691
 30
0.0
 10
302.3583797946364
 20
140.6601964055564
 30
0.0
 10
302.3356149302623
 20
140.6674108812931
 30
0.0
 10
302.2979686184686
 20
140.7402808084773
 30
0.0
 10
302.2562131529926
 20
140.8873038538021
 30
0.0
 10
302.2163698387096
 20
141.1008533005741
 30
0.0
 10
302.1806215968268
 20
141.3687507192158
 30
0.0
 10
302.1495130730281
 20
141.6889172525071
 30
0.0
 10
302.1247537385008
 20
142.0462555075895
 30
0.0
 10
302.1068112885321
 20
142.4379695784011
 30
0.0
 10
302.0967061614088
 20
142.8467815752618
 30
0.0
 10
302.0947185503493
 20
143.268861159633
 30
0.0
 10
302.1010334212582
 20
143.6857921194865
 30
0.0
 10
302.115578197782
 20
144.0925171809796
 30
0.0
 10
302.1376016622702
 20
144.4706323925584
 30
0.0
 10
302.1666017780594
 20
144.8149360921066
 30
0.0
 10
302.2009472719869
 20
145.1090406279048
 30
0.0
 10
302.2398776440477
 20
145.3496363186664
 30
0.0
 10
302.2812313693742
 20
145.5237384057345
 30
0.0
 10
302.3244259356289
 20
145.6361586883671
 30
0.0
 10
302.3528443950416
 20
145.6502409331615
 30
0.0
 10
302.3672573342782
 20
145.6573830000691
 30
0.0
  0
LINE
  5
2F1
330
1F
100
AcDbEntity
  8
0
  6
Continuous
 62
     7
370
    25
100
AcDbLine
 10
302.3672573343
 20
140.6573830001
 30
0.0
 11
301.5817595901
 21
140.6573830001
 31
0.0
  0
ARC
  5
2F2
330
1F
100
AcDbEntity
  8
0
  6
Continuous
 62
     7
370
    25
100
AcDbCircle
 10
302.365863668
 20
145.2587669886
 30
0.0
 40
0.3986184477405816
100
AcDbArc
 50
359.8010707649
 51
89.7996797247
  0
SPLINE
  5
2F3
330
1F
100
AcDbEntity
  8
0
  6
Continuous
 62
     7
370
    25
100
AcDbSpline
210
0.0
220
0.0
230
1.0
 70
     8
 71
     3
 72
    17
 73
    13
 74
     0
 42
0.000000001
 43
0.00000001
 40
0.0
 40
0.0
 40
0.0
 40
0.0
 40
0.1086109152880227
 40
0.2171382732543006
 40
0.3252888107272041
 40
0.4324932808427142
 40
0.5387070539224217
 40
0.6444677618383081
 40
0.7505942997553824
 40
0.8576906659399032
 40
0.9658046530643505
 40
1.0
 40
1.0
 40
1.0
 40
1.0
 10
302.7644797131769
 20
145.2573830000691
 30
0.0
 10
302.7356933422075
 20
145.2338806513965
 30
0.0
 10
302.6781427464045
 20
145.1868940350452
 30
0.0
 10
302.5957613465292
 20
144.8206283613071
 30
0.0
 10
302.5308844252903
 20
144.2817113277393
 30
0.0
 10
302.493190472632
 20
143.6121529783008
 30
0.0
 10
302.4886077587222
 20
142.8964462167866
 30
0.0
 10
302.5172876968307
 20
142.2130761950617
 30
0.0
 10
302.5744867120561
 20
141.6344917810709
 30
0.0
 10
302.6516013776255
 20
141.2256490556532
 30
0.0
 10
302.7184841663478
 20
141.0700271800777
 30
0.0
 10
302.7555687105199
 20
141.0598326355104
 30
0.0
 10
302.7644797131769
 20
141.0573830000691
 30
0.0
  0
ARC
  5
2F4
330
1F
100
AcDbEntity
  8
0
  6
Continuous
 62
     7
370
    25
100
AcDbCircle
 10
302.365863668
 20
141.0559990115
 30
0.0
 40
0.3986184477404315
100
AcDbArc
 50
270.2003202753
 51
0.1989292351
  0
LINE
  5
2F5
330
1F
100
AcDbEntity
  8
0
  6
Continuous
 62
     7
370
    25
100
AcDbLine
 10
303.0588849885
 20
140.6573830001
 30
0.0
 11
302.3672573343
 21
140.6573830001
 31
0.0
  0
LINE
  5
2F6
330
1F
100
AcDbEntity
  8
0
  6
Continuous
 62
     7
370
    25
100
AcDbLine
 10
302.3672573343
 20
145.6573830001
 30
0.0
 11
303.0588849885
 21
145.6573830001
 31
0.0
  0
LINE
  5
2F7
330
1F
100
AcDbEntity
  8
0
  6
Continuous
 62
     7
370
    25
100
AcDbLine
 10
295.417470775
 20
138.6573830001
 30
0.0
 11
295.417470775
 21
148.9073830001
 31
0.0
  0
LWPOLYLINE
  5
2F8
330
1F
100
AcDbEntity
  8
0
  6
Continuous
 62
     7
370
    25
100
AcDbPolyline
 90
        3
 70
   128
 43
0.0
 10
295.3842098993
 20
138.4780659908
 10
295.4078634152
 20
138.5598378391
 10
295.417470775
 20
138.6573830001
  0
SPLINE
  5
2F9
330
1F
100
AcDbEntity
  8
0
  6
Continuous
 62
     7
370
    25
100
AcDbSpline
210
0.0
220
0.0
230
1.0
 70
     8
 71
     3
 72
     9
 73
     5
 74
     0
 42
0.000000001
 43
0.00000001
 40
0.0
 40
0.0
 40
0.0
 40
0.0
 40
0.2746705013829459
 40
1.0
 40
1.0
 40
1.0
 40
1.0
 10
295.3842098992897
 20
149.0084113612729
 30
0.0
 10
295.3872653157368
 20
148.9995780754368
 30
0.0
 10
295.3983892494383
 20
148.9674185031801
 30
0.0
 10
295.4094488908266
 20
148.932621959587
 30
0.0
 10
295.4174707749698
 20
148.9073830000691
 30
0.0
  0
SPLINE
  5
2FA
330
1F
100
AcDbEntity
  8
0
  6
Continuous
 62
     7
370
    25
100
AcDbSpline
210
0.0
220
0.0
230
1.0
 70
     8
 71
     3
 72
    11
 73
     7
 74
     0
 42
0.000000001
 43
0.00000001
 40
0.0
 40
0.0
 40
0.0
 40
0.0
 40
0.3186358212213354
 40
0.637332598828177
 40
0.9560296575348217
 40
1.0
 40
1.0
 40
1.0
 40
1.0
 10
295.6588849885322
 20
148.9073830000691
 30
0.0
 10
295.6530112710583
 20
148.9655785497847
 30
0.0
 10
295.6412627124435
 20
149.0819807822718
 30
0.0
 10
295.5464611949544
 20
149.2298146819732
 30
0.0
 10
295.4543905216256
 20
149.3209726114529
 30
0.0
 10
295.3917986340956
 20
149.3410467398243
 30
0.0
 10
295.3842098992897
 20
149.3434805574112
 30
0.0
  0
LINE
  5
2FB
330
1F
100
AcDbEntity
  8
0
  6
Continuous
 62
     7
370
    25
100
AcDbLine
 10
295.6588849885
 20
148.9073830001
 30
0.0
 11
295.4188849885
 21
148.9073830001
 31
0.0
  0
SPLINE
  5
2FC
330
1F
100
AcDbEntity
  8
0
  6
Continuous
 62
     7
370
    25
100
AcDbSpline
210
0.0
220
0.0
230
1.0
 70
     8
 71
     3
 72
     9
 73
     5
 74
     0
 42
0.000000001
 43
0.00000001
 40
0.0
 40
0.0
 40
0.0
 40
0.0
 40
0.8272241904221209
 40
1.0
 40
1.0
 40
1.0
 40
1.0
 10
295.4188849885321
 20
148.9073830000691
 30
0.0
 10
295.4169640355571
 20
148.9438943117201
 30
0.0
 10
295.4146418682448
 20
148.988031453832
 30
0.0
 10
295.3886932012391
 20
149.0217329416017
 30
0.0
 10
295.3842098992897
 20
149.0275557434351
 30
0.0
  0
LINE
  5
2FD
330
1F
100
AcDbEntity
  8
0
  6
Continuous
 62
     7
370
    25
100
AcDbLine
 10
295.6588849885
 20
143.1573830001
 30
0.0
 11
295.6588849885
 21
140.1573830001
 31
0.0
  0
LINE
  5
2FE
330
1F
100
AcDbEntity
  8
0
  6
Continuous
 62
     7
370
    25
100
AcDbLine
 10
295.4188849885
 20
143.1573830001
 30
0.0
 11
295.6588849885
 21
143.1573830001
 31
0.0
  0
LINE
  5
2FF
330
1F
100
AcDbEntity
  8
0
  6
Continuous
 62
     7
370
    25
100
AcDbLine
 10
295.6588849885
 20
140.1573830001
 30
0.0
 11
295.4188849885
 21
140.1573830001
 31
0.0
  0
LINE
  5
300
330
1F
100
AcDbEntity
  8
0
  6
Continuous
 62
     7
370
    25
100
AcDbLine
 10
295.4188849885
 20
138.6573830001
 30
0.0
 11
295.6588849885
 21
138.6573830001
 31
0.0
  0
LINE
  5
301
330
1F
100
AcDbEntity
  8
0
  6
Continuous
 62
     7
370
    25
100
AcDbLine
 10
295.6588849885
 20
138.6573830001
 30
0.0
 11
295.6588849885
 21
138.1573830001
 31
0.0
  0
LINE
  5
302
330
1F
100
AcDbEntity
  8
0
  6
Continuous
 62
     7
370
    25
100
AcDbLine
 10
295.6588849885
 20
138.1573830001
 30
0.0
 11
295.4188849885
 21
138.1573830001
 31
0.0
  0
LINE
  5
303
330
1F
100
AcDbEntity
  8
0
  6
Continuous
 62
     7
370
    25
100
AcDbLine
 10
295.4188849885
 20
138.1573830001
 30
0.0
 11
295.4188849885
 21
138.6573830001
 31
0.0
  0
LINE
  5
304
330
1F
100
AcDbEntity
  8
0
  6
Continuous
 62
     7
370
    25
100
AcDbLine
 10
295.4188849885
 20
140.0373830001
 30
0.0
 11
295.6588849885
 21
140.0373830001
 31
0.0
  0
LINE
  5
305
330
1F
100
AcDbEntity
  8
0
  6
Continuous
 62
     7
370
    25
100
AcDbLine
 10
295.6588849885
 20
139.6373830001
 30
0.0
 11
295.4188849885
 21
139.6373830001
 31
0.0
  0
LINE
  5
306
330
1F
100
AcDbEntity
  8
0
  6
Continuous
 62
     7
370
    25
100
AcDbLine
 10
295.4188849885
 20
139.6373830001
 30
0.0
 11
295.4188849885
 21
140.0373830001
 31
0.0
  0
LINE
  5
307
330
1F
100
AcDbEntity
  8
0
  6
Continuous
 62
     7
370
    25
100
AcDbLine
 10
295.6588849885
 20
140.0373830001
 30
0.0
 11
295.6588849885
 21
139.6373830001
 31
0.0
  0
LINE
  5
308
330
1F
100
AcDbEntity
  8
0
  6
Continuous
 62
     7
370
    25
100
AcDbLine
 10
295.4188849885
 20
143.6773830001
 30
0.0
 11
295.6588849885
 21
143.6773830001
 31
0.0
  0
LINE
  5
309
330
1F
100
AcDbEntity
  8
0
  6
Continuous
 62
     7
370
    25
100
AcDbLine
 10
295.4188849885
 20
148.9073830001
 30
0.0
 11
295.4188849885
 21
143.6773830001
 31
0.0
  0
LINE
  5
30A
330
1F
100
AcDbEntity
  8
0
  6
Continuous
 62
     7
370
    25
100
AcDbLine
 10
295.6588849885
 20
148.9073830001
 30
0.0
 11
295.6588849885
 21
143.6773830001
 31
0.0
  0
LINE
  5
30B
330
1F
100
AcDbEntity
  8
0
  6
Continuous
 62
     7
370
    25
100
AcDbLine
 10
295.6588849885
 20
143.2773830001
 30
0.0
 11
295.4188849885
 21
143.2773830001
 31
0.0
  0
LINE
  5
30C
330
1F
100
AcDbEntity
  8
0
  6
Continuous
 62
     7
370
    25
100
AcDbLine
 10
295.4188849885
 20
143.2773830001
 30
0.0
 11
295.4188849885
 21
143.6773830001
 31
0.0
  0
LINE
  5
30D
330
1F
100
AcDbEntity
  8
0
  6
Continuous
 62
     7
370
    25
100
AcDbLine
 10
295.6588849885
 20
143.6773830001
 30
0.0
 11
295.6588849885
 21
143.2773830001
 31
0.0
  0
LINE
  5
30E
330
1F
100
AcDbEntity
  8
0
  6
Continuous
 62
     7
370
    25
100
AcDbLine
 10
295.4188849885
 20
139.6373830001
 30
0.0
 11
295.4188849885
 21
138.6573830001
 31
0.0
  0
LINE
  5
30F
330
1F
100
AcDbEntity
  8
0
  6
Continuous
 62
     7
370
    25
100
AcDbLine
 10
295.6588849885
 20
139.6373830001
 30
0.0
 11
295.6588849885
 21
138.6573830001
 31
0.0
  0
LINE
  5
310
330
1F
100
AcDbEntity
  8
0
  6
Continuous
 62
     7
370
    25
100
AcDbLine
 10
295.4188849885
 20
140.1573830001
 30
0.0
 11
295.4188849885
 21
140.0373830001
 31
0.0
  0
LINE
  5
311
330
1F
100
AcDbEntity
  8
0
  6
Continuous
 62
     7
370
    25
100
AcDbLine
 10
295.6588849885
 20
140.0373830001
 30
0.0
 11
295.6588849885
 21
140.1573830001
 31
0.0
  0
LINE
  5
312
330
1F
100
AcDbEntity
  8
0
  6
Continuous
 62
     7
370
    25
100
AcDbLine
 10
295.4188849885
 20
143.2773830001
 30
0.0
 11
295.4188849885
 21
143.1573830001
 31
0.0
  0
LINE
  5
313
330
1F
100
AcDbEntity
  8
0
  6
Continuous
 62
     7
370
    25
100
AcDbLine
 10
295.6588849885
 20
143.1573830001
 30
0.0
 11
295.6588849885
 21
143.2773830001
 31
0.0
  0
LINE
  5
314
330
1F
100
AcDbEntity
  8
0
  6
Continuous
 62
     7
370
    25
100
AcDbLine
 10
295.3842098993
 20
78.5315664742
 30
0.0
 11
295.1442098993
 21
78.5315664742
 31
0.0
  0
LINE
  5
315
330
1F
100
AcDbEntity
  8
0
  6
Continuous
 62
     7
370
    25
100
AcDbLine
 10
295.3842098993
 20
78.5315664742
 30
0.0
 11
295.3842098993
 21
88.5615664742
 31
0.0
  0
LINE
  5
316
330
1F
100
AcDbEntity
  8
0
  6
Continuous
 62
     7
370
    25
100
AcDbLine
 10
295.3842098993
 20
78.1315664742
 30
0.0
 11
295.1442098993
 21
78.1315664742
 31
0.0
  0
LINE
  5
317
330
1F
100
AcDbEntity
  8
0
  6
Continuous
 62
     7
370
    25
100
AcDbLine
 10
295.3842098993
 20
78.1315664742
 30
0.0
 11
295.3842098993
 21
78.5315664742
 31
0.0
  0
LINE
  5
318
330
1F
100
AcDbEntity
  8
0
  6
Continuous
 62
     7
370
    25
100
AcDbLine
 10
295.1442098993
 20
78.1315664742
 30
0.0
 11
295.1442098993
 21
78.2915664742
 31
0.0
  0
LINE
  5
319
330
1F
100
AcDbEntity
  8
0
  6
Continuous
 62
     7
370
    25
100
AcDbLine
 10
294.7342098993
 20
78.2915664742
 30
0.0
 11
294.7342098993
 21
186.5915664742
 31
0.0
  0
LINE
  5
31A
330
1F
100
AcDbEntity
  8
0
  6
Continuous
 62
     7
370
    25
100
AcDbLine
 10
294.7342098993
 20
78.2915664742
 30
0.0
 11
288.6842098993
 21
78.2915664742
 31
0.0
  0
LINE
  5
31B
330
1F
100
AcDbEntity
  8
0
  6
Continuous
 62
     7
370
    25
100
AcDbLine
 10
288.6842098993
 20
78.5415664742
 30
0.0
 11
288.6842098993
 21
78.2915664742
 31
0.0
  0
ARC
  5
31C
330
1F
100
AcDbEntity
  8
0
  6
Continuous
 62
     7
370
    25
100
AcDbCircle
 10
288.6342098993
 20
78.5415664742
 30
0.0
 40
0.0500000000000114
100
AcDbArc
 50
0.0
 51
180.0
  0
LINE
  5
31D
330
1F
100
AcDbEntity
  8
0
  6
Continuous
 62
     7
370
    25
100
AcDbLine
 10
152.9042098993
 20
78.5415664742
 30
0.0
 11
288.5842098993
 21
78.5415664742
 31
0.0
  0
ARC
  5
31E
330
1F
100
AcDbEntity
  8
0
  6
Continuous
 62
     7
370
    25
100
AcDbCircle
 10
152.8542098993
 20
78.5415664742
 30
0.0
 40
0.0500000000000114
100
AcDbArc
 50
0.0000000001
 51
180.0
  0
LINE
  5
31F
330
1F
100
AcDbEntity
  8
0
  6
Continuous
 62
     7
370
    25
100
AcDbLine
 10
152.8042098993
 20
78.2915664742
 30
0.0
 11
152.8042098993
 21
78.5415664742
 31
0.0
  0
LINE
  5
320
330
1F
100
AcDbEntity
  8
0
  6
Continuous
 62
     7
370
    25
100
AcDbLine
 10
152.8042098993
 20
78.2915664742
 30
0.0
 11
148.1542098993
 21
78.2915664742
 31
0.0
  0
LINE
  5
321
330
1F
100
AcDbEntity
  8
0
  6
Continuous
 62
     7
370
    25
100
AcDbLine
 10
148.1542098993
 20
214.3415664742
 30
0.0
 11
148.1542098993
 21
78.2915664742
 31
0.0
  0
LINE
  5
322
330
1F
100
AcDbEntity
  8
0
  6
Continuous
 62
     7
370
    25
100
AcDbLine
 10
288.9342098993
 20
214.3415664742
 30
0.0
 11
148.1542098993
 21
214.3415664742
 31
0.0
  0
LINE
  5
323
330
1F
100
AcDbEntity
  8
0
  6
Continuous
 62
     7
370
    25
100
AcDbLine
 10
288.9342098993
 20
186.8515664742
 30
0.0
 11
288.9342098993
 21
214.3415664742
 31
0.0
  0
ARC
  5
324
330
1F
100
AcDbEntity
  8
0
  6
Continuous
 62
     7
370
    25
100
AcDbCircle
 10
288.9342098993
 20
186.7215664742
 30
0.0
 40
0.1299999999999955
100
AcDbArc
 50
90.0
 51
270.0
  0
LINE
  5
325
330
1F
100
AcDbEntity
  8
0
  6
Continuous
 62
     7
370
    25
100
AcDbLine
 10
288.9342098993
 20
186.5915664742
 30
0.0
 11
294.7342098993
 21
186.5915664742
 31
0.0
  0
LINE
  5
326
330
1F
100
AcDbEntity
  8
0
  6
Continuous
 62
     7
370
    25
100
AcDbLine
 10
148.1542098993
 20
78.2915664742
 30
0.0
 11
147.7442098993
 21
78.2915664742
 31
0.0
  0
LINE
  5
327
330
1F
100
AcDbEntity
  8
0
  6
Continuous
 62
     7
370
    25
100
AcDbLine
 10
147.7442098993
 20
214.5901522606
 30
0.0
 11
147.7442098993
 21
78.2915664742
 31
0.0
  0
SPLINE
  5
328
330
1F
100
AcDbEntity
  8
0
  6
Continuous
 62
     7
370
    25
100
AcDbSpline
210
0.0
220
0.0
230
1.0
 70
     8
 71
     3
 72
    12
 73
     8
 74
     0
 42
0.000000001
 43
0.00000001
 40
0.0
 40
0.0
 40
0.0
 40
0.0
 40
0.2301699461468475
 40
0.4604227344552176
 40
0.6906759109413237
 40
0.9209289349060275
 40
1.0
 40
1.0
 40
1.0
 40
1.0
 10
147.7442098992882
 20
214.5901522606109
 30
0.0
 10
147.7494253864507
 20
214.5710743001534
 30
0.0
 10
147.7598582379201
 20
214.5329115127489
 30
0.0
 10
147.8408004214407
 20
214.4756531176625
 30
0.0
 10
147.9584060750541
 20
214.4184300916185
 30
0.0
 10
148.0712109173266
 20
214.3736071774706
 30
0.0
 10
148.1373126289817
 20
214.3480894508608
 30
0.0
 10
148.1542098992881
 20
214.3415664741732
 30
0.0
  0
SPLINE
  5
329
330
1F
100
AcDbEntity
  8
0
  6
Continuous
 62
     7
370
    25
100
AcDbSpline
210
0.0
220
0.0
230
1.0
 70
     8
 71
     3
 72
    11
 73
     7
 74
     0
 42
0.000000001
 43
0.00000001
 40
0.0
 40
0.0
 40
0.0
 40
0.0
 40
0.2500000000000021
 40
0.5000000000000137
 40
0.7500000000000009
 40
0.9999999999999999
 40
0.9999999999999999
 40
0.9999999999999999
 40
0.9999999999999999
 10
288.9342098992881
 20
214.3415664741723
 30
0.0
 10
288.9879350872487
 20
214.3622819563754
 30
0.0
 10
289.0953854631698
 20
214.4037129207817
 30
0.0
 10
289.2309088873795
 20
214.4658593673911
 30
0.0
 10
289.3257210647597
 20
214.5280058140005
 30
0.0
 10
289.3380469544454
 20
214.5694367784068
 30
0.0
 10
289.3442098992882
 20
214.5901522606099
 30
0.0
  0
LINE
  5
32A
330
1F
100
AcDbEntity
  8
0
  6
Continuous
 62
     7
370
    25
100
AcDbLine
 10
289.3442098993
 20
186.9515664742
 30
0.0
 11
289.3442098993
 21
187.1515664742
 31
0.0
  0
LINE
  5
32B
330
1F
100
AcDbEntity
  8
0
  6
Continuous
 62
     7
370
    25
100
AcDbLine
 10
289.3442098993
 20
210.8891013796
 30
0.0
 11
289.3442098993
 21
211.0891013796
 31
0.0
  0
LINE
  5
32C
330
1F
100
AcDbEntity
  8
0
  6
Continuous
 62
     7
370
    25
100
AcDbLine
 10
289.3442098993
 20
211.2491013796
 30
0.0
 11
289.3442098993
 21
211.2715664742
 31
0.0
  0
LINE
  5
32D
330
1F
100
AcDbEntity
  8
0
  6
Continuous
 62
     7
370
    25
100
AcDbLine
 10
289.3442098993
 20
186.8515664742
 30
0.0
 11
288.9342098993
 21
186.8515664742
 31
0.0
  0
SPLINE
  5
32E
330
1F
100
AcDbEntity
  8
0
  6
Continuous
 62
     7
370
    25
100
AcDbSpline
210
0.0
220
0.0
230
1.0
 70
     8
 71
     3
 72
    11
 73
     7
 74
     0
 42
0.000000001
 43
0.00000001
 40
0.0
 40
0.0
 40
0.0
 40
0.0
 40
0.2499999999999651
 40
0.4999999999999785
 40
0.7500000000000084
 40
1.0
 40
1.0
 40
1.0
 40
1.0
 10
148.1542098992881
 20
214.3415664741733
 30
0.0
 10
148.133494417085
 20
214.3952916621338
 30
0.0
 10
148.0920634526788
 20
214.502742038055
 30
0.0
 10
148.0299170060694
 20
214.6382654622647
 30
0.0
 10
147.9677705594599
 20
214.7330776396448
 30
0.0
 10
147.9263395950537
 20
214.7454035293305
 30
0.0
 10
147.9056241128506
 20
214.7515664741733
 30
0.0
  0
SPLINE
  5
32F
330
1F
100
AcDbEntity
  8
0
  6
Continuous
 62
     7
370
    25
100
AcDbSpline
210
0.0
220
0.0
230
1.0
 70
     8
 71
     3
 72
    12
 73
     8
 74
     0
 42
0.000000001
 43
0.00000001
 40
0.0
 40
0.0
 40
0.0
 40
0.0
 40
0.2301699461467536
 40
0.4604227344550385
 40
0.6906759109412421
 40
0.9209289349059997
 40
1.0
 40
1.0
 40
1.0
 40
1.0
 10
289.1827956857258
 20
214.7515664741723
 30
0.0
 10
289.1637177252682
 20
214.7463509870098
 30
0.0
 10
289.1255549378637
 20
214.7359181355403
 30
0.0
 10
289.0682965427774
 20
214.6549759520199
 30
0.0
 10
289.0110735167333
 20
214.5373702984064
 30
0.0
 10
288.9662506025855
 20
214.4245654561339
 30
0.0
 10
288.9407328759756
 20
214.3584637444787
 30
0.0
 10
288.9342098992881
 20
214.3415664741723
 30
0.0
  0
SPLINE
  5
330
330
1F
100
AcDbEntity
  8
0
  6
Continuous
 62
     7
370
    25
100
AcDbSpline
210
0.0
220
0.0
230
1.0
 70
     8
 71
     3
 72
    11
 73
     7
 74
     0
 42
0.000000001
 43
0.00000001
 40
0.0
 40
0.0
 40
0.0
 40
0.0
 40
0.2542997317785022
 40
0.5087760894400342
 40
0.7632534766320873
 40
1.0
 40
1.0
 40
1.0
 40
1.0
 10
289.1827956857258
 20
214.5915664741723
 30
0.0
 10
289.1617205964185
 20
214.5876748404247
 30
0.0
 10
289.1195557799348
 20
214.5798888699645
 30
0.0
 10
289.0563050032651
 20
214.5200953179896
 30
0.0
 10
288.994491285073
 20
214.4369009734635
 30
0.0
 10
288.9538142785915
 20
214.3725706334242
 30
0.0
 10
288.9342098992881
 20
214.3415664741723
 30
0.0
  0
LINE
  5
331
330
1F
100
AcDbEntity
  8
0
  6
Continuous
 62
     7
370
    25
100
AcDbLine
 10
289.1827956857
 20
214.5915664742
 30
0.0
 11
289.1827956857
 21
214.7515664742
 31
0.0
  0
SPLINE
  5
332
330
1F
100
AcDbEntity
  8
0
  6
Continuous
 62
     7
370
    25
100
AcDbSpline
210
0.0
220
0.0
230
1.0
 70
     8
 71
     3
 72
    11
 73
     7
 74
     0
 42
0.000000001
 43
0.00000001
 40
0.0
 40
0.0
 40
0.0
 40
0.0
 40
0.2499999999999912
 40
0.5000000000000122
 40
0.7500000000000048
 40
1.0
 40
1.0
 40
1.0
 40
1.0
 10
288.9342098992881
 20
214.3415664741723
 30
0.0
 10
288.9669691602397
 20
214.3622819563754
 30
0.0
 10
289.0324876821429
 20
214.4037129207817
 30
0.0
 10
289.115123916417
 20
214.4658593673911
 30
0.0
 10
289.1729362196976
 20
214.5280058140005
 30
0.0
 10
289.1804520060913
 20
214.5694367784068
 30
0.0
 10
289.1842098992882
 20
214.5901522606099
 30
0.0
  0
LINE
  5
333
330
1F
100
AcDbEntity
  8
0
  6
Continuous
 62
     7
370
    25
100
AcDbLine
 10
289.3442098993
 20
214.5901522606
 30
0.0
 11
289.1842098993
 21
214.5901522606
 31
0.0
  0
SPLINE
  5
334
330
1F
100
AcDbEntity
  8
0
  6
Continuous
 62
     7
370
    25
100
AcDbSpline
210
0.0
220
0.0
230
1.0
 70
     8
 71
     3
 72
    11
 73
     7
 74
     0
 42
0.000000001
 43
0.00000001
 40
0.0
 40
0.0
 40
0.0
 40
0.0
 40
0.2499999999999362
 40
0.4999999999999942
 40
0.7500000000000241
 40
0.9999999999999999
 40
0.9999999999999999
 40
0.9999999999999999
 40
0.9999999999999999
 10
148.1542098992881
 20
214.3415664741733
 30
0.0
 10
148.133494417085
 20
214.3743257351248
 30
0.0
 10
148.0920634526788
 20
214.4398442570279
 30
0.0
 10
148.0299170060694
 20
214.5224804913022
 30
0.0
 10
147.9677705594599
 20
214.5802927945827
 30
0.0
 10
147.9263395950537
 20
214.5878085809764
 30
0.0
 10
147.9056241128506
 20
214.5915664741732
 30
0.0
  0
LINE
  5
335
330
1F
100
AcDbEntity
  8
0
  6
Continuous
 62
     7
370
    25
100
AcDbLine
 10
147.9056241129
 20
214.7515664742
 30
0.0
 11
147.9056241129
 21
214.5915664742
 31
0.0
  0
SPLINE
  5
336
330
1F
100
AcDbEntity
  8
0
  6
Continuous
 62
     7
370
    25
100
AcDbSpline
210
0.0
220
0.0
230
1.0
 70
     8
 71
     3
 72
    11
 73
     7
 74
     0
 42
0.000000001
 43
0.00000001
 40
0.0
 40
0.0
 40
0.0
 40
0.0
 40
0.2542997317785659
 40
0.5087760894401785
 40
0.7632534766321222
 40
1.0
 40
1.0
 40
1.0
 40
1.0
 10
147.9042098992882
 20
214.5901522606109
 30
0.0
 10
147.9081015330358
 20
214.5690771713037
 30
0.0
 10
147.9158875034959
 20
214.52691235482
 30
0.0
 10
147.9756810554709
 20
214.4636615781503
 30
0.0
 10
148.0588753999969
 20
214.4018478599581
 30
0.0
 10
148.1232057400362
 20
214.3611708534766
 30
0.0
 10
148.1542098992881
 20
214.3415664741732
 30
0.0
  0
LINE
  5
337
330
1F
100
AcDbEntity
  8
0
  6
Continuous
 62
     7
370
    25
100
AcDbLine
 10
147.7442098993
 20
214.5901522606
 30
0.0
 11
147.9042098993
 21
214.5901522606
 31
0.0
  0
LINE
  5
338
330
1F
100
AcDbEntity
  8
0
  6
Continuous
 62
     7
370
    25
100
AcDbLine
 10
294.7342098993
 20
186.5915664742
 30
0.0
 11
295.1442098993
 21
186.5915664742
 31
0.0
  0
LINE
  5
339
330
1F
100
AcDbEntity
  8
0
  6
Continuous
 62
     7
370
    25
100
AcDbLine
 10
295.1442098993
 20
186.5915664742
 30
0.0
 11
295.1442098993
 21
78.2915664742
 31
0.0
  0
LINE
  5
33A
330
1F
100
AcDbEntity
  8
0
  6
Continuous
 62
     7
370
    25
100
AcDbLine
 10
295.1442098993
 20
78.2915664742
 30
0.0
 11
294.7342098993
 21
78.2915664742
 31
0.0
  0
LINE
  5
33B
330
1F
100
AcDbEntity
  8
0
  6
Continuous
 62
     7
370
    25
100
AcDbLine
 10
288.5842098993
 20
78.5415664742
 30
0.0
 11
288.5842098993
 21
78.1315664742
 31
0.0
  0
LINE
  5
33C
330
1F
100
AcDbEntity
  8
0
  6
Continuous
 62
     7
370
    25
100
AcDbLine
 10
152.9042098993
 20
78.1315664742
 30
0.0
 11
288.5842098993
 21
78.1315664742
 31
0.0
  0
LINE
  5
33D
330
1F
100
AcDbEntity
  8
0
  6
Continuous
 62
     7
370
    25
100
AcDbLine
 10
152.9042098993
 20
78.1315664742
 30
0.0
 11
152.9042098993
 21
78.5415664742
 31
0.0
  0
LINE
  5
33E
330
1F
100
AcDbEntity
  8
0
  6
Continuous
 62
     7
370
    25
100
AcDbLine
 10
147.9042098993
 20
214.5901522606
 30
0.0
 11
147.9042098993
 21
214.5479597557
 31
0.0
  0
LINE
  5
33F
330
1F
100
AcDbEntity
  8
0
  6
Continuous
 62
     7
370
    25
100
AcDbLine
 10
147.9056241129
 20
214.5915664742
 30
0.0
 11
147.9242098993
 21
214.5915664742
 31
0.0
  0
LINE
  5
340
330
1F
100
AcDbEntity
  8
0
  6
Continuous
 62
     7
370
    25
100
AcDbLine
 10
284.9842098993
 20
44.1915664742
 30
0.0
 11
274.3842098993
 21
44.1915664742
 31
0.0
  0
LINE
  5
341
330
1F
100
AcDbEntity
  8
0
  6
Continuous
 62
     7
370
    25
100
AcDbLine
 10
285.3842098993
 20
45.3915664742
 30
0.0
 11
273.9842098993
 21
45.3915664742
 31
0.0
  0
LINE
  5
342
330
1F
100
AcDbEntity
  8
0
  6
Continuous
 62
     7
370
    25
100
AcDbLine
 10
167.9842098993
 20
44.1915664742
 30
0.0
 11
157.3842098993
 21
44.1915664742
 31
0.0
  0
LINE
  5
343
330
1F
100
AcDbEntity
  8
0
  6
Continuous
 62
     7
370
    25
100
AcDbLine
 10
168.3842098993
 20
45.3915664742
 30
0.0
 11
156.9842098993
 21
45.3915664742
 31
0.0
  0
LINE
  5
344
330
1F
100
AcDbEntity
  8
0
  6
Continuous
 62
     7
370
    25
100
AcDbLine
 10
270.6842098993
 20
77.7915664742
 30
0.0
 11
288.6842098993
 21
77.7915664742
 31
0.0
  0
LINE
  5
345
330
1F
100
AcDbEntity
  8
0
  6
Continuous
 62
     7
370
    25
100
AcDbLine
 10
270.6842098993
 20
77.7915664742
 30
0.0
 11
270.6842098993
 21
78.1315664742
 31
0.0
  0
LINE
  5
346
330
1F
100
AcDbEntity
  8
0
  6
Continuous
 62
     7
370
    25
100
AcDbLine
 10
288.6842098993
 20
77.7915664742
 30
0.0
 11
288.6842098993
 21
78.1915664742
 31
0.0
  0
LINE
  5
347
330
1F
100
AcDbEntity
  8
0
  6
Continuous
 62
     7
370
    25
100
AcDbLine
 10
288.5842098993
 20
78.1915664742
 30
0.0
 11
288.6842098993
 21
78.1915664742
 31
0.0
  0
LINE
  5
348
330
1F
100
AcDbEntity
  8
0
  6
Continuous
 62
     7
370
    25
100
AcDbLine
 10
285.8761399434
 20
58.9915664742
 30
0.0
 11
273.4922798552
 21
58.9915664742
 31
0.0
  0
LINE
  5
349
330
1F
100
AcDbEntity
  8
0
  6
Continuous
 62
     7
370
    25
100
AcDbLine
 10
171.6842098993
 20
77.7915664742
 30
0.0
 11
171.6842098993
 21
78.1315664742
 31
0.0
  0
LINE
  5
34A
330
1F
100
AcDbEntity
  8
0
  6
Continuous
 62
     7
370
    25
100
AcDbLine
 10
153.6842098993
 20
77.7915664742
 30
0.0
 11
153.6842098993
 21
78.1315664742
 31
0.0
  0
LINE
  5
34B
330
1F
100
AcDbEntity
  8
0
  6
Continuous
 62
     7
370
    25
100
AcDbLine
 10
153.6842098993
 20
77.7915664742
 30
0.0
 11
171.6842098993
 21
77.7915664742
 31
0.0
  0
LINE
  5
34C
330
1F
100
AcDbEntity
  8
0
  6
Continuous
 62
     7
370
    25
100
AcDbLine
 10
168.8761399434
 20
58.9915664742
 30
0.0
 11
156.4922798552
 21
58.9915664742
 31
0.0
  0
SPLINE
  5
34D
330
1F
100
AcDbEntity
  8
0
  6
Continuous
 62
     7
370
    25
100
AcDbSpline
210
0.0
220
0.0
230
1.0
 70
     8
 71
     3
 72
    13
 73
     9
 74
     0
 42
0.000000001
 43
0.00000001
 40
0.0
 40
0.0
 40
0.0
 40
0.0
 40
0.0075462231149854
 40
0.272276378851163
 40
0.4815195415732442
 40
0.6613541616921955
 40
0.8304588949398157
 40
0.9999999999999999
 40
0.9999999999999999
 40
0.9999999999999999
 40
0.9999999999999999
 10
145.6842098992888
 20
86.91290230829529
 30
0.0
 10
145.6842092624804
 20
86.91292369814919
 30
0.0
 10
145.6841862856998
 20
86.91369546859194
 30
0.0
 10
145.6818691537772
 20
86.91509849920322
 30
0.0
 10
145.6733253979228
 20
86.91687235256947
 30
0.0
 10
145.6621910773019
 20
86.91812919454233
 30
0.0
 10
145.6489639186259
 20
86.91897312419643
 30
0.0
 10
145.6391321287462
 20
86.91908502014532
 30
0.0
 10
145.6342098992888
 20
86.91914104021318
 30
0.0
  0
LINE
  5
34E
330
1F
100
AcDbEntity
  8
0
  6
Continuous
 62
     7
370
    25
100
AcDbLine
 10
145.6842098993
 20
88.4664483414
 30
0.0
 11
145.6842098993
 21
86.9129023083
 31
0.0
  0
SPLINE
  5
34F
330
1F
100
AcDbEntity
  8
0
  6
Continuous
 62
     7
370
    25
100
AcDbSpline
210
0.0
220
0.0
230
1.0
 70
     8
 71
     3
 72
    13
 73
     9
 74
     0
 42
0.000000001
 43
0.00000001
 40
0.0
 40
0.0
 40
0.0
 40
0.0
 40
0.1695411050603463
 40
0.3386458383077435
 40
0.5184804584264872
 40
0.727723621148337
 40
0.9924537768852921
 40
0.9999999999999999
 40
0.9999999999999999
 40
0.9999999999999999
 40
0.9999999999999999
 10
145.4942098992888
 20
86.91914104021319
 30
0.0
 10
145.4892876698315
 20
86.91908502014536
 30
0.0
 10
145.4794558799518
 20
86.91897312419643
 30
0.0
 10
145.4662287212757
 20
86.9181291945423
 30
0.0
 10
145.4550944006549
 20
86.9168723525695
 30
0.0
 10
145.4465506448003
 20
86.91509849920322
 30
0.0
 10
145.4442335128784
 20
86.9136954685921
 30
0.0
 10
145.4442105360974
 20
86.91292369814917
 30
0.0
 10
145.4442098992889
 20
86.91290230829532
 30
0.0
  0
LINE
  5
350
330
1F
100
AcDbEntity
  8
0
  6
Continuous
 62
     7
370
    25
100
AcDbLine
 10
145.4442098993
 20
86.9129023083
 30
0.0
 11
145.4442098993
 21
88.4109140779
 31
0.0
  0
LINE
  5
351
330
1F
100
AcDbEntity
  8
0
  6
Continuous
 62
     7
370
    25
100
AcDbLine
 10
145.4942098993
 20
86.9191410402
 30
0.0
 11
145.6342098993
 21
86.9191410402
 31
0.0
  0
SPLINE
  5
352
330
1F
100
AcDbEntity
  8
0
  6
Continuous
 62
     7
370
    25
100
AcDbSpline
210
0.0
220
0.0
230
1.0
 70
     8
 71
     3
 72
    12
 73
     8
 74
     0
 42
0.000000001
 43
0.00000001
 40
0.0
 40
0.0
 40
0.0
 40
0.0
 40
0.202820202046736
 40
0.4049472449427255
 40
0.609831203074095
 40
0.8226939241827073
 40
1.0
 40
1.0
 40
1.0
 40
1.0
 10
145.394209899289
 20
85.84934579231516
 30
0.0
 10
145.4256380673961
 20
85.8517903961528
 30
0.0
 10
145.4883869945746
 20
85.85667124913998
 30
0.0
 10
145.5724662446684
 20
85.8946014904062
 30
0.0
 10
145.6378819517564
 20
85.95102752156016
 30
0.0
 10
145.6775238050095
 20
86.01895661406563
 30
0.0
 10
145.6821208461939
 20
86.06710614360078
 30
0.0
 10
145.6842098992889
 20
86.08898694032666
 30
0.0
  0
LINE
  5
353
330
1F
100
AcDbEntity
  8
0
  6
Continuous
 62
     7
370
    25
100
AcDbLine
 10
145.3942098993
 20
85.8493457923
 30
0.0
 11
145.3942098993
 21
86.6438557994
 31
0.0
  0
SPLINE
  5
354
330
1F
100
AcDbEntity
  8
0
  6
Continuous
 62
     7
370
    25
100
AcDbSpline
210
0.0
220
0.0
230
1.0
 70
     8
 71
     3
 72
    12
 73
     8
 74
     0
 42
0.000000001
 43
0.00000001
 40
0.0
 40
0.0
 40
0.0
 40
0.0
 40
0.2289440738515372
 40
0.4594214300241281
 40
0.6825355698157458
 40
0.8947175231628799
 40
1.0
 40
1.0
 40
1.0
 40
1.0
 10
145.6842098992889
 20
86.86402366293947
 30
0.0
 10
145.6807430023734
 20
86.83824774767393
 30
0.0
 10
145.6737859900695
 20
86.78652329090035
 30
0.0
 10
145.6190120209071
 20
86.71800112020159
 30
0.0
 10
145.5396047140105
 20
86.66858905881283
 30
0.0
 10
145.45942951614
 20
86.64637218766221
 30
0.0
 10
145.4104524375226
 20
86.64448249019192
 30
0.0
 10
145.3942098992889
 20
86.6438557994158
 30
0.0
  0
LINE
  5
355
330
1F
100
AcDbEntity
  8
0
  6
Continuous
 62
     7
370
    25
100
AcDbLine
 10
145.6842098993
 20
86.8640236629
 30
0.0
 11
145.6842098993
 21
86.0889869403
 31
0.0
  0
LINE
  5
356
330
1F
100
AcDbEntity
  8
0
  6
Continuous
 62
     7
370
    25
100
AcDbLine
 10
144.3242098993
 20
85.8954786522
 30
0.0
 11
144.3242098993
 21
86.6705153748
 31
0.0
  0
LWPOLYLINE
  5
357
330
1F
100
AcDbEntity
  8
0
  6
Continuous
 62
     7
370
    25
100
AcDbPolyline
 90
        9
 70
   128
 43
0.0
 10
144.3242098993
 20
86.6705153748
 10
144.3251706353
 20
86.6653143496
 10
144.3280159227
 20
86.660313197
 10
144.3326364187
 20
86.6557041083
 10
144.3388545602
 20
86.6516642083
 10
144.3464313876
 20
86.648348748
 10
144.3550757277
 20
86.6458851388
 10
144.3644553832
 20
86.6443680557
 10
144.3742098993
 20
86.6438557994
  0
LINE
  5
358
330
1F
100
AcDbEntity
  8
0
  6
Continuous
 62
     7
370
    25
100
AcDbLine
 10
144.3742098993
 20
86.6438557994
 30
0.0
 11
144.3742098993
 21
85.8493457923
 31
0.0
  0
ARC
  5
359
330
1F
100
AcDbEntity
  8
0
  6
Continuous
 62
     7
370
    25
100
AcDbCircle
 10
144.3723511031
 20
85.8974932641
 30
0.0
 40
0.0481833390663791
100
AcDbArc
 50
182.3963142131
 51
272.2108806482
  0
LINE
  5
35A
330
1F
100
AcDbEntity
  8
0
  6
Continuous
 62
     7
370
    25
100
AcDbLine
 10
144.3742098993
 20
85.8493457923
 30
0.0
 11
145.3942098993
 21
85.8493457923
 31
0.0
  0
LINE
  5
35B
330
1F
100
AcDbEntity
  8
0
  6
Continuous
 62
     7
370
    25
100
AcDbLine
 10
145.3942098993
 20
86.6438557994
 30
0.0
 11
144.3742098993
 21
86.6438557994
 31
0.0
  0
LINE
  5
35C
330
1F
100
AcDbEntity
  8
0
  6
Continuous
 62
     7
370
    25
100
AcDbLine
 10
145.3942098993
 20
86.6438557994
 30
0.0
 11
145.3942098993
 21
86.7028085716
 31
0.0
  0
SPLINE
  5
35D
330
1F
100
AcDbEntity
  8
0
  6
Continuous
 62
     7
370
    25
100
AcDbSpline
210
0.0
220
0.0
230
1.0
 70
     8
 71
     3
 72
    12
 73
     8
 74
     0
 42
0.000000001
 43
0.00000001
 40
0.0
 40
0.0
 40
0.0
 40
0.0
 40
0.104420382643914
 40
0.3151731030979923
 40
0.5377472974586068
 40
0.7690283494734668
 40
0.9999999999999999
 40
0.9999999999999999
 40
0.9999999999999999
 40
0.9999999999999999
 10
145.3942098992889
 20
86.70280857155304
 30
0.0
 10
145.4076538130162
 20
86.70335508438056
 30
0.0
 10
145.4482317145709
 20
86.70500462960698
 30
0.0
 10
145.5147031876039
 20
86.72444200933208
 30
0.0
 10
145.5804321452545
 20
86.76773028535659
 30
0.0
 10
145.6256444878298
 20
86.8279028210445
 30
0.0
 10
145.6313560364472
 20
86.87352235839532
 30
0.0
 10
145.6342098992889
 20
86.89631685971513
 30
0.0
  0
LWPOLYLINE
  5
35E
330
1F
100
AcDbEntity
  8
0
  6
Continuous
 62
     7
370
    25
100
AcDbPolyline
 90
        9
 70
   128
 43
0.0
 10
145.6842098993
 20
86.8640236629
 10
145.6832491633
 20
86.8703237531
 10
145.6804038759
 20
86.8763817343
 10
145.6757833799
 20
86.8819648018
 10
145.6695652383
 20
86.8868584014
 10
145.6619884109
 20
86.8908744747
 10
145.6533440709
 20
86.8938586865
 10
145.6439644154
 20
86.895696355
 10
145.6342098993
 20
86.8963168597
  0
LWPOLYLINE
  5
35F
330
1F
100
AcDbEntity
  8
0
  6
Continuous
 62
     7
370
    25
100
AcDbPolyline
 90
        9
 70
   128
 43
0.0
 10
144.3242098993
 20
86.6705153748
 10
144.3251706353
 20
86.6768154649
 10
144.3280159227
 20
86.6828734462
 10
144.3326364187
 20
86.6884565136
 10
144.3388545602
 20
86.6933501132
 10
144.3464313876
 20
86.6973661866
 10
144.3550757277
 20
86.7003503983
 10
144.3644553832
 20
86.7021880668
 10
144.3742098993
 20
86.7028085716
  0
LINE
  5
360
330
1F
100
AcDbEntity
  8
0
  6
Continuous
 62
     7
370
    25
100
AcDbLine
 10
144.3742098993
 20
86.6438557994
 30
0.0
 11
144.3742098993
 21
86.7028085716
 31
0.0
  0
LINE
  5
361
330
1F
100
AcDbEntity
  8
0
  6
Continuous
 62
     7
370
    25
100
AcDbLine
 10
144.3742098993
 20
86.7028085716
 30
0.0
 11
145.3942098993
 21
86.7028085716
 31
0.0
  0
LINE
  5
362
330
1F
100
AcDbEntity
  8
0
  6
Continuous
 62
     7
370
    25
100
AcDbLine
 10
145.6342098993
 20
86.8963168597
 30
0.0
 11
145.6342098993
 21
86.9191410402
 31
0.0
  0
LINE
  5
363
330
1F
100
AcDbEntity
  8
0
  6
Continuous
 62
     7
370
    25
100
AcDbLine
 10
144.3742098993
 20
86.8153360919
 30
0.0
 11
144.3742098993
 21
86.7028085716
 31
0.0
  0
LINE
  5
364
330
1F
100
AcDbEntity
  8
0
  6
Continuous
 62
     7
370
    25
100
AcDbLine
 10
145.3942098993
 20
86.8153360919
 30
0.0
 11
144.3742098993
 21
86.8153360919
 31
0.0
  0
SPLINE
  5
365
330
1F
100
AcDbEntity
  8
0
  6
Continuous
 62
     7
370
    25
100
AcDbSpline
210
0.0
220
0.0
230
1.0
 70
     8
 71
     3
 72
    12
 73
     8
 74
     0
 42
0.000000001
 43
0.00000001
 40
0.0
 40
0.0
 40
0.0
 40
0.0
 40
0.1009214352040159
 40
0.3119724040343667
 40
0.5359629038281298
 40
0.7681188099357679
 40
1.0
 40
1.0
 40
1.0
 40
1.0
 10
145.3942098992889
 20
86.81533609187012
 30
0.0
 10
145.3996340910234
 20
86.81555170084624
 30
0.0
 10
145.4164015709141
 20
86.81621819999462
 30
0.0
 10
145.444095811391
 20
86.82425737634208
 30
0.0
 10
145.4716401189848
 20
86.84241149474006
 30
0.0
 10
145.490600408447
 20
86.86764592379173
 30
0.0
 10
145.4930072106277
 20
86.88676365372287
 30
0.0
 10
145.4942098992889
 20
86.89631685971513
 30
0.0
  0
LINE
  5
366
330
1F
100
AcDbEntity
  8
0
  6
Continuous
 62
     7
370
    25
100
AcDbLine
 10
145.4942098993
 20
86.9191410402
 30
0.0
 11
145.4942098993
 21
86.8963168597
 31
0.0
  0
LWPOLYLINE
  5
367
330
1F
100
AcDbEntity
  8
0
  6
Continuous
 62
     7
370
    25
100
AcDbPolyline
 90
        9
 70
   128
 43
0.0
 10
144.3242098993
 20
86.7830428951
 10
144.3251706353
 20
86.7893429853
 10
144.3280159227
 20
86.7954009665
 10
144.3326364187
 20
86.800984034
 10
144.3388545602
 20
86.8058776335
 10
144.3464313876
 20
86.8098937069
 10
144.3550757277
 20
86.8128779186
 10
144.3644553832
 20
86.8147155871
 10
144.3742098993
 20
86.8153360919
  0
LINE
  5
368
330
1F
100
AcDbEntity
  8
0
  6
Continuous
 62
     7
370
    25
100
AcDbLine
 10
144.3242098993
 20
86.6705153748
 30
0.0
 11
144.3242098993
 21
86.7830428951
 31
0.0
  0
LWPOLYLINE
  5
369
330
1F
100
AcDbEntity
  8
0
  6
Continuous
 62
     7
370
    25
100
AcDbPolyline
 90
        9
 70
   128
 43
0.0
 10
145.4442098993
 20
86.8640236629
 10
145.4451706353
 20
86.8703237531
 10
145.4480159227
 20
86.8763817343
 10
145.4526364187
 20
86.8819648018
 10
145.4588545602
 20
86.8868584014
 10
145.4664313876
 20
86.8908744747
 10
145.4750757277
 20
86.8938586865
 10
145.4844553832
 20
86.895696355
 10
145.4942098993
 20
86.8963168597
  0
LINE
  5
36A
330
1F
100
AcDbEntity
  8
0
  6
Continuous
 62
     7
370
    25
100
AcDbLine
 10
145.6842098993
 20
86.9129023083
 30
0.0
 11
145.6842098993
 21
86.8640236629
 31
0.0
  0
LINE
  5
36B
330
1F
100
AcDbEntity
  8
0
  6
Continuous
 62
     7
370
    25
100
AcDbLine
 10
145.4442098993
 20
86.8640236629
 30
0.0
 11
145.4442098993
 21
86.9129023083
 31
0.0
  0
LINE
  5
36C
330
1F
100
AcDbEntity
  8
0
  6
Continuous
 62
     7
370
    25
100
AcDbLine
 10
145.3942098993
 20
85.8454786522
 30
0.0
 11
145.3942098993
 21
85.8493457923
 31
0.0
  0
LINE
  5
36D
330
1F
100
AcDbEntity
  8
0
  6
Continuous
 62
     7
370
    25
100
AcDbLine
 10
145.6842098993
 20
86.0889869403
 30
0.0
 11
145.6842098993
 21
86.0415664742
 31
0.0
  0
LINE
  5
36E
330
1F
100
AcDbEntity
  8
0
  6
Continuous
 62
     7
370
    25
100
AcDbLine
 10
144.3742098993
 20
89.599947493
 30
0.0
 11
144.3742098993
 21
89.4874199726
 31
0.0
  0
LINE
  5
36F
330
1F
100
AcDbEntity
  8
0
  6
Continuous
 62
     7
370
    25
100
AcDbLine
 10
145.3942098993
 20
89.599947493
 30
0.0
 11
144.3742098993
 21
89.599947493
 31
0.0
  0
SPLINE
  5
370
330
1F
100
AcDbEntity
  8
0
  6
Continuous
 62
     7
370
    25
100
AcDbSpline
210
0.0
220
0.0
230
1.0
 70
     8
 71
     3
 72
    10
 73
     6
 74
     0
 42
0.000000001
 43
0.00000001
 40
0.0
 40
0.0
 40
0.0
 40
0.0
 40
0.3816828359345328
 40
0.7620612310501284
 40
1.0
 40
1.0
 40
1.0
 40
1.0
 10
145.3942098992889
 20
89.61378715603297
 30
0.0
 10
145.4254600938179
 20
89.61121587996912
 30
0.0
 10
145.4878536820837
 20
89.60608211544499
 30
0.0
 10
145.5634438520112
 20
89.57468710853541
 30
0.0
 10
145.5959898566477
 20
89.54363218781802
 30
0.0
 10
145.6085141026617
 20
89.53168173579313
 30
0.0
  0
LINE
  5
371
330
1F
100
AcDbEntity
  8
0
  6
Continuous
 62
     7
370
    25
100
AcDbLine
 10
144.3742098993
 20
89.4874199726
 30
0.0
 11
144.3742098993
 21
89.408544065
 31
0.0
  0
ARC
  5
372
330
1F
100
AcDbEntity
  8
0
  6
Continuous
 62
     7
370
    25
100
AcDbCircle
 10
144.372559644
 20
89.4568980932
 30
0.0
 40
0.0483821804260618
100
AcDbArc
 50
182.0981214799
 51
271.9546660229
  0
LWPOLYLINE
  5
373
330
1F
100
AcDbEntity
  8
0
  6
Continuous
 62
     7
370
    25
100
AcDbPolyline
 90
        9
 70
   128
 43
0.0
 10
144.3742098993
 20
89.4874199726
 10
144.3644553832
 20
89.4867994679
 10
144.3550757277
 20
89.4849617994
 10
144.3464313876
 20
89.4819775877
 10
144.3388545602
 20
89.4779615143
 10
144.3326364187
 20
89.4730679147
 10
144.3280159227
 20
89.4674848473
 10
144.3251706353
 20
89.461426866
 10
144.3242098993
 20
89.4551267759
  0
LINE
  5
374
330
1F
100
AcDbEntity
  8
0
  6
Continuous
 62
     7
370
    25
100
AcDbLine
 10
144.3242098993
 20
89.4551267759
 30
0.0
 11
144.3242098993
 21
89.5676542962
 31
0.0
  0
LWPOLYLINE
  5
375
330
1F
100
AcDbEntity
  8
0
  6
Continuous
 62
     7
370
    25
100
AcDbPolyline
 90
        9
 70
   128
 43
0.0
 10
144.3742098993
 20
89.599947493
 10
144.3644553832
 20
89.5993269882
 10
144.3550757277
 20
89.5974893197
 10
144.3464313876
 20
89.594505108
 10
144.3388545602
 20
89.5904890346
 10
144.3326364187
 20
89.585595435
 10
144.3280159227
 20
89.5800123676
 10
144.3251706353
 20
89.5739543863
 10
144.3242098993
 20
89.5676542962
  0
LINE
  5
376
330
1F
100
AcDbEntity
  8
0
  6
Continuous
 62
     7
370
    25
100
AcDbLine
 10
144.3242098993
 20
88.7949076646
 30
0.0
 11
144.3242098993
 21
89.4551267759
 31
0.0
  0
SPLINE
  5
377
330
1F
100
AcDbEntity
  8
0
  6
Continuous
 62
     7
370
    25
100
AcDbSpline
210
0.0
220
0.0
230
1.0
 70
     8
 71
     3
 72
    13
 73
     9
 74
     0
 42
0.000000001
 43
0.00000001
 40
0.0
 40
0.0
 40
0.0
 40
0.0
 40
0.0075462231149881
 40
0.2722763788511582
 40
0.4815195415732727
 40
0.6613541616922044
 40
0.8304588949398192
 40
1.0
 40
1.0
 40
1.0
 40
1.0
 10
145.2042098992889
 20
88.39822960553536
 30
0.0
 10
145.2042105360974
 20
88.39818661853633
 30
0.0
 10
145.204233512878
 20
88.39663559834283
 30
0.0
 10
145.2065506448005
 20
88.39384566724873
 30
0.0
 10
145.215094400655
 20
88.3903749218018
 30
0.0
 10
145.2262287212759
 20
88.38794184642428
 30
0.0
 10
145.239455879952
 20
88.38632026327056
 30
0.0
 10
145.2492876698316
 20
88.3861060648377
 30
0.0
 10
145.254209899289
 20
88.38599882761551
 30
0.0
  0
LINE
  5
378
330
1F
100
AcDbEntity
  8
0
  6
Continuous
 62
     7
370
    25
100
AcDbLine
 10
145.2042098993
 20
86.8330428951
 30
0.0
 11
145.2042098993
 21
88.3982296055
 31
0.0
  0
SPLINE
  5
379
330
1F
100
AcDbEntity
  8
0
  6
Continuous
 62
     7
370
    25
100
AcDbSpline
210
0.0
220
0.0
230
1.0
 70
     8
 71
     3
 72
    13
 73
     9
 74
     0
 42
0.000000001
 43
0.00000001
 40
0.0
 40
0.0
 40
0.0
 40
0.0
 40
0.1695411050603542
 40
0.3386458383077861
 40
0.5184804584264564
 40
0.7277236211482994
 40
0.9924537768852474
 40
1.0
 40
1.0
 40
1.0
 40
1.0
 10
145.394209899289
 20
88.38599882761551
 30
0.0
 10
145.3991321287463
 20
88.38610606483768
 30
0.0
 10
145.4089639186259
 20
88.38632026327045
 30
0.0
 10
145.4221910773021
 20
88.38794184642434
 30
0.0
 10
145.4333253979229
 20
88.39037492180175
 30
0.0
 10
145.4418691537773
 20
88.39384566724873
 30
0.0
 10
145.4441862856999
 20
88.39663559834293
 30
0.0
 10
145.4442092624804
 20
88.39818661853634
 30
0.0
 10
145.4442098992889
 20
88.39822960553536
 30
0.0
  0
LINE
  5
37A
330
1F
100
AcDbEntity
  8
0
  6
Continuous
 62
     7
370
    25
100
AcDbLine
 10
145.4442098993
 20
88.3982296055
 30
0.0
 11
145.4442098993
 21
86.9129023083
 31
0.0
  0
LINE
  5
37B
330
1F
100
AcDbEntity
  8
0
  6
Continuous
 62
     7
370
    25
100
AcDbLine
 10
145.4442098993
 20
86.8640236629
 30
0.0
 11
145.4442098993
 21
86.8336836244
 31
0.0
  0
LINE
  5
37C
330
1F
100
AcDbEntity
  8
0
  6
Continuous
 62
     7
370
    25
100
AcDbLine
 10
145.3942098993
 20
88.3859988276
 30
0.0
 11
145.2542098993
 21
88.3859988276
 31
0.0
  0
SPLINE
  5
37D
330
1F
100
AcDbEntity
  8
0
  6
Continuous
 62
     7
370
    25
100
AcDbSpline
210
0.0
220
0.0
230
1.0
 70
     8
 71
     3
 72
    12
 73
     8
 74
     0
 42
0.000000001
 43
0.00000001
 40
0.0
 40
0.0
 40
0.0
 40
0.0
 40
0.2028202020467352
 40
0.4049472449427437
 40
0.6098312030740964
 40
0.8226939241827229
 40
1.0
 40
1.0
 40
1.0
 40
1.0
 10
145.4942098992888
 20
89.52565448105987
 30
0.0
 10
145.4627817311817
 20
89.52341123255339
 30
0.0
 10
145.4000328040032
 20
89.51893240207565
 30
0.0
 10
145.3159535539094
 20
89.484120268521
 30
0.0
 10
145.2505378468214
 20
89.43231137586399
 30
0.0
 10
145.2108959935683
 20
89.36990921955287
 30
0.0
 10
145.2062989523839
 20
89.32563800610649
 30
0.0
 10
145.2042098992889
 20
89.30551964915512
 30
0.0
  0
LINE
  5
37E
330
1F
100
AcDbEntity
  8
0
  6
Continuous
 62
     7
370
    25
100
AcDbLine
 10
145.4942098993
 20
89.5256544811
 30
0.0
 11
145.4942098993
 21
88.6411833573
 31
0.0
  0
SPLINE
  5
37F
330
1F
100
AcDbEntity
  8
0
  6
Continuous
 62
     7
370
    25
100
AcDbSpline
210
0.0
220
0.0
230
1.0
 70
     8
 71
     3
 72
    12
 73
     8
 74
     0
 42
0.000000001
 43
0.00000001
 40
0.0
 40
0.0
 40
0.0
 40
0.0
 40
0.2289440738515305
 40
0.4594214300241375
 40
0.6825355698157441
 40
0.894717523162883
 40
1.0
 40
1.0
 40
1.0
 40
1.0
 10
145.2042098992889
 20
88.44272673917082
 30
0.0
 10
145.2076767962045
 20
88.46593637090564
 30
0.0
 10
145.2146338085083
 20
88.51251107372518
 30
0.0
 10
145.2694077776707
 20
88.5742887112017
 30
0.0
 10
145.3488150845673
 20
88.61886253555187
 30
0.0
 10
145.4289902824378
 20
88.63891239056507
 30
0.0
 10
145.4779673610552
 20
88.64061778718607
 30
0.0
 10
145.4942098992889
 20
88.64118335725685
 30
0.0
  0
LINE
  5
380
330
1F
100
AcDbEntity
  8
0
  6
Continuous
 62
     7
370
    25
100
AcDbLine
 10
145.2042098993
 20
88.4427267392
 30
0.0
 11
145.2042098993
 21
89.3055196492
 31
0.0
  0
LINE
  5
381
330
1F
100
AcDbEntity
  8
0
  6
Continuous
 62
     7
370
    25
100
AcDbLine
 10
146.5642098993
 20
89.4816817358
 30
0.0
 11
146.5642098993
 21
88.6188888258
 31
0.0
  0
LWPOLYLINE
  5
382
330
1F
100
AcDbEntity
  8
0
  6
Continuous
 62
     7
370
    25
100
AcDbPolyline
 90
        9
 70
   128
 43
0.0
 10
146.5642098993
 20
88.6188888258
 10
146.5632491633
 20
88.6232382731
 10
146.5604038759
 20
88.6274205736
 10
146.5557833799
 20
88.6312750038
 10
146.5495652383
 20
88.6346534402
 10
146.5419884109
 20
88.6374260512
 10
146.5333440709
 20
88.6394862871
 10
146.5239644154
 20
88.6407549741
 10
146.5142098993
 20
88.6411833573
  0
LINE
  5
383
330
1F
100
AcDbEntity
  8
0
  6
Continuous
 62
     7
370
    25
100
AcDbLine
 10
146.5142098993
 20
88.6411833573
 30
0.0
 11
146.5142098993
 21
89.5256544811
 31
0.0
  0
ARC
  5
384
330
1F
100
AcDbEntity
  8
0
  6
Continuous
 62
     7
370
    25
100
AcDbCircle
 10
146.5170418877
 20
89.4784615725
 30
0.0
 40
0.0472778042281921
100
AcDbArc
 50
3.9055265257
 51
93.4341310142
  0
LINE
  5
385
330
1F
100
AcDbEntity
  8
0
  6
Continuous
 62
     7
370
    25
100
AcDbLine
 10
146.5142098993
 20
89.5256544811
 30
0.0
 11
145.4942098993
 21
89.5256544811
 31
0.0
  0
LINE
  5
386
330
1F
100
AcDbEntity
  8
0
  6
Continuous
 62
     7
370
    25
100
AcDbLine
 10
145.4942098993
 20
88.6411833573
 30
0.0
 11
146.5142098993
 21
88.6411833573
 31
0.0
  0
LINE
  5
387
330
1F
100
AcDbEntity
  8
0
  6
Continuous
 62
     7
370
    25
100
AcDbLine
 10
145.4942098993
 20
88.6411833573
 30
0.0
 11
145.4942098993
 21
88.5829391212
 31
0.0
  0
SPLINE
  5
388
330
1F
100
AcDbEntity
  8
0
  6
Continuous
 62
     7
370
    25
100
AcDbSpline
210
0.0
220
0.0
230
1.0
 70
     8
 71
     3
 72
    12
 73
     8
 74
     0
 42
0.000000001
 43
0.00000001
 40
0.0
 40
0.0
 40
0.0
 40
0.0
 40
0.104420382643911
 40
0.3151731030979837
 40
0.5377472974585873
 40
0.769028349473456
 40
1.0
 40
1.0
 40
1.0
 40
1.0
 10
145.4942098992889
 20
88.58293912122609
 30
0.0
 10
145.4807659855616
 20
88.58244159814328
 30
0.0
 10
145.440188084007
 20
88.58093991916175
 30
0.0
 10
145.373716610974
 20
88.56324491806555
 30
0.0
 10
145.3079876533233
 20
88.52383702962896
 30
0.0
 10
145.2627753107481
 20
88.4690583969112
 30
0.0
 10
145.2570637621306
 20
88.42752822284213
 30
0.0
 10
145.254209899289
 20
88.40677703458806
 30
0.0
  0
ARC
  5
389
330
1F
100
AcDbEntity
  8
0
  6
Continuous
 62
     7
370
    25
100
AcDbCircle
 10
145.2481718056
 20
88.4511247132
 30
0.0
 40
0.0447568449848728
100
AcDbArc
 50
190.8148280793
 51
277.753348147
  0
ARC
  5
38A
330
1F
100
AcDbEntity
  8
0
  6
Continuous
 62
     7
370
    25
100
AcDbCircle
 10
146.520247993
 20
88.6272867998
 30
0.0
 40
0.0447568449847131
100
AcDbArc
 50
262.2466518528
 51
349.1851719208
  0
LINE
  5
38B
330
1F
100
AcDbEntity
  8
0
  6
Continuous
 62
     7
370
    25
100
AcDbLine
 10
146.5142098993
 20
88.6411833573
 30
0.0
 11
146.5142098993
 21
88.5829391212
 31
0.0
  0
LINE
  5
38C
330
1F
100
AcDbEntity
  8
0
  6
Continuous
 62
     7
370
    25
100
AcDbLine
 10
146.5142098993
 20
88.5829391212
 30
0.0
 11
145.4942098993
 21
88.5829391212
 31
0.0
  0
LINE
  5
38D
330
1F
100
AcDbEntity
  8
0
  6
Continuous
 62
     7
370
    25
100
AcDbLine
 10
145.2542098993
 20
88.4067770346
 30
0.0
 11
145.2542098993
 21
88.3859988276
 31
0.0
  0
LINE
  5
38E
330
1F
100
AcDbEntity
  8
0
  6
Continuous
 62
     7
370
    25
100
AcDbLine
 10
146.5142098993
 20
88.4804986368
 30
0.0
 11
146.5142098993
 21
88.5829391212
 31
0.0
  0
LINE
  5
38F
330
1F
100
AcDbEntity
  8
0
  6
Continuous
 62
     7
370
    25
100
AcDbLine
 10
145.4942098993
 20
88.4804986368
 30
0.0
 11
146.5142098993
 21
88.4804986368
 31
0.0
  0
SPLINE
  5
390
330
1F
100
AcDbEntity
  8
0
  6
Continuous
 62
     7
370
    25
100
AcDbSpline
210
0.0
220
0.0
230
1.0
 70
     8
 71
     3
 72
    12
 73
     8
 74
     0
 42
0.000000001
 43
0.00000001
 40
0.0
 40
0.0
 40
0.0
 40
0.0
 40
0.1009214352040099
 40
0.3119724040343205
 40
0.5359629038281216
 40
0.768118809935772
 40
1.0
 40
1.0
 40
1.0
 40
1.0
 10
145.4942098992889
 20
88.48049863678204
 30
0.0
 10
145.4887857075545
 20
88.48030235512664
 30
0.0
 10
145.4720182276637
 20
88.47969560137034
 30
0.0
 10
145.4443239871867
 20
88.47237706171668
 30
0.0
 10
145.416779679593
 20
88.45585028961597
 30
0.0
 10
145.3978193901308
 20
88.43287789024698
 30
0.0
 10
145.3954125879501
 20
88.4154738853414
 30
0.0
 10
145.3942098992889
 20
88.40677703458806
 30
0.0
  0
LINE
  5
391
330
1F
100
AcDbEntity
  8
0
  6
Continuous
 62
     7
370
    25
100
AcDbLine
 10
145.3942098993
 20
88.3859988276
 30
0.0
 11
145.3942098993
 21
88.4067770346
 31
0.0
  0
ARC
  5
392
330
1F
100
AcDbEntity
  8
0
  6
Continuous
 62
     7
370
    25
100
AcDbCircle
 10
146.520247993
 20
88.5248463154
 30
0.0
 40
0.044756844984644
100
AcDbArc
 50
262.2466518527
 51
349.1851719209
  0
LINE
  5
393
330
1F
100
AcDbEntity
  8
0
  6
Continuous
 62
     7
370
    25
100
AcDbLine
 10
146.5642098993
 20
88.6188888258
 30
0.0
 11
146.5642098993
 21
88.5164483414
 31
0.0
  0
ARC
  5
394
330
1F
100
AcDbEntity
  8
0
  6
Continuous
 62
     7
370
    25
100
AcDbCircle
 10
145.400247993
 20
88.4511247132
 30
0.0
 40
0.044756844984777
100
AcDbArc
 50
262.2466518529
 51
349.1851719208
  0
LINE
  5
395
330
1F
100
AcDbEntity
  8
0
  6
Continuous
 62
     7
370
    25
100
AcDbLine
 10
145.2042098993
 20
88.3982296055
 30
0.0
 11
145.2042098993
 21
88.4427267392
 31
0.0
  0
LINE
  5
396
330
1F
100
AcDbEntity
  8
0
  6
Continuous
 62
     7
370
    25
100
AcDbLine
 10
145.4442098993
 20
88.4427267392
 30
0.0
 11
145.4442098993
 21
88.3982296055
 31
0.0
  0
LINE
  5
397
330
1F
100
AcDbEntity
  8
0
  6
Continuous
 62
     7
370
    25
100
AcDbLine
 10
145.4942098993
 20
89.5316817358
 30
0.0
 11
145.4942098993
 21
89.5256544811
 31
0.0
  0
LINE
  5
398
330
1F
100
AcDbEntity
  8
0
  6
Continuous
 62
     7
370
    25
100
AcDbLine
 10
145.2042098993
 20
89.3055196492
 30
0.0
 11
145.2042098993
 21
89.4215664742
 31
0.0
  0
LINE
  5
399
330
1F
100
AcDbEntity
  8
0
  6
Continuous
 62
     7
370
    25
100
AcDbLine
 10
146.5142098993
 20
85.945501508
 30
0.0
 11
146.5142098993
 21
86.0479419924
 31
0.0
  0
LINE
  5
39A
330
1F
100
AcDbEntity
  8
0
  6
Continuous
 62
     7
370
    25
100
AcDbLine
 10
146.5142098993
 20
86.0479419924
 30
0.0
 11
146.5142098993
 21
86.1284234477
 31
0.0
  0
ARC
  5
39B
330
1F
100
AcDbEntity
  8
0
  6
Continuous
 62
     7
370
    25
100
AcDbCircle
 10
146.5167945152
 20
86.0809897048
 30
0.0
 40
0.0475041072943794
100
AcDbArc
 50
3.5023392347
 51
93.1189038297
  0
ARC
  5
39C
330
1F
100
AcDbEntity
  8
0
  6
Continuous
 62
     7
370
    25
100
AcDbCircle
 10
146.520247993
 20
86.092289671
 30
0.0
 40
0.0447568449845947
100
AcDbArc
 50
262.2466518527
 51
349.1851719211
  0
LINE
  5
39D
330
1F
100
AcDbEntity
  8
0
  6
Continuous
 62
     7
370
    25
100
AcDbLine
 10
146.5642098993
 20
86.083891697
 30
0.0
 11
146.5642098993
 21
85.9814512126
 31
0.0
  0
ARC
  5
39E
330
1F
100
AcDbEntity
  8
0
  6
Continuous
 62
     7
370
    25
100
AcDbCircle
 10
146.520247993
 20
85.9898491866
 30
0.0
 40
0.0447568449846107
100
AcDbArc
 50
262.2466518527
 51
349.1851719209
  0
LINE
  5
39F
330
1F
100
AcDbEntity
  8
0
  6
Continuous
 62
     7
370
    25
100
AcDbLine
 10
146.5642098993
 20
86.6313028125
 30
0.0
 11
146.5642098993
 21
86.083891697
 31
0.0
  0
LINE
  5
3A0
330
1F
100
AcDbEntity
  8
0
  6
Continuous
 62
     7
370
    25
100
AcDbLine
 10
146.6348935018
 20
88.8318301358
 30
0.0
 11
146.7242098993
 21
88.4050532236
 31
0.0
  0
SPLINE
  5
3A1
330
1F
100
AcDbEntity
  8
0
  6
Continuous
 62
     7
370
    25
100
AcDbSpline
210
0.0
220
0.0
230
1.0
 70
     8
 71
     3
 72
     9
 73
     5
 74
     0
 42
0.000000001
 43
0.00000001
 40
0.0
 40
0.0
 40
0.0
 40
0.0
 40
0.0702005767034218
 40
1.0
 40
1.0
 40
1.0
 40
1.0
 10
146.7242098992889
 20
88.40505322362802
 30
0.0
 10
146.7241206760354
 20
88.39493608559684
 30
0.0
 10
146.7228496999593
 20
88.25081849417111
 30
0.0
 10
146.6772718035802
 20
88.10959025074172
 30
0.0
 10
146.6348935018119
 20
87.97827631144791
 30
0.0
  0
LINE
  5
3A2
330
1F
100
AcDbEntity
  8
0
  6
Continuous
 62
     7
370
    25
100
AcDbLine
 10
146.6348935018
 20
87.9782763114
 30
0.0
 11
145.7735262968
 21
87.9782763114
 31
0.0
  0
SPLINE
  5
3A3
330
1F
100
AcDbEntity
  8
0
  6
Continuous
 62
     7
370
    25
100
AcDbSpline
210
0.0
220
0.0
230
1.0
 70
     8
 71
     3
 72
     9
 73
     5
 74
     0
 42
0.000000001
 43
0.00000001
 40
0.0
 40
0.0
 40
0.0
 40
0.0
 40
0.0702005767034578
 40
1.0
 40
1.0
 40
1.0
 40
1.0
 10
145.6842098992889
 20
88.40505322362799
 30
0.0
 10
145.6842991225424
 20
88.39493608559681
 30
0.0
 10
145.6855700986185
 20
88.250818494171
 30
0.0
 10
145.7311479949976
 20
88.10959025074166
 30
0.0
 10
145.7735262967659
 20
87.97827631144791
 30
0.0
  0
LINE
  5
3A4
330
1F
100
AcDbEntity
  8
0
  6
Continuous
 62
     7
370
    25
100
AcDbLine
 10
145.6970587451
 20
88.4664483414
 30
0.0
 11
145.6842098993
 21
88.4050532236
 31
0.0
  0
LINE
  5
3A5
330
1F
100
AcDbEntity
  8
0
  6
Continuous
 62
     7
370
    25
100
AcDbLine
 10
146.6348935018
 20
88.8318301358
 30
0.0
 11
146.5642098993
 21
88.8318301358
 31
0.0
  0
SPLINE
  5
3A6
330
1F
100
AcDbEntity
  8
0
  6
Continuous
 62
     7
370
    25
100
AcDbSpline
210
0.0
220
0.0
230
1.0
 70
     8
 71
     3
 72
     9
 73
     5
 74
     0
 42
0.000000001
 43
0.00000001
 40
0.0
 40
0.0
 40
0.0
 40
0.0
 40
0.2686336050556321
 40
1.0
 40
1.0
 40
1.0
 40
1.0
 10
146.7242098992889
 20
87.42814448063088
 30
0.0
 10
146.722884108772
 20
87.47816685775278
 30
0.0
 10
146.7179487972847
 20
87.66437728035244
 30
0.0
 10
146.6699778445647
 20
87.84567861091544
 30
0.0
 10
146.6348935018118
 20
87.9782763114479
 30
0.0
  0
LINE
  5
3A7
330
1F
100
AcDbEntity
  8
0
  6
Continuous
 62
     7
370
    25
100
AcDbLine
 10
146.7242098993
 20
87.4281444806
 30
0.0
 11
146.7242098993
 21
88.4050532236
 31
0.0
  0
SPLINE
  5
3A8
330
1F
100
AcDbEntity
  8
0
  6
Continuous
 62
     7
370
    25
100
AcDbSpline
210
0.0
220
0.0
230
1.0
 70
     8
 71
     3
 72
     9
 73
     5
 74
     0
 42
0.000000001
 43
0.00000001
 40
0.0
 40
0.0
 40
0.0
 40
0.0
 40
0.2686336050555809
 40
1.0
 40
1.0
 40
1.0
 40
1.0
 10
145.6842098992889
 20
87.42814448063088
 30
0.0
 10
145.6855356898058
 20
87.47816685775277
 30
0.0
 10
145.6904710012931
 20
87.66437728035247
 30
0.0
 10
145.738441954013
 20
87.84567861091547
 30
0.0
 10
145.7735262967659
 20
87.9782763114479
 30
0.0
  0
SPLINE
  5
3A9
330
1F
100
AcDbEntity
  8
0
  6
Continuous
 62
     7
370
    25
100
AcDbSpline
210
0.0
220
0.0
230
1.0
 70
     8
 71
     3
 72
     9
 73
     5
 74
     0
 42
0.000000001
 43
0.00000001
 40
0.0
 40
0.0
 40
0.0
 40
0.0
 40
0.2575513451037745
 40
1.0
 40
1.0
 40
1.0
 40
1.0
 10
146.6348935018119
 20
86.87801264981387
 30
0.0
 10
146.6483765463668
 20
86.9241971728251
 30
0.0
 10
146.7007274457556
 20
87.10351878728844
 30
0.0
 10
146.7142041433142
 20
87.28982309670397
 30
0.0
 10
146.7242098992889
 20
87.42814448063088
 30
0.0
  0
LINE
  5
3AA
330
1F
100
AcDbEntity
  8
0
  6
Continuous
 62
     7
370
    25
100
AcDbLine
 10
146.6348935018
 20
86.8780126498
 30
0.0
 11
145.7735262968
 21
86.8780126498
 31
0.0
  0
SPLINE
  5
3AB
330
1F
100
AcDbEntity
  8
0
  6
Continuous
 62
     7
370
    25
100
AcDbSpline
210
0.0
220
0.0
230
1.0
 70
     8
 71
     3
 72
     9
 73
     5
 74
     0
 42
0.000000001
 43
0.00000001
 40
0.0
 40
0.0
 40
0.0
 40
0.0
 40
0.2575513451037206
 40
1.0
 40
1.0
 40
1.0
 40
1.0
 10
145.7735262967659
 20
86.87801264981387
 30
0.0
 10
145.7600432522109
 20
86.92419717282507
 30
0.0
 10
145.7076923528222
 20
87.10351878728842
 30
0.0
 10
145.6942156552636
 20
87.28982309670396
 30
0.0
 10
145.6842098992889
 20
87.42814448063088
 30
0.0
  0
LINE
  5
3AC
330
1F
100
AcDbEntity
  8
0
  6
Continuous
 62
     7
370
    25
100
AcDbLine
 10
145.7735262968
 20
86.8780126498
 30
0.0
 11
145.6842098993
 21
86.7546577312
 31
0.0
  0
LINE
  5
3AD
330
1F
100
AcDbEntity
  8
0
  6
Continuous
 62
     7
370
    25
100
AcDbLine
 10
146.6348935018
 20
86.8780126498
 30
0.0
 11
146.7242098993
 21
86.7546577312
 31
0.0
  0
LINE
  5
3AE
330
1F
100
AcDbEntity
  8
0
  6
Continuous
 62
     7
370
    25
100
AcDbLine
 10
146.7242098993
 20
87.4281444806
 30
0.0
 11
146.7242098993
 21
86.7546577312
 31
0.0
  0
LINE
  5
3AF
330
1F
100
AcDbEntity
  8
0
  6
Continuous
 62
     7
370
    25
100
AcDbLine
 10
146.694385883
 20
88.7550882307
 30
0.0
 11
146.6348935018
 21
88.8318301358
 31
0.0
  0
LINE
  5
3B0
330
1F
100
AcDbEntity
  8
0
  6
Continuous
 62
     7
370
    25
100
AcDbLine
 10
146.7242098993
 20
88.7315664742
 30
0.0
 11
146.7242098993
 21
88.4050532236
 31
0.0
  0
SPLINE
  5
3B1
330
1F
100
AcDbEntity
  8
0
  6
Continuous
 62
     7
370
    25
100
AcDbSpline
210
0.0
220
0.0
230
1.0
 70
     8
 71
     3
 72
     9
 73
     5
 74
     0
 42
0.000000001
 43
0.00000001
 40
0.0
 40
0.0
 40
0.0
 40
0.0
 40
0.0702005767034007
 40
1.0
 40
1.0
 40
1.0
 40
1.0
 10
146.7242098992889
 20
86.75465773117689
 30
0.0
 10
146.7241206760354
 20
86.7517334897218
 30
0.0
 10
146.7228496999593
 20
86.71007797074446
 30
0.0
 10
146.6772718035802
 20
86.66925758430766
 30
0.0
 10
146.6348935018119
 20
86.63130281253994
 30
0.0
  0
LINE
  5
3B2
330
1F
100
AcDbEntity
  8
0
  6
Continuous
 62
     7
370
    25
100
AcDbLine
 10
146.6348935018
 20
86.6313028125
 30
0.0
 11
145.7735262968
 21
86.6313028125
 31
0.0
  0
LINE
  5
3B3
330
1F
100
AcDbEntity
  8
0
  6
Continuous
 62
     7
370
    25
100
AcDbLine
 10
145.7140339155
 20
86.7080447177
 30
0.0
 11
145.7735262968
 21
86.6313028125
 31
0.0
  0
LINE
  5
3B4
330
1F
100
AcDbEntity
  8
0
  6
Continuous
 62
     7
370
    25
100
AcDbLine
 10
146.7242098993
 20
86.7546577312
 30
0.0
 11
146.7242098993
 21
86.7315664742
 31
0.0
  0
LINE
  5
3B5
330
1F
100
AcDbEntity
  8
0
  6
Continuous
 62
     7
370
    25
100
AcDbLine
 10
145.1148935018
 20
88.6530820829
 30
0.0
 11
145.2042098993
 21
88.1214114876
 31
0.0
  0
SPLINE
  5
3B6
330
1F
100
AcDbEntity
  8
0
  6
Continuous
 62
     7
370
    25
100
AcDbSpline
210
0.0
220
0.0
230
1.0
 70
     8
 71
     3
 72
     9
 73
     5
 74
     0
 42
0.000000001
 43
0.00000001
 40
0.0
 40
0.0
 40
0.0
 40
0.0
 40
0.0702005767034048
 40
1.0
 40
1.0
 40
1.0
 40
1.0
 10
145.2042098992889
 20
88.12141148762446
 30
0.0
 10
145.2041206760354
 20
88.10880774865562
 30
0.0
 10
145.2028496999593
 20
87.92926878244351
 30
0.0
 10
145.1572718035802
 20
87.753329311249
 30
0.0
 10
145.1148935018118
 20
87.5897408923972
 30
0.0
  0
LINE
  5
3B7
330
1F
100
AcDbEntity
  8
0
  6
Continuous
 62
     7
370
    25
100
AcDbLine
 10
145.1148935018
 20
87.5897408924
 30
0.0
 11
144.2535262968
 21
87.5897408924
 31
0.0
  0
SPLINE
  5
3B8
330
1F
100
AcDbEntity
  8
0
  6
Continuous
 62
     7
370
    25
100
AcDbSpline
210
0.0
220
0.0
230
1.0
 70
     8
 71
     3
 72
     9
 73
     5
 74
     0
 42
0.000000001
 43
0.00000001
 40
0.0
 40
0.0
 40
0.0
 40
0.0
 40
0.0702005767034449
 40
1.0
 40
1.0
 40
1.0
 40
1.0
 10
144.1642098992889
 20
88.12141148762443
 30
0.0
 10
144.1642991225424
 20
88.1088077486556
 30
0.0
 10
144.1655700986185
 20
87.92926878244356
 30
0.0
 10
144.2111479949976
 20
87.753329311249
 30
0.0
 10
144.2535262967659
 20
87.58974089239717
 30
0.0
  0
LINE
  5
3B9
330
1F
100
AcDbEntity
  8
0
  6
Continuous
 62
     7
370
    25
100
AcDbLine
 10
144.2535262968
 20
88.6530820829
 30
0.0
 11
144.1642098993
 21
88.1214114876
 31
0.0
  0
LINE
  5
3BA
330
1F
100
AcDbEntity
  8
0
  6
Continuous
 62
     7
370
    25
100
AcDbLine
 10
145.1148935018
 20
88.6530820829
 30
0.0
 11
144.2535262968
 21
88.6530820829
 31
0.0
  0
SPLINE
  5
3BB
330
1F
100
AcDbEntity
  8
0
  6
Continuous
 62
     7
370
    25
100
AcDbSpline
210
0.0
220
0.0
230
1.0
 70
     8
 71
     3
 72
     9
 73
     5
 74
     0
 42
0.000000001
 43
0.00000001
 40
0.0
 40
0.0
 40
0.0
 40
0.0
 40
0.268633605055637
 40
1.0
 40
1.0
 40
1.0
 40
1.0
 10
145.2042098992889
 20
87.12898308805838
 30
0.0
 10
145.202884108772
 20
87.17087886532371
 30
0.0
 10
145.1979487972847
 20
87.32683767493239
 30
0.0
 10
145.1499778445647
 20
87.47868492010964
 30
0.0
 10
145.1148935018118
 20
87.58974089239717
 30
0.0
  0
SPLINE
  5
3BC
330
1F
100
AcDbEntity
  8
0
  6
Continuous
 62
     7
370
    25
100
AcDbSpline
210
0.0
220
0.0
230
1.0
 70
     8
 71
     3
 72
     9
 73
     5
 74
     0
 42
0.000000001
 43
0.00000001
 40
0.0
 40
0.0
 40
0.0
 40
0.0
 40
0.2686336050555803
 40
1.0
 40
1.0
 40
1.0
 40
1.0
 10
144.1642098992889
 20
87.12898308805835
 30
0.0
 10
144.1655356898058
 20
87.17087886532371
 30
0.0
 10
144.170471001293
 20
87.3268376749323
 30
0.0
 10
144.218441954013
 20
87.4786849201096
 30
0.0
 10
144.2535262967659
 20
87.5897408923972
 30
0.0
  0
LINE
  5
3BD
330
1F
100
AcDbEntity
  8
0
  6
Continuous
 62
     7
370
    25
100
AcDbLine
 10
144.1642098993
 20
87.1289830881
 30
0.0
 11
144.1642098993
 21
88.1214114876
 31
0.0
  0
LINE
  5
3BE
330
1F
100
AcDbEntity
  8
0
  6
Continuous
 62
     7
370
    25
100
AcDbLine
 10
145.1599932997
 20
86.8330428951
 30
0.0
 11
145.2042098993
 21
87.1289830881
 31
0.0
  0
LINE
  5
3BF
330
1F
100
AcDbEntity
  8
0
  6
Continuous
 62
     7
370
    25
100
AcDbLine
 10
144.3242098993
 20
86.6682252837
 30
0.0
 11
144.2535262968
 21
86.6682252837
 31
0.0
  0
SPLINE
  5
3C0
330
1F
100
AcDbEntity
  8
0
  6
Continuous
 62
     7
370
    25
100
AcDbSpline
210
0.0
220
0.0
230
1.0
 70
     8
 71
     3
 72
     9
 73
     5
 74
     0
 42
0.000000001
 43
0.00000001
 40
0.0
 40
0.0
 40
0.0
 40
0.0
 40
0.257551345103726
 40
1.0
 40
1.0
 40
1.0
 40
1.0
 10
144.2535262967659
 20
86.66822528371956
 30
0.0
 10
144.240043252211
 20
86.70690670192704
 30
0.0
 10
144.1876923528221
 20
86.85709585427608
 30
0.0
 10
144.1742156552636
 20
87.01313329791509
 30
0.0
 10
144.1642098992889
 20
87.12898308805835
 30
0.0
  0
SPLINE
  5
3C1
330
1F
100
AcDbEntity
  8
0
  6
Continuous
 62
     7
370
    25
100
AcDbSpline
210
0.0
220
0.0
230
1.0
 70
     8
 71
     3
 72
     9
 73
     5
 74
     0
 42
0.000000001
 43
0.00000001
 40
0.0
 40
0.0
 40
0.0
 40
0.0
 40
0.0702005767033833
 40
1.0
 40
1.0
 40
1.0
 40
1.0
 10
144.1642098992889
 20
88.72399487374005
 30
0.0
 10
144.1642991225424
 20
88.72231382100942
 30
0.0
 10
144.1655700986184
 20
88.69836739763818
 30
0.0
 10
144.2111479949975
 20
88.67490106521015
 30
0.0
 10
144.2535262967659
 20
88.65308208285167
 30
0.0
  0
LINE
  5
3C2
330
1F
100
AcDbEntity
  8
0
  6
Continuous
 62
     7
370
    25
100
AcDbLine
 10
144.1642098993
 20
88.1214114876
 30
0.0
 11
144.1642098993
 21
88.7239948737
 31
0.0
  0
SPLINE
  5
3C3
330
1F
100
AcDbEntity
  8
0
  6
Continuous
 62
     7
370
    25
100
AcDbSpline
210
0.0
220
0.0
230
1.0
 70
     8
 71
     3
 72
     9
 73
     5
 74
     0
 42
0.000000001
 43
0.00000001
 40
0.0
 40
0.0
 40
0.0
 40
0.0
 40
0.0702005767034157
 40
1.0
 40
1.0
 40
1.0
 40
1.0
 10
145.2042098992889
 20
88.72399487374011
 30
0.0
 10
145.2041206760354
 20
88.72231382100944
 30
0.0
 10
145.2028496999593
 20
88.69836739763825
 30
0.0
 10
145.1572718035802
 20
88.67490106521016
 30
0.0
 10
145.1148935018118
 20
88.65308208285167
 30
0.0
  0
LINE
  5
3C4
330
1F
100
AcDbEntity
  8
0
  6
Continuous
 62
     7
370
    25
100
AcDbLine
 10
144.2535262968
 20
86.6682252837
 30
0.0
 11
144.1642098993
 21
86.7391380746
 31
0.0
  0
LINE
  5
3C5
330
1F
100
AcDbEntity
  8
0
  6
Continuous
 62
     7
370
    25
100
AcDbLine
 10
144.1642098993
 20
87.1289830881
 30
0.0
 11
144.1642098993
 21
86.7315966154
 31
0.0
  0
LINE
  5
3C6
330
1F
100
AcDbEntity
  8
0
  6
Continuous
 62
     7
370
    25
100
AcDbLine
 10
145.1148935018
 20
88.7949076646
 30
0.0
 11
145.2042098993
 21
88.7239948737
 31
0.0
  0
LINE
  5
3C7
330
1F
100
AcDbEntity
  8
0
  6
Continuous
 62
     7
370
    25
100
AcDbLine
 10
144.2535262968
 20
88.7949076646
 30
0.0
 11
144.1642098993
 21
88.7239948737
 31
0.0
  0
LINE
  5
3C8
330
1F
100
AcDbEntity
  8
0
  6
Continuous
 62
     7
370
    25
100
AcDbLine
 10
145.1148935018
 20
88.7949076646
 30
0.0
 11
144.2535262968
 21
88.7949076646
 31
0.0
  0
LINE
  5
3C9
330
1F
100
AcDbEntity
  8
0
  6
Continuous
 62
     7
370
    25
100
AcDbLine
 10
147.7248935018
 20
87.3507999364
 30
0.0
 11
147.7442098993
 21
87.2693005909
 31
0.0
  0
LINE
  5
3CA
330
1F
100
AcDbEntity
  8
0
  6
Continuous
 62
     7
370
    25
100
AcDbLine
 10
147.7442098993
 20
86.6732363617
 30
0.0
 11
147.7248935018
 21
86.5971161352
 31
0.0
  0
LINE
  5
3CB
330
1F
100
AcDbEntity
  8
0
  6
Continuous
 62
     7
370
    25
100
AcDbLine
 10
147.7248935018
 20
86.5971161352
 30
0.0
 11
146.8635262968
 21
86.5971161352
 31
0.0
  0
SPLINE
  5
3CC
330
1F
100
AcDbEntity
  8
0
  6
Continuous
 62
     7
370
    25
100
AcDbSpline
210
0.0
220
0.0
230
1.0
 70
     8
 71
     3
 72
     9
 73
     5
 74
     0
 42
0.000000001
 43
0.00000001
 40
0.0
 40
0.0
 40
0.0
 40
0.0
 40
0.0702005767034312
 40
1.0
 40
1.0
 40
1.0
 40
1.0
 10
146.7742098992889
 20
86.97395803581041
 30
0.0
 10
146.7742991225425
 20
86.96502465301629
 30
0.0
 10
146.7755700986185
 20
86.83776953327722
 30
0.0
 10
146.8211479949976
 20
86.71306569351471
 30
0.0
 10
146.863526296766
 20
86.59711613522066
 30
0.0
  0
LINE
  5
3CD
330
1F
100
AcDbEntity
  8
0
  6
Continuous
 62
     7
370
    25
100
AcDbLine
 10
146.8635262968
 20
87.3507999364
 30
0.0
 11
146.7742098993
 21
86.9739580358
 31
0.0
  0
LINE
  5
3CE
330
1F
100
AcDbEntity
  8
0
  6
Continuous
 62
     7
370
    25
100
AcDbLine
 10
147.7248935018
 20
87.3507999364
 30
0.0
 11
146.8635262968
 21
87.3507999364
 31
0.0
  0
SPLINE
  5
3CF
330
1F
100
AcDbEntity
  8
0
  6
Continuous
 62
     7
370
    25
100
AcDbSpline
210
0.0
220
0.0
230
1.0
 70
     8
 71
     3
 72
     9
 73
     5
 74
     0
 42
0.000000001
 43
0.00000001
 40
0.0
 40
0.0
 40
0.0
 40
0.0
 40
0.2575513451037166
 40
1.0
 40
1.0
 40
1.0
 40
1.0
 10
146.8635262967659
 20
87.3507999364002
 30
0.0
 10
146.850043252211
 20
87.39841947489029
 30
0.0
 10
146.7976923528221
 20
87.58331285399856
 30
0.0
 10
146.7842156552636
 20
87.77540588981783
 30
0.0
 10
146.7742098992889
 20
87.91802510587684
 30
0.0
  0
LINE
  5
3D0
330
1F
100
AcDbEntity
  8
0
  6
Continuous
 62
     7
370
    25
100
AcDbLine
 10
146.7742098993
 20
86.9739580358
 30
0.0
 11
146.7742098993
 21
87.9180251059
 31
0.0
  0
LINE
  5
3D1
330
1F
100
AcDbEntity
  8
0
  6
Continuous
 62
     7
370
    25
100
AcDbLine
 10
147.7248935018
 20
87.3507999364
 30
0.0
 11
147.7442098993
 21
87.4239106309
 31
0.0
  0
SPLINE
  5
3D2
330
1F
100
AcDbEntity
  8
0
  6
Continuous
 62
     7
370
    25
100
AcDbSpline
210
0.0
220
0.0
230
1.0
 70
     8
 71
     3
 72
     9
 73
     5
 74
     0
 42
0.000000001
 43
0.00000001
 40
0.0
 40
0.0
 40
0.0
 40
0.0
 40
0.2686336050555632
 40
1.0
 40
1.0
 40
1.0
 40
1.0
 10
146.7742098992889
 20
87.91802510587684
 30
0.0
 10
146.7755356898058
 20
87.96960174578591
 30
0.0
 10
146.7804710012931
 20
88.16159797759923
 30
0.0
 10
146.8284419540131
 20
88.34853258525902
 30
0.0
 10
146.8635262967659
 20
88.48525027535351
 30
0.0
  0
LINE
  5
3D3
330
1F
100
AcDbEntity
  8
0
  6
Continuous
 62
     7
370
    25
100
AcDbLine
 10
147.7248935018
 20
88.4852502754
 30
0.0
 11
146.8635262968
 21
88.4852502754
 31
0.0
  0
LINE
  5
3D4
330
1F
100
AcDbEntity
  8
0
  6
Continuous
 62
     7
370
    25
100
AcDbLine
 10
147.7442098993
 20
88.3882704871
 30
0.0
 11
147.7248935018
 21
88.4852502754
 31
0.0
  0
LINE
  5
3D5
330
1F
100
AcDbEntity
  8
0
  6
Continuous
 62
     7
370
    25
100
AcDbLine
 10
147.7442098993
 20
88.5237067674
 30
0.0
 11
147.7248935018
 21
88.4852502754
 31
0.0
  0
SPLINE
  5
3D6
330
1F
100
AcDbEntity
  8
0
  6
Continuous
 62
     7
370
    25
100
AcDbSpline
210
0.0
220
0.0
230
1.0
 70
     8
 71
     3
 72
     9
 73
     5
 74
     0
 42
0.000000001
 43
0.00000001
 40
0.0
 40
0.0
 40
0.0
 40
0.0
 40
0.0702005767034484
 40
1.0
 40
1.0
 40
1.0
 40
1.0
 10
146.7742098992889
 20
88.67563354424044
 30
0.0
 10
146.7742991225424
 20
88.6711203342818
 30
0.0
 10
146.7755700986185
 20
88.60683012228401
 30
0.0
 10
146.8211479949976
 20
88.54382883548561
 30
0.0
 10
146.8635262967659
 20
88.48525027535351
 30
0.0
  0
LINE
  5
3D7
330
1F
100
AcDbEntity
  8
0
  6
Continuous
 62
     7
370
    25
100
AcDbLine
 10
146.7742098993
 20
87.9180251059
 30
0.0
 11
146.7742098993
 21
88.6756335442
 31
0.0
  0
LINE
  5
3D8
330
1F
100
AcDbEntity
  8
0
  6
Continuous
 62
     7
370
    25
100
AcDbLine
 10
146.8635262968
 20
88.8660168131
 30
0.0
 11
146.7742098993
 21
88.6756335442
 31
0.0
  0
LINE
  5
3D9
330
1F
100
AcDbEntity
  8
0
  6
Continuous
 62
     7
370
    25
100
AcDbLine
 10
147.7248935018
 20
88.8660168131
 30
0.0
 11
146.8635262968
 21
88.8660168131
 31
0.0
  0
LINE
  5
3DA
330
1F
100
AcDbEntity
  8
0
  6
Continuous
 62
     7
370
    25
100
AcDbLine
 10
146.8635262968
 20
86.5971161352
 30
0.0
 11
146.8283373133
 21
86.6721235683
 31
0.0
  0
LINE
  5
3DB
330
1F
100
AcDbEntity
  8
0
  6
Continuous
 62
     7
370
    25
100
AcDbLine
 10
146.7742098993
 20
86.7315664742
 30
0.0
 11
146.7742098993
 21
86.9739580358
 31
0.0
  0
LINE
  5
3DC
330
1F
100
AcDbEntity
  8
0
  6
Continuous
 62
     7
370
    25
100
AcDbLine
 10
146.7742098993
 20
88.6756335442
 30
0.0
 11
146.7742098993
 21
88.7315664742
 31
0.0
  0
LINE
  5
3DD
330
1F
100
AcDbEntity
  8
0
  6
Continuous
 62
     7
370
    25
100
AcDbLine
 10
295.4739464395
 20
183.8312183707
 30
0.0
 11
295.4739464395
 21
186.1919145774
 31
0.0
  0
LINE
  5
3DE
330
1F
100
AcDbEntity
  8
0
  6
Continuous
 62
     7
370
    25
100
AcDbLine
 10
295.3842098993
 20
183.8615666126
 30
0.0
 11
295.3842098993
 21
186.1615664741
 31
0.0
  0
SPLINE
  5
3DF
330
1F
100
AcDbEntity
  8
0
  6
Continuous
 62
     7
370
    25
100
AcDbSpline
210
0.0
220
0.0
230
1.0
 70
     8
 71
     3
 72
    13
 73
     9
 74
     0
 42
0.000000001
 43
0.00000001
 40
0.0
 40
0.0
 40
0.0
 40
0.0
 40
0.0290808782031623
 40
0.3073267123764807
 40
0.4998323521858934
 40
0.5625086128157905
 40
0.815909971072703
 40
1.0
 40
1.0
 40
1.0
 40
1.0
 10
295.5842098992894
 20
183.9884327956254
 30
0.0
 10
295.595527825414
 20
184.0060015084576
 30
0.0
 10
295.7151356654015
 20
184.1916676605479
 30
0.0
 10
295.8510914122236
 20
184.5338992455032
 30
0.0
 10
295.885939232659
 20
184.9184075449548
 30
0.0
 10
295.8758762400915
 20
185.2835175508757
 30
0.0
 10
295.8066142743917
 20
185.6452754645181
 30
0.0
 10
295.650078065203
 20
185.9193665852275
 30
0.0
 10
295.5842098992874
 20
186.0347001525117
 30
0.0
  0
LINE
  5
3E0
330
1F
100
AcDbEntity
  8
0
  6
Continuous
 62
     7
370
    25
100
AcDbLine
 10
295.5842098993
 20
183.9795647667
 30
0.0
 11
295.5842098993
 21
183.9884327956
 31
0.0
  0
LINE
  5
3E1
330
1F
100
AcDbEntity
  8
0
  6
Continuous
 62
     7
370
    25
100
AcDbLine
 10
295.5842098993
 20
186.0347001525
 30
0.0
 11
295.5842098993
 21
186.0435681814
 31
0.0
  0
LINE
  5
3E2
330
1F
100
AcDbEntity
  8
0
  6
Continuous
 62
     7
370
    25
100
AcDbLine
 10
295.4739464395
 20
165.9612183708
 30
0.0
 11
295.4739464395
 21
168.3219145775
 31
0.0
  0
SPLINE
  5
3E3
330
1F
100
AcDbEntity
  8
0
  6
Continuous
 62
     7
370
    25
100
AcDbSpline
210
0.0
220
0.0
230
1.0
 70
     8
 71
     3
 72
    13
 73
     9
 74
     0
 42
0.000000001
 43
0.00000001
 40
0.0
 40
0.0
 40
0.0
 40
0.0
 40
0.0290808782031622
 40
0.3073267123764797
 40
0.4998323521858924
 40
0.5625086128157897
 40
0.8159099710727037
 40
1.0
 40
1.0
 40
1.0
 40
1.0
 10
295.5842098992894
 20
166.1184327957132
 30
0.0
 10
295.5955278254141
 20
166.1360015085454
 30
0.0
 10
295.7151356654016
 20
166.3216676606357
 30
0.0
 10
295.8510914122236
 20
166.663899245591
 30
0.0
 10
295.885939232659
 20
167.0484075450426
 30
0.0
 10
295.8758762400915
 20
167.4135175509635
 30
0.0
 10
295.8066142743917
 20
167.7752754646059
 30
0.0
 10
295.650078065203
 20
168.0493665853152
 30
0.0
 10
295.5842098992874
 20
168.1647001525995
 30
0.0
  0
LINE
  5
3E4
330
1F
100
AcDbEntity
  8
0
  6
Continuous
 62
     7
370
    25
100
AcDbLine
 10
295.5842098993
 20
166.1095647668
 30
0.0
 11
295.5842098993
 21
166.1184327957
 31
0.0
  0
LINE
  5
3E5
330
1F
100
AcDbEntity
  8
0
  6
Continuous
 62
     7
370
    25
100
AcDbLine
 10
295.5842098993
 20
168.1647001526
 30
0.0
 11
295.5842098993
 21
168.1735681815
 31
0.0
  0
LINE
  5
3E6
330
1F
100
AcDbEntity
  8
0
  6
Continuous
 62
     7
370
    25
100
AcDbLine
 10
295.4739464395
 20
160.9612183708
 30
0.0
 11
295.4739464395
 21
163.3219145775
 31
0.0
  0
SPLINE
  5
3E7
330
1F
100
AcDbEntity
  8
0
  6
Continuous
 62
     7
370
    25
100
AcDbSpline
210
0.0
220
0.0
230
1.0
 70
     8
 71
     3
 72
    13
 73
     9
 74
     0
 42
0.000000001
 43
0.00000001
 40
0.0
 40
0.0
 40
0.0
 40
0.0
 40
0.0290808782031623
 40
0.3073267123764788
 40
0.4998323521858918
 40
0.562508612815789
 40
0.8159099710727034
 40
1.0
 40
1.0
 40
1.0
 40
1.0
 10
295.5842098992895
 20
161.1184327957145
 30
0.0
 10
295.5955278254141
 20
161.1360015085466
 30
0.0
 10
295.7151356654015
 20
161.321667660637
 30
0.0
 10
295.8510914122237
 20
161.6638992455922
 30
0.0
 10
295.8859392326591
 20
162.0484075450438
 30
0.0
 10
295.8758762400915
 20
162.4135175509647
 30
0.0
 10
295.8066142743918
 20
162.7752754646071
 30
0.0
 10
295.6500780652031
 20
163.0493665853165
 30
0.0
 10
295.5842098992875
 20
163.1647001526007
 30
0.0
  0
LINE
  5
3E8
330
1F
100
AcDbEntity
  8
0
  6
Continuous
 62
     7
370
    25
100
AcDbLine
 10
295.5842098993
 20
161.1095647668
 30
0.0
 11
295.5842098993
 21
161.1184327957
 31
0.0
  0
LINE
  5
3E9
330
1F
100
AcDbEntity
  8
0
  6
Continuous
 62
     7
370
    25
100
AcDbLine
 10
295.5842098993
 20
163.1647001526
 30
0.0
 11
295.5842098993
 21
163.1735681815
 31
0.0
  0
LINE
  5
3EA
330
1F
100
AcDbEntity
  8
0
  6
Continuous
 62
     7
370
    25
100
AcDbLine
 10
295.4739464395
 20
80.9512183708
 30
0.0
 11
295.4739464395
 21
83.3119145775
 31
0.0
  0
SPLINE
  5
3EB
330
1F
100
AcDbEntity
  8
0
  6
Continuous
 62
     7
370
    25
100
AcDbSpline
210
0.0
220
0.0
230
1.0
 70
     8
 71
     3
 72
    13
 73
     9
 74
     0
 42
0.000000001
 43
0.00000001
 40
0.0
 40
0.0
 40
0.0
 40
0.0
 40
0.0290808782031622
 40
0.3073267123764802
 40
0.4998323521858924
 40
0.5625086128157895
 40
0.8159099710727029
 40
1.0
 40
1.0
 40
1.0
 40
1.0
 10
295.5842098992901
 20
81.10843279570634
 30
0.0
 10
295.5955278254148
 20
81.12600150853847
 30
0.0
 10
295.7151356654023
 20
81.31166766062874
 30
0.0
 10
295.8510914122243
 20
81.65389924558418
 30
0.0
 10
295.8859392326597
 20
82.0384075450357
 30
0.0
 10
295.8758762400922
 20
82.40351755095658
 30
0.0
 10
295.8066142743925
 20
82.76527546459904
 30
0.0
 10
295.6500780652037
 20
83.03936658530834
 30
0.0
 10
295.5842098992881
 20
83.1547001525926
 30
0.0
  0
LINE
  5
3EC
330
1F
100
AcDbEntity
  8
0
  6
Continuous
 62
     7
370
    25
100
AcDbLine
 10
295.5842098993
 20
81.0995647668
 30
0.0
 11
295.5842098993
 21
81.1084327957
 31
0.0
  0
LINE
  5
3ED
330
1F
100
AcDbEntity
  8
0
  6
Continuous
 62
     7
370
    25
100
AcDbLine
 10
295.5842098993
 20
83.1547001526
 30
0.0
 11
295.5842098993
 21
83.1635681815
 31
0.0
  0
LINE
  5
3EE
330
1F
100
AcDbEntity
  8
0
  6
Continuous
 62
     7
370
    25
100
AcDbLine
 10
295.4739464395
 20
85.9512183708
 30
0.0
 11
295.4739464395
 21
88.3119145775
 31
0.0
  0
SPLINE
  5
3EF
330
1F
100
AcDbEntity
  8
0
  6
Continuous
 62
     7
370
    25
100
AcDbSpline
210
0.0
220
0.0
230
1.0
 70
     8
 71
     3
 72
    13
 73
     9
 74
     0
 42
0.000000001
 43
0.00000001
 40
0.0
 40
0.0
 40
0.0
 40
0.0
 40
0.0290808782031623
 40
0.307326712376472
 40
0.4998323521858902
 40
0.5625086128157876
 40
0.8159099710727021
 40
1.0
 40
1.0
 40
1.0
 40
1.0
 10
295.5842098992901
 20
86.10843279570634
 30
0.0
 10
295.5955278254148
 20
86.12600150853848
 30
0.0
 10
295.7151356654022
 20
86.31166766062877
 30
0.0
 10
295.8510914122243
 20
86.65389924558418
 30
0.0
 10
295.8859392326597
 20
87.0384075450357
 30
0.0
 10
295.8758762400922
 20
87.40351755095658
 30
0.0
 10
295.8066142743924
 20
87.76527546459904
 30
0.0
 10
295.6500780652037
 20
88.03936658530837
 30
0.0
 10
295.584209899288
 20
88.15470015259261
 30
0.0
  0
LINE
  5
3F0
330
1F
100
AcDbEntity
  8
0
  6
Continuous
 62
     7
370
    25
100
AcDbLine
 10
295.5842098993
 20
86.0995647668
 30
0.0
 11
295.5842098993
 21
86.1084327957
 31
0.0
  0
LINE
  5
3F1
330
1F
100
AcDbEntity
  8
0
  6
Continuous
 62
     7
370
    25
100
AcDbLine
 10
295.5842098993
 20
88.1547001526
 30
0.0
 11
295.5842098993
 21
88.1635681815
 31
0.0
  0
LINE
  5
3F2
330
1F
100
AcDbEntity
  8
0
  6
Continuous
 62
     7
370
    25
100
AcDbLine
 10
158.8339464395
 20
222.2715664742
 30
0.0
 11
158.8339464395
 21
222.4519145775
 31
0.0
  0
LINE
  5
3F3
330
1F
100
AcDbEntity
  8
0
  6
Continuous
 62
     7
370
    25
100
AcDbLine
 10
158.9442098993
 20
222.2947001526
 30
0.0
 11
158.9442098993
 21
222.3035681815
 31
0.0
  0
LINE
  5
3F4
330
1F
100
AcDbEntity
  8
0
  6
Continuous
 62
     7
370
    25
100
AcDbLine
 10
295.4739464395
 20
174.7312183708
 30
0.0
 11
295.4739464395
 21
177.0919145775
 31
0.0
  0
LINE
  5
3F5
330
1F
100
AcDbEntity
  8
0
  6
Continuous
 62
     7
370
    25
100
AcDbLine
 10
295.3842098993
 20
174.7615666127
 30
0.0
 11
295.3842098993
 21
177.0615664742
 31
0.0
  0
SPLINE
  5
3F6
330
1F
100
AcDbEntity
  8
0
  6
Continuous
 62
     7
370
    25
100
AcDbSpline
210
0.0
220
0.0
230
1.0
 70
     8
 71
     3
 72
    13
 73
     9
 74
     0
 42
0.000000001
 43
0.00000001
 40
0.0
 40
0.0
 40
0.0
 40
0.0
 40
0.0290808782031628
 40
0.3073267123764796
 40
0.4998323521858924
 40
0.5625086128157896
 40
0.8159099710727037
 40
1.0
 40
1.0
 40
1.0
 40
1.0
 10
295.5842098992894
 20
174.8884327957305
 30
0.0
 10
295.595527825414
 20
174.9060015085626
 30
0.0
 10
295.7151356654015
 20
175.0916676606529
 30
0.0
 10
295.8510914122235
 20
175.4338992456083
 30
0.0
 10
295.885939232659
 20
175.8184075450598
 30
0.0
 10
295.8758762400914
 20
176.1835175509807
 30
0.0
 10
295.8066142743917
 20
176.5452754646232
 30
0.0
 10
295.650078065203
 20
176.8193665853325
 30
0.0
 10
295.5842098992874
 20
176.9347001526167
 30
0.0
  0
LINE
  5
3F7
330
1F
100
AcDbEntity
  8
0
  6
Continuous
 62
     7
370
    25
100
AcDbLine
 10
295.5842098993
 20
174.8795647668
 30
0.0
 11
295.5842098993
 21
174.8884327957
 31
0.0
  0
LINE
  5
3F8
330
1F
100
AcDbEntity
  8
0
  6
Continuous
 62
     7
370
    25
100
AcDbLine
 10
295.5842098993
 20
176.9347001526
 30
0.0
 11
295.5842098993
 21
176.9435681815
 31
0.0
  0
LINE
  5
3F9
330
1F
100
AcDbEntity
  8
0
  6
Continuous
 62
     7
370
    25
100
AcDbLine
 10
297.1524637925
 20
203.4712341157
 30
0.0
 11
296.8372664582
 21
204.4413117623
 31
0.0
  0
LINE
  5
3FA
330
1F
100
AcDbEntity
  8
0
  6
Continuous
 62
     7
370
    25
100
AcDbLine
 10
297.5112552094
 20
203.6614148696
 30
0.0
 11
297.1308326028
 21
203.5378080718
 31
0.0
  0
LINE
  5
3FB
330
1F
100
AcDbEntity
  8
0
  6
Continuous
 62
     7
370
    25
100
AcDbLine
 10
296.87782713
 20
203.1191336987
 30
0.0
 11
297.2888197325
 21
201.854228532
 31
0.0
  0
LINE
  5
3FC
330
1F
100
AcDbEntity
  8
0
  6
Continuous
 62
     7
370
    25
100
AcDbLine
 10
296.4668345275
 20
204.3840388654
 30
0.0
 11
296.87782713
 21
203.1191336987
 31
0.0
  0
LINE
  5
3FD
330
1F
100
AcDbEntity
  8
0
  6
Continuous
 62
     7
370
    25
100
AcDbLine
 10
296.2120875686
 20
202.9028218026
 30
0.0
 11
296.6941540798
 21
201.4191736372
 31
0.0
  0
LINE
  5
3FE
330
1F
100
AcDbEntity
  8
0
  6
Continuous
 62
     7
370
    25
100
AcDbLine
 10
295.7300210574
 20
204.3864699681
 30
0.0
 11
296.2120875686
 21
202.9028218026
 31
0.0
  0
LINE
  5
3FF
330
1F
100
AcDbEntity
  8
0
  6
Continuous
 62
     8
370
    25
100
AcDbLine
 10
304.4258893804
 20
201.4151469836
 30
0.0
 11
304.2129965771
 21
202.0703636596
 31
0.0
  0
LINE
  5
400
330
1F
100
AcDbEntity
  8
0
  6
Continuous
 62
     8
370
    25
100
AcDbLine
 10
297.5567790671
 20
203.5213068419
 30
0.0
 11
297.1768138948
 21
203.3962922065
 31
0.0
  0
LINE
  5
401
330
1F
100
AcDbEntity
  8
0
  6
Continuous
 62
     8
370
    25
100
AcDbLine
 10
297.6564931967
 20
203.2144183069
 30
0.0
 11
297.2760705902
 21
203.0908115092
 31
0.0
  0
LINE
  5
402
330
1F
100
AcDbEntity
  8
0
  6
Continuous
 62
     8
370
    25
100
AcDbLine
 10
297.9807117164
 20
202.2165763066
 30
0.0
 11
297.5988017716
 21
202.0975470654
 31
0.0
  0
LINE
  5
403
330
1F
100
AcDbEntity
  8
0
  6
Continuous
 62
     8
370
    25
100
AcDbLine
 10
297.9413923578
 20
202.3375888491
 30
0.0
 11
297.5620485336
 21
202.2106619007
 31
0.0
  0
LINE
  5
404
330
1F
100
AcDbEntity
  8
0
  6
Continuous
 62
     8
370
    25
100
AcDbLine
 10
298.0461633698
 20
202.0151368303
 30
0.0
 11
297.6639531684
 21
201.8970316838
 31
0.0
  0
LINE
  5
405
330
1F
100
AcDbEntity
  8
0
  6
Continuous
 62
     8
370
    25
100
AcDbLine
 10
294.6642098993
 20
186.6715664741
 30
0.0
 11
294.9642098993
 21
186.6715664741
 31
0.0
  0
LINE
  5
406
330
1F
100
AcDbEntity
  8
0
  6
Continuous
 62
     8
370
    25
100
AcDbLine
 10
293.6142098993
 20
186.5915664742
 30
0.0
 11
293.6142098993
 21
186.7915664742
 31
0.0
  0
LINE
  5
407
330
1F
100
AcDbEntity
  8
0
  6
Continuous
 62
     8
370
    25
100
AcDbLine
 10
147.9242098993
 20
222.0315664742
 30
0.0
 11
147.9783520349
 21
222.0315664742
 31
0.0
  0
LINE
  5
408
330
1F
100
AcDbEntity
  8
0
  6
Continuous
 62
     8
370
    25
100
AcDbLine
 10
293.3027016766
 20
211.2097772702
 30
0.0
 11
293.216943066
 21
211.1819126085
 31
0.0
  0
LINE
  5
409
330
1F
100
AcDbEntity
  8
0
  6
Continuous
 62
     8
370
    25
100
AcDbLine
 10
295.0508975007
 20
212.2583012128
 30
0.0
 11
295.0590325433
 21
212.2400296079
 31
0.0
  0
LINE
  5
40A
330
1F
100
AcDbEntity
  8
0
  6
Continuous
 62
     8
370
    25
100
AcDbLine
 10
293.4387816449
 20
211.5154178832
 30
0.0
 11
293.4231465221
 21
211.550534944
 31
0.0
  0
LINE
  5
40B
330
1F
100
AcDbEntity
  8
0
  6
Continuous
 62
     8
370
    25
100
AcDbLine
 10
293.3728589926
 20
211.2308108453
 30
0.0
 11
293.2908838917
 21
211.2725792455
 31
0.0
  0
LINE
  5
40C
330
1F
100
AcDbEntity
  8
0
  6
Continuous
 62
     8
370
    25
100
AcDbLine
 10
294.6095764649
 20
207.4303353474
 30
0.0
 11
294.8425853114
 21
207.506044511
 31
0.0
  0
LINE
  5
40D
330
1F
100
AcDbEntity
  8
0
  6
Continuous
 62
     8
370
    25
100
AcDbLine
 10
298.07147633
 20
196.7763503388
 30
0.0
 11
298.3042949652
 21
196.851997699
 31
0.0
  0
LINE
  5
40E
330
1F
100
AcDbEntity
  8
0
  6
Continuous
 62
     8
370
    25
100
AcDbLine
 10
142.7154593989
 20
180.9065664742
 30
0.0
 11
142.7154593989
 21
174.1565664742
 31
0.0
  0
LINE
  5
40F
330
1F
100
AcDbEntity
  8
0
  6
Continuous
 62
     8
370
    25
100
AcDbLine
 10
148.6342098993
 20
77.6415664742
 30
0.0
 11
156.2640175204
 21
77.6415664742
 31
0.0
  0
LINE
  5
410
330
1F
100
AcDbEntity
  8
0
  6
Continuous
 62
     8
370
    25
100
AcDbLine
 10
293.2160569575
 20
210.9500848324
 30
0.0
 11
293.1234748405
 21
210.920003079
 31
0.0
  0
LINE
  5
411
330
1F
100
AcDbEntity
  8
0
  6
Continuous
 62
     8
370
    25
100
AcDbLine
 10
293.0283691889
 20
211.0864479783
 30
0.0
 11
293.0283691889
 21
210.9891013796
 31
0.0
  0
LINE
  5
412
330
1F
100
AcDbEntity
  8
0
  6
Continuous
 62
     8
370
    25
100
AcDbLine
 10
302.7644797132
 20
141.0573830001
 30
0.0
 11
303.4588849885
 21
141.0573830001
 31
0.0
  0
LINE
  5
413
330
1F
100
AcDbEntity
  8
0
  6
Continuous
 62
     8
370
    25
100
AcDbLine
 10
303.4588849885
 20
145.2573830001
 30
0.0
 11
302.7644797132
 21
145.2573830001
 31
0.0
  0
LINE
  5
414
330
1F
100
AcDbEntity
  8
0
  6
Continuous
 62
     8
370
    25
100
AcDbLine
 10
295.417470775
 20
148.9073830001
 30
0.0
 11
295.3842098993
 21
148.9073830001
 31
0.0
  0
LINE
  5
415
330
1F
100
AcDbEntity
  8
0
  6
Continuous
 62
     8
370
    25
100
AcDbLine
 10
285.3842098993
 20
44.5915664742
 30
0.0
 11
273.9842098993
 21
44.5915664742
 31
0.0
  0
LINE
  5
416
330
1F
100
AcDbEntity
  8
0
  6
Continuous
 62
     8
370
    25
100
AcDbLine
 10
168.3842098993
 20
44.5915664742
 30
0.0
 11
156.9842098993
 21
44.5915664742
 31
0.0
  0
LINE
  5
417
330
1F
100
AcDbEntity
  8
0
  6
Continuous
 62
     8
370
    25
100
AcDbLine
 10
286.0642098993
 20
77.4915664742
 30
0.0
 11
273.3042098993
 21
77.4915664742
 31
0.0
  0
LINE
  5
418
330
1F
100
AcDbEntity
  8
0
  6
Continuous
 62
     8
370
    25
100
AcDbLine
 10
286.0514272539
 20
60.0435870184
 30
0.0
 11
273.3169925447
 21
60.0435870184
 31
0.0
  0
LINE
  5
419
330
1F
100
AcDbEntity
  8
0
  6
Continuous
 62
     8
370
    25
100
AcDbLine
 10
286.0642098993
 20
60.1980796633
 30
0.0
 11
273.3042098993
 21
60.1980796633
 31
0.0
  0
LINE
  5
41A
330
1F
100
AcDbEntity
  8
0
  6
Continuous
 62
     8
370
    25
100
AcDbLine
 10
169.0642098993
 20
77.4915664742
 30
0.0
 11
156.3042098993
 21
77.4915664742
 31
0.0
  0
LINE
  5
41B
330
1F
100
AcDbEntity
  8
0
  6
Continuous
 62
     8
370
    25
100
AcDbLine
 10
169.0514272539
 20
60.0435870184
 30
0.0
 11
156.3169925447
 21
60.0435870184
 31
0.0
  0
LINE
  5
41C
330
1F
100
AcDbEntity
  8
0
  6
Continuous
 62
     8
370
    25
100
AcDbLine
 10
169.0642098993
 20
60.1980796633
 30
0.0
 11
156.3042098993
 21
60.1980796633
 31
0.0
  0
LINE
  5
41D
330
1F
100
AcDbEntity
  8
0
  6
Continuous
 62
     8
370
    25
100
AcDbLine
 10
145.6342098993
 20
86.9191410402
 30
0.0
 11
145.6342098993
 21
88.4664483414
 31
0.0
  0
LINE
  5
41E
330
1F
100
AcDbEntity
  8
0
  6
Continuous
 62
     8
370
    25
100
AcDbLine
 10
145.4942098993
 20
88.4664483414
 30
0.0
 11
145.4942098993
 21
86.9191410402
 31
0.0
  0
LINE
  5
41F
330
1F
100
AcDbEntity
  8
0
  6
Continuous
 62
     8
370
    25
100
AcDbLine
 10
145.3942098993
 20
86.8330426248
 30
0.0
 11
145.3942098993
 21
86.8153360919
 31
0.0
  0
LINE
  5
420
330
1F
100
AcDbEntity
  8
0
  6
Continuous
 62
     8
370
    25
100
AcDbLine
 10
144.3742098993
 20
86.8330428951
 30
0.0
 11
144.3742098993
 21
86.8153360919
 31
0.0
  0
LINE
  5
421
330
1F
100
AcDbEntity
  8
0
  6
Continuous
 62
     8
370
    25
100
AcDbLine
 10
144.3742098993
 20
85.8454786522
 30
0.0
 11
144.3742098993
 21
85.8493457923
 31
0.0
  0
LINE
  5
422
330
1F
100
AcDbEntity
  8
0
  6
Continuous
 62
     8
370
    25
100
AcDbLine
 10
144.3742098993
 20
89.4874199726
 30
0.0
 11
145.3341741099
 21
89.4874199726
 31
0.0
  0
SPLINE
  5
423
330
1F
100
AcDbEntity
  8
0
  6
Continuous
 62
     8
370
    25
100
AcDbSpline
210
0.0
220
0.0
230
1.0
 70
     8
 71
     3
 72
    10
 73
     6
 74
     0
 42
0.000000001
 43
0.00000001
 40
0.0
 40
0.0
 40
0.0
 40
0.0
 40
0.2513409248167214
 40
0.6255486812593011
 40
0.9999999999999999
 40
0.9999999999999999
 40
0.9999999999999999
 40
0.9999999999999999
 10
145.5738197590117
 20
89.53168173579313
 30
0.0
 10
145.5627814641234
 20
89.5420131348392
 30
0.0
 10
145.5353088556904
 20
89.56772638887284
 30
0.0
 10
145.471846161417
 20
89.59373026574774
 30
0.0
 10
145.4200942655036
 20
89.59787463445751
 30
0.0
 10
145.3942098992889
 20
89.59994749295902
 30
0.0
  0
LINE
  5
424
330
1F
100
AcDbEntity
  8
0
  6
Continuous
 62
     8
370
    25
100
AcDbLine
 10
145.3942098993
 20
89.599947493
 30
0.0
 11
145.3942098993
 21
89.6176542962
 31
0.0
  0
LINE
  5
425
330
1F
100
AcDbEntity
  8
0
  6
Continuous
 62
     8
370
    25
100
AcDbLine
 10
145.2042098993
 20
89.408544065
 30
0.0
 11
144.3742098993
 21
89.408544065
 31
0.0
  0
LINE
  5
426
330
1F
100
AcDbEntity
  8
0
  6
Continuous
 62
     8
370
    25
100
AcDbLine
 10
144.3742098993
 20
89.408544065
 30
0.0
 11
144.3742098993
 21
88.7949076646
 31
0.0
  0
LINE
  5
427
330
1F
100
AcDbEntity
  8
0
  6
Continuous
 62
     8
370
    25
100
AcDbLine
 10
144.3742098993
 20
89.599947493
 30
0.0
 11
144.3742098993
 21
89.6176542962
 31
0.0
  0
LINE
  5
428
330
1F
100
AcDbEntity
  8
0
  6
Continuous
 62
     8
370
    25
100
AcDbLine
 10
145.2542098993
 20
88.3859988276
 30
0.0
 11
145.2542098993
 21
86.8330428951
 31
0.0
  0
LINE
  5
429
330
1F
100
AcDbEntity
  8
0
  6
Continuous
 62
     8
370
    25
100
AcDbLine
 10
145.3942098993
 20
86.8146998161
 30
0.0
 11
145.3942098993
 21
88.3859988276
 31
0.0
  0
LINE
  5
42A
330
1F
100
AcDbEntity
  8
0
  6
Continuous
 62
     8
370
    25
100
AcDbLine
 10
145.4942098993
 20
88.4664512495
 30
0.0
 11
145.4942098993
 21
88.4804986368
 31
0.0
  0
LINE
  5
42B
330
1F
100
AcDbEntity
  8
0
  6
Continuous
 62
     8
370
    25
100
AcDbLine
 10
146.5142098993
 20
88.4664483414
 30
0.0
 11
146.5142098993
 21
88.4804986368
 31
0.0
  0
LINE
  5
42C
330
1F
100
AcDbEntity
  8
0
  6
Continuous
 62
     8
370
    25
100
AcDbLine
 10
146.5142098993
 20
89.5316817358
 30
0.0
 11
146.5142098993
 21
89.5256544811
 31
0.0
  0
LINE
  5
42D
330
1F
100
AcDbEntity
  8
0
  6
Continuous
 62
     8
370
    25
100
AcDbLine
 10
146.5142098993
 20
86.0479419924
 30
0.0
 11
145.6842098993
 21
86.0479419924
 31
0.0
  0
LINE
  5
42E
330
1F
100
AcDbEntity
  8
0
  6
Continuous
 62
     8
370
    25
100
AcDbLine
 10
145.6248482025
 20
85.945501508
 30
0.0
 11
146.5142098993
 21
85.945501508
 31
0.0
  0
LINE
  5
42F
330
1F
100
AcDbEntity
  8
0
  6
Continuous
 62
     8
370
    25
100
AcDbLine
 10
145.6842098993
 20
86.1284234477
 30
0.0
 11
146.5142098993
 21
86.1284234477
 31
0.0
  0
LINE
  5
430
330
1F
100
AcDbEntity
  8
0
  6
Continuous
 62
     8
370
    25
100
AcDbLine
 10
146.5142098993
 20
86.1284234477
 30
0.0
 11
146.5142098993
 21
86.6313028125
 31
0.0
  0
LINE
  5
431
330
1F
100
AcDbEntity
  8
0
  6
Continuous
 62
     8
370
    25
100
AcDbLine
 10
146.5142098993
 20
85.945501508
 30
0.0
 11
146.5142098993
 21
85.9314512126
 31
0.0
  0
ENDSEC
  0
SECTION
  2
OBJECTS
  0
DICTIONARY
  5
C
330
0
100
AcDbDictionary
281
     1
  3
ACAD_GROUP
350
D
  3
ACAD_LAYOUT
350
1A
  3
ACAD_MLINESTYLE
350
17
  3
ACAD_PLOTSETTINGS
350
19
  3
ACAD_PLOTSTYLENAME
350
E
  3
ACAD_SCALELIST
350
47
  0
DICTIONARY
  5
D
102
{ACAD_REACTORS
330
C
102
}
330
C
100
AcDbDictionary
281
     1
  0
DICTIONARY
  5
1A
102
{ACAD_REACTORS
330
C
102
}
330
C
100
AcDbDictionary
281
     1
  3
Layout1
350
1E
  3
Layout2
350
26
  3
Model
350
22
  0
DICTIONARY
  5
17
102
{ACAD_REACTORS
330
C
102
}
330
C
100
AcDbDictionary
281
     1
  3
Standard
350
18
  0
DICTIONARY
  5
19
102
{ACAD_REACTORS
330
C
102
}
330
C
100
AcDbDictionary
281
     1
  0
ACDBDICTIONARYWDFLT
  5
E
102
{ACAD_REACTORS
330
C
102
}
330
C
100
AcDbDictionary
281
     1
  3
Normal
350
F
100
AcDbDictionaryWithDefault
340
F
  0
DICTIONARY
  5
47
102
{ACAD_REACTORS
330
C
102
}
330
C
100
AcDbDictionary
281
     1
  3
A0
350
48
  3
A1
350
49
  3
A2
350
4A
  3
A3
350
4B
  3
A4
350
4C
  3
A5
350
4D
  3
A6
350
4E
  3
A7
350
4F
  3
A8
350
50
  3
A9
350
51
  3
B0
350
52
  3
B1
350
53
  3
B2
350
54
  3
B3
350
55
  3
B4
350
56
  3
B5
350
57
  3
B6
350
58
  3
B7
350
59
  3
B8
350
5A
  3
B9
350
5B
  3
C0
350
5C
  3
C1
350
5D
  3
C2
350
5E
  3
C3
350
5F
  3
C4
350
60
  3
C5
350
61
  3
C6
350
62
  3
C7
350
63
  3
C8
350
64
  3
C9
350
65
  3
D0
350
66
  3
D1
350
67
  3
D2
350
68
  0
LAYOUT
  5
1E
102
{ACAD_REACTORS
330
1A
102
}
330
1A
100
AcDbPlotSettings
  1

  2
none_device
  4

  6

 40
0.0
 41
0.0
 42
0.0
 43
0.0
 44
0.0
 45
0.0
 46
0.0
 47
0.0
 48
0.0
 49
0.0
140
0.0
141
0.0
142
1.0
143
1.0
 70
   688
 72
     1
 73
     0
 74
     5
  7

 75
    16
147
1.0
148
0.0
149
0.0
100
AcDbLayout
  1
Layout1
 70
     1
 71
     1
 10
0.0
 20
0.0
 11
420.0
 21
297.0
 12
0.0
 22
0.0
 32
0.0
 14
1.0000000000E+20
 24
1.0000000000E+20
 34
1.0000000000E+20
 15
-1.0000000000E+20
 25
-1.0000000000E+20
 35
-1.0000000000E+20
146
0.0
 13
0.0
 23
0.0
 33
0.0
 16
1.0
 26
0.0
 36
0.0
 17
0.0
 27
1.0
 37
0.0
 76
     0
330
1B
  0
LAYOUT
  5
26
102
{ACAD_REACTORS
330
1A
102
}
330
1A
100
AcDbPlotSettings
  1

  2
none_device
  4

  6

 40
0.0
 41
0.0
 42
0.0
 43
0.0
 44
0.0
 45
0.0
 46
0.0
 47
0.0
 48
0.0
 49
0.0
140
0.0
141
0.0
142
1.0
143
1.0
 70
   688
 72
     1
 73
     0
 74
     5
  7

 75
    16
147
1.0
148
0.0
149
0.0
100
AcDbLayout
  1
Layout2
 70
     1
 71
     2
 10
0.0
 20
0.0
 11
0.0
 21
0.0
 12
0.0
 22
0.0
 32
0.0
 14
0.0
 24
0.0
 34
0.0
 15
0.0
 25
0.0
 35
0.0
146
0.0
 13
0.0
 23
0.0
 33
0.0
 16
1.0
 26
0.0
 36
0.0
 17
0.0
 27
1.0
 37
0.0
 76
     0
330
23
  0
LAYOUT
  5
22
102
{ACAD_REACTORS
330
1A
102
}
330
1A
100
AcDbPlotSettings
  1

  2
none_device
  4
Letter_(8.50_x_11.00_Inches)
  6

 40
6.35
 41
6.35
 42
6.35000508
 43
6.35000508
 44
215.9
 45
279.4
 46
0.0
 47
0.0
 48
0.0
 49
0.0
140
0.0
141
0.0
142
1.0
143
1.0
 70
  1712
 72
     1
 73
     0
 74
     0
  7

 75
     0
147
1.0
148
0.0
149
0.0
100
AcDbLayout
  1
Model
 70
     1
 71
     0
 10
0.0
 20
0.0
 11
431.8
 21
279.4
 12
0.0
 22
0.0
 32
0.0
 14
0.0
 24
0.0
 34
0.0
 15
431.8
 25
279.4
 35
0.0
146
0.0
 13
0.0
 23
0.0
 33
0.0
 16
1.0
 26
0.0
 36
0.0
 17
0.0
 27
1.0
 37
0.0
 76
     0
330
1F
331
29
  0
MLINESTYLE
  5
18
102
{ACAD_REACTORS
330
17
102
}
330
17
100
AcDbMlineStyle
  2
Standard
 70
     0
  3

 62
   256
 51
90.0
 52
90.0
 71
     2
 49
0.5
 62
   256
  6
BYLAYER
 49
-0.5
 62
   256
  6
BYLAYER
  0
ACDBPLACEHOLDER
  5
F
102
{ACAD_REACTORS
330
E
102
}
330
E
  0
SCALE
  5
48
102
{ACAD_REACTORS
330
47
102
}
330
47
100
AcDbScale
 70
     0
300
1:1
140
1.0
141
1.0
290
     1
  0
SCALE
  5
49
102
{ACAD_REACTORS
330
47
102
}
330
47
100
AcDbScale
 70
     0
300
1:2
140
1.0
141
2.0
290
     0
  0
SCALE
  5
4A
102
{ACAD_REACTORS
330
47
102
}
330
47
100
AcDbScale
 70
     0
300
1:4
140
1.0
141
4.0
290
     0
  0
SCALE
  5
4B
102
{ACAD_REACTORS
330
47
102
}
330
47
100
AcDbScale
 70
     0
300
1:5
140
1.0
141
5.0
290
     0
  0
SCALE
  5
4C
102
{ACAD_REACTORS
330
47
102
}
330
47
100
AcDbScale
 70
     0
300
1:8
140
1.0
141
8.0
290
     0
  0
SCALE
  5
4D
102
{ACAD_REACTORS
330
47
102
}
330
47
100
AcDbScale
 70
     0
300
1:10
140
1.0
141
10.0
290
     0
  0
SCALE
  5
4E
102
{ACAD_REACTORS
330
47
102
}
330
47
100
AcDbScale
 70
     0
300
1:16
140
1.0
141
16.0
290
     0
  0
SCALE
  5
4F
102
{ACAD_REACTORS
330
47
102
}
330
47
100
AcDbScale
 70
     0
300
1:20
140
1.0
141
20.0
290
     0
  0
SCALE
  5
50
102
{ACAD_REACTORS
330
47
102
}
330
47
100
AcDbScale
 70
     0
300
1:30
140
1.0
141
30.0
290
     0
  0
SCALE
  5
51
102
{ACAD_REACTORS
330
47
102
}
330
47
100
AcDbScale
 70
     0
300
1:40
140
1.0
141
40.0
290
     0
  0
SCALE
  5
52
102
{ACAD_REACTORS
330
47
102
}
330
47
100
AcDbScale
 70
     0
300
1:50
140
1.0
141
50.0
290
     0
  0
SCALE
  5
53
102
{ACAD_REACTORS
330
47
102
}
330
47
100
AcDbScale
 70
     0
300
1:100
140
1.0
141
100.0
290
     0
  0
SCALE
  5
54
102
{ACAD_REACTORS
330
47
102
}
330
47
100
AcDbScale
 70
     0
300
2:1
140
2.0
141
1.0
290
     0
  0
SCALE
  5
55
102
{ACAD_REACTORS
330
47
102
}
330
47
100
AcDbScale
 70
     0
300
4:1
140
4.0
141
1.0
290
     0
  0
SCALE
  5
56
102
{ACAD_REACTORS
330
47
102
}
330
47
100
AcDbScale
 70
     0
300
8:1
140
8.0
141
1.0
290
     0
  0
SCALE
  5
57
102
{ACAD_REACTORS
330
47
102
}
330
47
100
AcDbScale
 70
     0
300
10:1
140
10.0
141
1.0
290
     0
  0
SCALE
  5
58
102
{ACAD_REACTORS
330
47
102
}
330
47
100
AcDbScale
 70
     0
300
100:1
140
100.0
141
1.0
290
     0
  0
SCALE
  5
59
102
{ACAD_REACTORS
330
47
102
}
330
47
100
AcDbScale
 70
     0
300
1/128" = 1'-0"
140
0.0078125
141
12.0
290
     0
  0
SCALE
  5
5A
102
{ACAD_REACTORS
330
47
102
}
330
47
100
AcDbScale
 70
     0
300
1/64" = 1'-0"
140
0.015625
141
12.0
290
     0
  0
SCALE
  5
5B
102
{ACAD_REACTORS
330
47
102
}
330
47
100
AcDbScale
 70
     0
300
1/32" = 1'-0"
140
0.03125
141
12.0
290
     0
  0
SCALE
  5
5C
102
{ACAD_REACTORS
330
47
102
}
330
47
100
AcDbScale
 70
     0
300
1/16" = 1'-0"
140
0.0625
141
12.0
290
     0
  0
SCALE
  5
5D
102
{ACAD_REACTORS
330
47
102
}
330
47
100
AcDbScale
 70
     0
300
3/32" = 1'-0"
140
0.09375
141
12.0
290
     0
  0
SCALE
  5
5E
102
{ACAD_REACTORS
330
47
102
}
330
47
100
AcDbScale
 70
     0
300
1/8" = 1'-0"
140
0.125
141
12.0
290
     0
  0
SCALE
  5
5F
102
{ACAD_REACTORS
330
47
102
}
330
47
100
AcDbScale
 70
     0
300
3/16" = 1'-0"
140
0.1875
141
12.0
290
     0
  0
SCALE
  5
60
102
{ACAD_REACTORS
330
47
102
}
330
47
100
AcDbScale
 70
     0
300
1/4" = 1'-0"
140
0.25
141
12.0
290
     0
  0
SCALE
  5
61
102
{ACAD_REACTORS
330
47
102
}
330
47
100
AcDbScale
 70
     0
300
3/8" = 1'-0"
140
0.375
141
12.0
290
     0
  0
SCALE
  5
62
102
{ACAD_REACTORS
330
47
102
}
330
47
100
AcDbScale
 70
     0
300
1/2" = 1'-0"
140
0.5
141
12.0
290
     0
  0
SCALE
  5
63
102
{ACAD_REACTORS
330
47
102
}
330
47
100
AcDbScale
 70
     0
300
3/4" = 1'-0"
140
0.75
141
12.0
290
     0
  0
SCALE
  5
64
102
{ACAD_REACTORS
330
47
102
}
330
47
100
AcDbScale
 70
     0
300
1" = 1'-0"
140
1.0
141
12.0
290
     0
  0
SCALE
  5
65
102
{ACAD_REACTORS
330
47
102
}
330
47
100
AcDbScale
 70
     0
300
1-1/2" = 1'-0"
140
1.5
141
12.0
290
     0
  0
SCALE
  5
66
102
{ACAD_REACTORS
330
47
102
}
330
47
100
AcDbScale
 70
     0
300
3" = 1'-0"
140
3.0
141
12.0
290
     0
  0
SCALE
  5
67
102
{ACAD_REACTORS
330
47
102
}
330
47
100
AcDbScale
 70
     0
300
6" = 1'-0"
140
6.0
141
12.0
290
     0
  0
SCALE
  5
68
102
{ACAD_REACTORS
330
47
102
}
330
47
100
AcDbScale
 70
     0
300
1'-0" = 1'-0"
140
12.0
141
12.0
290
     0
  0
ENDSEC
  0
EOF
