  0
SECTION
  2
HEADER
  9
$ACADVER
  1
AC1015
  9
$ACADMAINTVER
 70
     6
  9
$DWGCODEPAGE
  3
ANSI_1252
  9
$INSBASE
 10
0.0
 20
0.0
 30
0.0
  9
$EXTMIN
 10
0.0
 20
0.0
 30
0.0
  9
$EXTMAX
 10
431.8
 20
279.4
 30
0.0
  9
$LIMMIN
 10
0.0
 20
0.0
  9
$LIMMAX
 10
431.8
 20
279.4
  9
$ORTHOMODE
 70
     0
  9
$REGENMODE
 70
     1
  9
$FILLMODE
 70
     1
  9
$QTEXTMODE
 70
     0
  9
$MIRRTEXT
 70
     1
  9
$LTSCALE
 40
1.0
  9
$ATTMODE
 70
     1
  9
$TEXTSIZE
 40
3.5
  9
$TRACEWID
 40
1.0
  9
$TEXTSTYLE
  7
Standard
  9
$CLAYER
  8
0
  9
$CELTYPE
  6
ByLayer
  9
$CECOLOR
 62
   256
  9
$CELTSCALE
 40
1.0
  9
$DISPSILH
 70
     0
  9
$DIMSCALE
 40
1.0
  9
$DIMASZ
 40
3.302
  9
$DIMEXO
 40
1.0
  9
$DIMDLI
 40
3.75
  9
$DIMRND
 40
0.0
  9
$DIMDLE
 40
0.0
  9
$DIMEXE
 40
1.0
  9
$DIMTP
 40
0.0
  9
$DIMTM
 40
0.0
  9
$DIMTXT
 40
3.5
  9
$DIMCEN
 40
2.5
  9
$DIMTSZ
 40
0.0
  9
$DIMTOL
 70
     0
  9
$DIMLIM
 70
     0
  9
$DIMTIH
 70
     1
  9
$DIMTOH
 70
     1
  9
$DIMSE1
 70
     0
  9
$DIMSE2
 70
     0
  9
$DIMTAD
 70
     1
  9
$DIMZIN
 70
     0
  9
$DIMBLK
  1

  9
$DIMASO
 70
     1
  9
$DIMSHO
 70
     1
  9
$DIMPOST
  1

  9
$DIMAPOST
  1

  9
$DIMALT
 70
     0
  9
$DIMALTD
 70
     3
  9
$DIMALTF
 40
0.0393700787
  9
$DIMLFAC
 40
5.0
  9
$DIMTOFL
 70
     1
  9
$DIMTVP
 40
0.0
  9
$DIMTIX
 70
     0
  9
$DIMSOXD
 70
     0
  9
$DIMSAH
 70
     0
  9
$DIMBLK1
  1

  9
$DIMBLK2
  1

  9
$DIMSTYLE
  2
ISO-25
  9
$DIMCLRD
 70
     0
  9
$DIMCLRE
 70
     0
  9
$DIMCLRT
 70
     0
  9
$DIMTFAC
 40
1.0
  9
$DIMGAP
 40
1.524
  9
$DIMJUST
 70
     0
  9
$DIMSD1
 70
     0
  9
$DIMSD2
 70
     0
  9
$DIMTOLJ
 70
     0
  9
$DIMTZIN
 70
     0
  9
$DIMALTZ
 70
     0
  9
$DIMALTTZ
 70
     0
  9
$DIMUPT
 70
     0
  9
$DIMDEC
 70
     3
  9
$DIMTDEC
 70
     3
  9
$DIMALTU
 70
     2
  9
$DIMALTTD
 70
     3
  9
$DIMTXSTY
  7
Standard
  9
$DIMAUNIT
 70
     0
  9
$DIMADEC
 70
     2
  9
$DIMALTRND
 40
0.0
  9
$DIMAZIN
 70
     0
  9
$DIMDSEP
 70
    44
  9
$DIMATFIT
 70
     3
  9
$DIMFRAC
 70
     0
  9
$DIMLDRBLK
  1

  9
$DIMLUNIT
 70
     2
  9
$DIMLWD
 70
    -2
  9
$DIMLWE
 70
    -2
  9
$DIMTMOVE
 70
     0
  9
$LUNITS
 70
     2
  9
$LUPREC
 70
     8
  9
$SKETCHINC
 40
1.0
  9
$FILLETRAD
 40
10.0
  9
$AUNITS
 70
     0
  9
$AUPREC
 70
     8
  9
$MENU
  1
.
  9
$ELEVATION
 40
0.0
  9
$PELEVATION
 40
0.0
  9
$THICKNESS
 40
0.0
  9
$LIMCHECK
 70
     0
  9
$CHAMFERA
 40
0.0
  9
$CHAMFERB
 40
0.0
  9
$CHAMFERC
 40
0.0
  9
$CHAMFERD
 40
0.0
  9
$SKPOLY
 70
     0
  9
$TDCREATE
 40
2458780.481148472
  9
$TDUCREATE
 40
2458780.439481806
  9
$TDUPDATE
 40
2458780.481149375
  9
$TDUUPDATE
 40
2458780.439482708
  9
$TDINDWG
 40
0.0000000116
  9
$TDUSRTIMER
 40
0.0000000116
  9
$USRTIMER
 70
     1
  9
$ANGBASE
 50
0.0
  9
$ANGDIR
 70
     0
  9
$PDMODE
 70
     0
  9
$PDSIZE
 40
-1.0
  9
$PLINEWID
 40
0.0
  9
$SPLFRAME
 70
     0
  9
$SPLINETYPE
 70
     6
  9
$SPLINESEGS
 70
     8
  9
$HANDSEED
  5
2BB
  9
$SURFTAB1
 70
     6
  9
$SURFTAB2
 70
     6
  9
$SURFTYPE
 70
     6
  9
$SURFU
 70
     6
  9
$SURFV
 70
     6
  9
$UCSBASE
  2

  9
$UCSNAME
  2

  9
$UCSORG
 10
0.0
 20
0.0
 30
0.0
  9
$UCSXDIR
 10
1.0
 20
0.0
 30
0.0
  9
$UCSYDIR
 10
0.0
 20
1.0
 30
0.0
  9
$UCSORTHOREF
  2

  9
$UCSORTHOVIEW
 70
     0
  9
$UCSORGTOP
 10
0.0
 20
0.0
 30
0.0
  9
$UCSORGBOTTOM
 10
0.0
 20
0.0
 30
0.0
  9
$UCSORGLEFT
 10
0.0
 20
0.0
 30
0.0
  9
$UCSORGRIGHT
 10
0.0
 20
0.0
 30
0.0
  9
$UCSORGFRONT
 10
0.0
 20
0.0
 30
0.0
  9
$UCSORGBACK
 10
0.0
 20
0.0
 30
0.0
  9
$PUCSBASE
  2

  9
$PUCSNAME
  2

  9
$PUCSORG
 10
0.0
 20
0.0
 30
0.0
  9
$PUCSXDIR
 10
1.0
 20
0.0
 30
0.0
  9
$PUCSYDIR
 10
0.0
 20
1.0
 30
0.0
  9
$PUCSORTHOREF
  2

  9
$PUCSORTHOVIEW
 70
     0
  9
$PUCSORGTOP
 10
0.0
 20
0.0
 30
0.0
  9
$PUCSORGBOTTOM
 10
0.0
 20
0.0
 30
0.0
  9
$PUCSORGLEFT
 10
0.0
 20
0.0
 30
0.0
  9
$PUCSORGRIGHT
 10
0.0
 20
0.0
 30
0.0
  9
$PUCSORGFRONT
 10
0.0
 20
0.0
 30
0.0
  9
$PUCSORGBACK
 10
0.0
 20
0.0
 30
0.0
  9
$USERI1
 70
     0
  9
$USERI2
 70
     0
  9
$USERI3
 70
     0
  9
$USERI4
 70
     0
  9
$USERI5
 70
     0
  9
$USERR1
 40
0.0
  9
$USERR2
 40
0.0
  9
$USERR3
 40
0.0
  9
$USERR4
 40
0.0
  9
$USERR5
 40
0.0
  9
$WORLDVIEW
 70
     1
  9
$SHADEDGE
 70
     3
  9
$SHADEDIF
 70
    70
  9
$TILEMODE
 70
     1
  9
$MAXACTVP
 70
    64
  9
$PINSBASE
 10
0.0
 20
0.0
 30
0.0
  9
$PLIMCHECK
 70
     0
  9
$PEXTMIN
 10
1.0000000000E+20
 20
1.0000000000E+20
 30
1.0000000000E+20
  9
$PEXTMAX
 10
-1.0000000000E+20
 20
-1.0000000000E+20
 30
-1.0000000000E+20
  9
$PLIMMIN
 10
0.0
 20
0.0
  9
$PLIMMAX
 10
420.0
 20
297.0
  9
$UNITMODE
 70
     0
  9
$VISRETAIN
 70
     1
  9
$PLINEGEN
 70
     0
  9
$PSLTSCALE
 70
     1
  9
$TREEDEPTH
 70
  3020
  9
$CMLSTYLE
  2
Standard
  9
$CMLJUST
 70
     0
  9
$CMLSCALE
 40
20.0
  9
$PROXYGRAPHICS
 70
     1
  9
$MEASUREMENT
 70
     1
  9
$CELWEIGHT
370
    -1
  9
$ENDCAPS
280
     0
  9
$JOINSTYLE
280
     0
  9
$LWDISPLAY
290
     1
  9
$INSUNITS
 70
     4
  9
$HYPERLINKBASE
  1

  9
$STYLESHEET
  1

  9
$XEDIT
290
     1
  9
$CEPSNTYPE
380
     0
  9
$PSTYLEMODE
290
     1
  9
$FINGERPRINTGUID
  2
{C8782061-E224-45A3-BCC2-598C20C24D4C}
  9
$VERSIONGUID
  2
{FAEB1C32-E019-11D5-929B-00C0DF256EC4}
  9
$EXTNAMES
290
     1
  9
$PSVPSCALE
 40
0.0
  9
$OLESTARTUP
290
     0
  0
ENDSEC
  0
SECTION
  2
CLASSES
  0
CLASS
  1
ACDBDICTIONARYWDFLT
  2
AcDbDictionaryWithDefault
  3
ObjectDBX Classes
 90
        0
280
     0
281
     0
  0
CLASS
  1
VISUALSTYLE
  2
AcDbVisualStyle
  3
ObjectDBX Classes
 90
     4095
280
     0
281
     0
  0
CLASS
  1
MATERIAL
  2
AcDbMaterial
  3
ObjectDBX Classes
 90
     1153
280
     0
281
     0
  0
CLASS
  1
SCALE
  2
AcDbScale
  3
ObjectDBX Classes
 90
     1153
280
     0
281
     0
  0
CLASS
  1
TABLESTYLE
  2
AcDbTableStyle
  3
ObjectDBX Classes
 90
     4095
280
     0
281
     0
  0
CLASS
  1
MLEADERSTYLE
  2
AcDbMLeaderStyle
  3
ACDB_MLEADERSTYLE_CLASS
 90
     4095
280
     0
281
     0
  0
CLASS
  1
SUN
  2
AcDbSun
  3
SCENEOE
 90
     1153
280
     0
281
     0
  0
CLASS
  1
ACDBPLACEHOLDER
  2
AcDbPlaceHolder
  3
ObjectDBX Classes
 90
        0
280
     0
281
     0
  0
CLASS
  1
LAYOUT
  2
AcDbLayout
  3
ObjectDBX Classes
 90
        0
280
     0
281
     0
  0
ENDSEC
  0
SECTION
  2
TABLES
  0
TABLE
  2
VPORT
  5
8
330
0
100
AcDbSymbolTable
 70
     1
  0
VPORT
  5
29
330
8
100
AcDbSymbolTableRecord
100
AcDbViewportTableRecord
  2
*Active
 70
     0
 10
0.0
 20
0.0
 11
1.0
 21
1.0
 12
215.9
 22
139.7
 13
0.0
 23
0.0
 14
10.0
 24
10.0
 15
10.0
 25
10.0
 16
0.0
 26
0.0
 36
1.0
 17
0.0
 27
0.0
 37
0.0
 40
279.4
 41
1.5454545455
 42
50.0
 43
0.0
 44
0.0
 50
0.0
 51
0.0
 71
     0
 72
  2000
 73
     1
 74
     3
 75
     0
 76
     0
 77
     0
 78
     0
281
     0
 65
     1
110
0.0
120
0.0
130
0.0
111
1.0
121
0.0
131
0.0
112
0.0
122
1.0
132
0.0
 79
     0
146
0.0
  0
ENDTAB
  0
TABLE
  2
LTYPE
  5
5
330
0
100
AcDbSymbolTable
 70
     6
  0
LTYPE
  5
14
330
5
100
AcDbSymbolTableRecord
100
AcDbLinetypeTableRecord
  2
ByBlock
 70
     0
  3

 72
    65
 73
     0
 40
0.0
  0
LTYPE
  5
15
330
5
100
AcDbSymbolTableRecord
100
AcDbLinetypeTableRecord
  2
ByLayer
 70
     0
  3

 72
    65
 73
     0
 40
0.0
  0
LTYPE
  5
16
330
5
100
AcDbSymbolTableRecord
100
AcDbLinetypeTableRecord
  2
Continuous
 70
     0
  3
Solid line
 72
    65
 73
     0
 40
0.0
  0
LTYPE
  5
6E
330
5
100
AcDbSymbolTableRecord
100
AcDbLinetypeTableRecord
  2
HIDDEN
 70
     0
  3
Hidden __ __ __ __ __ __ __ __ __ __ __ __ __ __
 72
    65
 73
     2
 40
1.905
 49
1.27
 74
     0
 49
-0.635
 74
     0
  0
LTYPE
  5
6F
330
5
100
AcDbSymbolTableRecord
100
AcDbLinetypeTableRecord
  2
PHANTOM
 70
     0
  3
Phantom ______  __  __  ______  __  __  ______
 72
    65
 73
     6
 40
12.7
 49
6.35
 74
     0
 49
-1.27
 74
     0
 49
1.27
 74
     0
 49
-1.27
 74
     0
 49
1.27
 74
     0
 49
-1.27
 74
     0
  0
LTYPE
  5
70
330
5
100
AcDbSymbolTableRecord
100
AcDbLinetypeTableRecord
  2
CENTER
 70
     0
  3
Center ____ _ ____ _ ____ _ ____ _ ____ _ ____
 72
    65
 73
     4
 40
10.16
 49
6.35
 74
     0
 49
-1.27
 74
     0
 49
1.27
 74
     0
 49
-1.27
 74
     0
  0
LTYPE
  5
71
330
5
100
AcDbSymbolTableRecord
100
AcDbLinetypeTableRecord
  2
CENTERX2
 70
     0
  3
Center (2x) ________  __  ________  __  _____
 72
    65
 73
     4
 40
20.32
 49
12.7
 74
     0
 49
-2.54
 74
     0
 49
2.54
 74
     0
 49
-2.54
 74
     0
  0
LTYPE
  5
72
330
5
100
AcDbSymbolTableRecord
100
AcDbLinetypeTableRecord
  2
DOT2
 70
     0
  3
Dot (.5x) ........................................
 72
    65
 73
     2
 40
0.635
 49
0.0
 74
     0
 49
-0.635
 74
     0
  0
ENDTAB
  0
TABLE
  2
LAYER
  5
2
330
0
100
AcDbSymbolTable
 70
     1
  0
LAYER
  5
10
330
2
100
AcDbSymbolTableRecord
100
AcDbLayerTableRecord
  2
0
 70
     0
 62
     7
  6
Continuous
370
    -3
390
F
  0
ENDTAB
  0
TABLE
  2
STYLE
  5
3
330
0
100
AcDbSymbolTable
 70
     1
  0
STYLE
  5
11
330
3
100
AcDbSymbolTableRecord
100
AcDbTextStyleTableRecord
  2
Standard
 70
     0
 40
0.0
 41
1.0
 50
0.0
 71
     0
 42
3.5
  3
txt
  4

  0
ENDTAB
  0
TABLE
  2
VIEW
  5
6
330
0
100
AcDbSymbolTable
 70
     0
  0
ENDTAB
  0
TABLE
  2
UCS
  5
7
330
0
100
AcDbSymbolTable
 70
     0
  0
ENDTAB
  0
TABLE
  2
APPID
  5
9
330
0
100
AcDbSymbolTable
 70
     1
  0
APPID
  5
12
330
9
100
AcDbSymbolTableRecord
100
AcDbRegAppTableRecord
  2
ACAD
 70
     0
  0
ENDTAB
  0
TABLE
  2
DIMSTYLE
  5
A
330
0
100
AcDbSymbolTable
 70
     1
100
AcDbDimStyleTable
  0
DIMSTYLE
105
27
330
A
100
AcDbSymbolTableRecord
100
AcDbDimStyleTableRecord
  2
ISO-25
 70
     0
 41
2.5
 42
0.625
 43
3.75
 44
1.25
 73
     0
 74
     0
 77
     1
 78
     8
140
2.5
141
2.5
143
0.0393700787
147
0.625
171
     3
172
     1
178
     0
271
     2
272
     2
274
     3
278
    44
283
     0
284
     8
340
11
  0
ENDTAB
  0
TABLE
  2
BLOCK_RECORD
  5
1
330
0
100
AcDbSymbolTable
 70
     1
  0
BLOCK_RECORD
  5
1F
330
1
100
AcDbSymbolTableRecord
100
AcDbBlockTableRecord
  2
*Model_Space
340
22
  0
BLOCK_RECORD
  5
1B
330
1
100
AcDbSymbolTableRecord
100
AcDbBlockTableRecord
  2
*Paper_Space
340
1E
  0
BLOCK_RECORD
  5
23
330
1
100
AcDbSymbolTableRecord
100
AcDbBlockTableRecord
  2
*Paper_Space0
340
26
  0
ENDTAB
  0
ENDSEC
  0
SECTION
  2
BLOCKS
  0
BLOCK
  5
20
330
1F
100
AcDbEntity
  8
0
100
AcDbBlockBegin
  2
*Model_Space
 70
     0
 10
0.0
 20
0.0
 30
0.0
  3
*Model_Space
  1

  0
ENDBLK
  5
21
330
1F
100
AcDbEntity
  8
0
100
AcDbBlockEnd
  0
BLOCK
  5
1C
330
1B
100
AcDbEntity
 67
     1
  8
0
100
AcDbBlockBegin
  2
*Paper_Space
 70
     0
 10
0.0
 20
0.0
 30
0.0
  3
*Paper_Space
  1

  0
ENDBLK
  5
1D
330
1B
100
AcDbEntity
 67
     1
  8
0
100
AcDbBlockEnd
  0
BLOCK
  5
24
330
23
100
AcDbEntity
  8
0
100
AcDbBlockBegin
  2
*Paper_Space0
 70
     0
 10
0.0
 20
0.0
 30
0.0
  3
*Paper_Space0
  1

  0
ENDBLK
  5
25
330
23
100
AcDbEntity
  8
0
100
AcDbBlockEnd
  0
ENDSEC
  0
SECTION
  2
ENTITIES
  0
LINE
  5
73
330
1F
100
AcDbEntity
  8
0
  6
Continuous
 62
     7
370
    25
100
AcDbLine
 10
250.8450515464
 20
68.6845743375
 30
0.0
 11
258.4450515464
 21
68.6845743375
 31
0.0
  0
ARC
  5
74
330
1F
100
AcDbEntity
  8
0
  6
Continuous
 62
     7
370
    25
100
AcDbCircle
 10
258.4450515464
 20
68.8845743375
 30
0.0
 40
0.2000000000000028
100
AcDbArc
 50
270.0
 51
327.9302322016
  0
ARC
  5
75
330
1F
100
AcDbEntity
  8
0
  6
Continuous
 62
     7
370
    25
100
AcDbCircle
 10
250.8450515464
 20
68.8845743375
 30
0.0
 40
0.2000000000000189
100
AcDbArc
 50
212.0697677984
 51
270.0
  0
ARC
  5
76
330
1F
100
AcDbEntity
  8
0
  6
Continuous
 62
     7
370
    25
100
AcDbCircle
 10
195.6450515464
 20
68.8845743375
 30
0.0
 40
0.2000000000000171
100
AcDbArc
 50
270.0
 51
327.9302322017
  0
ARC
  5
77
330
1F
100
AcDbEntity
  8
0
  6
Continuous
 62
     7
370
    25
100
AcDbCircle
 10
188.0450515464
 20
68.8845743375
 30
0.0
 40
0.2000000000000276
100
AcDbArc
 50
212.0697677983
 51
270.0
  0
LINE
  5
78
330
1F
100
AcDbEntity
  8
0
  6
Continuous
 62
     7
370
    25
100
AcDbLine
 10
188.0450515464
 20
68.6845743375
 30
0.0
 11
195.6450515464
 21
68.6845743375
 31
0.0
  0
ARC
  5
79
330
1F
100
AcDbEntity
  8
0
  6
Continuous
 62
     7
370
    25
100
AcDbCircle
 10
221.1180908943
 20
71.3904366146
 30
0.0
 40
0.2000000000000091
100
AcDbArc
 50
187.0271655875
 51
219.7546578804
  0
ARC
  5
7A
330
1F
100
AcDbEntity
  8
0
  6
Continuous
 62
     7
370
    25
100
AcDbCircle
 10
225.3720121985
 20
71.3904366146
 30
0.0
 40
0.1999999999999872
100
AcDbArc
 50
320.2453421196
 51
352.9728344125
  0
SPLINE
  5
7B
330
1F
100
AcDbEntity
  8
0
  6
Continuous
 62
     7
370
    25
100
AcDbSpline
210
0.0
220
0.0
230
1.0
 70
     8
 71
     3
 72
    12
 73
     8
 74
     0
 42
0.000000001
 43
0.00000001
 40
0.0
 40
0.0
 40
0.0
 40
0.0
 40
0.1457385529867309
 40
0.4224065763361617
 40
0.7025645190515636
 40
0.9915723830906314
 40
1.0
 40
1.0
 40
1.0
 40
1.0
 10
220.9643329250837
 20
71.26253631402011
 30
0.0
 10
220.9981226371726
 20
71.21987438316081
 30
0.0
 10
221.0960582644063
 20
71.0962236415769
 30
0.0
 10
221.2135537880596
 20
70.89328494866068
 30
0.0
 10
221.2913186523272
 20
70.6547671050743
 30
0.0
 10
221.3225813196982
 20
70.49608977111075
 30
0.0
 10
221.3111823069403
 20
70.41366957023936
 30
0.0
 10
221.3108593242472
 20
70.41133425410182
 30
0.0
  0
SPLINE
  5
7C
330
1F
100
AcDbEntity
  8
0
  6
Continuous
 62
     7
370
    25
100
AcDbSpline
210
0.0
220
0.0
230
1.0
 70
     8
 71
     3
 72
    11
 73
     7
 74
     0
 42
0.000000001
 43
0.00000001
 40
0.0
 40
0.0
 40
0.0
 40
0.0
 40
0.270672889334481
 40
0.5972761992793115
 40
0.9114942371262953
 40
1.0
 40
1.0
 40
1.0
 40
1.0
 10
225.1841421522072
 20
70.48151017806906
 30
0.0
 10
225.1900094495855
 20
70.5498999640847
 30
0.0
 10
225.2029564317778
 20
70.70081124138841
 30
0.0
 10
225.2987880688103
 20
70.93705027454477
 30
0.0
 10
225.4191065778218
 20
71.13082998331564
 30
0.0
 10
225.5065523862534
 20
71.23880653442582
 30
0.0
 10
225.5257701676994
 20
71.26253631402012
 30
0.0
  0
ARC
  5
7D
330
1F
100
AcDbEntity
  8
0
  6
Continuous
 62
     7
370
    25
100
AcDbCircle
 10
225.3720121985
 20
69.4661673947
 30
0.0
 40
0.2000000000000021
100
AcDbArc
 50
281.9201320981
 51
350.5845175716
  0
ARC
  5
7E
330
1F
100
AcDbEntity
  8
0
  6
Continuous
 62
     7
370
    25
100
AcDbCircle
 10
221.1180908943
 20
69.4661673947
 30
0.0
 40
0.2000000000000219
100
AcDbArc
 50
189.4154824284
 51
258.0798679019
  0
SPLINE
  5
7F
330
1F
100
AcDbEntity
  8
0
  6
Continuous
 62
     7
370
    25
100
AcDbSpline
210
0.0
220
0.0
230
1.0
 70
     8
 71
     3
 72
     9
 73
     5
 74
     0
 42
0.000000001
 43
0.00000001
 40
0.0
 40
0.0
 40
0.0
 40
0.0
 40
0.5208429124923097
 40
1.0
 40
1.0
 40
1.0
 40
1.0
 10
225.569544410913
 20
69.43352573292006
 30
0.0
 10
225.6469852108975
 20
69.8841213486293
 30
0.0
 10
225.7956688122811
 20
70.74924901937565
 30
0.0
 10
225.9852052813621
 20
71.6294164090658
 30
0.0
 10
226.0760230238635
 20
72.05115485202896
 30
0.0
  0
LINE
  5
80
330
1F
100
AcDbEntity
  8
0
  6
Continuous
 62
     7
370
    25
100
AcDbLine
 10
220.8966020541
 20
69.544271852
 30
0.0
 11
220.9144782335
 21
69.4361404637
 31
0.0
  0
SPLINE
  5
81
330
1F
100
AcDbEntity
  8
0
  6
Continuous
 62
     7
370
    25
100
AcDbSpline
210
0.0
220
0.0
230
1.0
 70
     8
 71
     3
 72
    10
 73
     6
 74
     0
 42
0.000000001
 43
0.00000001
 40
0.0
 40
0.0
 40
0.0
 40
0.0
 40
0.115063230821834
 40
0.7493542734953244
 40
0.9999999999999999
 40
0.9999999999999999
 40
0.9999999999999999
 40
0.9999999999999999
 10
220.4154140515763
 20
72.05072587023926
 30
0.0
 10
220.4370642033862
 20
71.9535891661785
 30
0.0
 10
220.5780617545988
 20
71.32098217451586
 30
0.0
 10
220.7451947870561
 20
70.48027884096183
 30
0.0
 10
220.8631834476852
 20
69.75086728000348
 30
0.0
 10
220.8966020540679
 20
69.54427185196276
 30
0.0
  0
SPLINE
  5
82
330
1F
100
AcDbEntity
  8
0
  6
Continuous
 62
     7
370
    25
100
AcDbSpline
210
0.0
220
0.0
230
1.0
 70
     8
 71
     3
 72
    11
 73
     7
 74
     0
 42
0.000000001
 43
0.00000001
 40
0.0
 40
0.0
 40
0.0
 40
0.0
 40
0.0925535171474271
 40
0.4249799083409239
 40
0.7579032427931873
 40
1.0
 40
1.0
 40
1.0
 40
1.0
 10
224.0437153233492
 20
69.0911325478827
 30
0.0
 10
224.0891539430035
 20
69.09352801796723
 30
0.0
 10
224.2977953972772
 20
69.10452734774235
 30
0.0
 10
224.6558592180202
 20
69.14386486247012
 30
0.0
 10
225.0689903350059
 20
69.20186551065743
 30
0.0
 10
225.3113026910962
 20
69.25015085423122
 30
0.0
 10
225.4133217970223
 20
69.27048010058178
 30
0.0
  0
SPLINE
  5
83
330
1F
100
AcDbEntity
  8
0
  6
Continuous
 62
     7
370
    25
100
AcDbSpline
210
0.0
220
0.0
230
1.0
 70
     8
 71
     3
 72
    12
 73
     8
 74
     0
 42
0.000000001
 43
0.00000001
 40
0.0
 40
0.0
 40
0.0
 40
0.0
 40
0.1036834819918885
 40
0.3447565350566508
 40
0.5855730551622026
 40
0.8263052096578634
 40
0.9999999999999999
 40
0.9999999999999999
 40
0.9999999999999999
 40
0.9999999999999999
 10
222.0142261080282
 20
69.12839243379979
 30
0.0
 10
222.0811786216766
 20
69.12076040498157
 30
0.0
 10
222.3038015137255
 20
69.09538324981399
 30
0.0
 10
222.7014338281201
 20
69.07233665932934
 30
0.0
 10
223.1960380607399
 20
69.06011889368476
 30
0.0
 10
223.6478135468379
 20
69.06576402319112
 30
0.0
 10
223.92679042166
 20
69.0836402545121
 30
0.0
 10
224.0437153233492
 20
69.0911325478827
 30
0.0
  0
SPLINE
  5
84
330
1F
100
AcDbEntity
  8
0
  6
Continuous
 62
     7
370
    25
100
AcDbSpline
210
0.0
220
0.0
230
1.0
 70
     8
 71
     3
 72
    10
 73
     6
 74
     0
 42
0.000000001
 43
0.00000001
 40
0.0
 40
0.0
 40
0.0
 40
0.0
 40
0.2502355006436052
 40
0.7279697107287703
 40
1.0
 40
1.0
 40
1.0
 40
1.0
 10
221.0767812957608
 20
69.27048010058179
 30
0.0
 10
221.1502377885666
 20
69.2557222297985
 30
0.0
 10
221.3639328945027
 20
69.21278954080165
 30
0.0
 10
221.6756979673575
 20
69.16268765319464
 30
0.0
 10
221.9241004692423
 20
69.1375227783234
 30
0.0
 10
222.0142261080282
 20
69.12839243379979
 30
0.0
  0
SPLINE
  5
85
330
1F
100
AcDbEntity
  8
0
  6
Continuous
 62
     7
370
    25
100
AcDbSpline
210
0.0
220
0.0
230
1.0
 70
     8
 71
     3
 72
    12
 73
     8
 74
     0
 42
0.000000001
 43
0.00000001
 40
0.0
 40
0.0
 40
0.0
 40
0.0
 40
0.0546703497268587
 40
0.3950733514155715
 40
0.693160565090444
 40
0.9756860151879841
 40
1.0
 40
1.0
 40
1.0
 40
1.0
 10
226.0742263421158
 20
72.05105077028573
 30
0.0
 10
226.0754687309923
 20
72.05801214035598
 30
0.0
 10
226.0844468103283
 20
72.108318235302
 30
0.0
 10
226.1298698111769
 20
72.21504257725923
 30
0.0
 10
226.2293714582686
 20
72.3555680325616
 30
0.0
 10
226.3148930285025
 20
72.45010062862441
 30
0.0
 10
226.3666921396947
 20
72.4874045790155
 30
0.0
 10
226.3707967059907
 20
72.49036054744737
 30
0.0
  0
SPLINE
  5
86
330
1F
100
AcDbEntity
  8
0
  6
Continuous
 62
     7
370
    25
100
AcDbSpline
210
0.0
220
0.0
230
1.0
 70
     8
 71
     3
 72
    11
 73
     7
 74
     0
 42
0.000000001
 43
0.00000001
 40
0.0
 40
0.0
 40
0.0
 40
0.0
 40
0.1379290062463737
 40
0.4268257888279792
 40
0.7275582681830164
 40
1.0
 40
1.0
 40
1.0
 40
1.0
 10
220.1154477350998
 20
72.49036054744737
 30
0.0
 10
220.1383354659753
 20
72.4723674341
 30
0.0
 10
220.2091622924079
 20
72.41668716055224
 30
0.0
 10
220.3025031052517
 20
72.30247184290573
 30
0.0
 10
220.3844342647245
 20
72.16745859582349
 30
0.0
 10
220.4049223217623
 20
72.08874059735233
 30
0.0
 10
220.4146607252567
 20
72.05132428061889
 30
0.0
  0
LINE
  5
87
330
1F
100
AcDbEntity
  8
0
  6
Continuous
 62
     7
370
    25
100
AcDbLine
 10
183.2450515464
 20
68.7783840335
 30
0.0
 11
263.2450515464
 21
68.7783840335
 31
0.0
  0
LINE
  5
88
330
1F
100
AcDbEntity
  8
0
  6
Continuous
 62
     7
370
    25
100
AcDbLine
 10
183.489193682
 20
72.4903605474
 30
0.0
 11
263.0009094108
 21
72.4903605474
 31
0.0
  0
LINE
  5
89
330
1F
100
AcDbEntity
  8
0
  6
Continuous
 62
     7
370
    25
100
AcDbLine
 10
263.0019094108
 20
72.7503605474
 30
0.0
 11
263.2419094108
 21
72.7503605474
 31
0.0
  0
LINE
  5
8A
330
1F
100
AcDbEntity
  8
0
  6
Continuous
 62
     7
370
    25
100
AcDbLine
 10
183.248193682
 20
72.7503605474
 30
0.0
 11
183.488193682
 21
72.7503605474
 31
0.0
  0
ARC
  5
8B
330
1F
100
AcDbEntity
  8
0
  6
Continuous
 62
     7
370
    25
100
AcDbCircle
 10
189.9300515464
 20
230.8391110478
 30
0.0
 40
1.600000000000023
100
AcDbArc
 50
102.635625093
 51
180.0
  0
ARC
  5
8C
330
1F
100
AcDbEntity
  8
0
  6
Continuous
 62
     7
370
    25
100
AcDbCircle
 10
193.4800515464
 20
230.8391110478
 30
0.0
 40
1.599999999999997
100
AcDbArc
 50
0.0
 51
77.364374907
  0
LINE
  5
8D
330
1F
100
AcDbEntity
  8
0
  6
Continuous
 62
     7
370
    25
100
AcDbLine
 10
195.0800515464
 20
230.6103605474
 30
0.0
 11
195.0800515464
 21
230.8391110478
 31
0.0
  0
LINE
  5
8E
330
1F
100
AcDbEntity
  8
0
  6
Continuous
 62
     7
370
    25
100
AcDbLine
 10
188.3300515464
 20
230.8391110478
 30
0.0
 11
188.3300515464
 21
230.6103605474
 31
0.0
  0
LINE
  5
8F
330
1F
100
AcDbEntity
  8
0
  6
Continuous
 62
     7
370
    25
100
AcDbLine
 10
195.0800515464
 20
228.2103605474
 30
0.0
 11
195.0800515464
 21
229.5303605474
 31
0.0
  0
LINE
  5
90
330
1F
100
AcDbEntity
  8
0
  6
Continuous
 62
     7
370
    25
100
AcDbLine
 10
188.3300515464
 20
229.5303605474
 30
0.0
 11
188.3300515464
 21
228.2103605474
 31
0.0
  0
LINE
  5
91
330
1F
100
AcDbEntity
  8
0
  6
Continuous
 62
     7
370
    25
100
AcDbLine
 10
194.8750515464
 20
227.1403605474
 30
0.0
 11
194.8750515464
 21
228.2103605474
 31
0.0
  0
LINE
  5
92
330
1F
100
AcDbEntity
  8
0
  6
Continuous
 62
     7
370
    25
100
AcDbLine
 10
188.5350515464
 20
228.2103605474
 30
0.0
 11
188.5350515464
 21
227.1403605474
 31
0.0
  0
LINE
  5
93
330
1F
100
AcDbEntity
  8
0
  6
Continuous
 62
     7
370
    25
100
AcDbLine
 10
194.8750515464
 20
224.0503605474
 30
0.0
 11
194.8750515464
 21
224.346253387
 31
0.0
  0
LINE
  5
94
330
1F
100
AcDbEntity
  8
0
  6
Continuous
 62
     7
370
    25
100
AcDbLine
 10
188.5350515464
 20
224.346253387
 30
0.0
 11
188.5350515464
 21
224.0503605474
 31
0.0
  0
LINE
  5
95
330
1F
100
AcDbEntity
  8
0
  6
Continuous
 62
     7
370
    25
100
AcDbLine
 10
194.6900515464
 20
226.5503605474
 30
0.0
 11
194.6900515464
 21
227.1403605474
 31
0.0
  0
LINE
  5
96
330
1F
100
AcDbEntity
  8
0
  6
Continuous
 62
     7
370
    25
100
AcDbLine
 10
188.7200515464
 20
227.1403605474
 30
0.0
 11
188.7200515464
 21
226.5503605474
 31
0.0
  0
ARC
  5
97
330
1F
100
AcDbEntity
  8
0
  6
Continuous
 62
     7
370
    25
100
AcDbCircle
 10
195.9950515464
 20
228.3003605474
 30
0.0
 40
0.0500000000000257
100
AcDbArc
 50
0.0
 51
29.4734267881
  0
LINE
  5
98
330
1F
100
AcDbEntity
  8
0
  6
Continuous
 62
     7
370
    25
100
AcDbLine
 10
196.0450515464
 20
228.1603605474
 30
0.0
 11
196.0450515464
 21
228.3003605474
 31
0.0
  0
ARC
  5
99
330
1F
100
AcDbEntity
  8
0
  6
Continuous
 62
     7
370
    25
100
AcDbCircle
 10
196.0862755762
 20
227.0403605474
 30
0.0
 40
0.0500000000000114
100
AcDbArc
 50
270.0
 51
0.0
  0
LINE
  5
9A
330
1F
100
AcDbEntity
  8
0
  6
Continuous
 62
     7
370
    25
100
AcDbLine
 10
196.1362755762
 20
227.0403605474
 30
0.0
 11
196.1362755762
 21
228.0603605474
 31
0.0
  0
SPLINE
  5
9B
330
1F
100
AcDbEntity
  8
0
  6
Continuous
 62
     7
370
    25
100
AcDbSpline
210
0.0
220
0.0
230
1.0
 70
     8
 71
     3
 72
    13
 73
     9
 74
     0
 42
0.000000001
 43
0.00000001
 40
0.0
 40
0.0
 40
0.0
 40
0.0
 40
0.0634888169709307
 40
0.2470479163480094
 40
0.4311284030698773
 40
0.6187780680253725
 40
0.8315552681970907
 40
1.0
 40
1.0
 40
1.0
 40
1.0
 10
194.9268828586482
 20
228.1603387693836
 30
0.0
 10
194.9269773250146
 20
228.1582935569529
 30
0.0
 10
194.9273449128847
 20
228.150335218877
 30
0.0
 10
194.9246759094966
 20
228.1368233301789
 30
0.0
 10
194.9194863204746
 20
228.1228034274642
 30
0.0
 10
194.913092697742
 20
228.1135097947869
 30
0.0
 10
194.9084896409106
 20
228.1103044696797
 30
0.0
 10
194.9086381390648
 20
228.1104445852495
 30
0.0
 10
194.9087037536837
 20
228.1105064959833
 30
0.0
  0
LINE
  5
9C
330
1F
100
AcDbEntity
  8
0
  6
Continuous
 62
     7
370
    25
100
AcDbLine
 10
194.9272419111
 20
228.2103605474
 30
0.0
 11
194.9272419111
 21
228.1603605474
 31
0.0
  0
ARC
  5
9D
330
1F
100
AcDbEntity
  8
0
  6
Continuous
 62
     7
370
    25
100
AcDbCircle
 10
195.9885807456
 20
229.1803605474
 30
0.0
 40
0.0500000000000114
100
AcDbArc
 50
0.0
 51
90.0
  0
LINE
  5
9E
330
1F
100
AcDbEntity
  8
0
  6
Continuous
 62
     7
370
    25
100
AcDbLine
 10
196.0385807456
 20
228.1603605474
 30
0.0
 11
196.0385807456
 21
229.1803605474
 31
0.0
  0
ARC
  5
9F
330
1F
100
AcDbEntity
  8
0
  6
Continuous
 62
     7
370
    25
100
AcDbCircle
 10
195.9950515464
 20
228.0603605474
 30
0.0
 40
0.0500000000000144
100
AcDbArc
 50
0.0
 51
52.7089330723
  0
ARC
  5
A0
330
1F
100
AcDbEntity
  8
0
  6
Continuous
 62
     7
370
    25
100
AcDbCircle
 10
195.9950515464
 20
227.9203605474
 30
0.0
 40
0.0500000000000114
100
AcDbArc
 50
270.0
 51
0.0
  0
LINE
  5
A1
330
1F
100
AcDbEntity
  8
0
  6
Continuous
 62
     7
370
    25
100
AcDbLine
 10
196.0450515464
 20
227.9203605474
 30
0.0
 11
196.0450515464
 21
228.0603605474
 31
0.0
  0
LINE
  5
A2
330
1F
100
AcDbEntity
  8
0
  6
Continuous
 62
     7
370
    25
100
AcDbLine
 10
195.3050515464
 20
226.8303605474
 30
0.0
 11
195.3545277571
 21
226.858925651
 31
0.0
  0
LINE
  5
A3
330
1F
100
AcDbEntity
  8
0
  6
Continuous
 62
     7
370
    25
100
AcDbLine
 10
195.3545277571
 20
227.8417954439
 30
0.0
 11
195.3050515464
 21
227.8703605474
 31
0.0
  0
LINE
  5
A4
330
1F
100
AcDbEntity
  8
0
  6
Continuous
 62
     7
370
    25
100
AcDbLine
 10
195.3973898272
 20
229.3370490162
 30
0.0
 11
195.3050515464
 21
229.3903605474
 31
0.0
  0
LINE
  5
A5
330
1F
100
AcDbEntity
  8
0
  6
Continuous
 62
     7
370
    25
100
AcDbLine
 10
194.9050515464
 20
226.7803605474
 30
0.0
 11
194.9050515464
 21
226.8303605474
 31
0.0
  0
ARC
  5
A6
330
1F
100
AcDbEntity
  8
0
  6
Continuous
 62
     7
370
    25
100
AcDbCircle
 10
202.0950515464
 20
214.7603605474
 30
0.0
 40
0.0500000000000172
100
AcDbArc
 50
90.0
 51
232.6298367359
  0
ARC
  5
A7
330
1F
100
AcDbEntity
  8
0
  6
Continuous
 62
     7
370
    25
100
AcDbCircle
 10
204.3950515464
 20
214.7603605474
 30
0.0
 40
0.0500000000000172
100
AcDbArc
 50
307.3701632641
 51
90.0
  0
ARC
  5
A8
330
1F
100
AcDbEntity
  8
0
  6
Continuous
 62
     7
370
    25
100
AcDbCircle
 10
203.2060530889
 20
216.1012515048
 30
0.0
 40
1.79131552244214
100
AcDbArc
 50
230.4198331668
 51
266.948287964
  0
ARC
  5
A9
330
1F
100
AcDbEntity
  8
0
  6
Continuous
 62
     7
370
    25
100
AcDbCircle
 10
203.2840500039
 20
216.1012515048
 30
0.0
 40
1.791315522442158
100
AcDbArc
 50
273.047731496
 51
309.5801668332
  0
ARC
  5
AA
330
1F
100
AcDbEntity
  8
0
  6
Continuous
 62
     7
370
    25
100
AcDbCircle
 10
242.0950515464
 20
214.7603605474
 30
0.0
 40
0.0500000000000225
100
AcDbArc
 50
90.0
 51
232.629836736
  0
ARC
  5
AB
330
1F
100
AcDbEntity
  8
0
  6
Continuous
 62
     7
370
    25
100
AcDbCircle
 10
244.3950515464
 20
214.7603605474
 30
0.0
 40
0.0500000000000225
100
AcDbArc
 50
307.370163264
 51
90.0
  0
ARC
  5
AC
330
1F
100
AcDbEntity
  8
0
  6
Continuous
 62
     7
370
    25
100
AcDbCircle
 10
243.2060530889
 20
216.1012515048
 30
0.0
 40
1.791315522442118
100
AcDbArc
 50
230.4198331668
 51
266.948287964
  0
ARC
  5
AD
330
1F
100
AcDbEntity
  8
0
  6
Continuous
 62
     7
370
    25
100
AcDbCircle
 10
243.2840500039
 20
216.1012515048
 30
0.0
 40
1.791315522442125
100
AcDbArc
 50
273.047731496
 51
309.5801668332
  0
LINE
  5
AE
330
1F
100
AcDbEntity
  8
0
  6
Continuous
 62
     7
370
    25
100
AcDbLine
 10
258.4450515464
 20
68.7252406094
 30
0.0
 11
250.8450515464
 21
68.7252406094
 31
0.0
  0
LINE
  5
AF
330
1F
100
AcDbEntity
  8
0
  6
Continuous
 62
     7
370
    25
100
AcDbLine
 10
250.8450515464
 20
68.7252406094
 30
0.0
 11
250.8450515464
 21
68.6913936188
 31
0.0
  0
LINE
  5
B0
330
1F
100
AcDbEntity
  8
0
  6
Continuous
 62
     7
370
    25
100
AcDbLine
 10
258.4450515464
 20
68.6913936188
 30
0.0
 11
258.4450515464
 21
68.7252406094
 31
0.0
  0
LINE
  5
B1
330
1F
100
AcDbEntity
  8
0
  6
Continuous
 62
     7
370
    25
100
AcDbLine
 10
250.8450515464
 20
68.6913936188
 30
0.0
 11
258.4450515464
 21
68.6913936188
 31
0.0
  0
LINE
  5
B2
330
1F
100
AcDbEntity
  8
0
  6
Continuous
 62
     7
370
    25
100
AcDbLine
 10
195.6450515464
 20
68.7252406094
 30
0.0
 11
188.0450515464
 21
68.7252406094
 31
0.0
  0
LINE
  5
B3
330
1F
100
AcDbEntity
  8
0
  6
Continuous
 62
     7
370
    25
100
AcDbLine
 10
188.0450515464
 20
68.7252406094
 30
0.0
 11
188.0450515464
 21
68.6913936188
 31
0.0
  0
LINE
  5
B4
330
1F
100
AcDbEntity
  8
0
  6
Continuous
 62
     7
370
    25
100
AcDbLine
 10
195.6450515464
 20
68.6913936188
 30
0.0
 11
195.6450515464
 21
68.7252406094
 31
0.0
  0
LINE
  5
B5
330
1F
100
AcDbEntity
  8
0
  6
Continuous
 62
     7
370
    25
100
AcDbLine
 10
188.0450515464
 20
68.6913936188
 30
0.0
 11
195.6450515464
 21
68.6913936188
 31
0.0
  0
LINE
  5
B6
330
1F
100
AcDbEntity
  8
0
  6
Continuous
 62
     7
370
    25
100
AcDbLine
 10
242.7450515464
 20
219.8703605474
 30
0.0
 11
245.1529299492
 21
219.8703605474
 31
0.0
  0
LINE
  5
B7
330
1F
100
AcDbEntity
  8
0
  6
Continuous
 62
     7
370
    25
100
AcDbLine
 10
242.7450515464
 20
218.6887020591
 30
0.0
 11
242.7450515464
 21
219.8703605474
 31
0.0
  0
LINE
  5
B8
330
1F
100
AcDbEntity
  8
0
  6
Continuous
 62
     7
370
    25
100
AcDbLine
 10
201.3371731436
 20
219.8703605474
 30
0.0
 11
203.7450515464
 21
219.8703605474
 31
0.0
  0
LINE
  5
B9
330
1F
100
AcDbEntity
  8
0
  6
Continuous
 62
     7
370
    25
100
AcDbLine
 10
203.7450515464
 20
219.8703605474
 30
0.0
 11
203.7450515464
 21
218.6887020591
 31
0.0
  0
LINE
  5
BA
330
1F
100
AcDbEntity
  8
0
  6
Continuous
 62
     7
370
    25
100
AcDbLine
 10
262.7850515464
 20
225.2313037867
 30
0.0
 11
183.7050515464
 21
225.2313037867
 31
0.0
  0
LINE
  5
BB
330
1F
100
AcDbEntity
  8
0
  6
Continuous
 62
     7
370
    25
100
AcDbLine
 10
183.7050515464
 20
225.2313037867
 30
0.0
 11
183.7050515464
 21
225.8103605474
 31
0.0
  0
LINE
  5
BC
330
1F
100
AcDbEntity
  8
0
  6
Continuous
 62
     7
370
    25
100
AcDbLine
 10
262.7850515464
 20
225.8103605474
 30
0.0
 11
183.7050515464
 21
225.8103605474
 31
0.0
  0
LINE
  5
BD
330
1F
100
AcDbEntity
  8
0
  6
Continuous
 62
     7
370
    25
100
AcDbLine
 10
262.7850515464
 20
225.8103605474
 30
0.0
 11
262.7850515464
 21
225.2313037867
 31
0.0
  0
LINE
  5
BE
330
1F
100
AcDbEntity
  8
0
  6
Continuous
 62
     7
370
    25
100
AcDbLine
 10
183.7050515464
 20
225.2727148339
 30
0.0
 11
183.4050515464
 21
225.2727148339
 31
0.0
  0
LINE
  5
BF
330
1F
100
AcDbEntity
  8
0
  6
Continuous
 62
     7
370
    25
100
AcDbLine
 10
183.7050515464
 20
225.2313037867
 30
0.0
 11
183.4050515464
 21
225.2313037867
 31
0.0
  0
LINE
  5
C0
330
1F
100
AcDbEntity
  8
0
  6
Continuous
 62
     7
370
    25
100
AcDbLine
 10
183.4050515464
 20
225.2313037867
 30
0.0
 11
183.4050515464
 21
225.2727148339
 31
0.0
  0
LINE
  5
C1
330
1F
100
AcDbEntity
  8
0
  6
Continuous
 62
     7
370
    25
100
AcDbLine
 10
263.0850515464
 20
225.2313037867
 30
0.0
 11
262.7850515464
 21
225.2313037867
 31
0.0
  0
LINE
  5
C2
330
1F
100
AcDbEntity
  8
0
  6
Continuous
 62
     7
370
    25
100
AcDbLine
 10
263.0850515464
 20
218.6348542747
 30
0.0
 11
183.4050515464
 21
218.6348542747
 31
0.0
  0
ARC
  5
C3
330
1F
100
AcDbEntity
  8
0
  6
Continuous
 62
     7
370
    25
100
AcDbCircle
 10
232.0588660309
 20
219.6514738131
 30
0.0
 40
1.004208537388279
100
AcDbArc
 50
269.5897976815
 51
331.7015410578
  0
LINE
  5
C4
330
1F
100
AcDbEntity
  8
0
  6
Continuous
 62
     7
370
    25
100
AcDbLine
 10
232.9430617109
 20
219.1754141677
 30
0.0
 11
234.9261125584
 21
222.9425248903
 31
0.0
  0
ARC
  5
C5
330
1F
100
AcDbEntity
  8
0
  6
Continuous
 62
     7
370
    25
100
AcDbCircle
 10
234.0614967203
 20
223.3783676272
 30
0.0
 40
0.9682558746765689
100
AcDbArc
 50
333.2478610927
 51
91.5842536627
  0
LINE
  5
C6
330
1F
100
AcDbEntity
  8
0
  6
Continuous
 62
     7
370
    25
100
AcDbLine
 10
234.0347274282
 20
224.346253387
 30
0.0
 11
218.278426512
 21
224.346253387
 31
0.0
  0
ARC
  5
C7
330
1F
100
AcDbEntity
  8
0
  6
Continuous
 62
     7
370
    25
100
AcDbCircle
 10
218.2712370619
 20
223.3420705857
 30
0.0
 40
1.004208537388281
100
AcDbArc
 50
89.5897976815
 51
151.7015410578
  0
LINE
  5
C8
330
1F
100
AcDbEntity
  8
0
  6
Continuous
 62
     7
370
    25
100
AcDbLine
 10
217.3870413818
 20
223.8181302311
 30
0.0
 11
215.4039905344
 21
220.0510195085
 31
0.0
  0
ARC
  5
C9
330
1F
100
AcDbEntity
  8
0
  6
Continuous
 62
     7
370
    25
100
AcDbCircle
 10
216.2686063725
 20
219.6151767716
 30
0.0
 40
0.968255874676604
100
AcDbArc
 50
153.2478610927
 51
271.5842536627
  0
LINE
  5
CA
330
1F
100
AcDbEntity
  8
0
  6
Continuous
 62
     7
370
    25
100
AcDbLine
 10
216.2953756646
 20
218.6472910118
 30
0.0
 11
232.0516765807
 21
218.6472910118
 31
0.0
  0
ARC
  5
CB
330
1F
100
AcDbEntity
  8
0
  6
Continuous
 62
     7
370
    25
100
AcDbCircle
 10
260.1817983709
 20
219.6305544267
 30
0.0
 40
0.9834060194313174
100
AcDbArc
 50
269.0242395005
 51
358.9898148908
  0
LINE
  5
CC
330
1F
100
AcDbEntity
  8
0
  6
Continuous
 62
     7
370
    25
100
AcDbLine
 10
261.1650515464
 20
219.6132168381
 30
0.0
 11
261.1650515464
 21
223.3803275607
 31
0.0
  0
ARC
  5
CD
330
1F
100
AcDbEntity
  8
0
  6
Continuous
 62
     7
370
    25
100
AcDbCircle
 10
260.1817983709
 20
223.3629899721
 30
0.0
 40
0.9834060194312854
100
AcDbArc
 50
1.0101851092
 51
90.9757604995
  0
LINE
  5
CE
330
1F
100
AcDbEntity
  8
0
  6
Continuous
 62
     7
370
    25
100
AcDbLine
 10
260.1650515464
 20
224.346253387
 30
0.0
 11
238.2809524105
 21
224.346253387
 31
0.0
  0
ARC
  5
CF
330
1F
100
AcDbEntity
  8
0
  6
Continuous
 62
     7
370
    25
100
AcDbCircle
 10
238.2737770262
 20
223.3420324002
 30
0.0
 40
1.004246621277335
100
AcDbArc
 50
89.5906157631
 51
151.6536702922
  0
LINE
  5
D0
330
1F
100
AcDbEntity
  8
0
  6
Continuous
 62
     7
370
    25
100
AcDbLine
 10
237.3899458864
 20
223.8188487093
 30
0.0
 11
235.4027966333
 21
220.0517379867
 31
0.0
  0
ARC
  5
D1
330
1F
100
AcDbEntity
  8
0
  6
Continuous
 62
     7
370
    25
100
AcDbCircle
 10
236.2670186189
 20
219.6151572193
 30
0.0
 40
0.9682367514937429
100
AcDbArc
 50
153.1983716017
 51
271.5851875207
  0
LINE
  5
D2
330
1F
100
AcDbEntity
  8
0
  6
Continuous
 62
     7
370
    25
100
AcDbLine
 10
236.2938031575
 20
218.6472910118
 30
0.0
 11
260.1650515464
 21
218.6472910118
 31
0.0
  0
ARC
  5
D3
330
1F
100
AcDbEntity
  8
0
  6
Continuous
 62
     7
370
    25
100
AcDbCircle
 10
214.0614593959
 20
223.3783871795
 30
0.0
 40
0.9682367514937176
100
AcDbArc
 50
333.1983716017
 51
91.5851875207
  0
LINE
  5
D4
330
1F
100
AcDbEntity
  8
0
  6
Continuous
 62
     7
370
    25
100
AcDbLine
 10
214.0346748573
 20
224.346253387
 30
0.0
 11
186.3250515464
 21
224.346253387
 31
0.0
  0
ARC
  5
D5
330
1F
100
AcDbEntity
  8
0
  6
Continuous
 62
     7
370
    25
100
AcDbCircle
 10
186.3083047219
 20
223.3629899721
 30
0.0
 40
0.9834060194314577
100
AcDbArc
 50
89.0242395005
 51
178.9898148908
  0
LINE
  5
D6
330
1F
100
AcDbEntity
  8
0
  6
Continuous
 62
     7
370
    25
100
AcDbLine
 10
185.3250515464
 20
223.3803275607
 30
0.0
 11
185.3250515464
 21
219.6132168381
 31
0.0
  0
ARC
  5
D7
330
1F
100
AcDbEntity
  8
0
  6
Continuous
 62
     7
370
    25
100
AcDbCircle
 10
186.3083047219
 20
219.6305544267
 30
0.0
 40
0.9834060194313722
100
AcDbArc
 50
181.0101851092
 51
270.9757604995
  0
LINE
  5
D8
330
1F
100
AcDbEntity
  8
0
  6
Continuous
 62
     7
370
    25
100
AcDbLine
 10
186.3250515464
 20
218.6472910118
 30
0.0
 11
212.0475256043
 21
218.6472910118
 31
0.0
  0
ARC
  5
D9
330
1F
100
AcDbEntity
  8
0
  6
Continuous
 62
     7
370
    25
100
AcDbCircle
 10
212.0547009886
 20
219.6515119986
 30
0.0
 40
1.004246621277335
100
AcDbArc
 50
269.5906157632
 51
331.6536702922
  0
LINE
  5
DA
330
1F
100
AcDbEntity
  8
0
  6
Continuous
 62
     7
370
    25
100
AcDbLine
 10
212.9385321285
 20
219.1746956895
 30
0.0
 11
214.9256813815
 21
222.9418064121
 31
0.0
  0
LINE
  5
DB
330
1F
100
AcDbEntity
  8
0
  6
Continuous
 62
     7
370
    25
100
AcDbLine
 10
183.4050515464
 20
225.2313037867
 30
0.0
 11
183.4050515464
 21
218.6348542747
 31
0.0
  0
LINE
  5
DC
330
1F
100
AcDbEntity
  8
0
  6
Continuous
 62
     7
370
    25
100
AcDbLine
 10
263.0850515464
 20
225.2313037867
 30
0.0
 11
263.0850515464
 21
218.6348542747
 31
0.0
  0
LINE
  5
DD
330
1F
100
AcDbEntity
  8
0
  6
Continuous
 62
     7
370
    25
100
AcDbLine
 10
263.0850515464
 20
225.2727148339
 30
0.0
 11
262.7850515464
 21
225.2727148339
 31
0.0
  0
LINE
  5
DE
330
1F
100
AcDbEntity
  8
0
  6
Continuous
 62
     7
370
    25
100
AcDbLine
 10
263.0850515464
 20
225.2727148339
 30
0.0
 11
263.0850515464
 21
225.2313037867
 31
0.0
  0
SPLINE
  5
DF
330
1F
100
AcDbEntity
  8
0
  6
Continuous
 62
     7
370
    25
100
AcDbSpline
210
0.0
220
0.0
230
1.0
 70
     8
 71
     3
 72
    15
 73
    11
 74
     0
 42
0.000000001
 43
0.00000001
 40
0.0
 40
0.0
 40
0.0
 40
0.0
 40
0.123177804458856
 40
0.2499213213526474
 40
0.3731889665484202
 40
0.5000303886079246
 40
0.6232982447238749
 40
0.7501398967693438
 40
0.8732884063271853
 40
1.0
 40
1.0
 40
1.0
 40
1.0
 10
183.7050515463913
 20
225.6503605474468
 30
0.0
 10
183.6857040200295
 20
225.6492746931388
 30
0.0
 10
183.6464489011832
 20
225.6470715515531
 30
0.0
 10
183.5900446828515
 20
225.6293967915195
 30
0.0
 10
183.5375531604984
 20
225.6016156343525
 30
0.0
 10
183.4919466413712
 20
225.5642365339511
 30
0.0
 10
183.4541028896193
 20
225.5183171259662
 30
0.0
 10
183.4264383759399
 20
225.4663776287452
 30
0.0
 10
183.4084559801734
 20
225.4095151512073
 30
0.0
 10
183.4061970951238
 20
225.3702653203684
 30
0.0
 10
183.4050515463913
 20
225.3503605474467
 30
0.0
  0
LINE
  5
E0
330
1F
100
AcDbEntity
  8
0
  6
Continuous
 62
     7
370
    25
100
AcDbLine
 10
183.4050515464
 20
225.3503605474
 30
0.0
 11
183.2450515464
 21
225.3503605474
 31
0.0
  0
SPLINE
  5
E1
330
1F
100
AcDbEntity
  8
0
  6
Continuous
 62
     7
370
    25
100
AcDbSpline
210
0.0
220
0.0
230
1.0
 70
     8
 71
     3
 72
    16
 73
    12
 74
     0
 42
0.000000001
 43
0.00000001
 40
0.0
 40
0.0
 40
0.0
 40
0.0
 40
0.1045396062630179
 40
0.2116278742840663
 40
0.3251882731996751
 40
0.4420410254571378
 40
0.5556101102403899
 40
0.6724723355468363
 40
0.7860412510146665
 40
0.9029032995394606
 40
1.0
 40
1.0
 40
1.0
 40
1.0
 10
183.7050515463913
 20
225.8103605474467
 30
0.0
 10
183.6798764166114
 20
225.8091622295654
 30
0.0
 10
183.6289123907212
 20
225.8067363789715
 30
0.0
 10
183.5527291884692
 20
225.7866904928977
 30
0.0
 10
183.4782592015663
 20
225.7535056295895
 30
0.0
 10
183.4096972429618
 20
225.7062846980369
 30
0.0
 10
183.3502220744526
 20
225.6470306991969
 30
0.0
 10
183.3027475064245
 20
225.5786374534274
 30
0.0
 10
183.2683106641774
 20
225.5021427977811
 30
0.0
 10
183.2483954479251
 20
225.4252520784853
 30
0.0
 10
183.2460953532308
 20
225.3737381174885
 30
0.0
 10
183.2450515463913
 20
225.3503605474467
 30
0.0
  0
LINE
  5
E2
330
1F
100
AcDbEntity
  8
0
  6
Continuous
 62
     7
370
    25
100
AcDbLine
 10
263.0850515464
 20
225.3503605474
 30
0.0
 11
263.2450515464
 21
225.3503605474
 31
0.0
  0
SPLINE
  5
E3
330
1F
100
AcDbEntity
  8
0
  6
Continuous
 62
     7
370
    25
100
AcDbSpline
210
0.0
220
0.0
230
1.0
 70
     8
 71
     3
 72
    15
 73
    11
 74
     0
 42
0.000000001
 43
0.00000001
 40
0.0
 40
0.0
 40
0.0
 40
0.0
 40
0.1231778044588419
 40
0.249921321352651
 40
0.3731889665484163
 40
0.5000303886079156
 40
0.623298244723855
 40
0.7501398967693337
 40
0.8732884063271882
 40
1.0
 40
1.0
 40
1.0
 40
1.0
 10
263.0850515463913
 20
225.3503605474467
 30
0.0
 10
263.0839656920834
 20
225.3697080738086
 30
0.0
 10
263.0817625504976
 20
225.4089631926548
 30
0.0
 10
263.0640877904641
 20
225.4653674109866
 30
0.0
 10
263.036306633297
 20
225.5178589333397
 30
0.0
 10
262.9989275328956
 20
225.5634654524669
 30
0.0
 10
262.9530081249108
 20
225.6013092042187
 30
0.0
 10
262.9010686276898
 20
225.6289737178982
 30
0.0
 10
262.8442061501519
 20
225.6469561136646
 30
0.0
 10
262.804956319313
 20
225.6492149987142
 30
0.0
 10
262.7850515463913
 20
225.6503605474468
 30
0.0
  0
SPLINE
  5
E4
330
1F
100
AcDbEntity
  8
0
  6
Continuous
 62
     7
370
    25
100
AcDbSpline
210
0.0
220
0.0
230
1.0
 70
     8
 71
     3
 72
    16
 73
    12
 74
     0
 42
0.000000001
 43
0.00000001
 40
0.0
 40
0.0
 40
0.0
 40
0.0
 40
0.1045396062629991
 40
0.2116278742840615
 40
0.3251882731996955
 40
0.4420410254571346
 40
0.555610110240399
 40
0.6724723355468345
 40
0.7860412510146738
 40
0.9029032995394638
 40
1.0
 40
1.0
 40
1.0
 40
1.0
 10
263.2450515463913
 20
225.3503605474467
 30
0.0
 10
263.24385322851
 20
225.3755356772266
 30
0.0
 10
263.241427377916
 20
225.4264997031168
 30
0.0
 10
263.2213814918423
 20
225.5026829053689
 30
0.0
 10
263.188196628534
 20
225.5771528922718
 30
0.0
 10
263.1409756969814
 20
225.6457148508762
 30
0.0
 10
263.0817216981415
 20
225.7051900193855
 30
0.0
 10
263.013328452372
 20
225.7526645874135
 30
0.0
 10
262.9368337967257
 20
225.7871014296607
 30
0.0
 10
262.8599430774298
 20
225.807016645913
 30
0.0
 10
262.808429116433
 20
225.8093167406073
 30
0.0
 10
262.7850515463913
 20
225.8103605474467
 30
0.0
  0
LINE
  5
E5
330
1F
100
AcDbEntity
  8
0
  6
Continuous
 62
     7
370
    25
100
AcDbLine
 10
183.2450515464
 20
225.2778912148
 30
0.0
 11
183.4050515464
 21
225.2778912148
 31
0.0
  0
LINE
  5
E6
330
1F
100
AcDbEntity
  8
0
  6
Continuous
 62
     7
370
    25
100
AcDbLine
 10
183.2450515464
 20
225.2778912148
 30
0.0
 11
183.2450515464
 21
225.3503605474
 31
0.0
  0
LINE
  5
E7
330
1F
100
AcDbEntity
  8
0
  6
Continuous
 62
     7
370
    25
100
AcDbLine
 10
183.4050515464
 20
225.2778912148
 30
0.0
 11
183.4050515464
 21
225.3503605474
 31
0.0
  0
LINE
  5
E8
330
1F
100
AcDbEntity
  8
0
  6
Continuous
 62
     7
370
    25
100
AcDbLine
 10
263.2450515464
 20
225.2778912148
 30
0.0
 11
263.0850515464
 21
225.2778912148
 31
0.0
  0
LINE
  5
E9
330
1F
100
AcDbEntity
  8
0
  6
Continuous
 62
     7
370
    25
100
AcDbLine
 10
263.2450515464
 20
225.3503605474
 30
0.0
 11
263.2450515464
 21
225.2778912148
 31
0.0
  0
LINE
  5
EA
330
1F
100
AcDbEntity
  8
0
  6
Continuous
 62
     7
370
    25
100
AcDbLine
 10
263.0850515464
 20
225.3503605474
 30
0.0
 11
263.0850515464
 21
225.2778912148
 31
0.0
  0
LINE
  5
EB
330
1F
100
AcDbEntity
  8
0
  6
Continuous
 62
     7
370
    25
100
AcDbLine
 10
263.2450515464
 20
218.6814417028
 30
0.0
 11
263.0850515464
 21
218.6814417028
 31
0.0
  0
LINE
  5
EC
330
1F
100
AcDbEntity
  8
0
  6
Continuous
 62
     7
370
    25
100
AcDbLine
 10
263.2450515464
 20
225.2778912148
 30
0.0
 11
263.2450515464
 21
218.6814417028
 31
0.0
  0
LINE
  5
ED
330
1F
100
AcDbEntity
  8
0
  6
Continuous
 62
     7
370
    25
100
AcDbLine
 10
263.0850515464
 20
225.2778912148
 30
0.0
 11
263.0850515464
 21
225.2727148339
 31
0.0
  0
LINE
  5
EE
330
1F
100
AcDbEntity
  8
0
  6
Continuous
 62
     7
370
    25
100
AcDbLine
 10
183.2450515464
 20
218.6814417028
 30
0.0
 11
183.4050515464
 21
218.6814417028
 31
0.0
  0
LINE
  5
EF
330
1F
100
AcDbEntity
  8
0
  6
Continuous
 62
     7
370
    25
100
AcDbLine
 10
183.2450515464
 20
218.6814417028
 30
0.0
 11
183.2450515464
 21
225.2778912148
 31
0.0
  0
LINE
  5
F0
330
1F
100
AcDbEntity
  8
0
  6
Continuous
 62
     7
370
    25
100
AcDbLine
 10
183.4050515464
 20
225.2727148339
 30
0.0
 11
183.4050515464
 21
225.2778912148
 31
0.0
  0
LINE
  5
F1
330
1F
100
AcDbEntity
  8
0
  6
Continuous
 62
     7
370
    25
100
AcDbLine
 10
234.9261125584
 20
222.9839359375
 30
0.0
 11
234.9261125584
 21
222.9425248903
 31
0.0
  0
LWPOLYLINE
  5
F2
330
1F
100
AcDbEntity
  8
0
  6
Continuous
 62
     7
370
    25
100
AcDbPolyline
 90
        3
 70
   128
 43
0.0
 10
234.9261125584
 20
222.9839359375
 10
235.0116495602
 20
223.2154209486
 10
235.0344976521
 20
223.4010330843
  0
LINE
  5
F3
330
1F
100
AcDbEntity
  8
0
  6
Continuous
 62
     7
370
    25
100
AcDbLine
 10
214.9256813815
 20
222.9832174593
 30
0.0
 11
214.9256813815
 21
222.9418064121
 31
0.0
  0
LWPOLYLINE
  5
F4
330
1F
100
AcDbEntity
  8
0
  6
Continuous
 62
     7
370
    25
100
AcDbPolyline
 90
        3
 70
   128
 43
0.0
 10
214.9256813815
 20
222.9832174593
 10
215.0114407386
 20
223.2147318621
 10
215.0344450813
 20
223.4010330843
  0
LINE
  5
F5
330
1F
100
AcDbEntity
  8
0
  6
Continuous
 62
     7
370
    25
100
AcDbLine
 10
232.9430617109
 20
219.216825215
 30
0.0
 11
232.9430617109
 21
219.1754141677
 31
0.0
  0
LINE
  5
F6
330
1F
100
AcDbEntity
  8
0
  6
Continuous
 62
     7
370
    25
100
AcDbLine
 10
232.9430617109
 20
219.216825215
 30
0.0
 11
234.9261125584
 21
222.9839359375
 31
0.0
  0
LINE
  5
F7
330
1F
100
AcDbEntity
  8
0
  6
Continuous
 62
     7
370
    25
100
AcDbLine
 10
212.9385321285
 20
219.2161067368
 30
0.0
 11
212.9385321285
 21
219.1746956895
 31
0.0
  0
LINE
  5
F8
330
1F
100
AcDbEntity
  8
0
  6
Continuous
 62
     7
370
    25
100
AcDbLine
 10
212.9385321285
 20
219.2161067368
 30
0.0
 11
214.9256813815
 21
222.9832174593
 31
0.0
  0
LINE
  5
F9
330
1F
100
AcDbEntity
  8
0
  6
Continuous
 62
     7
370
    25
100
AcDbLine
 10
236.2938031575
 20
218.6887020591
 30
0.0
 11
236.2938031575
 21
218.6472910118
 31
0.0
  0
ARC
  5
FA
330
1F
100
AcDbEntity
  8
0
  6
Continuous
 62
     7
370
    25
100
AcDbCircle
 10
236.2777107712
 20
219.6730252579
 30
0.0
 40
0.984454734686004
100
AcDbArc
 50
182.2764078214
 51
270.9366270025
  0
LINE
  5
FB
330
1F
100
AcDbEntity
  8
0
  6
Continuous
 62
     7
370
    25
100
AcDbLine
 10
216.2953756646
 20
218.6887020591
 30
0.0
 11
216.2953756646
 21
218.6472910118
 31
0.0
  0
ARC
  5
FC
330
1F
100
AcDbEntity
  8
0
  6
Continuous
 62
     7
370
    25
100
AcDbCircle
 10
216.2792900334
 20
219.6730324029
 30
0.0
 40
0.9844617683743353
100
AcDbArc
 50
182.2768077218
 51
270.9362271047
  0
LINE
  5
FD
330
1F
100
AcDbEntity
  8
0
  6
Continuous
 62
     7
370
    25
100
AcDbLine
 10
186.3250515464
 20
218.6887020591
 30
0.0
 11
186.3250515464
 21
218.6472910118
 31
0.0
  0
ARC
  5
FE
330
1F
100
AcDbEntity
  8
0
  6
Continuous
 62
     7
370
    25
100
AcDbCircle
 10
186.3083047219
 20
219.6719654739
 30
0.0
 40
0.9834060194313728
100
AcDbArc
 50
181.0101851092
 51
270.9757604995
  0
LINE
  5
FF
330
1F
100
AcDbEntity
  8
0
  6
Continuous
 62
     7
370
    25
100
AcDbLine
 10
260.1650515464
 20
218.6887020591
 30
0.0
 11
260.1650515464
 21
218.6472910118
 31
0.0
  0
ARC
  5
100
330
1F
100
AcDbEntity
  8
0
  6
Continuous
 62
     7
370
    25
100
AcDbCircle
 10
260.1817983709
 20
219.6719654739
 30
0.0
 40
0.9834060194312854
100
AcDbArc
 50
269.0242395005
 51
358.9898148908
  0
LINE
  5
101
330
1F
100
AcDbEntity
  8
0
  6
Continuous
 62
     7
370
    25
100
AcDbLine
 10
232.0516765807
 20
218.6887020591
 30
0.0
 11
232.0516765807
 21
218.6472910118
 31
0.0
  0
ARC
  5
102
330
1F
100
AcDbEntity
  8
0
  6
Continuous
 62
     7
370
    25
100
AcDbCircle
 10
232.0588660309
 20
219.6928848603
 30
0.0
 40
1.004208537388358
100
AcDbArc
 50
269.5897976815
 51
331.7015410578
  0
LINE
  5
103
330
1F
100
AcDbEntity
  8
0
  6
Continuous
 62
     7
370
    25
100
AcDbLine
 10
212.0475256043
 20
218.6887020591
 30
0.0
 11
212.0475256043
 21
218.6472910118
 31
0.0
  0
ARC
  5
104
330
1F
100
AcDbEntity
  8
0
  6
Continuous
 62
     7
370
    25
100
AcDbCircle
 10
212.0547009886
 20
219.6929230458
 30
0.0
 40
1.004246621277165
100
AcDbArc
 50
269.5906157631
 51
331.6536702922
  0
LINE
  5
105
330
1F
100
AcDbEntity
  8
0
  6
Continuous
 62
     7
370
    25
100
AcDbLine
 10
236.2938031575
 20
218.6887020591
 30
0.0
 11
260.1650515464
 21
218.6887020591
 31
0.0
  0
LINE
  5
106
330
1F
100
AcDbEntity
  8
0
  6
Continuous
 62
     7
370
    25
100
AcDbLine
 10
186.3250515464
 20
218.6887020591
 30
0.0
 11
212.0475256043
 21
218.6887020591
 31
0.0
  0
LINE
  5
107
330
1F
100
AcDbEntity
  8
0
  6
Continuous
 62
     7
370
    25
100
AcDbLine
 10
216.2953756646
 20
218.6887020591
 30
0.0
 11
232.0516765807
 21
218.6887020591
 31
0.0
  0
LINE
  5
108
330
1F
100
AcDbEntity
  8
0
  6
Continuous
 62
     7
370
    25
100
AcDbLine
 10
263.0850515464
 20
218.6348542747
 30
0.0
 11
263.0850515464
 21
214.8103605474
 31
0.0
  0
LINE
  5
109
330
1F
100
AcDbEntity
  8
0
  6
Continuous
 62
     7
370
    25
100
AcDbLine
 10
263.0850515464
 20
214.8103605474
 30
0.0
 11
183.4050515464
 21
214.8103605474
 31
0.0
  0
LINE
  5
10A
330
1F
100
AcDbEntity
  8
0
  6
Continuous
 62
     7
370
    25
100
AcDbLine
 10
183.4050515464
 20
218.6348542747
 30
0.0
 11
183.4050515464
 21
214.8103605474
 31
0.0
  0
LINE
  5
10B
330
1F
100
AcDbEntity
  8
0
  6
Continuous
 62
     7
370
    25
100
AcDbLine
 10
263.2450515464
 20
214.9903605474
 30
0.0
 11
263.0850515464
 21
214.9903605474
 31
0.0
  0
LINE
  5
10C
330
1F
100
AcDbEntity
  8
0
  6
Continuous
 62
     7
370
    25
100
AcDbLine
 10
263.2450515464
 20
218.6814417028
 30
0.0
 11
263.2450515464
 21
214.9903605474
 31
0.0
  0
LINE
  5
10D
330
1F
100
AcDbEntity
  8
0
  6
Continuous
 62
     7
370
    25
100
AcDbLine
 10
183.2450515464
 20
214.9903605474
 30
0.0
 11
183.4050515464
 21
214.9903605474
 31
0.0
  0
LINE
  5
10E
330
1F
100
AcDbEntity
  8
0
  6
Continuous
 62
     7
370
    25
100
AcDbLine
 10
183.2450515464
 20
214.9903605474
 30
0.0
 11
183.2450515464
 21
218.6814417028
 31
0.0
  0
ARC
  5
10F
330
1F
100
AcDbEntity
  8
0
  6
Continuous
 62
     7
370
    25
100
AcDbCircle
 10
223.3574994728
 20
60.8408493454
 30
0.0
 40
10.72907820098945
100
AcDbArc
 50
78.6179185718
 51
88.9983771753
  0
LINE
  5
110
330
1F
100
AcDbEntity
  8
0
  6
Continuous
 62
     7
370
    25
100
AcDbLine
 10
223.5450515464
 20
71.568288148
 30
0.0
 11
223.5450515464
 21
71.8622590759
 31
0.0
  0
LINE
  5
111
330
1F
100
AcDbEntity
  8
0
  6
Continuous
 62
     7
370
    25
100
AcDbLine
 10
223.5041814089
 20
72.4903605474
 30
0.0
 11
223.5450515464
 21
71.8622590759
 31
0.0
  0
LINE
  5
112
330
1F
100
AcDbEntity
  8
0
  6
Continuous
 62
     7
370
    25
100
AcDbLine
 10
222.9859216839
 20
72.4903605474
 30
0.0
 11
222.9450515464
 21
71.8622590759
 31
0.0
  0
LINE
  5
113
330
1F
100
AcDbEntity
  8
0
  6
Continuous
 62
     7
370
    25
100
AcDbLine
 10
222.9450515464
 20
71.8622590759
 30
0.0
 11
222.9450515464
 21
71.568288148
 31
0.0
  0
ARC
  5
114
330
1F
100
AcDbEntity
  8
0
  6
Continuous
 62
     7
370
    25
100
AcDbCircle
 10
223.13260362
 20
60.8408493454
 30
0.0
 40
10.72907820099264
100
AcDbArc
 50
91.0016228247
 51
101.3820814282
  0
SPLINE
  5
115
330
1F
100
AcDbEntity
  8
0
  6
Continuous
 62
     7
370
    25
100
AcDbSpline
210
0.0
220
0.0
230
1.0
 70
     8
 71
     3
 72
    14
 73
    10
 74
     0
 42
0.000000001
 43
0.00000001
 40
0.0
 40
0.0
 40
0.0
 40
0.0
 40
0.0450030444518255
 40
0.1924547383736079
 40
0.4101035079917605
 40
0.6281156181474581
 40
0.8446514255152222
 40
0.9597621009663
 40
1.0
 40
1.0
 40
1.0
 40
1.0
 10
223.1385323841332
 20
71.7960818016785
 30
0.0
 10
223.1345437778342
 20
71.79860814881002
 30
0.0
 10
223.1174865722362
 20
71.80941202846216
 30
0.0
 10
223.0742957355409
 20
71.81559245929094
 30
0.0
 10
223.0202591661184
 20
71.82416092643626
 30
0.0
 10
222.9731468907989
 20
71.8311160028784
 30
0.0
 10
222.9506425888568
 20
71.8400951251618
 30
0.0
 10
222.9453365568631
 20
71.85308845072933
 30
0.0
 10
222.9451101814412
 20
71.8626852447839
 30
0.0
 10
222.9450515463915
 20
71.86517097618825
 30
0.0
  0
SPLINE
  5
116
330
1F
100
AcDbEntity
  8
0
  6
Continuous
 62
     7
370
    25
100
AcDbSpline
210
0.0
220
0.0
230
1.0
 70
     8
 71
     3
 72
    15
 73
    11
 74
     0
 42
0.000000001
 43
0.00000001
 40
0.0
 40
0.0
 40
0.0
 40
0.0
 40
0.0802877089726089
 40
0.2296499816480043
 40
0.438929653161676
 40
0.6497324503840362
 40
0.8665139245762075
 40
0.9462885555629403
 40
0.9895230058022434
 40
1.0
 40
1.0
 40
1.0
 40
1.0
 10
223.5450515463915
 20
71.86517097618828
 30
0.0
 10
223.5448118193397
 20
71.86054939048148
 30
0.0
 10
223.5441261189536
 20
71.84733009345169
 30
0.0
 10
223.5335688776887
 20
71.83688864729983
 30
0.0
 10
223.5041383336777
 20
71.82877513052985
 30
0.0
 10
223.4537233137991
 20
71.82169491789995
 30
0.0
 10
223.4037162467544
 20
71.81482045522172
 30
0.0
 10
223.3697948816277
 20
71.8059135692025
 30
0.0
 10
223.3566425982534
 20
71.80048434191129
 30
0.0
 10
223.352398554888
 20
71.7968003950906
 30
0.0
 10
223.3515707086407
 20
71.79608180169082
 30
0.0
  0
LWPOLYLINE
  5
117
330
1F
100
AcDbEntity
  8
0
  6
Continuous
 62
     7
370
    25
100
AcDbPolyline
 90
        3
 70
   128
 43
0.0
 10
223.3450515464
 20
71.7896416295
 10
223.3459459713
 20
71.7905249867
 10
223.3515707086
 20
71.7960818017
  0
LINE
  5
118
330
1F
100
AcDbEntity
  8
0
  6
Continuous
 62
     7
370
    25
100
AcDbLine
 10
223.1450515464
 20
71.7896416295
 30
0.0
 11
223.3450515464
 21
71.7896416295
 31
0.0
  0
LWPOLYLINE
  5
119
330
1F
100
AcDbEntity
  8
0
  6
Continuous
 62
     7
370
    25
100
AcDbPolyline
 90
        3
 70
   128
 43
0.0
 10
223.1385323841
 20
71.7960818017
 10
223.1441571214
 20
71.7905249867
 10
223.1450515464
 20
71.7896416295
  0
LINE
  5
11A
330
1F
100
AcDbEntity
  8
0
  6
Continuous
 62
     7
370
    25
100
AcDbLine
 10
220.9244174358
 20
71.3717329875
 30
0.0
 11
220.7641995267
 21
72.4903605474
 31
0.0
  0
LWPOLYLINE
  5
11B
330
1F
100
AcDbEntity
  8
0
  6
Continuous
 62
     7
370
    25
100
AcDbPolyline
 90
        3
 70
   128
 43
0.0
 10
220.9195932426
 20
71.3659686297
 10
220.9199994821
 20
71.3677714625
 10
220.9244174358
 20
71.3717329875
  0
LINE
  5
11C
330
1F
100
AcDbEntity
  8
0
  6
Continuous
 62
     7
370
    25
100
AcDbLine
 10
225.7259035661
 20
72.4903605474
 30
0.0
 11
225.565685657
 21
71.3717329875
 31
0.0
  0
LWPOLYLINE
  5
11D
330
1F
100
AcDbEntity
  8
0
  6
Continuous
 62
     7
370
    25
100
AcDbPolyline
 90
        3
 70
   128
 43
0.0
 10
225.565685657
 20
71.3717329875
 10
225.5701036107
 20
71.3677714625
 10
225.5705098501
 20
71.3659686297
  0
LINE
  5
11E
330
1F
100
AcDbEntity
  8
0
  6
Continuous
 62
     7
370
    25
100
AcDbLine
 10
225.565685657
 20
69.4782317318
 30
0.0
 11
226.0640275731
 21
72.1121705152
 31
0.0
  0
LINE
  5
11F
330
1F
100
AcDbEntity
  8
0
  6
Continuous
 62
     7
370
    25
100
AcDbLine
 10
225.1798843536
 20
70.4875894866
 30
0.0
 11
225.1784144488
 21
70.4465503933
 31
0.0
  0
LWPOLYLINE
  5
120
330
1F
100
AcDbEntity
  8
0
  6
Continuous
 62
     7
370
    25
100
AcDbPolyline
 90
        3
 70
   128
 43
0.0
 10
221.3117172538
 20
70.4050339478
 10
221.3118865684
 20
70.4249823597
 10
221.311688644
 20
70.4465503933
  0
LINE
  5
121
330
1F
100
AcDbEntity
  8
0
  6
Continuous
 62
     7
370
    25
100
AcDbLine
 10
220.4260755197
 20
72.1121705152
 30
0.0
 11
220.9244174358
 21
69.4782317318
 31
0.0
  0
LINE
  5
122
330
1F
100
AcDbEntity
  8
0
  6
Continuous
 62
     7
370
    25
100
AcDbLine
 10
223.1450515464
 20
71.6308021807
 30
0.0
 11
223.1450515464
 21
71.7896416295
 31
0.0
  0
ARC
  5
123
330
1F
100
AcDbEntity
  8
0
  6
Continuous
 62
     7
370
    25
100
AcDbCircle
 10
223.1402769713
 20
71.435570592
 30
0.0
 40
0.1952899633288974
100
AcDbArc
 50
88.5990561917
 51
178.5269450074
  0
ARC
  5
124
330
1F
100
AcDbEntity
  8
0
  6
Continuous
 62
     7
370
    25
100
AcDbCircle
 10
223.3498261215
 20
71.435570592
 30
0.0
 40
0.1952899633288557
100
AcDbArc
 50
1.4730549925
 51
91.4009438083
  0
LINE
  5
125
330
1F
100
AcDbEntity
  8
0
  6
Continuous
 62
     7
370
    25
100
AcDbLine
 10
223.3450515464
 20
71.7896416295
 30
0.0
 11
223.3450515464
 21
71.6308021807
 31
0.0
  0
ARC
  5
126
330
1F
100
AcDbEntity
  8
0
  6
Continuous
 62
     7
370
    25
100
AcDbCircle
 10
225.2458607203
 20
71.394702267
 30
0.0
 40
0.2318091493032712
100
AcDbArc
 50
302.9702880511
 51
351.1198026019
  0
ARC
  5
127
330
1F
100
AcDbEntity
  8
0
  6
Continuous
 62
     7
370
    25
100
AcDbCircle
 10
223.3544104582
 20
61.182453839
 30
0.0
 40
10.21892665869739
100
AcDbArc
 50
78.6128353668
 51
88.9310459101
  0
SPLINE
  5
128
330
1F
100
AcDbEntity
  8
0
  6
Continuous
 62
     7
370
    25
100
AcDbSpline
210
0.0
220
0.0
230
1.0
 70
    24
 71
     3
 72
    11
 73
     7
 74
     0
 42
0.000000001
 43
0.00000001
 40
0.0
 40
0.0
 40
0.0
 40
0.0
 40
0.2947335968588568
 40
0.5894836108222867
 40
0.8837752324725744
 40
1.0
 40
1.0
 40
1.0
 40
1.0
 10
223.5450515463915
 20
71.39960207276691
 30
0.0
 10
223.5450515463915
 20
71.4087010020234
 30
0.0
 10
223.5450515463915
 20
71.42689936736043
 30
0.0
 10
223.5450515463915
 20
71.47842656253697
 30
0.0
 10
223.5450515463915
 20
71.52846111810298
 30
0.0
 10
223.5450515463915
 20
71.55950036437956
 30
0.0
 10
223.5450515463915
 20
71.56828814795611
 30
0.0
  0
ARC
  5
129
330
1F
100
AcDbEntity
  8
0
  6
Continuous
 62
     7
370
    25
100
AcDbCircle
 10
223.1356926346
 20
61.182453839
 30
0.0
 40
10.21892665869884
100
AcDbArc
 50
91.0689540899
 51
101.3871646332
  0
ARC
  5
12A
330
1F
100
AcDbEntity
  8
0
  6
Continuous
 62
     7
370
    25
100
AcDbCircle
 10
221.2442423725
 20
71.394702267
 30
0.0
 40
0.2318091493031139
100
AcDbArc
 50
188.8801973981
 51
237.0297119489
  0
SPLINE
  5
12B
330
1F
100
AcDbEntity
  8
0
  6
Continuous
 62
     7
370
    25
100
AcDbSpline
210
0.0
220
0.0
230
1.0
 70
    24
 71
     3
 72
    11
 73
     7
 74
     0
 42
0.000000001
 43
0.00000001
 40
0.0
 40
0.0
 40
0.0
 40
0.0
 40
0.2933118760927159
 40
0.5865991201419811
 40
0.8805021461503085
 40
1.0
 40
1.0
 40
1.0
 40
1.0
 10
222.9450515463915
 20
71.56828814795612
 30
0.0
 10
222.9450515463915
 20
71.54615169090961
 30
0.0
 10
222.9450515463915
 20
71.50188063581446
 30
0.0
 10
222.9450515463915
 20
71.44630186367509
 30
0.0
 10
222.9450515463915
 20
71.41378259409389
 30
0.0
 10
222.9450515463915
 20
71.40278192994774
 30
0.0
 10
222.9450515463915
 20
71.39960207276688
 30
0.0
  0
LWPOLYLINE
  5
12C
330
1F
100
AcDbEntity
  8
0
  6
Continuous
 62
     7
370
    25
100
AcDbPolyline
 90
        9
 70
   128
 43
0.0
 10
222.9450515464
 20
69.1874329205
 10
222.9678876866
 20
69.1519562153
 10
223.032919512
 20
69.1218805169
 10
223.1302465167
 20
69.1017845776
 10
223.2450515464
 20
69.0947278222
 10
223.3598565761
 20
69.1017845776
 10
223.4571835807
 20
69.1218805169
 10
223.5222154061
 20
69.1519562153
 10
223.5450515464
 20
69.1874329205
  0
ARC
  5
12D
330
1F
100
AcDbEntity
  8
0
  6
Continuous
 62
     7
370
    25
100
AcDbCircle
 10
226.3803781314
 20
70.2380907014
 30
0.0
 40
1.393737730829731
100
AcDbArc
 50
136.3440107032
 51
223.6559892968
  0
ARC
  5
12E
330
1F
100
AcDbEntity
  8
0
  6
Continuous
 62
     7
370
    25
100
AcDbCircle
 10
223.2450515464
 20
80.1493706118
 30
0.0
 40
11.07949028378507
100
AcDbArc
 50
258.9320636459
 51
281.0679363541
  0
ARC
  5
12F
330
1F
100
AcDbEntity
  8
0
  6
Continuous
 62
     7
370
    25
100
AcDbCircle
 10
220.1097249614
 20
70.2380907014
 30
0.0
 40
1.393737730829711
100
AcDbArc
 50
316.3440107032
 51
43.6559892968
  0
LINE
  5
130
330
1F
100
AcDbEntity
  8
0
  6
Continuous
 62
     7
370
    25
100
AcDbLine
 10
222.9450515464
 20
71.3996020728
 30
0.0
 11
222.9450515464
 21
69.1874329205
 31
0.0
  0
LINE
  5
131
330
1F
100
AcDbEntity
  8
0
  6
Continuous
 62
     7
370
    25
100
AcDbLine
 10
223.5450515464
 20
69.1874329205
 30
0.0
 11
223.5450515464
 21
71.3996020728
 31
0.0
  0
LINE
  5
132
330
1F
100
AcDbEntity
  8
0
  6
Continuous
 62
     7
370
    25
100
AcDbLine
 10
223.3450515464
 20
71.6308021807
 30
0.0
 11
223.1450515464
 21
71.6308021807
 31
0.0
  0
ARC
  5
133
330
1F
100
AcDbEntity
  8
0
  6
Continuous
 62
     7
370
    25
100
AcDbCircle
 10
223.3498261215
 20
69.2775182868
 30
0.0
 40
0.1952899633287717
100
AcDbArc
 50
1.4730549925
 51
91.4009438083
  0
LINE
  5
134
330
1F
100
AcDbEntity
  8
0
  6
Continuous
 62
     7
370
    25
100
AcDbLine
 10
223.3450515464
 20
69.4727498754
 30
0.0
 11
223.3450515464
 21
71.6308021807
 31
0.0
  0
LINE
  5
135
330
1F
100
AcDbEntity
  8
0
  6
Continuous
 62
     7
370
    25
100
AcDbLine
 10
223.1450515464
 20
71.6308021807
 30
0.0
 11
223.1450515464
 21
69.4727498754
 31
0.0
  0
ARC
  5
136
330
1F
100
AcDbEntity
  8
0
  6
Continuous
 62
     7
370
    25
100
AcDbCircle
 10
223.1402769713
 20
69.2775182868
 30
0.0
 40
0.1952899633289401
100
AcDbArc
 50
88.5990561917
 51
178.5269450074
  0
LWPOLYLINE
  5
137
330
1F
100
AcDbEntity
  8
0
  6
Continuous
 62
     7
370
    25
100
AcDbPolyline
 90
        9
 70
   128
 43
0.0
 10
223.1450515464
 20
69.4727498754
 10
223.1526635931
 20
69.460924307
 10
223.1743408683
 20
69.4508990742
 10
223.2067832032
 20
69.4442004278
 10
223.2450515464
 20
69.441848176
 10
223.2833198896
 20
69.4442004278
 10
223.3157622245
 20
69.4508990742
 10
223.3374394996
 20
69.460924307
 10
223.3450515464
 20
69.4727498754
  0
ARC
  5
138
330
1F
100
AcDbEntity
  8
0
  6
Continuous
 62
     7
370
    25
100
AcDbCircle
 10
221.1354627779
 20
69.4864455715
 30
0.0
 40
0.2112051220643804
100
AcDbArc
 50
182.228814608
 51
265.2820210055
  0
ARC
  5
139
330
1F
100
AcDbEntity
  8
0
  6
Continuous
 62
     7
370
    25
100
AcDbCircle
 10
225.3546403149
 20
69.4864455715
 30
0.0
 40
0.2112051220643992
100
AcDbArc
 50
274.7179789945
 51
357.771185392
  0
LWPOLYLINE
  5
13A
330
1F
100
AcDbEntity
  8
0
  6
Continuous
 62
     7
370
    25
100
AcDbPolyline
 90
        3
 70
   128
 43
0.0
 10
220.920785296
 20
69.4334488852
 10
220.9203873849
 20
69.4360924537
 10
220.9203059613
 20
69.4367104917
  0
LWPOLYLINE
  5
13B
330
1F
100
AcDbEntity
  8
0
  6
Continuous
 62
     7
370
    25
100
AcDbPolyline
 90
        9
 70
   128
 43
0.0
 10
223.5450515464
 20
69.2825385722
 10
223.5222154061
 20
69.2470618669
 10
223.4571835807
 20
69.2169861685
 10
223.3598565761
 20
69.1968902293
 10
223.2450515464
 20
69.1898334738
 10
223.1302465167
 20
69.1968902293
 10
223.032919512
 20
69.2169861685
 10
222.9678876866
 20
69.2470618669
 10
222.9450515464
 20
69.2825385722
  0
ARC
  5
13C
330
1F
100
AcDbEntity
  8
0
  6
Continuous
 62
     7
370
    25
100
AcDbCircle
 10
231.2450515464
 20
220.4703605474
 30
0.0
 40
2.000000000000005
100
AcDbArc
 50
297.4193494811
 51
242.9776349799
  0
ARC
  5
13D
330
1F
100
AcDbEntity
  8
0
  6
Continuous
 62
     7
370
    25
100
AcDbCircle
 10
215.2450515464
 20
220.4703605474
 30
0.0
 40
2.000000000000012
100
AcDbArc
 50
108.8611017189
 51
195.5156438811
  0
ARC
  5
13E
330
1F
100
AcDbEntity
  8
0
  6
Continuous
 62
     7
370
    25
100
AcDbCircle
 10
215.2450515464
 20
220.4703605474
 30
0.0
 40
1.999999999999997
100
AcDbArc
 50
297.508182398
 51
52.5662765249
  0
ARC
  5
13F
330
1F
100
AcDbEntity
  8
0
  6
Continuous
 62
     7
370
    25
100
AcDbCircle
 10
209.2450515464
 20
220.4703605474
 30
0.0
 40
2.000000000000016
100
AcDbArc
 50
90.0
 51
242.9776349799
  0
ARC
  5
140
330
1F
100
AcDbEntity
  8
0
  6
Continuous
 62
     7
370
    25
100
AcDbCircle
 10
209.2450515464
 20
220.4703605474
 30
0.0
 40
2.000000000000004
100
AcDbArc
 50
297.0223650201
 51
90.0
  0
ARC
  5
141
330
1F
100
AcDbEntity
  8
0
  6
Continuous
 62
     7
370
    25
100
AcDbCircle
 10
203.2450515464
 20
220.4703605474
 30
0.0
 40
2.000000000000004
100
AcDbArc
 50
90.0
 51
242.9776349799
  0
ARC
  5
142
330
1F
100
AcDbEntity
  8
0
  6
Continuous
 62
     7
370
    25
100
AcDbCircle
 10
203.2450515464
 20
220.4703605474
 30
0.0
 40
2.000000000000004
100
AcDbArc
 50
297.0223650201
 51
90.0
  0
ARC
  5
143
330
1F
100
AcDbEntity
  8
0
  6
Continuous
 62
     7
370
    25
100
AcDbCircle
 10
243.2450515464
 20
220.4703605474
 30
0.0
 40
2.000000000000004
100
AcDbArc
 50
297.0223650201
 51
242.9776349799
  0
ARC
  5
144
330
1F
100
AcDbEntity
  8
0
  6
Continuous
 62
     7
370
    25
100
AcDbCircle
 10
237.2450515464
 20
220.4703605474
 30
0.0
 40
2.000000000000006
100
AcDbArc
 50
297.0223650201
 51
108.001233003
  0
ARC
  5
145
330
1F
100
AcDbEntity
  8
0
  6
Continuous
 62
     7
370
    25
100
AcDbCircle
 10
237.2450515464
 20
220.4703605474
 30
0.0
 40
2.000000000000016
100
AcDbArc
 50
197.0959197701
 51
242.9776349799
  0
LINE
  5
146
330
1F
100
AcDbEntity
  8
0
  6
Continuous
 62
     7
370
    25
100
AcDbLine
 10
186.2450515464
 20
82.7903605474
 30
0.0
 11
186.2450515464
 21
82.8303605474
 31
0.0
  0
LINE
  5
147
330
1F
100
AcDbEntity
  8
0
  6
Continuous
 62
     7
370
    25
100
AcDbLine
 10
183.2450515464
 20
82.8303605474
 30
0.0
 11
183.2450515464
 21
80.5625283843
 31
0.0
  0
LINE
  5
148
330
1F
100
AcDbEntity
  8
0
  6
Continuous
 62
     7
370
    25
100
AcDbLine
 10
183.2450515464
 20
80.1725952126
 30
0.0
 11
183.2450515464
 21
80.5625283843
 31
0.0
  0
LINE
  5
149
330
1F
100
AcDbEntity
  8
0
  6
Continuous
 62
     7
370
    25
100
AcDbLine
 10
260.2450515464
 20
82.7903605474
 30
0.0
 11
260.2450515464
 21
82.8303605474
 31
0.0
  0
LINE
  5
14A
330
1F
100
AcDbEntity
  8
0
  6
Continuous
 62
     7
370
    25
100
AcDbLine
 10
263.2450515464
 20
82.8303605474
 30
0.0
 11
263.2450515464
 21
80.5625283843
 31
0.0
  0
LINE
  5
14B
330
1F
100
AcDbEntity
  8
0
  6
Continuous
 62
     7
370
    25
100
AcDbLine
 10
263.2450515464
 20
80.5625283843
 30
0.0
 11
263.2450515464
 21
80.1725952126
 31
0.0
  0
LINE
  5
14C
330
1F
100
AcDbEntity
  8
0
  6
Continuous
 62
     7
370
    25
100
AcDbLine
 10
183.2450515464
 20
75.3077718219
 30
0.0
 11
183.2450515464
 21
78.6702925093
 31
0.0
  0
LINE
  5
14D
330
1F
100
AcDbEntity
  8
0
  6
Continuous
 62
     7
370
    25
100
AcDbLine
 10
263.2450515464
 20
75.3077718219
 30
0.0
 11
263.2450515464
 21
80.1725952126
 31
0.0
  0
LINE
  5
14E
330
1F
100
AcDbEntity
  8
0
  6
Continuous
 62
     7
370
    25
100
AcDbLine
 10
263.2450515464
 20
74.0896990759
 30
0.0
 11
263.2450515464
 21
75.3077718219
 31
0.0
  0
LINE
  5
14F
330
1F
100
AcDbEntity
  8
0
  6
Continuous
 62
     7
370
    25
100
AcDbLine
 10
183.2450515464
 20
74.0896990759
 30
0.0
 11
183.2450515464
 21
75.3077718219
 31
0.0
  0
LINE
  5
150
330
1F
100
AcDbEntity
  8
0
  6
Continuous
 62
     7
370
    25
100
AcDbLine
 10
183.2450515464
 20
70.1996205239
 30
0.0
 11
183.2450515464
 21
74.0896990759
 31
0.0
  0
LINE
  5
151
330
1F
100
AcDbEntity
  8
0
  6
Continuous
 62
     7
370
    25
100
AcDbLine
 10
263.2450515464
 20
70.1996205239
 30
0.0
 11
263.2450515464
 21
74.0896990759
 31
0.0
  0
LINE
  5
152
330
1F
100
AcDbEntity
  8
0
  6
Continuous
 62
     7
370
    25
100
AcDbLine
 10
263.2450515464
 20
68.7783840335
 30
0.0
 11
263.2450515464
 21
70.1996205239
 31
0.0
  0
LINE
  5
153
330
1F
100
AcDbEntity
  8
0
  6
Continuous
 62
     7
370
    25
100
AcDbLine
 10
183.2450515464
 20
68.7783840335
 30
0.0
 11
183.2450515464
 21
70.1996205239
 31
0.0
  0
LINE
  5
154
330
1F
100
AcDbEntity
  8
0
  6
Continuous
 62
     7
370
    25
100
AcDbLine
 10
197.6450515464
 20
211.4703605474
 30
0.0
 11
248.8450515464
 21
211.4703605474
 31
0.0
  0
LINE
  5
155
330
1F
100
AcDbEntity
  8
0
  6
Continuous
 62
     7
370
    25
100
AcDbLine
 10
248.8450515464
 20
109.8703605474
 30
0.0
 11
197.6450515464
 21
109.8703605474
 31
0.0
  0
LINE
  5
156
330
1F
100
AcDbEntity
  8
0
  6
Continuous
 62
     7
370
    25
100
AcDbLine
 10
253.8450515464
 20
114.8703605474
 30
0.0
 11
254.5050515464
 21
114.8703605474
 31
0.0
  0
LINE
  5
157
330
1F
100
AcDbEntity
  8
0
  6
Continuous
 62
     7
370
    25
100
AcDbLine
 10
253.8450515464
 20
206.4703605474
 30
0.0
 11
253.8450515464
 21
114.8703605474
 31
0.0
  0
LINE
  5
158
330
1F
100
AcDbEntity
  8
0
  6
Continuous
 62
     7
370
    25
100
AcDbLine
 10
253.8450515464
 20
206.4703605474
 30
0.0
 11
254.5050515464
 21
206.4703605474
 31
0.0
  0
LINE
  5
159
330
1F
100
AcDbEntity
  8
0
  6
Continuous
 62
     7
370
    25
100
AcDbLine
 10
192.6450515464
 20
114.8703605474
 30
0.0
 11
191.9850515464
 21
114.8703605474
 31
0.0
  0
ARC
  5
15A
330
1F
100
AcDbEntity
  8
0
  6
Continuous
 62
     7
370
    25
100
AcDbCircle
 10
197.6450515464
 20
114.8703605474
 30
0.0
 40
5.0
100
AcDbArc
 50
180.0
 51
270.0
  0
LINE
  5
15B
330
1F
100
AcDbEntity
  8
0
  6
Continuous
 62
     7
370
    25
100
AcDbLine
 10
192.6450515464
 20
206.4703605474
 30
0.0
 11
191.9850515464
 21
206.4703605474
 31
0.0
  0
LINE
  5
15C
330
1F
100
AcDbEntity
  8
0
  6
Continuous
 62
     7
370
    25
100
AcDbLine
 10
192.6450515464
 20
206.4703605474
 30
0.0
 11
192.6450515464
 21
114.8703605474
 31
0.0
  0
ARC
  5
15D
330
1F
100
AcDbEntity
  8
0
  6
Continuous
 62
     7
370
    25
100
AcDbCircle
 10
248.8450515464
 20
206.4703605474
 30
0.0
 40
5.0
100
AcDbArc
 50
0.0
 51
90.0
  0
ARC
  5
15E
330
1F
100
AcDbEntity
  8
0
  6
Continuous
 62
     7
370
    25
100
AcDbCircle
 10
197.6450515464
 20
206.4703605474
 30
0.0
 40
5.0
100
AcDbArc
 50
90.0
 51
180.0
  0
ARC
  5
15F
330
1F
100
AcDbEntity
  8
0
  6
Continuous
 62
     7
370
    25
100
AcDbCircle
 10
248.8450515464
 20
114.8703605474
 30
0.0
 40
5.0
100
AcDbArc
 50
270.0
 51
0.0
  0
ARC
  5
160
330
1F
100
AcDbEntity
  8
0
  6
Continuous
 62
     7
370
    25
100
AcDbCircle
 10
223.2450515464
 20
117.8703605474
 30
0.0
 40
6.330000000000027
100
AcDbArc
 50
315.3082276666
 51
224.6917723334
  0
LINE
  5
161
330
1F
100
AcDbEntity
  8
0
  6
Continuous
 62
     7
370
    25
100
AcDbLine
 10
186.0550515464
 20
218.7245762331
 30
0.0
 11
186.0550515464
 21
224.310379213
 31
0.0
  0
LINE
  5
162
330
1F
100
AcDbEntity
  8
0
  6
Continuous
 62
     7
370
    25
100
AcDbLine
 10
183.7850515464
 20
82.8303605474
 30
0.0
 11
186.3050515464
 21
82.8303605474
 31
0.0
  0
LINE
  5
163
330
1F
100
AcDbEntity
  8
0
  6
Continuous
 62
     7
370
    25
100
AcDbLine
 10
183.7850515464
 20
82.8303605474
 30
0.0
 11
183.2450515464
 21
82.8303605474
 31
0.0
  0
LINE
  5
164
330
1F
100
AcDbEntity
  8
0
  6
Continuous
 62
     7
370
    25
100
AcDbLine
 10
183.2450515464
 20
214.9903605474
 30
0.0
 11
183.2450515464
 21
82.8303605474
 31
0.0
  0
SPLINE
  5
165
330
1F
100
AcDbEntity
  8
0
  6
Continuous
 62
     7
370
    25
100
AcDbSpline
210
0.0
220
0.0
230
1.0
 70
     8
 71
     3
 72
     9
 73
     5
 74
     0
 42
0.000000001
 43
0.00000001
 40
0.0
 40
0.0
 40
0.0
 40
0.0
 40
0.5955697487618173
 40
0.9999999999999999
 40
0.9999999999999999
 40
0.9999999999999999
 40
0.9999999999999999
 10
183.4202910188003
 20
225.4402557332805
 30
0.0
 10
183.4701764361232
 20
225.4617551374302
 30
0.0
 10
183.55393726754
 20
225.4978540228998
 30
0.0
 10
183.66153554714
 20
225.5339529083695
 30
0.0
 10
183.7050515463915
 20
225.5485523896894
 30
0.0
  0
LINE
  5
166
330
1F
100
AcDbEntity
  8
0
  6
Continuous
 62
     7
370
    25
100
AcDbLine
 10
260.1850515464
 20
82.8303605474
 30
0.0
 11
262.7050515464
 21
82.8303605474
 31
0.0
  0
LINE
  5
167
330
1F
100
AcDbEntity
  8
0
  6
Continuous
 62
     7
370
    25
100
AcDbLine
 10
260.4350515464
 20
224.310379213
 30
0.0
 11
260.4350515464
 21
218.7245762331
 31
0.0
  0
LINE
  5
168
330
1F
100
AcDbEntity
  8
0
  6
Continuous
 62
     7
370
    25
100
AcDbLine
 10
263.2450515464
 20
214.9903605474
 30
0.0
 11
263.2450515464
 21
82.8303605474
 31
0.0
  0
LINE
  5
169
330
1F
100
AcDbEntity
  8
0
  6
Continuous
 62
     7
370
    25
100
AcDbLine
 10
263.2450515464
 20
82.8303605474
 30
0.0
 11
262.7050515464
 21
82.8303605474
 31
0.0
  0
SPLINE
  5
16A
330
1F
100
AcDbEntity
  8
0
  6
Continuous
 62
     7
370
    25
100
AcDbSpline
210
0.0
220
0.0
230
1.0
 70
     8
 71
     3
 72
     9
 73
     5
 74
     0
 42
0.000000001
 43
0.00000001
 40
0.0
 40
0.0
 40
0.0
 40
0.0
 40
0.4045643716927847
 40
1.0
 40
1.0
 40
1.0
 40
1.0
 10
262.7850515463915
 20
225.5485523896895
 30
0.0
 10
262.8285679766429
 20
225.5339529083696
 30
0.0
 10
262.9361316507979
 20
225.4978659903375
 30
0.0
 10
263.0198657793175
 20
225.4617790723055
 30
0.0
 10
263.0697240627433
 20
225.4402916355935
 30
0.0
  0
LINE
  5
16B
330
1F
100
AcDbEntity
  8
0
  6
Continuous
 62
     7
370
    25
100
AcDbLine
 10
186.8450515464
 20
82.8445026831
 30
0.0
 11
186.8450515464
 21
82.8303605474
 31
0.0
  0
LINE
  5
16C
330
1F
100
AcDbEntity
  8
0
  6
Continuous
 62
     7
370
    25
100
AcDbLine
 10
186.8450515464
 20
82.8303605474
 30
0.0
 11
186.3050515464
 21
82.8303605474
 31
0.0
  0
LINE
  5
16D
330
1F
100
AcDbEntity
  8
0
  6
Continuous
 62
     7
370
    25
100
AcDbLine
 10
186.8450515464
 20
214.8103605474
 30
0.0
 11
186.8450515464
 21
82.8445026831
 31
0.0
  0
LINE
  5
16E
330
1F
100
AcDbEntity
  8
0
  6
Continuous
 62
     7
370
    25
100
AcDbLine
 10
262.7119094108
 20
82.7903605474
 30
0.0
 11
263.2419094108
 21
82.7903605474
 31
0.0
  0
LINE
  5
16F
330
1F
100
AcDbEntity
  8
0
  6
Continuous
 62
     7
370
    25
100
AcDbLine
 10
263.2419094108
 20
82.7903605474
 30
0.0
 11
263.2419094108
 21
77.1446894174
 31
0.0
  0
LINE
  5
170
330
1F
100
AcDbEntity
  8
0
  6
Continuous
 62
     7
370
    25
100
AcDbLine
 10
263.2419094108
 20
77.1446894174
 30
0.0
 11
263.0009094108
 21
77.1446894174
 31
0.0
  0
LINE
  5
171
330
1F
100
AcDbEntity
  8
0
  6
Continuous
 62
     7
370
    25
100
AcDbLine
 10
262.7119094108
 20
77.1446894174
 30
0.0
 11
262.7119094108
 21
82.7903605474
 31
0.0
  0
LINE
  5
172
330
1F
100
AcDbEntity
  8
0
  6
Continuous
 62
     7
370
    25
100
AcDbLine
 10
263.0009094108
 20
77.1303605474
 30
0.0
 11
263.0009094108
 21
77.1446894174
 31
0.0
  0
LINE
  5
173
330
1F
100
AcDbEntity
  8
0
  6
Continuous
 62
     7
370
    25
100
AcDbLine
 10
183.489193682
 20
77.1303605474
 30
0.0
 11
263.0009094108
 21
77.1303605474
 31
0.0
  0
LINE
  5
174
330
1F
100
AcDbEntity
  8
0
  6
Continuous
 62
     7
370
    25
100
AcDbLine
 10
183.489193682
 20
77.1446894174
 30
0.0
 11
183.489193682
 21
77.1303605474
 31
0.0
  0
LINE
  5
175
330
1F
100
AcDbEntity
  8
0
  6
Continuous
 62
     7
370
    25
100
AcDbLine
 10
183.778193682
 20
77.1446894174
 30
0.0
 11
183.489193682
 21
77.1446894174
 31
0.0
  0
LINE
  5
176
330
1F
100
AcDbEntity
  8
0
  6
Continuous
 62
     7
370
    25
100
AcDbLine
 10
183.778193682
 20
82.7903605474
 30
0.0
 11
183.778193682
 21
77.1446894174
 31
0.0
  0
LINE
  5
177
330
1F
100
AcDbEntity
  8
0
  6
Continuous
 62
     7
370
    25
100
AcDbLine
 10
186.819193682
 20
82.7903605474
 30
0.0
 11
183.778193682
 21
82.7903605474
 31
0.0
  0
LINE
  5
178
330
1F
100
AcDbEntity
  8
0
  6
Continuous
 62
     7
370
    25
100
AcDbLine
 10
186.819193682
 20
82.2903605474
 30
0.0
 11
186.819193682
 21
82.7903605474
 31
0.0
  0
LINE
  5
179
330
1F
100
AcDbEntity
  8
0
  6
Continuous
 62
     7
370
    25
100
AcDbLine
 10
259.6709094108
 20
82.2903605474
 30
0.0
 11
186.819193682
 21
82.2903605474
 31
0.0
  0
LINE
  5
17A
330
1F
100
AcDbEntity
  8
0
  6
Continuous
 62
     7
370
    25
100
AcDbLine
 10
259.6709094108
 20
82.7903605474
 30
0.0
 11
259.6709094108
 21
82.2903605474
 31
0.0
  0
LINE
  5
17B
330
1F
100
AcDbEntity
  8
0
  6
Continuous
 62
     7
370
    25
100
AcDbLine
 10
262.7119094108
 20
82.7903605474
 30
0.0
 11
259.6709094108
 21
82.7903605474
 31
0.0
  0
LINE
  5
17C
330
1F
100
AcDbEntity
  8
0
  6
Continuous
 62
     7
370
    25
100
AcDbLine
 10
262.7119094108
 20
77.1446894174
 30
0.0
 11
263.0009094108
 21
77.1446894174
 31
0.0
  0
LINE
  5
17D
330
1F
100
AcDbEntity
  8
0
  6
Continuous
 62
     7
370
    25
100
AcDbLine
 10
183.489193682
 20
77.1446894174
 30
0.0
 11
183.248193682
 21
77.1446894174
 31
0.0
  0
LINE
  5
17E
330
1F
100
AcDbEntity
  8
0
  6
Continuous
 62
     7
370
    25
100
AcDbLine
 10
183.248193682
 20
77.1446894174
 30
0.0
 11
183.248193682
 21
82.7903605474
 31
0.0
  0
LINE
  5
17F
330
1F
100
AcDbEntity
  8
0
  6
Continuous
 62
     7
370
    25
100
AcDbLine
 10
183.248193682
 20
82.7903605474
 30
0.0
 11
183.778193682
 21
82.7903605474
 31
0.0
  0
LINE
  5
180
330
1F
100
AcDbEntity
  8
0
  6
Continuous
 62
     7
370
    25
100
AcDbLine
 10
183.489193682
 20
72.4903605474
 30
0.0
 11
183.489193682
 21
77.1303605474
 31
0.0
  0
LINE
  5
181
330
1F
100
AcDbEntity
  8
0
  6
Continuous
 62
     7
370
    25
100
AcDbLine
 10
263.0009094108
 20
77.1303605474
 30
0.0
 11
263.0009094108
 21
72.4903605474
 31
0.0
  0
SPLINE
  5
182
330
1F
100
AcDbEntity
  8
0
  6
Continuous
 62
     7
370
    25
100
AcDbSpline
210
0.0
220
0.0
230
1.0
 70
     8
 71
     3
 72
    11
 73
     7
 74
     0
 42
0.000000001
 43
0.00000001
 40
0.0
 40
0.0
 40
0.0
 40
0.0
 40
0.2499999999999993
 40
0.4999999999999994
 40
0.7499999999999993
 40
1.0
 40
1.0
 40
1.0
 40
1.0
 10
259.6309094107679
 20
82.83036054744736
 30
0.0
 10
259.6342427441013
 20
82.82224349814221
 30
0.0
 10
259.640909410768
 20
82.8060093995319
 30
0.0
 10
259.650909410768
 20
82.6811348244458
 30
0.0
 10
259.6609094107679
 20
82.50264055841346
 30
0.0
 10
259.6675760774346
 20
82.36112055110273
 30
0.0
 10
259.6709094107679
 20
82.29036054744736
 30
0.0
  0
SPLINE
  5
183
330
1F
100
AcDbEntity
  8
0
  6
Continuous
 62
     7
370
    25
100
AcDbSpline
210
0.0
220
0.0
230
1.0
 70
     8
 71
     3
 72
    11
 73
     7
 74
     0
 42
0.000000001
 43
0.00000001
 40
0.0
 40
0.0
 40
0.0
 40
0.0
 40
0.2500000000000003
 40
0.5000000000000007
 40
0.750000000000001
 40
1.0
 40
1.0
 40
1.0
 40
1.0
 10
186.8191936820154
 20
82.29036054744736
 30
0.0
 10
186.8225270153487
 20
82.36112055110273
 30
0.0
 10
186.8291936820154
 20
82.50264055841347
 30
0.0
 10
186.8391936820154
 20
82.6811348244458
 30
0.0
 10
186.8491936820154
 20
82.80600939953189
 30
0.0
 10
186.855860348682
 20
82.82224349814221
 30
0.0
 10
186.8591936820154
 20
82.83036054744736
 30
0.0
  0
LINE
  5
184
330
1F
100
AcDbEntity
  8
0
  6
Continuous
 62
     7
370
    25
100
AcDbLine
 10
186.859193682
 20
82.8303605474
 30
0.0
 11
259.6309094108
 21
82.8303605474
 31
0.0
  0
LINE
  5
185
330
1F
100
AcDbEntity
  8
0
  6
Continuous
 62
     7
370
    25
100
AcDbLine
 10
259.6450515464
 20
82.8445026831
 30
0.0
 11
259.6450515464
 21
214.8103605474
 31
0.0
  0
LINE
  5
186
330
1F
100
AcDbEntity
  8
0
  6
Continuous
 62
     7
370
    25
100
AcDbLine
 10
260.1850515464
 20
82.8303605474
 30
0.0
 11
259.6450515464
 21
82.8303605474
 31
0.0
  0
LINE
  5
187
330
1F
100
AcDbEntity
  8
0
  6
Continuous
 62
     7
370
    25
100
AcDbLine
 10
259.6450515464
 20
82.8303605474
 30
0.0
 11
259.6450515464
 21
82.8445026831
 31
0.0
  0
SPLINE
  5
188
330
1F
100
AcDbEntity
  8
0
  6
Continuous
 62
     7
370
    25
100
AcDbSpline
210
0.0
220
0.0
230
1.0
 70
     8
 71
     3
 72
    10
 73
     6
 74
     0
 42
0.000000001
 43
0.00000001
 40
0.0
 40
0.0
 40
0.0
 40
0.0
 40
0.0145035937556791
 40
0.6154659904886657
 40
0.9999999999999999
 40
0.9999999999999999
 40
0.9999999999999999
 40
0.9999999999999999
 10
262.9164238011279
 20
225.50282721625
 30
0.0
 10
262.9160532016132
 20
225.5033367057726
 30
0.0
 10
262.9003266581621
 20
225.5249571040636
 30
0.0
 10
262.8555775397564
 20
225.55585247884
 30
0.0
 10
262.8048464667754
 20
225.5701712930504
 30
0.0
 10
262.7850515463915
 20
225.5757583971788
 30
0.0
  0
SPLINE
  5
189
330
1F
100
AcDbEntity
  8
0
  6
Continuous
 62
     7
370
    25
100
AcDbSpline
210
0.0
220
0.0
230
1.0
 70
     8
 71
     3
 72
     9
 73
     5
 74
     0
 42
0.000000001
 43
0.00000001
 40
0.0
 40
0.0
 40
0.0
 40
0.0
 40
0.5874251426035454
 40
1.0
 40
1.0
 40
1.0
 40
1.0
 10
262.8221938318853
 20
225.8103605474469
 30
0.0
 10
262.799884245736
 20
225.8176916033892
 30
0.0
 10
262.7619056429637
 20
225.8301715866424
 30
0.0
 10
262.7216570881531
 20
225.8303053571141
 30
0.0
 10
262.7050515463916
 20
225.8303605474474
 30
0.0
  0
SPLINE
  5
18A
330
1F
100
AcDbEntity
  8
0
  6
Continuous
 62
     7
370
    25
100
AcDbSpline
210
0.0
220
0.0
230
1.0
 70
     8
 71
     3
 72
    10
 73
     6
 74
     0
 42
0.000000001
 43
0.00000001
 40
0.0
 40
0.0
 40
0.0
 40
0.0
 40
0.0496953400663358
 40
0.6045689701943109
 40
1.0
 40
1.0
 40
1.0
 40
1.0
 10
183.7050515463914
 20
225.5783832047395
 30
0.0
 10
183.7024231171351
 20
225.5780171191398
 30
0.0
 10
183.6704469445876
 20
225.5735635024891
 30
0.0
 10
183.6235841728451
 20
225.5469514610549
 30
0.0
 10
183.591873298108
 20
225.5172205693544
 30
0.0
 10
183.5786780941045
 20
225.5048492555875
 30
0.0
  0
SPLINE
  5
18B
330
1F
100
AcDbEntity
  8
0
  6
Continuous
 62
     7
370
    25
100
AcDbSpline
210
0.0
220
0.0
230
1.0
 70
     8
 71
     3
 72
    12
 73
     8
 74
     0
 42
0.000000001
 43
0.00000001
 40
0.0
 40
0.0
 40
0.0
 40
0.0
 40
0.1926146673761708
 40
0.3852693171550107
 40
0.5799164887518887
 40
0.783852284861276
 40
1.0
 40
1.0
 40
1.0
 40
1.0
 10
183.7850515463916
 20
225.8303605474475
 30
0.0
 10
183.7270144832963
 20
225.8248812310742
 30
0.0
 10
183.6109283099377
 20
225.813921460947
 30
0.0
 10
183.4566973561182
 20
225.7296502729909
 30
0.0
 10
183.3389214631289
 20
225.6088038073126
 30
0.0
 10
183.2605374499929
 20
225.4588428872733
 30
0.0
 10
183.2503125938559
 20
225.3475992859505
 30
0.0
 10
183.2450515463916
 20
225.2903605474474
 30
0.0
  0
LINE
  5
18C
330
1F
100
AcDbEntity
  8
0
  6
Continuous
 62
     7
370
    25
100
AcDbLine
 10
183.7850515464
 20
225.8303605474
 30
0.0
 11
191.0850515464
 21
225.8303605474
 31
0.0
  0
LINE
  5
18D
330
1F
100
AcDbEntity
  8
0
  6
Continuous
 62
     7
370
    25
100
AcDbLine
 10
262.7050515464
 20
225.8303605474
 30
0.0
 11
255.4050515464
 21
225.8303605474
 31
0.0
  0
LINE
  5
18E
330
1F
100
AcDbEntity
  8
0
  6
Continuous
 62
     7
370
    25
100
AcDbLine
 10
191.4850515464
 20
225.8303605474
 30
0.0
 11
191.4850515464
 21
225.8103605474
 31
0.0
  0
LINE
  5
18F
330
1F
100
AcDbEntity
  8
0
  6
Continuous
 62
     7
370
    25
100
AcDbLine
 10
191.0850515464
 20
225.8303605474
 30
0.0
 11
191.4850515464
 21
225.8303605474
 31
0.0
  0
LINE
  5
190
330
1F
100
AcDbEntity
  8
0
  6
Continuous
 62
     7
370
    25
100
AcDbLine
 10
255.0050515464
 20
225.8103605474
 30
0.0
 11
255.0050515464
 21
225.8303605474
 31
0.0
  0
LINE
  5
191
330
1F
100
AcDbEntity
  8
0
  6
Continuous
 62
     7
370
    25
100
AcDbLine
 10
255.0050515464
 20
225.8303605474
 30
0.0
 11
255.4050515464
 21
225.8303605474
 31
0.0
  0
LINE
  5
192
330
1F
100
AcDbEntity
  8
0
  6
Continuous
 62
     7
370
    25
100
AcDbLine
 10
263.2419094108
 20
77.1046894174
 30
0.0
 11
263.0019094108
 21
77.1046894174
 31
0.0
  0
LINE
  5
193
330
1F
100
AcDbEntity
  8
0
  6
Continuous
 62
     7
370
    25
100
AcDbLine
 10
263.2419094108
 20
77.1046894174
 30
0.0
 11
263.2419094108
 21
76.0316708858
 31
0.0
  0
LINE
  5
194
330
1F
100
AcDbEntity
  8
0
  6
Continuous
 62
     7
370
    25
100
AcDbLine
 10
263.2419094108
 20
76.0316708858
 30
0.0
 11
263.0019094108
 21
76.0316708858
 31
0.0
  0
LINE
  5
195
330
1F
100
AcDbEntity
  8
0
  6
Continuous
 62
     7
370
    25
100
AcDbLine
 10
263.0019094108
 20
77.1046894174
 30
0.0
 11
263.0019094108
 21
76.0316708858
 31
0.0
  0
LINE
  5
196
330
1F
100
AcDbEntity
  8
0
  6
Continuous
 62
     7
370
    25
100
AcDbLine
 10
263.0019094108
 20
76.0316708858
 30
0.0
 11
263.0019094108
 21
72.7503605474
 31
0.0
  0
LINE
  5
197
330
1F
100
AcDbEntity
  8
0
  6
Continuous
 62
     7
370
    25
100
AcDbLine
 10
263.2419094108
 20
76.0316708858
 30
0.0
 11
263.2419094108
 21
72.7503605474
 31
0.0
  0
LINE
  5
198
330
1F
100
AcDbEntity
  8
0
  6
Continuous
 62
     7
370
    25
100
AcDbLine
 10
183.248193682
 20
76.0316708858
 30
0.0
 11
183.488193682
 21
76.0316708858
 31
0.0
  0
LINE
  5
199
330
1F
100
AcDbEntity
  8
0
  6
Continuous
 62
     7
370
    25
100
AcDbLine
 10
183.488193682
 20
76.0316708858
 30
0.0
 11
183.488193682
 21
77.1046894174
 31
0.0
  0
LINE
  5
19A
330
1F
100
AcDbEntity
  8
0
  6
Continuous
 62
     7
370
    25
100
AcDbLine
 10
183.248193682
 20
77.1046894174
 30
0.0
 11
183.488193682
 21
77.1046894174
 31
0.0
  0
LINE
  5
19B
330
1F
100
AcDbEntity
  8
0
  6
Continuous
 62
     7
370
    25
100
AcDbLine
 10
183.248193682
 20
76.0316708858
 30
0.0
 11
183.248193682
 21
77.1046894174
 31
0.0
  0
LINE
  5
19C
330
1F
100
AcDbEntity
  8
0
  6
Continuous
 62
     7
370
    25
100
AcDbLine
 10
183.488193682
 20
72.7503605474
 30
0.0
 11
183.488193682
 21
76.0316708858
 31
0.0
  0
LINE
  5
19D
330
1F
100
AcDbEntity
  8
0
  6
Continuous
 62
     7
370
    25
100
AcDbLine
 10
183.248193682
 20
72.7503605474
 30
0.0
 11
183.248193682
 21
76.0316708858
 31
0.0
  0
LINE
  5
19E
330
1F
100
AcDbEntity
  8
0
  6
Continuous
 62
     7
370
    25
100
AcDbLine
 10
263.0019094108
 20
77.1446894174
 30
0.0
 11
263.0019094108
 21
77.1046894174
 31
0.0
  0
LINE
  5
19F
330
1F
100
AcDbEntity
  8
0
  6
Continuous
 62
     7
370
    25
100
AcDbLine
 10
263.2419094108
 20
77.1446894174
 30
0.0
 11
263.2419094108
 21
77.1046894174
 31
0.0
  0
LINE
  5
1A0
330
1F
100
AcDbEntity
  8
0
  6
Continuous
 62
     7
370
    25
100
AcDbLine
 10
183.488193682
 20
77.1046894174
 30
0.0
 11
183.488193682
 21
77.1446894174
 31
0.0
  0
LINE
  5
1A1
330
1F
100
AcDbEntity
  8
0
  6
Continuous
 62
     7
370
    25
100
AcDbLine
 10
183.248193682
 20
77.1046894174
 30
0.0
 11
183.248193682
 21
77.1446894174
 31
0.0
  0
SPLINE
  5
1A2
330
1F
100
AcDbEntity
  8
0
  6
Continuous
 62
     7
370
    25
100
AcDbSpline
210
0.0
220
0.0
230
1.0
 70
     8
 71
     3
 72
    12
 73
     8
 74
     0
 42
0.000000001
 43
0.00000001
 40
0.0
 40
0.0
 40
0.0
 40
0.0
 40
0.1759736979773338
 40
0.3519535016705657
 40
0.5271779992243067
 40
0.8081464269326378
 40
0.9999999999999999
 40
0.9999999999999999
 40
0.9999999999999999
 40
0.9999999999999999
 10
186.8591936820154
 20
82.8303605474474
 30
0.0
 10
186.8651309211462
 20
82.83347782067244
 30
0.0
 10
186.8770056054108
 20
82.83971247528181
 30
0.0
 10
186.9098006839896
 20
82.8866580339848
 30
0.0
 10
186.973998034756
 20
82.95865664309204
 30
0.0
 10
187.057099826482
 20
83.04215296432415
 30
0.0
 10
187.1196649481983
 20
83.10490009627424
 30
0.0
 10
187.1450515463917
 20
83.13036054744741
 30
0.0
  0
LINE
  5
1A3
330
1F
100
AcDbEntity
  8
0
  6
Continuous
 62
     7
370
    25
100
AcDbLine
 10
259.3450515464
 20
83.1303605474
 30
0.0
 11
187.1450515464
 21
83.1303605474
 31
0.0
  0
SPLINE
  5
1A4
330
1F
100
AcDbEntity
  8
0
  6
Continuous
 62
     7
370
    25
100
AcDbSpline
210
0.0
220
0.0
230
1.0
 70
     8
 71
     3
 72
    12
 73
     8
 74
     0
 42
0.000000001
 43
0.00000001
 40
0.0
 40
0.0
 40
0.0
 40
0.0
 40
0.3425477113616873
 40
0.5625348677894152
 40
0.7358858171168922
 40
0.9098270371322069
 40
1.0
 40
1.0
 40
1.0
 40
1.0
 10
259.3450515463916
 20
83.13036054744745
 30
0.0
 10
259.3901478919603
 20
83.08408730292551
 30
0.0
 10
259.4642055077342
 20
83.00809697332771
 30
0.0
 10
259.5535490355773
 20
82.91952905536961
 30
0.0
 10
259.6025303944874
 20
82.86150441712833
 30
0.0
 10
259.6244252781294
 20
82.8337374277676
 30
0.0
 10
259.629259073016
 20
82.83122002910622
 30
0.0
 10
259.6309094107679
 20
82.83036054744744
 30
0.0
  0
LINE
  5
1A5
330
1F
100
AcDbEntity
  8
0
  6
Continuous
 62
     7
370
    25
100
AcDbLine
 10
187.1450515464
 20
83.1303605474
 30
0.0
 11
187.1450515464
 21
214.7703605474
 31
0.0
  0
SPLINE
  5
1A6
330
1F
100
AcDbEntity
  8
0
  6
Continuous
 62
     7
370
    25
100
AcDbSpline
210
0.0
220
0.0
230
1.0
 70
     8
 71
     3
 72
    11
 73
     7
 74
     0
 42
0.000000001
 43
0.00000001
 40
0.0
 40
0.0
 40
0.0
 40
0.0
 40
0.2500000000000079
 40
0.5000000000000051
 40
0.7500000000000023
 40
1.0
 40
1.0
 40
1.0
 40
1.0
 10
187.1450515463917
 20
83.1303605474473
 30
0.0
 10
187.1057404332498
 20
83.10653905874926
 30
0.0
 10
187.027118206966
 20
83.05889608135323
 30
0.0
 10
186.9279547258369
 20
82.98743161525914
 30
0.0
 10
186.8585799619003
 20
82.91596714916511
 30
0.0
 10
186.8495610182278
 20
82.86832417176903
 30
0.0
 10
186.8450515463916
 20
82.84450268307101
 30
0.0
  0
LINE
  5
1A7
330
1F
100
AcDbEntity
  8
0
  6
Continuous
 62
     7
370
    25
100
AcDbLine
 10
187.081097555
 20
214.8103605474
 30
0.0
 11
187.1450515464
 21
214.7703605474
 31
0.0
  0
LINE
  5
1A8
330
1F
100
AcDbEntity
  8
0
  6
Continuous
 62
     7
370
    25
100
AcDbLine
 10
187.1450515464
 20
214.7703605474
 30
0.0
 11
187.1201521265
 21
214.8103605474
 31
0.0
  0
LINE
  5
1A9
330
1F
100
AcDbEntity
  8
0
  6
Continuous
 62
     7
370
    25
100
AcDbLine
 10
259.3700695314
 20
214.8103605474
 30
0.0
 11
259.3450515464
 21
214.7703605474
 31
0.0
  0
LINE
  5
1AA
330
1F
100
AcDbEntity
  8
0
  6
Continuous
 62
     7
370
    25
100
AcDbLine
 10
259.3450515464
 20
214.7703605474
 30
0.0
 11
259.4093100715
 21
214.8103605474
 31
0.0
  0
LINE
  5
1AB
330
1F
100
AcDbEntity
  8
0
  6
Continuous
 62
     7
370
    25
100
AcDbLine
 10
259.3450515464
 20
214.7703605474
 30
0.0
 11
259.3450515464
 21
83.1303605474
 31
0.0
  0
SPLINE
  5
1AC
330
1F
100
AcDbEntity
  8
0
  6
Continuous
 62
     7
370
    25
100
AcDbSpline
210
0.0
220
0.0
230
1.0
 70
     8
 71
     3
 72
    11
 73
     7
 74
     0
 42
0.000000001
 43
0.00000001
 40
0.0
 40
0.0
 40
0.0
 40
0.0
 40
0.2500000000000097
 40
0.5000000000000051
 40
0.7500000000000004
 40
1.0
 40
1.0
 40
1.0
 40
1.0
 10
259.6450515463916
 20
82.84450268307127
 30
0.0
 10
259.6405420745555
 20
82.86832417176927
 30
0.0
 10
259.6315231308831
 20
82.91596714916534
 30
0.0
 10
259.5621483669463
 20
82.9874316152594
 30
0.0
 10
259.4629848858173
 20
83.05889608135342
 30
0.0
 10
259.3843626595335
 20
83.10653905874948
 30
0.0
 10
259.3450515463916
 20
83.13036054744752
 30
0.0
  0
ARC
  5
1AD
330
1F
100
AcDbEntity
  8
0
  6
Continuous
 62
     7
370
    25
100
AcDbCircle
 10
248.8950515464
 20
114.8703605474
 30
0.0
 40
5.599999999999994
100
AcDbArc
 50
270.0
 51
0.0
  0
LINE
  5
1AE
330
1F
100
AcDbEntity
  8
0
  6
Continuous
 62
     7
370
    25
100
AcDbLine
 10
254.4950515464
 20
114.8703605474
 30
0.0
 11
254.4950515464
 21
206.4703605474
 31
0.0
  0
ARC
  5
1AF
330
1F
100
AcDbEntity
  8
0
  6
Continuous
 62
     7
370
    25
100
AcDbCircle
 10
248.8950515464
 20
206.4703605474
 30
0.0
 40
5.599999999999994
100
AcDbArc
 50
0.0
 51
90.0
  0
LINE
  5
1B0
330
1F
100
AcDbEntity
  8
0
  6
Continuous
 62
     7
370
    25
100
AcDbLine
 10
248.8950515464
 20
212.0703605474
 30
0.0
 11
197.5950515464
 21
212.0703605474
 31
0.0
  0
ARC
  5
1B1
330
1F
100
AcDbEntity
  8
0
  6
Continuous
 62
     7
370
    25
100
AcDbCircle
 10
197.5950515464
 20
206.4703605474
 30
0.0
 40
5.600000000000023
100
AcDbArc
 50
90.0
 51
180.0
  0
LINE
  5
1B2
330
1F
100
AcDbEntity
  8
0
  6
Continuous
 62
     7
370
    25
100
AcDbLine
 10
191.9950515464
 20
206.4703605474
 30
0.0
 11
191.9950515464
 21
114.8703605474
 31
0.0
  0
ARC
  5
1B3
330
1F
100
AcDbEntity
  8
0
  6
Continuous
 62
     7
370
    25
100
AcDbCircle
 10
197.5950515464
 20
114.8703605474
 30
0.0
 40
5.599999999999994
100
AcDbArc
 50
180.0
 51
270.0
  0
LINE
  5
1B4
330
1F
100
AcDbEntity
  8
0
  6
Continuous
 62
     7
370
    25
100
AcDbLine
 10
197.5950515464
 20
109.2703605474
 30
0.0
 11
248.8950515464
 21
109.2703605474
 31
0.0
  0
LINE
  5
1B5
330
1F
100
AcDbEntity
  8
0
  6
Continuous
 62
     7
370
    25
100
AcDbLine
 10
263.0019094108
 20
82.8303605474
 30
0.0
 11
263.0019094108
 21
82.7903605474
 31
0.0
  0
LINE
  5
1B6
330
1F
100
AcDbEntity
  8
0
  6
Continuous
 62
     7
370
    25
100
AcDbLine
 10
263.2419094108
 20
82.8303605474
 30
0.0
 11
263.2419094108
 21
82.7903605474
 31
0.0
  0
LINE
  5
1B7
330
1F
100
AcDbEntity
  8
0
  6
Continuous
 62
     7
370
    25
100
AcDbLine
 10
183.488193682
 20
82.7903605474
 30
0.0
 11
183.488193682
 21
82.8303605474
 31
0.0
  0
LINE
  5
1B8
330
1F
100
AcDbEntity
  8
0
  6
Continuous
 62
     7
370
    25
100
AcDbLine
 10
183.248193682
 20
82.7903605474
 30
0.0
 11
183.248193682
 21
82.8303605474
 31
0.0
  0
LINE
  5
1B9
330
1F
100
AcDbEntity
  8
0
  6
Continuous
 62
     7
370
    25
100
AcDbLine
 10
183.2450515464
 20
78.6702925093
 30
0.0
 11
183.248193682
 21
78.6702925093
 31
0.0
  0
LINE
  5
1BA
330
1F
100
AcDbEntity
  8
0
  6
Continuous
 62
     7
370
    25
100
AcDbLine
 10
183.2450515464
 20
80.1535740823
 30
0.0
 11
183.2450515464
 21
78.6702925093
 31
0.0
  0
LINE
  5
1BB
330
1F
100
AcDbEntity
  8
0
  6
Continuous
 62
     7
370
    25
100
AcDbLine
 10
183.248193682
 20
80.1535740823
 30
0.0
 11
183.2450515464
 21
80.1535740823
 31
0.0
  0
LINE
  5
1BC
330
1F
100
AcDbEntity
  8
0
  6
Continuous
 62
     7
370
    25
100
AcDbLine
 10
183.248193682
 20
80.1725952126
 30
0.0
 11
183.2450515464
 21
80.1725952126
 31
0.0
  0
LINE
  5
1BD
330
1F
100
AcDbEntity
  8
0
  6
Continuous
 62
     7
370
    25
100
AcDbLine
 10
183.2450515464
 20
80.1535740823
 30
0.0
 11
183.2450515464
 21
80.1725952126
 31
0.0
  0
ARC
  5
1BE
330
1F
100
AcDbEntity
  8
0
  6
Continuous
 62
     7
370
    25
100
AcDbCircle
 10
220.2450515464
 20
117.8703605474
 30
0.0
 40
0.8999999999999965
100
AcDbArc
 50
15.8986868888
 51
180.5741755673
  0
LINE
  5
1BF
330
1F
100
AcDbEntity
  8
0
  6
Continuous
 62
     7
370
    25
100
AcDbLine
 10
221.1106243755
 20
118.116904007
 30
0.0
 11
219.3450967375
 21
117.8613415697
 31
0.0
  0
ARC
  5
1C0
330
1F
100
AcDbEntity
  8
0
  6
Continuous
 62
     7
370
    25
100
AcDbCircle
 10
220.2450515464
 20
117.8703605474
 30
0.0
 40
0.9000000000000113
100
AcDbArc
 50
195.8986868888
 51
0.5741755673
  0
LINE
  5
1C1
330
1F
100
AcDbEntity
  8
0
  6
Continuous
 62
     7
370
    25
100
AcDbLine
 10
221.1450063553
 20
117.8793795252
 30
0.0
 11
219.3794787173
 21
117.6238170879
 31
0.0
  0
ARC
  5
1C2
330
1F
100
AcDbEntity
  8
0
  6
Continuous
 62
     7
370
    25
100
AcDbCircle
 10
220.2450515464
 20
117.8703605474
 30
0.0
 40
0.8999999999999965
100
AcDbArc
 50
0.5741755673
 51
15.8986868888
  0
ARC
  5
1C3
330
1F
100
AcDbEntity
  8
0
  6
Continuous
 62
     7
370
    25
100
AcDbCircle
 10
220.2450515464
 20
117.8703605474
 30
0.0
 40
0.9000000000000113
100
AcDbArc
 50
180.5741755673
 51
195.8986868888
  0
ARC
  5
1C4
330
1F
100
AcDbEntity
  8
0
  6
Continuous
 62
     7
370
    25
100
AcDbCircle
 10
226.2450515464
 20
117.8703605474
 30
0.0
 40
0.9000000000000047
100
AcDbArc
 50
354.8120540169
 51
159.4875426954
  0
LINE
  5
1C5
330
1F
100
AcDbEntity
  8
0
  6
Continuous
 62
     7
370
    25
100
AcDbLine
 10
227.1413646461
 20
117.7889797919
 30
0.0
 11
225.4021151242
 21
118.1857304701
 31
0.0
  0
LINE
  5
1C6
330
1F
100
AcDbEntity
  8
0
  6
Continuous
 62
     7
370
    25
100
AcDbLine
 10
227.0879879686
 20
117.5549906248
 30
0.0
 11
225.3487384467
 21
117.951741303
 31
0.0
  0
ARC
  5
1C7
330
1F
100
AcDbEntity
  8
0
  6
Continuous
 62
     7
370
    25
100
AcDbCircle
 10
226.2450515464
 20
117.8703605474
 30
0.0
 40
0.9000000000000127
100
AcDbArc
 50
174.8120540169
 51
339.4875426954
  0
ARC
  5
1C8
330
1F
100
AcDbEntity
  8
0
  6
Continuous
 62
     7
370
    25
100
AcDbCircle
 10
226.2450515464
 20
117.8703605474
 30
0.0
 40
0.899999999999988
100
AcDbArc
 50
339.4875426954
 51
354.8120540169
  0
ARC
  5
1C9
330
1F
100
AcDbEntity
  8
0
  6
Continuous
 62
     7
370
    25
100
AcDbCircle
 10
226.2450515464
 20
117.8703605474
 30
0.0
 40
0.9000000000000127
100
AcDbArc
 50
159.4875426954
 51
174.8120540169
  0
LINE
  5
1CA
330
1F
100
AcDbEntity
  8
0
  6
Continuous
 62
     7
370
    25
100
AcDbLine
 10
220.7450515464
 20
111.4703605474
 30
0.0
 11
220.7450515464
 21
111.8703605474
 31
0.0
  0
LINE
  5
1CB
330
1F
100
AcDbEntity
  8
0
  6
Continuous
 62
     7
370
    25
100
AcDbLine
 10
220.7450515464
 20
111.4703605474
 30
0.0
 11
218.7450515464
 21
111.4703605474
 31
0.0
  0
LINE
  5
1CC
330
1F
100
AcDbEntity
  8
0
  6
Continuous
 62
     7
370
    25
100
AcDbLine
 10
218.7450515464
 20
111.4703605474
 30
0.0
 11
218.7450515464
 21
111.8703605474
 31
0.0
  0
LINE
  5
1CD
330
1F
100
AcDbEntity
  8
0
  6
Continuous
 62
     7
370
    25
100
AcDbLine
 10
220.7450515464
 20
111.8703605474
 30
0.0
 11
218.7450515464
 21
111.8703605474
 31
0.0
  0
LINE
  5
1CE
330
1F
100
AcDbEntity
  8
0
  6
Continuous
 62
     7
370
    25
100
AcDbLine
 10
227.7450515464
 20
111.4703605474
 30
0.0
 11
227.7450515464
 21
111.8703605474
 31
0.0
  0
LINE
  5
1CF
330
1F
100
AcDbEntity
  8
0
  6
Continuous
 62
     7
370
    25
100
AcDbLine
 10
227.7450515464
 20
111.4703605474
 30
0.0
 11
225.7450515464
 21
111.4703605474
 31
0.0
  0
LINE
  5
1D0
330
1F
100
AcDbEntity
  8
0
  6
Continuous
 62
     7
370
    25
100
AcDbLine
 10
225.7450515464
 20
111.4703605474
 30
0.0
 11
225.7450515464
 21
111.8703605474
 31
0.0
  0
LINE
  5
1D1
330
1F
100
AcDbEntity
  8
0
  6
Continuous
 62
     7
370
    25
100
AcDbLine
 10
227.7450515464
 20
111.8703605474
 30
0.0
 11
225.7450515464
 21
111.8703605474
 31
0.0
  0
LINE
  5
1D2
330
1F
100
AcDbEntity
  8
0
  6
Continuous
 62
     7
370
    25
100
AcDbLine
 10
225.7450515464
 20
111.4703605474
 30
0.0
 11
220.7450515464
 21
111.4703605474
 31
0.0
  0
LINE
  5
1D3
330
1F
100
AcDbEntity
  8
0
  6
Continuous
 62
     7
370
    25
100
AcDbLine
 10
225.7450515464
 20
111.8703605474
 30
0.0
 11
220.7450515464
 21
111.8703605474
 31
0.0
  0
LINE
  5
1D4
330
1F
100
AcDbEntity
  8
0
  6
Continuous
 62
     7
370
    25
100
AcDbLine
 10
227.7450515464
 20
112.3203605474
 30
0.0
 11
218.7450515464
 21
112.3203605474
 31
0.0
  0
LINE
  5
1D5
330
1F
100
AcDbEntity
  8
0
  6
Continuous
 62
     7
370
    25
100
AcDbLine
 10
227.7450515464
 20
111.8703605474
 30
0.0
 11
227.7450515464
 21
112.3203605474
 31
0.0
  0
LINE
  5
1D6
330
1F
100
AcDbEntity
  8
0
  6
Continuous
 62
     7
370
    25
100
AcDbLine
 10
218.7450515464
 20
112.3203605474
 30
0.0
 11
218.7450515464
 21
111.8703605474
 31
0.0
  0
CIRCLE
  5
1D7
330
1F
100
AcDbEntity
  8
0
  6
Continuous
 62
     7
370
    25
100
AcDbCircle
 10
226.2450515464
 20
117.8703605474
 30
0.0
 40
0.9000000000000057
  0
ARC
  5
1D8
330
1F
100
AcDbEntity
  8
0
  6
Continuous
 62
     7
370
    25
100
AcDbCircle
 10
223.2450515464
 20
117.8703605474
 30
0.0
 40
6.000000000000001
100
AcDbArc
 50
318.5903778907
 51
221.4096221093
  0
LINE
  5
1D9
330
1F
100
AcDbEntity
  8
0
  6
Continuous
 62
     7
370
    25
100
AcDbLine
 10
227.7450515464
 20
112.3203605474
 30
0.0
 11
227.7450515464
 21
113.9017335809
 31
0.0
  0
LINE
  5
1DA
330
1F
100
AcDbEntity
  8
0
  6
Continuous
 62
     7
370
    25
100
AcDbLine
 10
218.7450515464
 20
113.9017335809
 30
0.0
 11
218.7450515464
 21
112.3203605474
 31
0.0
  0
CIRCLE
  5
1DB
330
1F
100
AcDbEntity
  8
0
  6
Continuous
 62
     7
370
    25
100
AcDbCircle
 10
220.2450515464
 20
117.8703605474
 30
0.0
 40
0.9000000000000057
  0
LINE
  5
1DC
330
1F
100
AcDbEntity
  8
0
  6
Continuous
 62
     7
370
    25
100
AcDbLine
 10
188.3037180769
 20
230.6103605474
 30
0.0
 11
188.3037180769
 21
229.5303605474
 31
0.0
  0
LINE
  5
1DD
330
1F
100
AcDbEntity
  8
0
  6
Continuous
 62
     7
370
    25
100
AcDbLine
 10
191.7023830366
 20
230.6103605474
 30
0.0
 11
191.7023830366
 21
229.5303605474
 31
0.0
  0
LINE
  5
1DE
330
1F
100
AcDbEntity
  8
0
  6
Continuous
 62
     7
370
    25
100
AcDbLine
 10
188.3037180769
 20
229.5303605474
 30
0.0
 11
191.7023830366
 21
229.5303605474
 31
0.0
  0
LINE
  5
1DF
330
1F
100
AcDbEntity
  8
0
  6
Continuous
 62
     7
370
    25
100
AcDbLine
 10
188.3037180769
 20
230.6103605474
 30
0.0
 11
191.7023830366
 21
230.6103605474
 31
0.0
  0
LINE
  5
1E0
330
1F
100
AcDbEntity
  8
0
  6
Continuous
 62
     7
370
    25
100
AcDbLine
 10
195.1037165061
 20
230.6103605474
 30
0.0
 11
195.1037165061
 21
229.5303605474
 31
0.0
  0
LINE
  5
1E1
330
1F
100
AcDbEntity
  8
0
  6
Continuous
 62
     7
370
    25
100
AcDbLine
 10
191.7023830366
 20
229.5303605474
 30
0.0
 11
195.1037165061
 21
229.5303605474
 31
0.0
  0
LINE
  5
1E2
330
1F
100
AcDbEntity
  8
0
  6
Continuous
 62
     7
370
    25
100
AcDbLine
 10
191.7023830366
 20
230.6103605474
 30
0.0
 11
195.1037165061
 21
230.6103605474
 31
0.0
  0
LINE
  5
1E3
330
1F
100
AcDbEntity
  8
0
  6
Continuous
 62
     7
370
    25
100
AcDbLine
 10
191.610863853
 20
226.5503605474
 30
0.0
 11
191.610863853
 21
225.8103605474
 31
0.0
  0
LINE
  5
1E4
330
1F
100
AcDbEntity
  8
0
  6
Continuous
 62
     7
370
    25
100
AcDbLine
 10
191.610863853
 20
226.5503605474
 30
0.0
 11
191.7992392397
 21
226.5503605474
 31
0.0
  0
LINE
  5
1E5
330
1F
100
AcDbEntity
  8
0
  6
Continuous
 62
     7
370
    25
100
AcDbLine
 10
191.7992392397
 20
226.5503605474
 30
0.0
 11
191.7992392397
 21
225.8103605474
 31
0.0
  0
LINE
  5
1E6
330
1F
100
AcDbEntity
  8
0
  6
Continuous
 62
     7
370
    25
100
AcDbLine
 10
188.4742377881
 20
226.5503605474
 30
0.0
 11
188.4742377881
 21
225.8303605474
 31
0.0
  0
LINE
  5
1E7
330
1F
100
AcDbEntity
  8
0
  6
Continuous
 62
     7
370
    25
100
AcDbLine
 10
188.4742377881
 20
226.5503605474
 30
0.0
 11
191.610863853
 21
226.5503605474
 31
0.0
  0
LINE
  5
1E8
330
1F
100
AcDbEntity
  8
0
  6
Continuous
 62
     7
370
    25
100
AcDbLine
 10
194.9358653047
 20
226.5503605474
 30
0.0
 11
194.9358653047
 21
225.8103605474
 31
0.0
  0
LINE
  5
1E9
330
1F
100
AcDbEntity
  8
0
  6
Continuous
 62
     7
370
    25
100
AcDbLine
 10
191.7992392397
 20
226.5503605474
 30
0.0
 11
194.9358653047
 21
226.5503605474
 31
0.0
  0
LINE
  5
1EA
330
1F
100
AcDbEntity
  8
0
  6
Continuous
 62
     7
370
    25
100
AcDbLine
 10
191.7050515464
 20
232.4003605474
 30
0.0
 11
193.8300515464
 21
232.4003605474
 31
0.0
  0
LINE
  5
1EB
330
1F
100
AcDbEntity
  8
0
  6
Continuous
 62
     7
370
    25
100
AcDbLine
 10
189.5800515464
 20
232.4003605474
 30
0.0
 11
191.7050515464
 21
232.4003605474
 31
0.0
  0
LINE
  5
1EC
330
1F
100
AcDbEntity
  8
0
  6
Continuous
 62
     7
370
    25
100
AcDbLine
 10
191.7050515464
 20
228.2103605474
 30
0.0
 11
195.0800515464
 21
228.2103605474
 31
0.0
  0
LINE
  5
1ED
330
1F
100
AcDbEntity
  8
0
  6
Continuous
 62
     7
370
    25
100
AcDbLine
 10
188.3300515464
 20
228.2103605474
 30
0.0
 11
191.7050515464
 21
228.2103605474
 31
0.0
  0
LINE
  5
1EE
330
1F
100
AcDbEntity
  8
0
  6
Continuous
 62
     7
370
    25
100
AcDbLine
 10
191.7050515464
 20
227.1403605474
 30
0.0
 11
194.8750515464
 21
227.1403605474
 31
0.0
  0
LINE
  5
1EF
330
1F
100
AcDbEntity
  8
0
  6
Continuous
 62
     7
370
    25
100
AcDbLine
 10
188.5350515464
 20
227.1403605474
 30
0.0
 11
191.7050515464
 21
227.1403605474
 31
0.0
  0
LINE
  5
1F0
330
1F
100
AcDbEntity
  8
0
  6
Continuous
 62
     7
370
    25
100
AcDbLine
 10
191.7050515464
 20
224.0503605474
 30
0.0
 11
194.8750515464
 21
224.0503605474
 31
0.0
  0
LINE
  5
1F1
330
1F
100
AcDbEntity
  8
0
  6
Continuous
 62
     7
370
    25
100
AcDbLine
 10
188.5350515464
 20
224.0503605474
 30
0.0
 11
191.7050515464
 21
224.0503605474
 31
0.0
  0
LINE
  5
1F2
330
1F
100
AcDbEntity
  8
0
  6
Continuous
 62
     7
370
    25
100
AcDbLine
 10
195.0300515464
 20
226.5503605474
 30
0.0
 11
195.0300515464
 21
225.8103605474
 31
0.0
  0
LINE
  5
1F3
330
1F
100
AcDbEntity
  8
0
  6
Continuous
 62
     7
370
    25
100
AcDbLine
 10
194.9358653047
 20
226.5503605474
 30
0.0
 11
195.0300515464
 21
226.5503605474
 31
0.0
  0
LINE
  5
1F4
330
1F
100
AcDbEntity
  8
0
  6
Continuous
 62
     7
370
    25
100
AcDbLine
 10
188.3800515464
 20
226.5503605474
 30
0.0
 11
188.3800515464
 21
225.8303605474
 31
0.0
  0
LINE
  5
1F5
330
1F
100
AcDbEntity
  8
0
  6
Continuous
 62
     7
370
    25
100
AcDbLine
 10
188.3800515464
 20
226.5503605474
 30
0.0
 11
188.4742377881
 21
226.5503605474
 31
0.0
  0
LINE
  5
1F6
330
1F
100
AcDbEntity
  8
0
  6
Continuous
 62
     7
370
    25
100
AcDbLine
 10
195.1063850159
 20
230.6103605474
 30
0.0
 11
195.1063850159
 21
229.5303605474
 31
0.0
  0
LINE
  5
1F7
330
1F
100
AcDbEntity
  8
0
  6
Continuous
 62
     7
370
    25
100
AcDbLine
 10
195.1037165061
 20
229.5303605474
 30
0.0
 11
195.1063850159
 21
229.5303605474
 31
0.0
  0
LINE
  5
1F8
330
1F
100
AcDbEntity
  8
0
  6
Continuous
 62
     7
370
    25
100
AcDbLine
 10
195.1037165061
 20
230.6103605474
 30
0.0
 11
195.1063850159
 21
230.6103605474
 31
0.0
  0
LINE
  5
1F9
330
1F
100
AcDbEntity
  8
0
  6
Continuous
 62
     7
370
    25
100
AcDbLine
 10
183.2450515464
 20
225.3503605474
 30
0.0
 11
183.2450515464
 21
225.4003605474
 31
0.0
  0
SPLINE
  5
1FA
330
1F
100
AcDbEntity
  8
0
  6
Continuous
 62
     7
370
    25
100
AcDbSpline
210
0.0
220
0.0
230
1.0
 70
     8
 71
     3
 72
    17
 73
    13
 74
     0
 42
0.000000001
 43
0.00000001
 40
0.0
 40
0.0
 40
0.0
 40
0.0
 40
0.1134694140999611
 40
0.2302266456402011
 40
0.3437359989764008
 40
0.4605367502098758
 40
0.5740462899221628
 40
0.6908472453244724
 40
0.8043567076866011
 40
0.921157585929403
 40
0.9605131136258153
 40
0.9999999999999999
 40
0.9999999999999999
 40
0.9999999999999999
 40
0.9999999999999999
 10
183.6550515463916
 20
225.8103605474471
 30
0.0
 10
183.6306919952679
 20
225.8091016392017
 30
0.0
 10
183.5812670661892
 20
225.8065473453875
 30
0.0
 10
183.5098360303824
 20
225.786020257254
 30
0.0
 10
183.442507169016
 20
225.7536301499743
 30
0.0
 10
183.3826800829875
 20
225.7097959057618
 30
0.0
 10
183.331238234072
 20
225.6554912306615
 30
0.0
 10
183.2907869829407
 20
225.5933624345329
 30
0.0
 10
183.2618774334483
 20
225.5243635655228
 30
0.0
 10
183.2495250468114
 20
225.4675295545073
 30
0.0
 10
183.2455082275695
 20
225.4257393131904
 30
0.0
 10
183.2452039424398
 20
225.408829527112
 30
0.0
 10
183.2450515463916
 20
225.4003605474472
 30
0.0
  0
LINE
  5
1FB
330
1F
100
AcDbEntity
  8
0
  6
Continuous
 62
     7
370
    25
100
AcDbLine
 10
263.2450515464
 20
225.4003605474
 30
0.0
 11
263.2450515464
 21
225.3503605474
 31
0.0
  0
SPLINE
  5
1FC
330
1F
100
AcDbEntity
  8
0
  6
Continuous
 62
     7
370
    25
100
AcDbSpline
210
0.0
220
0.0
230
1.0
 70
     8
 71
     3
 72
    12
 73
     8
 74
     0
 42
0.000000001
 43
0.00000001
 40
0.0
 40
0.0
 40
0.0
 40
0.0
 40
0.2301693782020012
 40
0.4604221642956645
 40
0.6906753391241895
 40
0.9209283614222475
 40
1.0
 40
1.0
 40
1.0
 40
1.0
 10
262.8350515463915
 20
225.8103605474469
 30
0.0
 10
262.8844672842037
 20
225.8051450857881
 30
0.0
 10
262.9833166669127
 20
225.7947122725115
 30
0.0
 10
263.1125421011332
 20
225.7137702755698
 30
0.0
 10
263.2053313603707
 20
225.5961647044184
 30
0.0
 10
263.2418932965223
 20
225.4833597752519
 30
0.0
 10
263.2444085742712
 20
225.4172579405283
 30
0.0
 10
263.2450515463915
 20
225.4003605474469
 30
0.0
  0
LWPOLYLINE
  5
1FD
330
1F
100
AcDbEntity
  8
0
  6
Continuous
 62
     7
370
    25
100
AcDbPolyline
 90
        3
 70
   128
 43
0.0
 10
198.7450515464
 20
218.7603605474
 10
198.995793522
 20
218.724309294
 10
199.0949331983
 20
218.6887020591
  0
LWPOLYLINE
  5
1FE
330
1F
100
AcDbEntity
  8
0
  6
Continuous
 62
     7
370
    25
100
AcDbPolyline
 90
        3
 70
   128
 43
0.0
 10
198.3951698945
 20
218.6887020591
 10
198.4943095708
 20
218.724309294
 10
198.7450515464
 20
218.7603605474
  0
LWPOLYLINE
  5
1FF
330
1F
100
AcDbEntity
  8
0
  6
Continuous
 62
     7
370
    25
100
AcDbPolyline
 90
        3
 70
   128
 43
0.0
 10
198.7450515464
 20
218.8103605474
 10
199.0098801498
 20
218.7722839426
 10
199.207563352
 20
218.6887020591
  0
LWPOLYLINE
  5
200
330
1F
100
AcDbEntity
  8
0
  6
Continuous
 62
     7
370
    25
100
AcDbPolyline
 90
        3
 70
   128
 43
0.0
 10
198.2825397407
 20
218.6887020591
 10
198.480222943
 20
218.7722839426
 10
198.7450515464
 20
218.8103605474
  0
ARC
  5
201
330
1F
100
AcDbEntity
  8
0
  6
Continuous
 62
     7
370
    25
100
AcDbCircle
 10
198.7450515464
 20
217.8703605474
 30
0.0
 40
1.280000000000001
100
AcDbArc
 50
39.7418256963
 51
90.0
  0
ARC
  5
202
330
1F
100
AcDbEntity
  8
0
  6
Continuous
 62
     7
370
    25
100
AcDbCircle
 10
198.7450515464
 20
217.8703605474
 30
0.0
 40
1.28000000000003
100
AcDbArc
 50
90.0
 51
140.2581743037
  0
CIRCLE
  5
203
330
1F
100
AcDbEntity
  8
0
  6
Continuous
 62
     7
370
    25
100
AcDbCircle
 10
223.2450515464
 20
219.9203605474
 30
0.0
 40
0.5
  0
CIRCLE
  5
204
330
1F
100
AcDbEntity
  8
0
  6
Continuous
 62
     7
370
    25
100
AcDbCircle
 10
223.2450515464
 20
219.9203605474
 30
0.0
 40
0.6050000000000182
  0
CIRCLE
  5
205
330
1F
100
AcDbEntity
  8
0
  6
Continuous
 62
     7
370
    25
100
AcDbCircle
 10
223.2450515464
 20
219.9203605474
 30
0.0
 40
0.8899999999999864
  0
CIRCLE
  5
206
330
1F
100
AcDbEntity
  8
0
  6
Continuous
 62
     7
370
    25
100
AcDbCircle
 10
223.2450515464
 20
219.9203605474
 30
0.0
 40
0.9399999999999977
  0
CIRCLE
  5
207
330
1F
100
AcDbEntity
  8
0
  6
Continuous
 62
     7
370
    25
100
AcDbCircle
 10
223.2450515464
 20
219.9203605474
 30
0.0
 40
1.039999999999964
  0
CIRCLE
  5
208
330
1F
100
AcDbEntity
  8
0
  6
Continuous
 62
     7
370
    25
100
AcDbCircle
 10
223.2450515464
 20
219.9203605474
 30
0.0
 40
1.180000000000007
  0
ARC
  5
209
330
1F
100
AcDbEntity
  8
0
  6
Continuous
 62
     7
370
    25
100
AcDbCircle
 10
223.2450515464
 20
219.9203605474
 30
0.0
 40
1.280000000000006
100
AcDbArc
 50
285.7968010478
 51
90.0
  0
ARC
  5
20A
330
1F
100
AcDbEntity
  8
0
  6
Continuous
 62
     7
370
    25
100
AcDbCircle
 10
223.2450515464
 20
219.9203605474
 30
0.0
 40
1.280000000000006
100
AcDbArc
 50
90.0
 51
254.2031989522
  0
LWPOLYLINE
  5
20B
330
1F
100
AcDbEntity
  8
0
  6
Continuous
 62
     7
370
    25
100
AcDbPolyline
 90
        3
 70
   128
 43
0.0
 10
187.7450515464
 20
218.7603605474
 10
187.995793522
 20
218.724309294
 10
188.0949331983
 20
218.6887020591
  0
LWPOLYLINE
  5
20C
330
1F
100
AcDbEntity
  8
0
  6
Continuous
 62
     7
370
    25
100
AcDbPolyline
 90
        3
 70
   128
 43
0.0
 10
187.3951698945
 20
218.6887020591
 10
187.4943095708
 20
218.724309294
 10
187.7450515464
 20
218.7603605474
  0
LWPOLYLINE
  5
20D
330
1F
100
AcDbEntity
  8
0
  6
Continuous
 62
     7
370
    25
100
AcDbPolyline
 90
        3
 70
   128
 43
0.0
 10
187.7450515464
 20
218.8103605474
 10
188.0098801498
 20
218.7722839426
 10
188.207563352
 20
218.6887020591
  0
LWPOLYLINE
  5
20E
330
1F
100
AcDbEntity
  8
0
  6
Continuous
 62
     7
370
    25
100
AcDbPolyline
 90
        3
 70
   128
 43
0.0
 10
187.2825397407
 20
218.6887020591
 10
187.480222943
 20
218.7722839426
 10
187.7450515464
 20
218.8103605474
  0
ARC
  5
20F
330
1F
100
AcDbEntity
  8
0
  6
Continuous
 62
     7
370
    25
100
AcDbCircle
 10
187.7450515464
 20
217.8703605474
 30
0.0
 40
1.280000000000001
100
AcDbArc
 50
39.7418256963
 51
90.0
  0
ARC
  5
210
330
1F
100
AcDbEntity
  8
0
  6
Continuous
 62
     7
370
    25
100
AcDbCircle
 10
187.7450515464
 20
217.8703605474
 30
0.0
 40
1.280000000000001
100
AcDbArc
 50
90.0
 51
140.2581743037
  0
LWPOLYLINE
  5
211
330
1F
100
AcDbEntity
  8
0
  6
Continuous
 62
     7
370
    25
100
AcDbPolyline
 90
        3
 70
   128
 43
0.0
 10
247.7450515464
 20
218.7603605474
 10
247.995793522
 20
218.724309294
 10
248.0949331983
 20
218.6887020591
  0
LWPOLYLINE
  5
212
330
1F
100
AcDbEntity
  8
0
  6
Continuous
 62
     7
370
    25
100
AcDbPolyline
 90
        3
 70
   128
 43
0.0
 10
247.3951698945
 20
218.6887020591
 10
247.4943095708
 20
218.724309294
 10
247.7450515464
 20
218.7603605474
  0
LWPOLYLINE
  5
213
330
1F
100
AcDbEntity
  8
0
  6
Continuous
 62
     7
370
    25
100
AcDbPolyline
 90
        3
 70
   128
 43
0.0
 10
247.7450515464
 20
218.8103605474
 10
248.0098801498
 20
218.7722839426
 10
248.207563352
 20
218.6887020591
  0
LWPOLYLINE
  5
214
330
1F
100
AcDbEntity
  8
0
  6
Continuous
 62
     7
370
    25
100
AcDbPolyline
 90
        3
 70
   128
 43
0.0
 10
247.2825397407
 20
218.6887020591
 10
247.480222943
 20
218.7722839426
 10
247.7450515464
 20
218.8103605474
  0
ARC
  5
215
330
1F
100
AcDbEntity
  8
0
  6
Continuous
 62
     7
370
    25
100
AcDbCircle
 10
247.7450515464
 20
217.8703605474
 30
0.0
 40
1.280000000000001
100
AcDbArc
 50
39.7418256963
 51
90.0
  0
ARC
  5
216
330
1F
100
AcDbEntity
  8
0
  6
Continuous
 62
     7
370
    25
100
AcDbCircle
 10
247.7450515464
 20
217.8703605474
 30
0.0
 40
1.280000000000001
100
AcDbArc
 50
90.0
 51
140.2581743037
  0
LWPOLYLINE
  5
217
330
1F
100
AcDbEntity
  8
0
  6
Continuous
 62
     7
370
    25
100
AcDbPolyline
 90
        3
 70
   128
 43
0.0
 10
258.7450515464
 20
218.7603605474
 10
258.995793522
 20
218.724309294
 10
259.0949331983
 20
218.6887020591
  0
LWPOLYLINE
  5
218
330
1F
100
AcDbEntity
  8
0
  6
Continuous
 62
     7
370
    25
100
AcDbPolyline
 90
        3
 70
   128
 43
0.0
 10
258.3951698945
 20
218.6887020591
 10
258.4943095708
 20
218.724309294
 10
258.7450515464
 20
218.7603605474
  0
LWPOLYLINE
  5
219
330
1F
100
AcDbEntity
  8
0
  6
Continuous
 62
     7
370
    25
100
AcDbPolyline
 90
        3
 70
   128
 43
0.0
 10
258.7450515464
 20
218.8103605474
 10
259.0098801498
 20
218.7722839426
 10
259.207563352
 20
218.6887020591
  0
LWPOLYLINE
  5
21A
330
1F
100
AcDbEntity
  8
0
  6
Continuous
 62
     7
370
    25
100
AcDbPolyline
 90
        3
 70
   128
 43
0.0
 10
258.2825397407
 20
218.6887020591
 10
258.480222943
 20
218.7722839426
 10
258.7450515464
 20
218.8103605474
  0
ARC
  5
21B
330
1F
100
AcDbEntity
  8
0
  6
Continuous
 62
     7
370
    25
100
AcDbCircle
 10
258.7450515464
 20
217.8703605474
 30
0.0
 40
1.28000000000003
100
AcDbArc
 50
39.7418256963
 51
90.0
  0
ARC
  5
21C
330
1F
100
AcDbEntity
  8
0
  6
Continuous
 62
     7
370
    25
100
AcDbCircle
 10
258.7450515464
 20
217.8703605474
 30
0.0
 40
1.280000000000001
100
AcDbArc
 50
90.0
 51
140.2581743037
  0
LINE
  5
21D
330
1F
100
AcDbEntity
  8
0
  6
Continuous
 62
     7
370
    25
100
AcDbLine
 10
196.1210263854
 20
227.0403605474
 30
0.0
 11
196.1210263854
 21
228.0603605474
 31
0.0
  0
LINE
  5
21E
330
1F
100
AcDbEntity
  8
0
  6
Continuous
 62
     7
370
    25
100
AcDbLine
 10
196.0150517265
 20
227.0403605474
 30
0.0
 11
196.1210263854
 21
227.0403605474
 31
0.0
  0
SPLINE
  5
21F
330
1F
100
AcDbEntity
  8
0
  6
Continuous
 62
     7
370
    25
100
AcDbSpline
210
0.0
220
0.0
230
1.0
 70
     8
 71
     3
 72
    11
 73
     7
 74
     0
 42
0.000000001
 43
0.00000001
 40
0.0
 40
0.0
 40
0.0
 40
0.0
 40
0.0796332959753219
 40
0.459498197890416
 40
0.8207504115405153
 40
1.0
 40
1.0
 40
1.0
 40
1.0
 10
196.0385807455642
 20
228.2906624214517
 30
0.0
 10
196.0433933784762
 20
228.2872698753675
 30
0.0
 10
196.0711631213092
 20
228.2676942846193
 30
0.0
 10
196.1050121803855
 20
228.2040260692109
 30
0.0
 10
196.128546824444
 20
228.1257663350289
 30
0.0
 10
196.1304115421769
 20
228.076649450338
 30
0.0
 10
196.1310299487852
 20
228.0603605474464
 30
0.0
  0
LINE
  5
220
330
1F
100
AcDbEntity
  8
0
  6
Continuous
 62
     7
370
    25
100
AcDbLine
 10
195.9350239072
 20
227.0403605474
 30
0.0
 11
196.0150517265
 21
227.0403605474
 31
0.0
  0
ARC
  5
221
330
1F
100
AcDbEntity
  8
0
  6
Continuous
 62
     7
370
    25
100
AcDbCircle
 10
195.9710034268
 20
227.0338986411
 30
0.0
 40
0.0445197588819846
100
AcDbArc
 50
282.05436083
 51
8.3457876333
  0
ARC
  5
222
330
1F
100
AcDbEntity
  8
0
  6
Continuous
 62
     7
370
    25
100
AcDbCircle
 10
195.9827855798
 20
227.0381105856
 30
0.0
 40
0.0478146389137693
100
AcDbArc
 50
177.3028984186
 51
267.0213133886
  0
LINE
  5
223
330
1F
100
AcDbEntity
  8
0
  6
Continuous
 62
     7
370
    25
100
AcDbLine
 10
196.0862755762
 20
226.9903605474
 30
0.0
 11
195.9803009172
 21
226.9903605474
 31
0.0
  0
ARC
  5
224
330
1F
100
AcDbEntity
  8
0
  6
Continuous
 62
     7
370
    25
100
AcDbCircle
 10
196.0769780858
 20
227.0338986411
 30
0.0
 40
0.0445197588819819
100
AcDbArc
 50
282.05436083
 51
8.3457876333
  0
LINE
  5
225
330
1F
100
AcDbEntity
  8
0
  6
Continuous
 62
     7
370
    25
100
AcDbLine
 10
195.9803009172
 20
226.9903605474
 30
0.0
 11
195.4330885979
 21
226.9903605474
 31
0.0
  0
SPLINE
  5
226
330
1F
100
AcDbEntity
  8
0
  6
Continuous
 62
     7
370
    25
100
AcDbSpline
210
0.0
220
0.0
230
1.0
 70
     8
 71
     3
 72
    12
 73
     8
 74
     0
 42
0.000000001
 43
0.00000001
 40
0.0
 40
0.0
 40
0.0
 40
0.0
 40
0.2289440738516476
 40
0.4594214300241805
 40
0.682535569815752
 40
0.8947175231628269
 40
1.0
 40
1.0
 40
1.0
 40
1.0
 10
195.8248770201461
 20
227.8703605474464
 30
0.0
 10
195.849239203019
 20
227.8738274443619
 30
0.0
 10
195.8981267269704
 20
227.8807844566658
 30
0.0
 10
195.9621146792488
 20
227.9355584258283
 30
0.0
 10
196.0080039773477
 20
228.0149657327248
 30
0.0
 10
196.0285532192221
 20
228.0951409305954
 30
0.0
 10
196.0303008858731
 20
228.1441180092128
 30
0.0
 10
196.0308804741867
 20
228.1603605474464
 30
0.0
  0
SPLINE
  5
227
330
1F
100
AcDbEntity
  8
0
  6
Continuous
 62
     7
370
    25
100
AcDbSpline
210
0.0
220
0.0
230
1.0
 70
     8
 71
     3
 72
    12
 73
     8
 74
     0
 42
0.000000001
 43
0.00000001
 40
0.0
 40
0.0
 40
0.0
 40
0.0
 40
0.2028202020467479
 40
0.4049472449426038
 40
0.6098312030740413
 40
0.8226939241827388
 40
1.0
 40
1.0
 40
1.0
 40
1.0
 10
195.0917187598823
 20
228.1603605474465
 30
0.0
 10
195.0898284268978
 20
228.1289323793394
 30
0.0
 10
195.0860542213384
 20
228.0661834521609
 30
0.0
 10
195.0567849996172
 20
227.982104202067
 30
0.0
 10
195.0134576728144
 20
227.9166884949791
 30
0.0
 10
194.9616120607354
 20
227.8770466417259
 30
0.0
 10
194.9252555981586
 20
227.8724496005414
 30
0.0
 10
194.90873397531
 20
227.8703605474465
 30
0.0
  0
LINE
  5
228
330
1F
100
AcDbEntity
  8
0
  6
Continuous
 62
     7
370
    25
100
AcDbLine
 10
195.0917187599
 20
228.1603605474
 30
0.0
 11
196.0308804742
 21
228.1603605474
 31
0.0
  0
LINE
  5
229
330
1F
100
AcDbEntity
  8
0
  6
Continuous
 62
     7
370
    25
100
AcDbLine
 10
195.8248770201
 20
227.8703605474
 30
0.0
 11
194.9087339753
 21
227.8703605474
 31
0.0
  0
LINE
  5
22A
330
1F
100
AcDbEntity
  8
0
  6
Continuous
 62
     7
370
    25
100
AcDbLine
 10
196.0308804742
 20
228.1603605474
 30
0.0
 11
196.0308804742
 21
229.1803605474
 31
0.0
  0
LINE
  5
22B
330
1F
100
AcDbEntity
  8
0
  6
Continuous
 62
     7
370
    25
100
AcDbLine
 10
195.0917187599
 20
229.1803605474
 30
0.0
 11
195.0917187599
 21
228.1603605474
 31
0.0
  0
LINE
  5
22C
330
1F
100
AcDbEntity
  8
0
  6
Continuous
 62
     7
370
    25
100
AcDbLine
 10
196.0308804742
 20
229.1803605474
 30
0.0
 11
195.0917187599
 21
229.1803605474
 31
0.0
  0
LINE
  5
22D
330
1F
100
AcDbEntity
  8
0
  6
Continuous
 62
     7
370
    25
100
AcDbLine
 10
195.0724377007
 20
229.2303605474
 30
0.0
 11
195.9885807456
 21
229.2303605474
 31
0.0
  0
ARC
  5
22E
330
1F
100
AcDbEntity
  8
0
  6
Continuous
 62
     7
370
    25
100
AcDbCircle
 10
195.9843801692
 20
229.1839142122
 30
0.0
 40
0.0466358970737911
100
AcDbArc
 50
355.6298138039
 51
84.8322658057
  0
SPLINE
  5
22F
330
1F
100
AcDbEntity
  8
0
  6
Continuous
 62
     7
370
    25
100
AcDbSpline
210
0.0
220
0.0
230
1.0
 70
     8
 71
     3
 72
    12
 73
     8
 74
     0
 42
0.000000001
 43
0.00000001
 40
0.0
 40
0.0
 40
0.0
 40
0.0
 40
0.1789601577903944
 40
0.3929009169380594
 40
0.5976976172812916
 40
0.7987833678438021
 40
1.0
 40
1.0
 40
1.0
 40
1.0
 10
194.8705613484419
 20
227.9203605474465
 30
0.0
 10
194.8854753818338
 20
227.9220829414172
 30
0.0
 10
194.9182186329981
 20
227.9258643985796
 30
0.0
 10
194.9646045860044
 20
227.95857160361
 30
0.0
 10
195.003223682205
 20
228.0126860659632
 30
0.0
 10
195.02923589678
 20
228.0823120898751
 30
0.0
 10
195.0325883179507
 20
228.1343387529538
 30
0.0
 10
195.03426507386
 20
228.1603605474465
 30
0.0
  0
LINE
  5
230
330
1F
100
AcDbEntity
  8
0
  6
Continuous
 62
     7
370
    25
100
AcDbLine
 10
195.0342650739
 20
228.1603605474
 30
0.0
 11
195.0917187599
 21
228.1603605474
 31
0.0
  0
SPLINE
  5
231
330
1F
100
AcDbEntity
  8
0
  6
Continuous
 62
     7
370
    25
100
AcDbSpline
210
0.0
220
0.0
230
1.0
 70
     8
 71
     3
 72
    12
 73
     8
 74
     0
 42
0.000000001
 43
0.00000001
 40
0.0
 40
0.0
 40
0.0
 40
0.0
 40
0.1818603118644977
 40
0.3964966430177858
 40
0.60058368711066
 40
0.8002123703304567
 40
1.0
 40
1.0
 40
1.0
 40
1.0
 10
194.8705613484419
 20
228.0603605474465
 30
0.0
 10
194.8768892430199
 20
228.0611040977652
 30
0.0
 10
194.8906854854865
 20
228.062725205759
 30
0.0
 10
194.9101127549681
 20
228.0765561455603
 30
0.0
 10
194.926172120754
 20
228.0991240269511
 30
0.0
 10
194.9369771920296
 20
228.1280082471002
 30
0.0
 10
194.9383717351908
 20
228.1495735867116
 30
0.0
 10
194.9390692842484
 20
228.1603605474465
 30
0.0
  0
LINE
  5
232
330
1F
100
AcDbEntity
  8
0
  6
Continuous
 62
     7
370
    25
100
AcDbLine
 10
194.8750515464
 20
228.1103605474
 30
0.0
 11
194.9087339753
 21
228.1103605474
 31
0.0
  0
LINE
  5
233
330
1F
100
AcDbEntity
  8
0
  6
Continuous
 62
     7
370
    25
100
AcDbLine
 10
194.9087339753
 20
227.8703605474
 30
0.0
 11
194.8750515464
 21
227.8703605474
 31
0.0
  0
LINE
  5
234
330
1F
100
AcDbEntity
  8
0
  6
Continuous
 62
     7
370
    25
100
AcDbLine
 10
196.0308804742
 20
228.1603605474
 30
0.0
 11
196.0385807456
 21
228.1603605474
 31
0.0
  0
LINE
  5
235
330
1F
100
AcDbEntity
  8
0
  6
Continuous
 62
     7
370
    25
100
AcDbLine
 10
195.9950515464
 20
227.8703605474
 30
0.0
 11
195.8248770201
 21
227.8703605474
 31
0.0
  0
LINE
  5
236
330
1F
100
AcDbEntity
  8
0
  6
Continuous
 62
     7
370
    25
100
AcDbLine
 10
195.0827270586
 20
226.9196769449
 30
0.0
 11
194.6900515464
 21
226.8574939482
 31
0.0
  0
LINE
  5
237
330
1F
100
AcDbEntity
  8
0
  6
Continuous
 62
     7
370
    25
100
AcDbLine
 10
195.0827270586
 20
227.78104415
 30
0.0
 11
194.8750515464
 21
227.8139310637
 31
0.0
  0
LINE
  5
238
330
1F
100
AcDbEntity
  8
0
  6
Continuous
 62
     7
370
    25
100
AcDbLine
 10
195.0827270586
 20
226.9196769449
 30
0.0
 11
195.0827270586
 21
227.78104415
 31
0.0
  0
SPLINE
  5
239
330
1F
100
AcDbEntity
  8
0
  6
Continuous
 62
     7
370
    25
100
AcDbSpline
210
0.0
220
0.0
230
1.0
 70
     8
 71
     3
 72
     9
 73
     5
 74
     0
 42
0.000000001
 43
0.00000001
 40
0.0
 40
0.0
 40
0.0
 40
0.0
 40
0.2686336050555953
 40
1.0
 40
1.0
 40
1.0
 40
1.0
 10
195.2579078282268
 20
226.8303605474464
 30
0.0
 10
195.2419789943854
 20
226.8316863379633
 30
0.0
 10
195.182683234132
 20
226.8366216494505
 30
0.0
 10
195.1249506964974
 20
226.8845926021705
 30
0.0
 10
195.0827270585766
 20
226.9196769449234
 30
0.0
  0
LINE
  5
23A
330
1F
100
AcDbEntity
  8
0
  6
Continuous
 62
     7
370
    25
100
AcDbLine
 10
195.2579078282
 20
226.8303605474
 30
0.0
 11
194.6900515464
 21
226.8303605474
 31
0.0
  0
SPLINE
  5
23B
330
1F
100
AcDbEntity
  8
0
  6
Continuous
 62
     7
370
    25
100
AcDbSpline
210
0.0
220
0.0
230
1.0
 70
     8
 71
     3
 72
     9
 73
     5
 74
     0
 42
0.000000001
 43
0.00000001
 40
0.0
 40
0.0
 40
0.0
 40
0.0
 40
0.2686336050556358
 40
1.0
 40
1.0
 40
1.0
 40
1.0
 10
195.2579078282268
 20
227.8703605474464
 30
0.0
 10
195.2419789943854
 20
227.8690347569295
 30
0.0
 10
195.182683234132
 20
227.8640994454422
 30
0.0
 10
195.1249506964974
 20
227.8161284927222
 30
0.0
 10
195.0827270585766
 20
227.7810441499693
 30
0.0
  0
SPLINE
  5
23C
330
1F
100
AcDbEntity
  8
0
  6
Continuous
 62
     7
370
    25
100
AcDbSpline
210
0.0
220
0.0
230
1.0
 70
     8
 71
     3
 72
     9
 73
     5
 74
     0
 42
0.000000001
 43
0.00000001
 40
0.0
 40
0.0
 40
0.0
 40
0.0
 40
0.2575513451038566
 40
1.0
 40
1.0
 40
1.0
 40
1.0
 10
195.433088597877
 20
226.9196769449234
 30
0.0
 10
195.418381867901
 20
226.9061939003685
 30
0.0
 10
195.3612797395076
 20
226.8538430009797
 30
0.0
 10
195.3019540824845
 20
226.8403663034211
 30
0.0
 10
195.2579078282268
 20
226.8303605474464
 30
0.0
  0
SPLINE
  5
23D
330
1F
100
AcDbEntity
  8
0
  6
Continuous
 62
     7
370
    25
100
AcDbSpline
210
0.0
220
0.0
230
1.0
 70
     8
 71
     3
 72
     9
 73
     5
 74
     0
 42
0.000000001
 43
0.00000001
 40
0.0
 40
0.0
 40
0.0
 40
0.0
 40
0.5569342110492352
 40
1.0
 40
1.0
 40
1.0
 40
1.0
 10
195.433088597877
 20
227.7810441499693
 30
0.0
 10
195.4184390173746
 20
227.7955263452182
 30
0.0
 10
195.3921350478721
 20
227.8215297670974
 30
0.0
 10
195.3648028190561
 20
227.8295560154207
 30
0.0
 10
195.352692843532
 20
227.8331121714664
 30
0.0
  0
LINE
  5
23E
330
1F
100
AcDbEntity
  8
0
  6
Continuous
 62
     7
370
    25
100
AcDbLine
 10
195.4330885979
 20
226.9196769449
 30
0.0
 11
195.4330885979
 21
227.78104415
 31
0.0
  0
LINE
  5
23F
330
1F
100
AcDbEntity
  8
0
  6
Continuous
 62
     7
370
    25
100
AcDbLine
 10
195.3050515464
 20
226.8303605474
 30
0.0
 11
195.2579078282
 21
226.8303605474
 31
0.0
  0
SPLINE
  5
240
330
1F
100
AcDbEntity
  8
0
  6
Continuous
 62
     7
370
    25
100
AcDbSpline
210
0.0
220
0.0
230
1.0
 70
     8
 71
     3
 72
     9
 73
     5
 74
     0
 42
0.000000001
 43
0.00000001
 40
0.0
 40
0.0
 40
0.0
 40
0.0
 40
0.1147686758009399
 40
0.9999999999999999
 40
0.9999999999999999
 40
0.9999999999999999
 40
0.9999999999999999
 10
194.957760864633
 20
226.7803605474464
 30
0.0
 10
194.9473886793521
 20
226.7803175319725
 30
0.0
 10
194.8570139738102
 20
226.7799427304547
 30
0.0
 10
194.7684506101128
 20
226.7524667069744
 30
0.0
 10
194.6900515463915
 20
226.7281440703252
 30
0.0
  0
LINE
  5
241
330
1F
100
AcDbEntity
  8
0
  6
Continuous
 62
     7
370
    25
100
AcDbLine
 10
194.6900515464
 20
226.7803605474
 30
0.0
 11
194.9577608646
 21
226.7803605474
 31
0.0
  0
LINE
  5
242
330
1F
100
AcDbEntity
  8
0
  6
Continuous
 62
     7
370
    25
100
AcDbLine
 10
195.3951663005
 20
225.8296769449
 30
0.0
 11
195.3005689197
 21
225.8103605474
 31
0.0
  0
LINE
  5
243
330
1F
100
AcDbEntity
  8
0
  6
Continuous
 62
     7
370
    25
100
AcDbLine
 10
195.3951663005
 20
226.69104415
 30
0.0
 11
194.9577608646
 21
226.7803605474
 31
0.0
  0
LINE
  5
244
330
1F
100
AcDbEntity
  8
0
  6
Continuous
 62
     7
370
    25
100
AcDbLine
 10
195.3951663005
 20
225.8296769449
 30
0.0
 11
195.3951663005
 21
226.69104415
 31
0.0
  0
SPLINE
  5
245
330
1F
100
AcDbEntity
  8
0
  6
Continuous
 62
     7
370
    25
100
AcDbSpline
210
0.0
220
0.0
230
1.0
 70
     8
 71
     3
 72
     9
 73
     5
 74
     0
 42
0.000000001
 43
0.00000001
 40
0.0
 40
0.0
 40
0.0
 40
0.0
 40
0.2686336050556397
 40
1.0
 40
1.0
 40
1.0
 40
1.0
 10
195.2875143592562
 20
226.7803605474464
 30
0.0
 10
195.2973029330112
 20
226.7790347569295
 30
0.0
 10
195.3337413144005
 20
226.7740994454422
 30
0.0
 10
195.3692190655233
 20
226.7261284927222
 30
0.0
 10
195.3951663004626
 20
226.6910441499693
 30
0.0
  0
LINE
  5
246
330
1F
100
AcDbEntity
  8
0
  6
Continuous
 62
     7
370
    25
100
AcDbLine
 10
194.9577608646
 20
226.7803605474
 30
0.0
 11
195.3034469889
 21
226.7803605474
 31
0.0
  0
LINE
  5
247
330
1F
100
AcDbEntity
  8
0
  6
Continuous
 62
     7
370
    25
100
AcDbLine
 10
195.0800515464
 20
229.3903605474
 30
0.0
 11
195.1031074735
 21
229.3903605474
 31
0.0
  0
SPLINE
  5
248
330
1F
100
AcDbEntity
  8
0
  6
Continuous
 62
     7
370
    25
100
AcDbSpline
210
0.0
220
0.0
230
1.0
 70
     8
 71
     3
 72
     9
 73
     5
 74
     0
 42
0.000000001
 43
0.00000001
 40
0.0
 40
0.0
 40
0.0
 40
0.0
 40
0.2575513451038457
 40
1.0
 40
1.0
 40
1.0
 40
1.0
 10
195.4510091536726
 20
229.3010441499693
 30
0.0
 10
195.4218022031673
 20
229.3145271945243
 30
0.0
 10
195.308399764933
 20
229.3668780939131
 30
0.0
 10
195.190581491857
 20
229.3803547914716
 30
0.0
 10
195.1031074734896
 20
229.3903605474464
 30
0.0
  0
LINE
  5
249
330
1F
100
AcDbEntity
  8
0
  6
Continuous
 62
     7
370
    25
100
AcDbLine
 10
195.4510091537
 20
229.2303605474
 30
0.0
 11
195.4510091537
 21
229.30104415
 31
0.0
  0
LINE
  5
24A
330
1F
100
AcDbEntity
  8
0
  6
Continuous
 62
     7
370
    25
100
AcDbLine
 10
195.3912589808
 20
229.3264300787
 30
0.0
 11
195.4510091537
 21
229.30104415
 31
0.0
  0
LINE
  5
24B
330
1F
100
AcDbEntity
  8
0
  6
Continuous
 62
     7
370
    25
100
AcDbLine
 10
195.1031074735
 20
229.3903605474
 30
0.0
 11
195.3050515464
 21
229.3903605474
 31
0.0
  0
LINE
  5
24C
330
1F
100
AcDbEntity
  8
0
  6
Continuous
 62
     7
370
    25
100
AcDbLine
 10
203.2450515464
 20
214.7206240073
 30
0.0
 11
204.4253996497
 21
214.7206240073
 31
0.0
  0
LINE
  5
24D
330
1F
100
AcDbEntity
  8
0
  6
Continuous
 62
     7
370
    25
100
AcDbLine
 10
202.0647034431
 20
214.7206240073
 30
0.0
 11
203.2450515464
 21
214.7206240073
 31
0.0
  0
SPLINE
  5
24E
330
1F
100
AcDbEntity
  8
0
  6
Continuous
 62
     7
370
    25
100
AcDbSpline
210
0.0
220
0.0
230
1.0
 70
    24
 71
     3
 72
    11
 73
     7
 74
     0
 42
0.000000001
 43
0.00000001
 40
0.0
 40
0.0
 40
0.0
 40
0.0
 40
0.0013795994445574
 40
0.126517226336423
 40
0.6324511206811112
 40
1.0
 40
1.0
 40
1.0
 40
1.0
 10
203.1100515463916
 20
214.3126597798147
 30
0.0
 10
203.1100515463916
 20
214.3126096263038
 30
0.0
 10
203.1100515463916
 20
214.308010260083
 30
0.0
 10
203.1100515463916
 20
214.3273423497159
 30
0.0
 10
203.1100515463917
 20
214.3857568810756
 30
0.0
 10
203.1100515463917
 20
214.5438410306678
 30
0.0
 10
203.1100515463917
 20
214.6103605474489
 30
0.0
  0
SPLINE
  5
24F
330
1F
100
AcDbEntity
  8
0
  6
Continuous
 62
     7
370
    25
100
AcDbSpline
210
0.0
220
0.0
230
1.0
 70
    24
 71
     3
 72
    10
 73
     6
 74
     0
 42
0.000000001
 43
0.00000001
 40
0.0
 40
0.0
 40
0.0
 40
0.0
 40
0.0582682807585511
 40
0.6157791740763258
 40
1.0
 40
1.0
 40
1.0
 40
1.0
 10
203.3800515463917
 20
214.610360547447
 30
0.0
 10
203.3800515463917
 20
214.5990527896029
 30
0.0
 10
203.3800515463916
 20
214.4795524080016
 30
0.0
 10
203.3800515463917
 20
214.3384416009881
 30
0.0
 10
203.3800515463916
 20
214.3201390880416
 30
0.0
 10
203.3800515463916
 20
214.3126717738404
 30
0.0
  0
LINE
  5
250
330
1F
100
AcDbEntity
  8
0
  6
Continuous
 62
     7
370
    25
100
AcDbLine
 10
203.1100515464
 20
214.6103605474
 30
0.0
 11
203.3800515464
 21
214.6103605474
 31
0.0
  0
LINE
  5
251
330
1F
100
AcDbEntity
  8
0
  6
Continuous
 62
     7
370
    25
100
AcDbLine
 10
243.2450515464
 20
214.7206240073
 30
0.0
 11
244.4253996497
 21
214.7206240073
 31
0.0
  0
LINE
  5
252
330
1F
100
AcDbEntity
  8
0
  6
Continuous
 62
     7
370
    25
100
AcDbLine
 10
242.0647034431
 20
214.7206240073
 30
0.0
 11
243.2450515464
 21
214.7206240073
 31
0.0
  0
SPLINE
  5
253
330
1F
100
AcDbEntity
  8
0
  6
Continuous
 62
     7
370
    25
100
AcDbSpline
210
0.0
220
0.0
230
1.0
 70
    24
 71
     3
 72
    11
 73
     7
 74
     0
 42
0.000000001
 43
0.00000001
 40
0.0
 40
0.0
 40
0.0
 40
0.0
 40
0.0013795994445574
 40
0.126517226336423
 40
0.6324511206811112
 40
1.0
 40
1.0
 40
1.0
 40
1.0
 10
243.1100515463916
 20
214.3126597798145
 30
0.0
 10
243.1100515463916
 20
214.3126096263037
 30
0.0
 10
243.1100515463916
 20
214.3080102600827
 30
0.0
 10
243.1100515463917
 20
214.3273423497161
 30
0.0
 10
243.1100515463916
 20
214.3857568810753
 30
0.0
 10
243.1100515463916
 20
214.5438410306676
 30
0.0
 10
243.1100515463916
 20
214.6103605474487
 30
0.0
  0
SPLINE
  5
254
330
1F
100
AcDbEntity
  8
0
  6
Continuous
 62
     7
370
    25
100
AcDbSpline
210
0.0
220
0.0
230
1.0
 70
    24
 71
     3
 72
    10
 73
     6
 74
     0
 42
0.000000001
 43
0.00000001
 40
0.0
 40
0.0
 40
0.0
 40
0.0
 40
0.0582682807585511
 40
0.6157791740763258
 40
1.0
 40
1.0
 40
1.0
 40
1.0
 10
243.3800515463916
 20
214.6103605474468
 30
0.0
 10
243.3800515463916
 20
214.5990527896027
 30
0.0
 10
243.3800515463916
 20
214.4795524080014
 30
0.0
 10
243.3800515463916
 20
214.338441600988
 30
0.0
 10
243.3800515463916
 20
214.3201390880414
 30
0.0
 10
243.3800515463916
 20
214.3126717738402
 30
0.0
  0
LINE
  5
255
330
1F
100
AcDbEntity
  8
0
  6
Continuous
 62
     7
370
    25
100
AcDbLine
 10
243.1100515464
 20
214.6103605474
 30
0.0
 11
243.3800515464
 21
214.6103605474
 31
0.0
  0
ARC
  5
256
330
1F
100
AcDbEntity
  8
0
  6
Continuous
 62
     8
370
    25
100
AcDbCircle
 10
258.4456029188
 20
68.9289621473
 30
0.0
 40
0.2037222840680815
100
AcDbArc
 50
269.8449293421
 51
312.342282491
  0
LINE
  5
257
330
1F
100
AcDbEntity
  8
0
  6
Continuous
 62
     8
370
    25
100
AcDbLine
 10
258.4450515464
 20
68.7783840335
 30
0.0
 11
258.4450515464
 21
68.7252406094
 31
0.0
  0
LINE
  5
258
330
1F
100
AcDbEntity
  8
0
  6
Continuous
 62
     8
370
    25
100
AcDbLine
 10
250.8450515464
 20
68.7783840335
 30
0.0
 11
250.8450515464
 21
68.7252406094
 31
0.0
  0
ARC
  5
259
330
1F
100
AcDbEntity
  8
0
  6
Continuous
 62
     8
370
    25
100
AcDbCircle
 10
250.844500174
 20
68.9289621473
 30
0.0
 40
0.203722284068522
100
AcDbArc
 50
227.657717509
 51
270.1550706579
  0
ARC
  5
25A
330
1F
100
AcDbEntity
  8
0
  6
Continuous
 62
     8
370
    25
100
AcDbCircle
 10
250.8436656514
 20
68.8926669187
 30
0.0
 40
0.2012780712601546
100
AcDbArc
 50
214.5959855886
 51
270.3945117311
  0
ARC
  5
25B
330
1F
100
AcDbEntity
  8
0
  6
Continuous
 62
     8
370
    25
100
AcDbCircle
 10
258.4464374414
 20
68.8926669187
 30
0.0
 40
0.2012780712668084
100
AcDbArc
 50
269.6054882699
 51
325.4040144104
  0
LINE
  5
25C
330
1F
100
AcDbEntity
  8
0
  6
Continuous
 62
     8
370
    25
100
AcDbLine
 10
258.4450515464
 20
68.6913936188
 30
0.0
 11
258.4450515464
 21
68.6845743375
 31
0.0
  0
LINE
  5
25D
330
1F
100
AcDbEntity
  8
0
  6
Continuous
 62
     8
370
    25
100
AcDbLine
 10
250.8450515464
 20
68.6913936188
 30
0.0
 11
250.8450515464
 21
68.6845743375
 31
0.0
  0
ARC
  5
25E
330
1F
100
AcDbEntity
  8
0
  6
Continuous
 62
     8
370
    25
100
AcDbCircle
 10
188.044500174
 20
68.9289621473
 30
0.0
 40
0.2037222840680533
100
AcDbArc
 50
227.6577175089
 51
270.155070658
  0
LINE
  5
25F
330
1F
100
AcDbEntity
  8
0
  6
Continuous
 62
     8
370
    25
100
AcDbLine
 10
188.0450515464
 20
68.7783840335
 30
0.0
 11
188.0450515464
 21
68.7252406094
 31
0.0
  0
LINE
  5
260
330
1F
100
AcDbEntity
  8
0
  6
Continuous
 62
     8
370
    25
100
AcDbLine
 10
195.6450515464
 20
68.7783840335
 30
0.0
 11
195.6450515464
 21
68.7252406094
 31
0.0
  0
ARC
  5
261
330
1F
100
AcDbEntity
  8
0
  6
Continuous
 62
     8
370
    25
100
AcDbCircle
 10
195.6456029188
 20
68.9289621473
 30
0.0
 40
0.2037222840683619
100
AcDbArc
 50
269.8449293421
 51
312.3422824911
  0
ARC
  5
262
330
1F
100
AcDbEntity
  8
0
  6
Continuous
 62
     8
370
    25
100
AcDbCircle
 10
195.6464374414
 20
68.8926669187
 30
0.0
 40
0.2012780712655877
100
AcDbArc
 50
269.6054882697
 51
325.4040144107
  0
ARC
  5
263
330
1F
100
AcDbEntity
  8
0
  6
Continuous
 62
     8
370
    25
100
AcDbCircle
 10
188.0436656514
 20
68.8926669187
 30
0.0
 40
0.2012780712613099
100
AcDbArc
 50
214.5959855886
 51
270.3945117309
  0
LINE
  5
264
330
1F
100
AcDbEntity
  8
0
  6
Continuous
 62
     8
370
    25
100
AcDbLine
 10
195.6450515464
 20
68.6913936188
 30
0.0
 11
195.6450515464
 21
68.6845743375
 31
0.0
  0
LINE
  5
265
330
1F
100
AcDbEntity
  8
0
  6
Continuous
 62
     8
370
    25
100
AcDbLine
 10
188.0450515464
 20
68.6913936188
 30
0.0
 11
188.0450515464
 21
68.6845743375
 31
0.0
  0
LINE
  5
266
330
1F
100
AcDbEntity
  8
0
  6
Continuous
 62
     8
370
    25
100
AcDbLine
 10
225.4748912377
 20
71.3589181395
 30
0.0
 11
225.6353554015
 21
72.4903605474
 31
0.0
  0
LINE
  5
267
330
1F
100
AcDbEntity
  8
0
  6
Continuous
 62
     8
370
    25
100
AcDbLine
 10
220.8547476913
 20
72.4903605474
 30
0.0
 11
221.015211855
 21
71.3589181395
 31
0.0
  0
LINE
  5
268
330
1F
100
AcDbEntity
  8
0
  6
Continuous
 62
     8
370
    25
100
AcDbLine
 10
223.1627022484
 20
72.4903605474
 30
0.0
 11
223.1385323841
 21
71.7960818017
 31
0.0
  0
LINE
  5
269
330
1F
100
AcDbEntity
  8
0
  6
Continuous
 62
     8
370
    25
100
AcDbLine
 10
223.3515707086
 20
71.7960818017
 30
0.0
 11
223.3318533359
 21
72.4903605474
 31
0.0
  0
ARC
  5
26A
330
1F
100
AcDbEntity
  8
0
  6
Continuous
 62
     8
370
    25
100
AcDbCircle
 10
220.976872913
 20
71.4908802793
 30
0.0
 40
0.1374186334455942
100
AcDbArc
 50
245.3656338026
 51
286.2001587113
  0
ARC
  5
26B
330
1F
100
AcDbEntity
  8
0
  6
Continuous
 62
     8
370
    25
100
AcDbCircle
 10
225.509170443
 20
71.5459383518
 30
0.0
 40
0.1901358033974003
100
AcDbArc
 50
259.6134641064
 51
288.8207433797
  0
ARC
  5
26C
330
1F
100
AcDbEntity
  8
0
  6
Continuous
 62
     8
370
    25
100
AcDbCircle
 10
226.6423407909
 20
70.4704335577
 30
0.0
 40
1.464121149583929
100
AcDbArc
 50
180.9346666548
 51
222.6624130453
  0
LWPOLYLINE
  5
26D
330
1F
100
AcDbEntity
  8
0
  6
Continuous
 62
     8
370
    25
100
AcDbPolyline
 90
        3
 70
   128
 43
0.0
 10
226.0640275731
 20
72.1121705152
 10
225.7385138572
 20
72.4067727206
 10
225.6906466138
 20
72.4580481522
  0
ARC
  5
26E
330
1F
100
AcDbEntity
  8
0
  6
Continuous
 62
     8
370
    25
100
AcDbCircle
 10
219.8187848992
 20
70.484587794
 30
0.0
 40
1.495050443965387
100
AcDbArc
 50
317.6912735645
 51
356.9497662045
  0
LWPOLYLINE
  5
26F
330
1F
100
AcDbEntity
  8
0
  6
Continuous
 62
     8
370
    25
100
AcDbPolyline
 90
        3
 70
   128
 43
0.0
 10
220.7923888924
 20
72.4503035709
 10
220.7515892356
 20
72.4067727206
 10
220.4260755197
 20
72.1121705152
  0
SPLINE
  5
270
330
1F
100
AcDbEntity
  8
0
  6
Continuous
 62
     8
370
    25
100
AcDbSpline
210
0.0
220
0.0
230
1.0
 70
     8
 71
     3
 72
    10
 73
     6
 74
     0
 42
0.000000001
 43
0.00000001
 40
0.0
 40
0.0
 40
0.0
 40
0.0
 40
0.4307944452701031
 40
0.8540557732879646
 40
1.0
 40
1.0
 40
1.0
 40
1.0
 10
226.0640275730818
 20
72.11217051522867
 30
0.0
 10
226.0858409715236
 20
72.1663700247848
 30
0.0
 10
226.1290863268868
 20
72.27382128037553
 30
0.0
 10
226.2359642362846
 20
72.40861966739762
 30
0.0
 10
226.3166282781459
 20
72.4736792733434
 30
0.0
 10
226.3373105274934
 20
72.49036054744737
 30
0.0
  0
SPLINE
  5
271
330
1F
100
AcDbEntity
  8
0
  6
Continuous
 62
     8
370
    25
100
AcDbSpline
210
0.0
220
0.0
230
1.0
 70
     8
 71
     3
 72
    11
 73
     7
 74
     0
 42
0.000000001
 43
0.00000001
 40
0.0
 40
0.0
 40
0.0
 40
0.0
 40
0.0992115242687617
 40
0.1453081305701452
 40
0.5688847013463803
 40
1.0
 40
1.0
 40
1.0
 40
1.0
 10
220.1538422505421
 20
72.49036054744737
 30
0.0
 10
220.1682318566261
 20
72.47930391052405
 30
0.0
 10
220.1893072989711
 20
72.46311003331509
 30
0.0
 10
220.2615197610841
 20
72.39320273125493
 30
0.0
 10
220.3623526070428
 20
72.27461323673984
 30
0.0
 10
220.4047100123346
 20
72.16663555799458
 30
0.0
 10
220.4260755197013
 20
72.11217051522864
 30
0.0
  0
ARC
  5
272
330
1F
100
AcDbEntity
  8
0
  6
Continuous
 62
     8
370
    25
100
AcDbCircle
 10
221.1008643822
 20
71.3785786211
 30
0.0
 40
0.1791833022238703
100
AcDbArc
 50
220.3622387085
 51
275.5168825743
  0
ARC
  5
273
330
1F
100
AcDbEntity
  8
0
  6
Continuous
 62
     8
370
    25
100
AcDbCircle
 10
225.3889479052
 20
71.3792962095
 30
0.0
 40
0.1798699661633997
100
AcDbArc
 50
264.5972971136
 51
319.5235816035
  0
ARC
  5
274
330
1F
100
AcDbEntity
  8
0
  6
Continuous
 62
     8
370
    25
100
AcDbCircle
 10
225.4008455873
 20
69.3349154693
 30
0.0
 40
0.065632100038533
100
AcDbArc
 50
243.9395998886
 51
280.9582177905
  0
ARC
  5
275
330
1F
100
AcDbEntity
  8
0
  6
Continuous
 62
     8
370
    25
100
AcDbCircle
 10
225.4767100589
 20
69.4484765954
 30
0.0
 40
0.0938191089046078
100
AcDbArc
 50
350.7828010119
 51
18.4909177241
  0
LWPOLYLINE
  5
276
330
1F
100
AcDbEntity
  8
0
  6
Continuous
 62
     8
370
    25
100
AcDbPolyline
 90
        3
 70
   128
 43
0.0
 10
220.9203059613
 20
69.4367104917
 10
220.9199994821
 20
69.4570515135
 10
220.9244174358
 20
69.4782317318
  0
ARC
  5
277
330
1F
100
AcDbEntity
  8
0
  6
Continuous
 62
     8
370
    25
100
AcDbCircle
 10
221.0892575055
 20
69.3349154693
 30
0.0
 40
0.0656321000388724
100
AcDbArc
 50
259.0417822096
 51
296.0604001113
  0
ARC
  5
278
330
1F
100
AcDbEntity
  8
0
  6
Continuous
 62
     8
370
    25
100
AcDbCircle
 10
225.9816187364
 20
72.0686580248
 30
0.0
 40
0.0931909500883433
100
AcDbArc
 50
349.4419020979
 51
27.834393571
  0
ARC
  5
279
330
1F
100
AcDbEntity
  8
0
  6
Continuous
 62
     8
370
    25
100
AcDbCircle
 10
220.5083854742
 20
72.0686881247
 30
0.0
 40
0.0930894564426624
100
AcDbArc
 50
152.1535720479
 51
190.9661246199
  0
LINE
  5
27A
330
1F
100
AcDbEntity
  8
0
  6
Continuous
 62
     8
370
    25
100
AcDbLine
 10
183.248193682
 20
80.5625283843
 30
0.0
 11
183.2450515464
 21
80.5625283843
 31
0.0
  0
LINE
  5
27B
330
1F
100
AcDbEntity
  8
0
  6
Continuous
 62
     8
370
    25
100
AcDbLine
 10
183.248193682
 20
80.1725952126
 30
0.0
 11
183.2450515464
 21
80.1725952126
 31
0.0
  0
LINE
  5
27C
330
1F
100
AcDbEntity
  8
0
  6
Continuous
 62
     8
370
    25
100
AcDbLine
 10
263.2450515464
 20
80.5625283843
 30
0.0
 11
263.2419094108
 21
80.5625283843
 31
0.0
  0
LINE
  5
27D
330
1F
100
AcDbEntity
  8
0
  6
Continuous
 62
     8
370
    25
100
AcDbLine
 10
263.2450515464
 20
80.1725952126
 30
0.0
 11
263.2419094108
 21
80.1725952126
 31
0.0
  0
LINE
  5
27E
330
1F
100
AcDbEntity
  8
0
  6
Continuous
 62
     8
370
    25
100
AcDbLine
 10
263.2450515464
 20
75.3077718219
 30
0.0
 11
263.2419094108
 21
75.3077718219
 31
0.0
  0
LINE
  5
27F
330
1F
100
AcDbEntity
  8
0
  6
Continuous
 62
     8
370
    25
100
AcDbLine
 10
263.0019094108
 20
75.3077718219
 30
0.0
 11
263.0009094108
 21
75.3077718219
 31
0.0
  0
LINE
  5
280
330
1F
100
AcDbEntity
  8
0
  6
Continuous
 62
     8
370
    25
100
AcDbLine
 10
183.489193682
 20
75.3077718219
 30
0.0
 11
183.488193682
 21
75.3077718219
 31
0.0
  0
LINE
  5
281
330
1F
100
AcDbEntity
  8
0
  6
Continuous
 62
     8
370
    25
100
AcDbLine
 10
183.248193682
 20
75.3077718219
 30
0.0
 11
183.2450515464
 21
75.3077718219
 31
0.0
  0
LINE
  5
282
330
1F
100
AcDbEntity
  8
0
  6
Continuous
 62
     8
370
    25
100
AcDbLine
 10
263.2450515464
 20
74.0896990759
 30
0.0
 11
263.2419094108
 21
74.0896990759
 31
0.0
  0
LINE
  5
283
330
1F
100
AcDbEntity
  8
0
  6
Continuous
 62
     8
370
    25
100
AcDbLine
 10
263.0019094108
 20
74.0896990759
 30
0.0
 11
263.0009094108
 21
74.0896990759
 31
0.0
  0
LINE
  5
284
330
1F
100
AcDbEntity
  8
0
  6
Continuous
 62
     8
370
    25
100
AcDbLine
 10
183.489193682
 20
74.0896990759
 30
0.0
 11
183.488193682
 21
74.0896990759
 31
0.0
  0
LINE
  5
285
330
1F
100
AcDbEntity
  8
0
  6
Continuous
 62
     8
370
    25
100
AcDbLine
 10
183.248193682
 20
74.0896990759
 30
0.0
 11
183.2450515464
 21
74.0896990759
 31
0.0
  0
LINE
  5
286
330
1F
100
AcDbEntity
  8
0
  6
Continuous
 62
     8
370
    25
100
AcDbLine
 10
263.2450515464
 20
70.1996205239
 30
0.0
 11
225.7070735514
 21
70.1996205239
 31
0.0
  0
LINE
  5
287
330
1F
100
AcDbEntity
  8
0
  6
Continuous
 62
     8
370
    25
100
AcDbLine
 10
220.7871728131
 20
70.1996205239
 30
0.0
 11
183.2450515464
 21
70.1996205239
 31
0.0
  0
LINE
  5
288
330
1F
100
AcDbEntity
  8
0
  6
Continuous
 62
     8
370
    25
100
AcDbLine
 10
248.8450515464
 20
211.4703605474
 30
0.0
 11
248.8450515464
 21
212.0703605474
 31
0.0
  0
LINE
  5
289
330
1F
100
AcDbEntity
  8
0
  6
Continuous
 62
     8
370
    25
100
AcDbLine
 10
197.6450515464
 20
211.4703605474
 30
0.0
 11
197.6450515464
 21
212.0703605474
 31
0.0
  0
LINE
  5
28A
330
1F
100
AcDbEntity
  8
0
  6
Continuous
 62
     8
370
    25
100
AcDbLine
 10
197.6450515464
 20
109.8703605474
 30
0.0
 11
197.6450515464
 21
109.2703605474
 31
0.0
  0
LINE
  5
28B
330
1F
100
AcDbEntity
  8
0
  6
Continuous
 62
     8
370
    25
100
AcDbLine
 10
248.8450515464
 20
109.8703605474
 30
0.0
 11
248.8450515464
 21
109.2703605474
 31
0.0
  0
LINE
  5
28C
330
1F
100
AcDbEntity
  8
0
  6
Continuous
 62
     8
370
    25
100
AcDbLine
 10
186.3050515464
 20
214.8103605474
 30
0.0
 11
186.3050515464
 21
82.8303605474
 31
0.0
  0
LINE
  5
28D
330
1F
100
AcDbEntity
  8
0
  6
Continuous
 62
     8
370
    25
100
AcDbLine
 10
183.7850515464
 20
214.8103605474
 30
0.0
 11
183.7850515464
 21
82.8303605474
 31
0.0
  0
LINE
  5
28E
330
1F
100
AcDbEntity
  8
0
  6
Continuous
 62
     8
370
    25
100
AcDbLine
 10
260.1850515464
 20
82.8303605474
 30
0.0
 11
260.1850515464
 21
214.8103605474
 31
0.0
  0
LINE
  5
28F
330
1F
100
AcDbEntity
  8
0
  6
Continuous
 62
     8
370
    25
100
AcDbLine
 10
262.7050515464
 20
82.8303605474
 30
0.0
 11
262.7050515464
 21
214.8103605474
 31
0.0
  0
LINE
  5
290
330
1F
100
AcDbEntity
  8
0
  6
Continuous
 62
     8
370
    25
100
AcDbLine
 10
191.0850515464
 20
225.8103605474
 30
0.0
 11
191.0850515464
 21
225.8303605474
 31
0.0
  0
LINE
  5
291
330
1F
100
AcDbEntity
  8
0
  6
Continuous
 62
     8
370
    25
100
AcDbLine
 10
255.4050515464
 20
225.8303605474
 30
0.0
 11
255.4050515464
 21
225.8103605474
 31
0.0
  0
LINE
  5
292
330
1F
100
AcDbEntity
  8
0
  6
Continuous
 62
     8
370
    25
100
AcDbLine
 10
187.1450515464
 20
214.7703605474
 30
0.0
 11
202.0460617515
 21
214.7703605474
 31
0.0
  0
LINE
  5
293
330
1F
100
AcDbEntity
  8
0
  6
Continuous
 62
     8
370
    25
100
AcDbLine
 10
204.4440413412
 20
214.7703605474
 30
0.0
 11
242.0460617515
 21
214.7703605474
 31
0.0
  0
LINE
  5
294
330
1F
100
AcDbEntity
  8
0
  6
Continuous
 62
     8
370
    25
100
AcDbLine
 10
244.4440413412
 20
214.7703605474
 30
0.0
 11
259.3450515464
 21
214.7703605474
 31
0.0
  0
LINE
  5
295
330
1F
100
AcDbEntity
  8
0
  6
Continuous
 62
     8
370
    25
100
AcDbLine
 10
191.7050515464
 20
230.8391110478
 30
0.0
 11
188.3300515464
 21
230.8391110478
 31
0.0
  0
LINE
  5
296
330
1F
100
AcDbEntity
  8
0
  6
Continuous
 62
     8
370
    25
100
AcDbLine
 10
195.0800515464
 20
230.8391110478
 30
0.0
 11
191.7050515464
 21
230.8391110478
 31
0.0
  0
LINE
  5
297
330
1F
100
AcDbEntity
  8
0
  6
Continuous
 62
     8
370
    25
100
AcDbLine
 10
183.6550515464
 20
225.5574228739
 30
0.0
 11
183.6550515464
 21
225.5312611259
 31
0.0
  0
LINE
  5
298
330
1F
100
AcDbEntity
  8
0
  6
Continuous
 62
     8
370
    25
100
AcDbLine
 10
262.8350515464
 20
225.5592985934
 30
0.0
 11
262.8350515464
 21
225.5312611259
 31
0.0
  0
ARC
  5
299
330
1F
100
AcDbEntity
  8
0
  6
Continuous
 62
     8
370
    25
100
AcDbCircle
 10
198.7450515464
 20
217.8703605474
 30
0.0
 40
1.039999999999992
100
AcDbArc
 50
51.8936691322
 51
90.0
  0
ARC
  5
29A
330
1F
100
AcDbEntity
  8
0
  6
Continuous
 62
     8
370
    25
100
AcDbCircle
 10
198.7450515464
 20
217.8703605474
 30
0.0
 40
1.039999999999998
100
AcDbArc
 50
90.0
 51
128.1063308678
  0
ARC
  5
29B
330
1F
100
AcDbEntity
  8
0
  6
Continuous
 62
     8
370
    25
100
AcDbCircle
 10
198.7450515464
 20
217.8703605474
 30
0.0
 40
1.180000000000007
100
AcDbArc
 50
43.9085826339
 51
90.0
  0
ARC
  5
29C
330
1F
100
AcDbEntity
  8
0
  6
Continuous
 62
     8
370
    25
100
AcDbCircle
 10
198.7450515464
 20
217.8703605474
 30
0.0
 40
1.18000000000001
100
AcDbArc
 50
90.0
 51
136.0914173661
  0
ARC
  5
29D
330
1F
100
AcDbEntity
  8
0
  6
Continuous
 62
     8
370
    25
100
AcDbCircle
 10
187.7450515464
 20
217.8703605474
 30
0.0
 40
1.039999999999998
100
AcDbArc
 50
51.8936691322
 51
90.0
  0
ARC
  5
29E
330
1F
100
AcDbEntity
  8
0
  6
Continuous
 62
     8
370
    25
100
AcDbCircle
 10
187.7450515464
 20
217.8703605474
 30
0.0
 40
1.039999999999998
100
AcDbArc
 50
90.0
 51
128.1063308678
  0
ARC
  5
29F
330
1F
100
AcDbEntity
  8
0
  6
Continuous
 62
     8
370
    25
100
AcDbCircle
 10
187.7450515464
 20
217.8703605474
 30
0.0
 40
1.180000000000007
100
AcDbArc
 50
43.9085826339
 51
90.0
  0
ARC
  5
2A0
330
1F
100
AcDbEntity
  8
0
  6
Continuous
 62
     8
370
    25
100
AcDbCircle
 10
187.7450515464
 20
217.8703605474
 30
0.0
 40
1.180000000000007
100
AcDbArc
 50
90.0
 51
136.0914173661
  0
ARC
  5
2A1
330
1F
100
AcDbEntity
  8
0
  6
Continuous
 62
     8
370
    25
100
AcDbCircle
 10
247.7450515464
 20
217.8703605474
 30
0.0
 40
1.039999999999998
100
AcDbArc
 50
51.8936691322
 51
90.0
  0
ARC
  5
2A2
330
1F
100
AcDbEntity
  8
0
  6
Continuous
 62
     8
370
    25
100
AcDbCircle
 10
247.7450515464
 20
217.8703605474
 30
0.0
 40
1.039999999999998
100
AcDbArc
 50
90.0
 51
128.1063308678
  0
ARC
  5
2A3
330
1F
100
AcDbEntity
  8
0
  6
Continuous
 62
     8
370
    25
100
AcDbCircle
 10
247.7450515464
 20
217.8703605474
 30
0.0
 40
1.18000000000001
100
AcDbArc
 50
43.9085826339
 51
90.0
  0
ARC
  5
2A4
330
1F
100
AcDbEntity
  8
0
  6
Continuous
 62
     8
370
    25
100
AcDbCircle
 10
247.7450515464
 20
217.8703605474
 30
0.0
 40
1.180000000000007
100
AcDbArc
 50
90.0
 51
136.0914173661
  0
ARC
  5
2A5
330
1F
100
AcDbEntity
  8
0
  6
Continuous
 62
     8
370
    25
100
AcDbCircle
 10
258.7450515464
 20
217.8703605474
 30
0.0
 40
1.040000000000016
100
AcDbArc
 50
51.8936691322
 51
90.0
  0
ARC
  5
2A6
330
1F
100
AcDbEntity
  8
0
  6
Continuous
 62
     8
370
    25
100
AcDbCircle
 10
258.7450515464
 20
217.8703605474
 30
0.0
 40
1.039999999999992
100
AcDbArc
 50
90.0
 51
128.1063308678
  0
ARC
  5
2A7
330
1F
100
AcDbEntity
  8
0
  6
Continuous
 62
     8
370
    25
100
AcDbCircle
 10
258.7450515464
 20
217.8703605474
 30
0.0
 40
1.18000000000001
100
AcDbArc
 50
43.9085826339
 51
90.0
  0
ARC
  5
2A8
330
1F
100
AcDbEntity
  8
0
  6
Continuous
 62
     8
370
    25
100
AcDbCircle
 10
258.7450515464
 20
217.8703605474
 30
0.0
 40
1.180000000000007
100
AcDbArc
 50
90.0
 51
136.0914173661
  0
LINE
  5
2A9
330
1F
100
AcDbEntity
  8
0
  6
Continuous
 62
     8
370
    25
100
AcDbLine
 10
194.8750515464
 20
228.1603605474
 30
0.0
 11
194.9272419111
 21
228.1603605474
 31
0.0
  0
LINE
  5
2AA
330
1F
100
AcDbEntity
  8
0
  6
Continuous
 62
     8
370
    25
100
AcDbLine
 10
196.0385807456
 20
228.1603605474
 30
0.0
 11
196.0450515464
 21
228.1603605474
 31
0.0
  0
LINE
  5
2AB
330
1F
100
AcDbEntity
  8
0
  6
Continuous
 62
     8
370
    25
100
AcDbLine
 10
196.0450515464
 20
228.3003605474
 30
0.0
 11
196.0385807456
 21
228.3003605474
 31
0.0
  0
SPLINE
  5
2AC
330
1F
100
AcDbEntity
  8
0
  6
Continuous
 62
     8
370
    25
100
AcDbSpline
210
0.0
220
0.0
230
1.0
 70
     8
 71
     3
 72
    11
 73
     7
 74
     0
 42
0.000000001
 43
0.00000001
 40
0.0
 40
0.0
 40
0.0
 40
0.0
 40
0.1689135268329592
 40
0.5098334162276094
 40
0.8698760745621088
 40
1.0
 40
1.0
 40
1.0
 40
1.0
 10
196.1210263853827
 20
228.0603605474464
 30
0.0
 10
196.1205237730872
 20
228.0738348858043
 30
0.0
 10
196.119006733283
 20
228.1145046183308
 30
0.0
 10
196.1002003596661
 20
228.1797140311726
 30
0.0
 10
196.0704192103518
 20
228.234893281038
 30
0.0
 10
196.0452597870078
 20
228.2525624176498
 30
0.0
 10
196.0385807455642
 20
228.257253021806
 30
0.0
  0
LINE
  5
2AD
330
1F
100
AcDbEntity
  8
0
  6
Continuous
 62
     8
370
    25
100
AcDbLine
 10
196.0150517265
 20
227.8745348691
 30
0.0
 11
196.0150517265
 21
227.0403605474
 31
0.0
  0
LINE
  5
2AE
330
1F
100
AcDbEntity
  8
0
  6
Continuous
 62
     8
370
    25
100
AcDbLine
 10
196.1362755762
 20
228.0603605474
 30
0.0
 11
196.1210263854
 21
228.0603605474
 31
0.0
  0
LINE
  5
2AF
330
1F
100
AcDbEntity
  8
0
  6
Continuous
 62
     8
370
    25
100
AcDbLine
 10
195.9350239072
 20
227.0403605474
 30
0.0
 11
195.9350239072
 21
227.8703605474
 31
0.0
  0
LINE
  5
2B0
330
1F
100
AcDbEntity
  8
0
  6
Continuous
 62
     8
370
    25
100
AcDbLine
 10
195.4330885979
 20
227.0403605474
 30
0.0
 11
195.9350239072
 21
227.0403605474
 31
0.0
  0
LINE
  5
2B1
330
1F
100
AcDbEntity
  8
0
  6
Continuous
 62
     8
370
    25
100
AcDbLine
 10
196.1362755762
 20
227.0403605474
 30
0.0
 11
196.1210263854
 21
227.0403605474
 31
0.0
  0
ARC
  5
2B2
330
1F
100
AcDbEntity
  8
0
  6
Continuous
 62
     8
370
    25
100
AcDbCircle
 10
195.0169353788
 20
229.1858165224
 30
0.0
 40
0.0749821428209664
100
AcDbArc
 50
355.8272618521
 51
32.6746931422
  0
ARC
  5
2B3
330
1F
100
AcDbEntity
  8
0
  6
Continuous
 62
     8
370
    25
100
AcDbCircle
 10
194.9119109073
 20
227.9090670844
 30
0.0
 40
0.0388366952980837
100
AcDbArc
 50
198.3618585683
 51
265.3078289317
  0
LINE
  5
2B4
330
1F
100
AcDbEntity
  8
0
  6
Continuous
 62
     8
370
    25
100
AcDbLine
 10
195.0342650739
 20
228.1603605474
 30
0.0
 11
195.0342650739
 21
228.2103605474
 31
0.0
  0
LINE
  5
2B5
330
1F
100
AcDbEntity
  8
0
  6
Continuous
 62
     8
370
    25
100
AcDbLine
 10
195.0800515464
 20
229.1803605474
 30
0.0
 11
195.0917187599
 21
229.1803605474
 31
0.0
  0
LINE
  5
2B6
330
1F
100
AcDbEntity
  8
0
  6
Continuous
 62
     8
370
    25
100
AcDbLine
 10
194.9390692842
 20
228.2103605474
 30
0.0
 11
194.9390692842
 21
228.1603605474
 31
0.0
  0
ARC
  5
2B7
330
1F
100
AcDbEntity
  8
0
  6
Continuous
 62
     8
370
    25
100
AcDbCircle
 10
194.9119109073
 20
228.0716540105
 30
0.0
 40
0.0388366952981932
100
AcDbArc
 50
94.6921710685
 51
161.6381414316
  0
LINE
  5
2B8
330
1F
100
AcDbEntity
  8
0
  6
Continuous
 62
     8
370
    25
100
AcDbLine
 10
194.9390692842
 20
228.1603605474
 30
0.0
 11
194.9272448033
 21
228.1603605474
 31
0.0
  0
LINE
  5
2B9
330
1F
100
AcDbEntity
  8
0
  6
Continuous
 62
     8
370
    25
100
AcDbLine
 10
196.0308804742
 20
229.1803605474
 30
0.0
 11
196.0385807456
 21
229.1803605474
 31
0.0
  0
LINE
  5
2BA
330
1F
100
AcDbEntity
  8
0
  6
Continuous
 62
     8
370
    25
100
AcDbLine
 10
195.9685637479
 20
227.9203605474
 30
0.0
 11
196.0450515464
 21
227.9203605474
 31
0.0
  0
ENDSEC
  0
SECTION
  2
OBJECTS
  0
DICTIONARY
  5
C
330
0
100
AcDbDictionary
281
     1
  3
ACAD_GROUP
350
D
  3
ACAD_LAYOUT
350
1A
  3
ACAD_MLINESTYLE
350
17
  3
ACAD_PLOTSETTINGS
350
19
  3
ACAD_PLOTSTYLENAME
350
E
  3
ACAD_SCALELIST
350
47
  0
DICTIONARY
  5
D
102
{ACAD_REACTORS
330
C
102
}
330
C
100
AcDbDictionary
281
     1
  0
DICTIONARY
  5
1A
102
{ACAD_REACTORS
330
C
102
}
330
C
100
AcDbDictionary
281
     1
  3
Layout1
350
1E
  3
Layout2
350
26
  3
Model
350
22
  0
DICTIONARY
  5
17
102
{ACAD_REACTORS
330
C
102
}
330
C
100
AcDbDictionary
281
     1
  3
Standard
350
18
  0
DICTIONARY
  5
19
102
{ACAD_REACTORS
330
C
102
}
330
C
100
AcDbDictionary
281
     1
  0
ACDBDICTIONARYWDFLT
  5
E
102
{ACAD_REACTORS
330
C
102
}
330
C
100
AcDbDictionary
281
     1
  3
Normal
350
F
100
AcDbDictionaryWithDefault
340
F
  0
DICTIONARY
  5
47
102
{ACAD_REACTORS
330
C
102
}
330
C
100
AcDbDictionary
281
     1
  3
A0
350
48
  3
A1
350
49
  3
A2
350
4A
  3
A3
350
4B
  3
A4
350
4C
  3
A5
350
4D
  3
A6
350
4E
  3
A7
350
4F
  3
A8
350
50
  3
A9
350
51
  3
B0
350
52
  3
B1
350
53
  3
B2
350
54
  3
B3
350
55
  3
B4
350
56
  3
B5
350
57
  3
B6
350
58
  3
B7
350
59
  3
B8
350
5A
  3
B9
350
5B
  3
C0
350
5C
  3
C1
350
5D
  3
C2
350
5E
  3
C3
350
5F
  3
C4
350
60
  3
C5
350
61
  3
C6
350
62
  3
C7
350
63
  3
C8
350
64
  3
C9
350
65
  3
D0
350
66
  3
D1
350
67
  3
D2
350
68
  0
LAYOUT
  5
1E
102
{ACAD_REACTORS
330
1A
102
}
330
1A
100
AcDbPlotSettings
  1

  2
none_device
  4

  6

 40
0.0
 41
0.0
 42
0.0
 43
0.0
 44
0.0
 45
0.0
 46
0.0
 47
0.0
 48
0.0
 49
0.0
140
0.0
141
0.0
142
1.0
143
1.0
 70
   688
 72
     1
 73
     0
 74
     5
  7

 75
    16
147
1.0
148
0.0
149
0.0
100
AcDbLayout
  1
Layout1
 70
     1
 71
     1
 10
0.0
 20
0.0
 11
420.0
 21
297.0
 12
0.0
 22
0.0
 32
0.0
 14
1.0000000000E+20
 24
1.0000000000E+20
 34
1.0000000000E+20
 15
-1.0000000000E+20
 25
-1.0000000000E+20
 35
-1.0000000000E+20
146
0.0
 13
0.0
 23
0.0
 33
0.0
 16
1.0
 26
0.0
 36
0.0
 17
0.0
 27
1.0
 37
0.0
 76
     0
330
1B
  0
LAYOUT
  5
26
102
{ACAD_REACTORS
330
1A
102
}
330
1A
100
AcDbPlotSettings
  1

  2
none_device
  4

  6

 40
0.0
 41
0.0
 42
0.0
 43
0.0
 44
0.0
 45
0.0
 46
0.0
 47
0.0
 48
0.0
 49
0.0
140
0.0
141
0.0
142
1.0
143
1.0
 70
   688
 72
     1
 73
     0
 74
     5
  7

 75
    16
147
1.0
148
0.0
149
0.0
100
AcDbLayout
  1
Layout2
 70
     1
 71
     2
 10
0.0
 20
0.0
 11
0.0
 21
0.0
 12
0.0
 22
0.0
 32
0.0
 14
0.0
 24
0.0
 34
0.0
 15
0.0
 25
0.0
 35
0.0
146
0.0
 13
0.0
 23
0.0
 33
0.0
 16
1.0
 26
0.0
 36
0.0
 17
0.0
 27
1.0
 37
0.0
 76
     0
330
23
  0
LAYOUT
  5
22
102
{ACAD_REACTORS
330
1A
102
}
330
1A
100
AcDbPlotSettings
  1

  2
none_device
  4
Letter_(8.50_x_11.00_Inches)
  6

 40
6.35
 41
6.35
 42
6.35000508
 43
6.35000508
 44
215.9
 45
279.4
 46
0.0
 47
0.0
 48
0.0
 49
0.0
140
0.0
141
0.0
142
1.0
143
1.0
 70
  1712
 72
     1
 73
     0
 74
     0
  7

 75
     0
147
1.0
148
0.0
149
0.0
100
AcDbLayout
  1
Model
 70
     1
 71
     0
 10
0.0
 20
0.0
 11
431.8
 21
279.4
 12
0.0
 22
0.0
 32
0.0
 14
0.0
 24
0.0
 34
0.0
 15
431.8
 25
279.4
 35
0.0
146
0.0
 13
0.0
 23
0.0
 33
0.0
 16
1.0
 26
0.0
 36
0.0
 17
0.0
 27
1.0
 37
0.0
 76
     0
330
1F
331
29
  0
MLINESTYLE
  5
18
102
{ACAD_REACTORS
330
17
102
}
330
17
100
AcDbMlineStyle
  2
Standard
 70
     0
  3

 62
   256
 51
90.0
 52
90.0
 71
     2
 49
0.5
 62
   256
  6
BYLAYER
 49
-0.5
 62
   256
  6
BYLAYER
  0
ACDBPLACEHOLDER
  5
F
102
{ACAD_REACTORS
330
E
102
}
330
E
  0
SCALE
  5
48
102
{ACAD_REACTORS
330
47
102
}
330
47
100
AcDbScale
 70
     0
300
1:1
140
1.0
141
1.0
290
     1
  0
SCALE
  5
49
102
{ACAD_REACTORS
330
47
102
}
330
47
100
AcDbScale
 70
     0
300
1:2
140
1.0
141
2.0
290
     0
  0
SCALE
  5
4A
102
{ACAD_REACTORS
330
47
102
}
330
47
100
AcDbScale
 70
     0
300
1:4
140
1.0
141
4.0
290
     0
  0
SCALE
  5
4B
102
{ACAD_REACTORS
330
47
102
}
330
47
100
AcDbScale
 70
     0
300
1:5
140
1.0
141
5.0
290
     0
  0
SCALE
  5
4C
102
{ACAD_REACTORS
330
47
102
}
330
47
100
AcDbScale
 70
     0
300
1:8
140
1.0
141
8.0
290
     0
  0
SCALE
  5
4D
102
{ACAD_REACTORS
330
47
102
}
330
47
100
AcDbScale
 70
     0
300
1:10
140
1.0
141
10.0
290
     0
  0
SCALE
  5
4E
102
{ACAD_REACTORS
330
47
102
}
330
47
100
AcDbScale
 70
     0
300
1:16
140
1.0
141
16.0
290
     0
  0
SCALE
  5
4F
102
{ACAD_REACTORS
330
47
102
}
330
47
100
AcDbScale
 70
     0
300
1:20
140
1.0
141
20.0
290
     0
  0
SCALE
  5
50
102
{ACAD_REACTORS
330
47
102
}
330
47
100
AcDbScale
 70
     0
300
1:30
140
1.0
141
30.0
290
     0
  0
SCALE
  5
51
102
{ACAD_REACTORS
330
47
102
}
330
47
100
AcDbScale
 70
     0
300
1:40
140
1.0
141
40.0
290
     0
  0
SCALE
  5
52
102
{ACAD_REACTORS
330
47
102
}
330
47
100
AcDbScale
 70
     0
300
1:50
140
1.0
141
50.0
290
     0
  0
SCALE
  5
53
102
{ACAD_REACTORS
330
47
102
}
330
47
100
AcDbScale
 70
     0
300
1:100
140
1.0
141
100.0
290
     0
  0
SCALE
  5
54
102
{ACAD_REACTORS
330
47
102
}
330
47
100
AcDbScale
 70
     0
300
2:1
140
2.0
141
1.0
290
     0
  0
SCALE
  5
55
102
{ACAD_REACTORS
330
47
102
}
330
47
100
AcDbScale
 70
     0
300
4:1
140
4.0
141
1.0
290
     0
  0
SCALE
  5
56
102
{ACAD_REACTORS
330
47
102
}
330
47
100
AcDbScale
 70
     0
300
8:1
140
8.0
141
1.0
290
     0
  0
SCALE
  5
57
102
{ACAD_REACTORS
330
47
102
}
330
47
100
AcDbScale
 70
     0
300
10:1
140
10.0
141
1.0
290
     0
  0
SCALE
  5
58
102
{ACAD_REACTORS
330
47
102
}
330
47
100
AcDbScale
 70
     0
300
100:1
140
100.0
141
1.0
290
     0
  0
SCALE
  5
59
102
{ACAD_REACTORS
330
47
102
}
330
47
100
AcDbScale
 70
     0
300
1/128" = 1'-0"
140
0.0078125
141
12.0
290
     0
  0
SCALE
  5
5A
102
{ACAD_REACTORS
330
47
102
}
330
47
100
AcDbScale
 70
     0
300
1/64" = 1'-0"
140
0.015625
141
12.0
290
     0
  0
SCALE
  5
5B
102
{ACAD_REACTORS
330
47
102
}
330
47
100
AcDbScale
 70
     0
300
1/32" = 1'-0"
140
0.03125
141
12.0
290
     0
  0
SCALE
  5
5C
102
{ACAD_REACTORS
330
47
102
}
330
47
100
AcDbScale
 70
     0
300
1/16" = 1'-0"
140
0.0625
141
12.0
290
     0
  0
SCALE
  5
5D
102
{ACAD_REACTORS
330
47
102
}
330
47
100
AcDbScale
 70
     0
300
3/32" = 1'-0"
140
0.09375
141
12.0
290
     0
  0
SCALE
  5
5E
102
{ACAD_REACTORS
330
47
102
}
330
47
100
AcDbScale
 70
     0
300
1/8" = 1'-0"
140
0.125
141
12.0
290
     0
  0
SCALE
  5
5F
102
{ACAD_REACTORS
330
47
102
}
330
47
100
AcDbScale
 70
     0
300
3/16" = 1'-0"
140
0.1875
141
12.0
290
     0
  0
SCALE
  5
60
102
{ACAD_REACTORS
330
47
102
}
330
47
100
AcDbScale
 70
     0
300
1/4" = 1'-0"
140
0.25
141
12.0
290
     0
  0
SCALE
  5
61
102
{ACAD_REACTORS
330
47
102
}
330
47
100
AcDbScale
 70
     0
300
3/8" = 1'-0"
140
0.375
141
12.0
290
     0
  0
SCALE
  5
62
102
{ACAD_REACTORS
330
47
102
}
330
47
100
AcDbScale
 70
     0
300
1/2" = 1'-0"
140
0.5
141
12.0
290
     0
  0
SCALE
  5
63
102
{ACAD_REACTORS
330
47
102
}
330
47
100
AcDbScale
 70
     0
300
3/4" = 1'-0"
140
0.75
141
12.0
290
     0
  0
SCALE
  5
64
102
{ACAD_REACTORS
330
47
102
}
330
47
100
AcDbScale
 70
     0
300
1" = 1'-0"
140
1.0
141
12.0
290
     0
  0
SCALE
  5
65
102
{ACAD_REACTORS
330
47
102
}
330
47
100
AcDbScale
 70
     0
300
1-1/2" = 1'-0"
140
1.5
141
12.0
290
     0
  0
SCALE
  5
66
102
{ACAD_REACTORS
330
47
102
}
330
47
100
AcDbScale
 70
     0
300
3" = 1'-0"
140
3.0
141
12.0
290
     0
  0
SCALE
  5
67
102
{ACAD_REACTORS
330
47
102
}
330
47
100
AcDbScale
 70
     0
300
6" = 1'-0"
140
6.0
141
12.0
290
     0
  0
SCALE
  5
68
102
{ACAD_REACTORS
330
47
102
}
330
47
100
AcDbScale
 70
     0
300
1'-0" = 1'-0"
140
12.0
141
12.0
290
     0
  0
ENDSEC
  0
EOF
