  0
SECTION
  2
HEADER
  9
$LIMMIN
 10
0.000000
 20
0.000000
  9
$LIMMAX
 10
81.780000
 20
99.670000
  9
$EXTMIN
 10
0.000000
 20
0.000000
  9
$EXTMAX
 10
297.301779
 20
210.224104
  9
$ANGBASE
 50
0.0
  9
$ANGDIR
 70
0
  9
$DIMRND
 40
0.100000
  9
$DIMSE1
 70
0
  9
$DIMSE2
 70
0
  9
$DIMTXT
 40
3.500000
  9
$LTSCALE
 40
1.000000
  9
$LUPREC
 70
1
  9
$AUPREC
 70
1
  9
$PDMODE
 70
2
  9
$PDSIZE
 40
1.486509
  0
ENDSEC
  0
SECTION
  2
TABLES
  0
TABLE
  2
VPORT
  70
1
  0
VPORT
  2
*ACTIVE
 70
0
  10
0.0
 20
0.0
 11
1.0
 21
1.0
 12
594.0
 22
420.0
 13
0.0
 23
0.0
 14
10.0
 24
10.0
 15
10.0
 25
10.0
 16
0.0
 26
0.0
 36
1.0
 17
594.0
 27
420.0
 37
100.0
 40
1000.0
 41
1.0
 42
50.0
 43
0.0
 44
0.0
 50
0.0
 51
0.0
 71
0
 72
2000
 73
1
 74
3
 75
0
 76
0
 77
0
 78
1
  0
ENDTAB
  0
TABLE
  2
LTYPE
 70
4
  0
LTYPE
  2
CONTINUOUS
 70
0
  3
Solid line
 72
65
 73
0
 40
0.0
  0
LTYPE
  2
DASHED
 70
0
  3
Dashed line
 72
65
 73
2
 40
6.000000
 49
3.000000
 49
-3.000000
  0
LTYPE
  2
CENTER
 70
0
  3
Chain line
 72
65
 73
4
 40
24.000000
 49
15.000000
 49
-3.000000
 49
3.000000
 49
-3.000000
  0
LTYPE
  2
RANDOM
 70
0
  3
Random line
 72
65
 73
4
 40
22.500000
 49
6.000000
 49
-3.000000
 49
4.500000
 49
-9.000000
  0
ENDTAB
  0
TABLE
  2
STYLE
 70
9
  0
STYLE
  2
STANDARD
 40
0
 41
1.0
 50
0.0
 71
0
 42
0
  3
simplex
  4

 70
0
  0
ENDTAB
  0
TABLE
  2
LAYER
 70
2
  0
LAYER
  2
0
 70
0
 62
7
  6
CONTINUOUS
  0
LAYER
  2
0
 62
1
  6
CONTINUOUS
 70
0
  0
ENDTAB
  0
ENDSEC
  0
SECTION
  2
BLOCKS
  0
ENDSEC
  0
SECTION
  2
ENTITIES
  0
LINE
  8
0
  6
CONTINUOUS
 62
1
 10
40.803556
 20
122.126582
 11
40.703558
 21
122.299787
  0
LINE
  8
0
  6
CONTINUOUS
 62
1
 10
41.538452
 20
119.703713
 11
40.755593
 21
121.059659
  0
LINE
  8
0
  6
CONTINUOUS
 62
1
 10
40.907149
 20
121.147159
 11
40.657150
 21
121.580175
  0
LINE
  8
0
  6
CONTINUOUS
 62
1
 10
40.960257
 20
121.755174
 11
41.050034
 21
121.893606
  0
LINE
  8
0
  6
CONTINUOUS
 62
1
 10
40.925031
 20
122.110113
 11
40.760260
 21
122.101584
  0
LINE
  8
0
  6
CONTINUOUS
 62
1
 10
41.509585
 20
122.903708
 11
41.509085
 21
122.904578
  0
LINE
  8
0
  6
CONTINUOUS
 62
1
 10
34.303497
 20
128.661314
 11
33.716350
 21
128.589460
  0
LINE
  8
0
  6
CONTINUOUS
 62
1
 10
33.716350
 20
126.917961
 11
34.303497
 21
126.846108
  0
ARC
  8
0
  6
CONTINUOUS
 62
1
 10
33.728495
 20
128.490202
 40
0.100000
 50
96.977029
 51
180.000000
  0
ARC
  8
0
  6
CONTINUOUS
 62
1
 10
33.728495
 20
127.017218
 40
0.100000
 50
180.000000
 51
263.022971
  0
LINE
  8
0
  6
CONTINUOUS
 62
1
 10
101.953467
 20
109.262511
 11
102.250800
 21
109.480038
  0
LINE
  8
0
  6
CONTINUOUS
 62
1
 10
101.839807
 20
110.744944
 11
101.471401
 21
110.746160
  0
LINE
  8
0
  6
CONTINUOUS
 62
1
 10
101.856817
 20
109.236368
 11
101.951922
 21
109.267268
  0
LINE
  8
0
  6
CONTINUOUS
 62
1
 10
101.472946
 20
110.741404
 11
101.377840
 21
110.710505
  0
LINE
  8
0
  6
CONTINUOUS
 62
1
 10
102.906951
 20
106.975207
 11
103.734400
 21
107.664648
  0
LINE
  8
0
  6
CONTINUOUS
 62
1
 10
101.147806
 20
113.140497
 11
100.898340
 21
113.157073
  0
LINE
  8
0
  6
CONTINUOUS
 62
1
 10
101.973003
 20
113.085672
 11
101.646690
 21
113.107350
  0
LINE
  8
0
  6
CONTINUOUS
 62
1
 10
103.734400
 20
107.664648
 11
105.310519
 21
109.095177
  0
LINE
  8
0
  6
CONTINUOUS
 62
1
 10
102.022708
 20
113.080248
 11
101.973003
 21
113.085672
  0
ARC
  8
0
  6
CONTINUOUS
 62
1
 10
105.243312
 20
109.169224
 40
0.100000
 50
312.227745
 51
18.000000
  0
LINE
  8
0
  6
CONTINUOUS
 62
1
 10
102.122423
 20
109.386119
 11
102.123491
 21
109.386447
  0
LINE
  8
0
  6
CONTINUOUS
 62
1
 10
101.647039
 20
113.108328
 11
101.147594
 21
113.141516
  0
ARC
  8
0
  6
CONTINUOUS
 62
1
 10
105.383634
 20
123.740974
 40
0.300000
 50
283.862108
 51
103.862108
  0
LINE
  8
0
  6
CONTINUOUS
 62
1
 10
105.311758
 20
124.032238
 11
105.293829
 21
124.027815
  0
LINE
  8
0
  6
CONTINUOUS
 62
1
 10
105.293829
 20
124.027815
 11
105.240481
 21
124.014649
  0
LINE
  8
0
  6
CONTINUOUS
 62
1
 10
105.240481
 20
124.014649
 11
105.153030
 21
123.993066
  0
LINE
  8
0
  6
CONTINUOUS
 62
1
 10
105.153030
 20
123.993066
 11
105.033627
 21
123.963603
  0
LINE
  8
0
  6
CONTINUOUS
 62
1
 10
105.033627
 20
123.963603
 11
104.885214
 21
123.926976
  0
LINE
  8
0
  6
CONTINUOUS
 62
1
 10
104.885214
 20
123.926976
 11
104.711444
 21
123.884097
  0
LINE
  8
0
  6
CONTINUOUS
 62
1
 10
104.711444
 20
123.884097
 11
104.516597
 21
123.836014
  0
LINE
  8
0
  6
CONTINUOUS
 62
1
 10
104.516597
 20
123.836014
 11
104.305470
 21
123.783913
  0
LINE
  8
0
  6
CONTINUOUS
 62
1
 10
104.305470
 20
123.783913
 11
104.083263
 21
123.729077
  0
LINE
  8
0
  6
CONTINUOUS
 62
1
 10
104.083263
 20
123.729077
 11
103.855445
 21
123.672858
  0
LINE
  8
0
  6
CONTINUOUS
 62
1
 10
103.999197
 20
123.090336
 11
104.227014
 21
123.146555
  0
LINE
  8
0
  6
CONTINUOUS
 62
1
 10
104.227014
 20
123.146555
 11
104.449223
 21
123.201385
  0
LINE
  8
0
  6
CONTINUOUS
 62
1
 10
104.449223
 20
123.201385
 11
104.660349
 21
123.253486
  0
LINE
  8
0
  6
CONTINUOUS
 62
1
 10
104.660349
 20
123.253486
 11
104.855196
 21
123.301569
  0
LINE
  8
0
  6
CONTINUOUS
 62
1
 10
104.855196
 20
123.301569
 11
105.028966
 21
123.344454
  0
LINE
  8
0
  6
CONTINUOUS
 62
1
 10
105.028966
 20
123.344454
 11
105.177378
 21
123.381075
  0
LINE
  8
0
  6
CONTINUOUS
 62
1
 10
105.177378
 20
123.381075
 11
105.296781
 21
123.410544
  0
LINE
  8
0
  6
CONTINUOUS
 62
1
 10
105.296781
 20
123.410544
 11
105.384232
 21
123.432121
  0
LINE
  8
0
  6
CONTINUOUS
 62
1
 10
105.384232
 20
123.432121
 11
105.437580
 21
123.445287
  0
LINE
  8
0
  6
CONTINUOUS
 62
1
 10
105.437580
 20
123.445287
 11
105.455510
 21
123.449710
  0
LINE
  8
0
  6
CONTINUOUS
 62
1
 10
103.855445
 20
123.672858
 11
87.771256
 21
119.703713
  0
LINE
  8
0
  6
CONTINUOUS
 62
1
 10
90.275576
 20
119.703713
 11
103.999197
 21
123.090336
  0
ARC
  8
0
  6
CONTINUOUS
 62
1
 10
65.038495
 20
121.496091
 40
0.200000
 50
0.000000
 51
57.502757
  0
ARC
  8
0
  6
CONTINUOUS
 62
1
 10
61.638495
 20
121.496091
 40
0.200000
 50
122.497243
 51
180.000000
  0
LINE
  8
0
  6
CONTINUOUS
 62
1
 10
61.438494
 20
121.496090
 11
61.438494
 21
121.403709
  0
LINE
  8
0
  6
CONTINUOUS
 62
1
 10
65.238495
 20
121.403709
 11
65.238495
 21
121.496090
  0
ARC
  8
0
  6
CONTINUOUS
 62
1
 10
61.638495
 20
121.403710
 40
0.200000
 50
180.000000
 51
270.000000
  0
ARC
  8
0
  6
CONTINUOUS
 62
1
 10
65.038495
 20
121.403710
 40
0.200000
 50
270.000000
 51
0.000000
  0
ARC
  8
0
  6
CONTINUOUS
 62
1
 10
63.290673
 20
118.752268
 40
3.453221
 50
57.502757
 51
89.206504
  0
ARC
  8
0
  6
CONTINUOUS
 62
1
 10
63.386318
 20
118.752268
 40
3.453221
 50
90.793496
 51
122.497243
  0
ARC
  8
0
  6
CONTINUOUS
 62
1
 10
61.851281
 20
121.003710
 40
0.200000
 50
42.878904
 51
90.000000
  0
ARC
  8
0
  6
CONTINUOUS
 62
1
 10
64.825709
 20
121.003710
 40
0.200000
 50
90.000000
 51
137.121096
  0
LINE
  8
0
  6
CONTINUOUS
 62
1
 10
61.997839
 20
121.139798
 11
62.535052
 21
120.561263
  0
LINE
  8
0
  6
CONTINUOUS
 62
1
 10
64.141937
 20
120.561263
 11
64.679151
 21
121.139798
  0
ARC
  8
0
  6
CONTINUOUS
 62
1
 10
62.388495
 20
120.425172
 40
0.200000
 50
0.000000
 51
42.878904
  0
ARC
  8
0
  6
CONTINUOUS
 62
1
 10
64.288495
 20
120.425172
 40
0.200000
 50
137.121096
 51
180.000000
  0
LINE
  8
0
  6
CONTINUOUS
 62
1
 10
62.588494
 20
120.425174
 11
62.588494
 21
119.703713
  0
LINE
  8
0
  6
CONTINUOUS
 62
1
 10
64.088495
 20
119.703713
 11
64.088495
 21
120.425174
  0
LINE
  8
0
  6
CONTINUOUS
 62
1
 10
101.365222
 20
114.772537
 11
101.364893
 21
114.773276
  0
LINE
  8
0
  6
CONTINUOUS
 62
1
 10
98.848495
 20
75.363710
 11
98.278495
 21
75.363710
  0
LINE
  8
0
  6
CONTINUOUS
 62
1
 10
98.278495
 20
73.363709
 11
98.848495
 21
73.363709
  0
LINE
  8
0
  6
CONTINUOUS
 62
1
 10
98.848495
 20
73.413709
 11
98.998495
 21
73.413709
  0
LINE
  8
0
  6
CONTINUOUS
 62
1
 10
98.998495
 20
75.313711
 11
98.848495
 21
75.313711
  0
LINE
  8
0
  6
CONTINUOUS
 62
1
 10
98.998495
 20
53.963710
 11
98.349988
 21
53.801583
  0
LINE
  8
0
  6
CONTINUOUS
 62
1
 10
98.349988
 20
53.025837
 11
98.998495
 21
52.863710
  0
ARC
  8
0
  6
CONTINUOUS
 62
1
 10
98.398495
 20
53.219865
 40
0.200000
 50
233.130102
 51
255.963757
  0
ARC
  8
0
  6
CONTINUOUS
 62
1
 10
98.398495
 20
53.607555
 40
0.200000
 50
104.036243
 51
126.869898
  0
LINE
  8
0
  6
CONTINUOUS
 62
1
 10
98.998495
 20
95.863709
 11
98.349988
 21
95.701584
  0
LINE
  8
0
  6
CONTINUOUS
 62
1
 10
98.349988
 20
94.925836
 11
98.998495
 21
94.763711
  0
ARC
  8
0
  6
CONTINUOUS
 62
1
 10
98.398495
 20
95.119865
 40
0.200000
 50
233.130102
 51
255.963757
  0
ARC
  8
0
  6
CONTINUOUS
 62
1
 10
98.398495
 20
95.507555
 40
0.200000
 50
104.036243
 51
126.869898
  0
LINE
  8
0
  6
CONTINUOUS
 62
1
 10
104.365934
 20
51.224820
 11
104.379027
 21
51.238243
  0
LINE
  8
0
  6
CONTINUOUS
 62
1
 10
104.379027
 20
51.238243
 11
104.381057
 21
51.240994
  0
LINE
  8
0
  6
CONTINUOUS
 62
1
 10
104.381057
 20
51.240994
 11
104.381563
 21
51.241691
  0
LINE
  8
0
  6
CONTINUOUS
 62
1
 10
104.381563
 20
51.241691
 11
104.381683
 21
51.241857
  0
LINE
  8
0
  6
CONTINUOUS
 62
1
 10
104.381683
 20
51.241857
 11
104.381709
 21
51.241893
  0
LINE
  8
0
  6
CONTINUOUS
 62
1
 10
104.381709
 20
51.241893
 11
104.381712
 21
51.241896
  0
LINE
  8
0
  6
CONTINUOUS
 62
1
 10
104.381712
 20
51.241896
 11
104.381713
 21
51.241898
  0
LINE
  8
0
  6
CONTINUOUS
 62
1
 10
102.328495
 20
48.003710
 11
102.378495
 21
47.953710
  0
LINE
  8
0
  6
CONTINUOUS
 62
1
 10
103.978495
 20
47.953710
 11
104.028495
 21
48.003710
  0
LINE
  8
0
  6
CONTINUOUS
 62
1
 10
102.328495
 20
48.153710
 11
102.328495
 21
48.003710
  0
LINE
  8
0
  6
CONTINUOUS
 62
1
 10
104.028495
 20
48.003710
 11
104.028495
 21
48.153710
  0
LINE
  8
0
  6
CONTINUOUS
 62
1
 10
104.028495
 20
48.153710
 11
103.978495
 21
48.203710
  0
LINE
  8
0
  6
CONTINUOUS
 62
1
 10
102.378495
 20
48.203710
 11
102.328495
 21
48.153710
  0
LINE
  8
0
  6
CONTINUOUS
 62
1
 10
103.828495
 20
48.499568
 11
103.828495
 21
48.513710
  0
LINE
  8
0
  6
CONTINUOUS
 62
1
 10
102.328495
 20
100.573710
 11
102.358495
 21
100.543711
  0
LINE
  8
0
  6
CONTINUOUS
 62
1
 10
103.978495
 20
100.523707
 11
104.028495
 21
100.573710
  0
LINE
  8
0
  6
CONTINUOUS
 62
1
 10
104.028495
 20
100.573710
 11
104.028495
 21
100.723711
  0
LINE
  8
0
  6
CONTINUOUS
 62
1
 10
102.328495
 20
100.723711
 11
102.328495
 21
100.573710
  0
LINE
  8
0
  6
CONTINUOUS
 62
1
 10
104.028495
 20
100.723711
 11
103.978495
 21
100.773713
  0
LINE
  8
0
  6
CONTINUOUS
 62
1
 10
102.378495
 20
100.773713
 11
102.328495
 21
100.723711
  0
LINE
  8
0
  6
CONTINUOUS
 62
1
 10
103.828495
 20
100.213709
 11
103.828495
 21
100.227854
  0
LINE
  8
0
  6
CONTINUOUS
 62
1
 10
103.978495
 20
47.703710
 11
103.978495
 21
47.953710
  0
LINE
  8
0
  6
CONTINUOUS
 62
1
 10
103.568495
 20
47.653710
 11
103.568495
 21
47.703710
  0
LINE
  8
0
  6
CONTINUOUS
 62
1
 10
102.788495
 20
47.703710
 11
102.788495
 21
47.653710
  0
LINE
  8
0
  6
CONTINUOUS
 62
1
 10
102.678495
 20
100.853708
 11
102.678495
 21
100.773713
  0
LINE
  8
0
  6
CONTINUOUS
 62
1
 10
103.678495
 20
100.773713
 11
103.678495
 21
100.853708
  0
LINE
  8
0
  6
CONTINUOUS
 62
1
 10
102.788495
 20
101.153710
 11
102.788495
 21
101.103708
  0
LINE
  8
0
  6
CONTINUOUS
 62
1
 10
103.568495
 20
101.103708
 11
103.568495
 21
101.153710
  0
LINE
  8
0
  6
CONTINUOUS
 62
1
 10
103.978495
 20
100.853708
 11
103.978495
 21
101.103708
  0
ARC
  8
0
  6
CONTINUOUS
 62
1
 10
96.028495
 20
30.903710
 40
0.200000
 50
270.000000
 51
0.000000
  0
ARC
  8
0
  6
CONTINUOUS
 62
1
 10
90.728495
 20
30.903710
 40
0.200000
 50
180.000000
 51
270.000000
  0
LINE
  8
0
  6
CONTINUOUS
 62
1
 10
96.228495
 20
30.903710
 11
96.228495
 21
31.303710
  0
LINE
  8
0
  6
CONTINUOUS
 62
1
 10
90.528495
 20
31.303710
 11
90.528495
 21
30.903710
  0
LINE
  8
0
  6
CONTINUOUS
 62
1
 10
37.728493
 20
30.903710
 11
37.728493
 21
31.303710
  0
LINE
  8
0
  6
CONTINUOUS
 62
1
 10
32.028495
 20
31.303710
 11
32.028495
 21
30.903710
  0
ARC
  8
0
  6
CONTINUOUS
 62
1
 10
37.528495
 20
30.903710
 40
0.200000
 50
270.000000
 51
0.000000
  0
ARC
  8
0
  6
CONTINUOUS
 62
1
 10
32.228495
 20
30.903710
 40
0.200000
 50
180.000000
 51
270.000000
  0
LINE
  8
0
  6
CONTINUOUS
 62
1
 10
96.208495
 20
31.303710
 11
96.208495
 21
38.103710
  0
LINE
  8
0
  6
CONTINUOUS
 62
1
 10
90.548495
 20
38.103710
 11
90.548495
 21
31.303710
  0
LINE
  8
0
  6
CONTINUOUS
 62
1
 10
37.708496
 20
31.303710
 11
37.708496
 21
38.103710
  0
LINE
  8
0
  6
CONTINUOUS
 62
1
 10
32.048492
 20
38.103710
 11
32.048492
 21
31.303710
  0
ARC
  8
0
  6
CONTINUOUS
 62
1
 10
96.718495
 20
47.353710
 40
0.150000
 50
90.000000
 51
180.000000
  0
ARC
  8
0
  6
CONTINUOUS
 62
1
 10
90.038495
 20
47.353710
 40
0.150000
 50
0.000000
 51
90.000000
  0
ARC
  8
0
  6
CONTINUOUS
 62
1
 10
96.098495
 20
38.706967
 40
0.470000
 50
350.540298
 51
0.000000
  0
ARC
  8
0
  6
CONTINUOUS
 62
1
 10
90.658495
 20
38.706967
 40
0.470000
 50
180.000000
 51
189.459702
  0
LINE
  8
0
  6
CONTINUOUS
 62
1
 10
96.568495
 20
38.706966
 11
96.568495
 21
47.353710
  0
LINE
  8
0
  6
CONTINUOUS
 62
1
 10
90.188495
 20
47.353710
 11
90.188495
 21
38.706966
  0
LINE
  8
0
  6
CONTINUOUS
 62
1
 10
90.194886
 20
38.629720
 11
90.282530
 21
38.103710
  0
LINE
  8
0
  6
CONTINUOUS
 62
1
 10
96.474460
 20
38.103710
 11
96.562104
 21
38.629720
  0
ARC
  8
0
  6
CONTINUOUS
 62
1
 10
38.218495
 20
47.353710
 40
0.150000
 50
90.000000
 51
180.000000
  0
ARC
  8
0
  6
CONTINUOUS
 62
1
 10
31.538495
 20
47.353710
 40
0.150000
 50
0.000000
 51
90.000000
  0
LINE
  8
0
  6
CONTINUOUS
 62
1
 10
38.068496
 20
38.706966
 11
38.068496
 21
47.353710
  0
LINE
  8
0
  6
CONTINUOUS
 62
1
 10
31.688492
 20
47.353710
 11
31.688492
 21
38.706966
  0
ARC
  8
0
  6
CONTINUOUS
 62
1
 10
37.598495
 20
38.706967
 40
0.470000
 50
350.540298
 51
0.000000
  0
ARC
  8
0
  6
CONTINUOUS
 62
1
 10
32.158495
 20
38.706967
 40
0.470000
 50
180.000000
 51
189.459702
  0
LINE
  8
0
  6
CONTINUOUS
 62
1
 10
31.694888
 20
38.629720
 11
31.782531
 21
38.103710
  0
LINE
  8
0
  6
CONTINUOUS
 62
1
 10
37.974458
 20
38.103710
 11
38.062106
 21
38.629720
  0
LINE
  8
0
  6
CONTINUOUS
 62
1
 10
26.308494
 20
90.341210
 11
25.648497
 21
90.341210
  0
LINE
  8
0
  6
CONTINUOUS
 62
1
 10
25.648497
 20
86.966211
 11
26.308494
 21
86.966211
  0
ARC
  8
0
  6
CONTINUOUS
 62
1
 10
24.994120
 20
87.766210
 40
0.800000
 50
192.635625
 51
270.000000
  0
ARC
  8
0
  6
CONTINUOUS
 62
1
 10
24.994120
 20
89.541210
 40
0.800000
 50
90.000000
 51
167.364375
  0
LINE
  8
0
  6
CONTINUOUS
 62
1
 10
25.108497
 20
90.341210
 11
24.994122
 21
90.341210
  0
LINE
  8
0
  6
CONTINUOUS
 62
1
 10
24.994122
 20
86.966211
 11
25.108497
 21
86.966211
  0
LINE
  8
0
  6
CONTINUOUS
 62
1
 10
26.843493
 20
90.238711
 11
26.308494
 21
90.238711
  0
LINE
  8
0
  6
CONTINUOUS
 62
1
 10
26.308494
 20
87.068710
 11
26.843493
 21
87.068710
  0
LINE
  8
0
  6
CONTINUOUS
 62
1
 10
27.138494
 20
90.146211
 11
26.843493
 21
90.146211
  0
LINE
  8
0
  6
CONTINUOUS
 62
1
 10
26.843493
 20
87.161210
 11
27.138494
 21
87.161210
  0
LINE
  8
0
  6
CONTINUOUS
 62
1
 10
26.333498
 20
60.940126
 11
26.338648
 21
60.940163
  0
LINE
  8
0
  6
CONTINUOUS
 62
1
 10
26.338648
 20
60.940163
 11
26.350539
 21
60.939085
  0
LINE
  8
0
  6
CONTINUOUS
 62
1
 10
26.350539
 20
60.939085
 11
26.358824
 21
60.937430
  0
LINE
  8
0
  6
CONTINUOUS
 62
1
 10
26.358824
 20
60.937430
 11
26.363318
 21
60.935962
  0
LINE
  8
0
  6
CONTINUOUS
 62
1
 10
26.363318
 20
60.935962
 11
26.364623
 21
60.935345
  0
LINE
  8
0
  6
CONTINUOUS
 62
1
 10
26.364623
 20
60.935345
 11
26.364588
 21
60.935372
  0
LINE
  8
0
  6
CONTINUOUS
 62
1
 10
25.823497
 20
60.940267
 11
26.333498
 21
60.940267
  0
ARC
  8
0
  6
CONTINUOUS
 62
1
 10
25.823495
 20
60.965267
 40
0.025000
 50
180.000000
 51
270.000000
  0
ARC
  8
0
  6
CONTINUOUS
 62
1
 10
25.823495
 20
61.559109
 40
0.025000
 50
90.000000
 51
180.000000
  0
LINE
  8
0
  6
CONTINUOUS
 62
1
 10
26.333498
 20
61.584109
 11
25.823497
 21
61.584109
  0
ARC
  8
0
  6
CONTINUOUS
 62
1
 10
26.383495
 20
61.828710
 40
0.025000
 50
90.000000
 51
180.000000
  0
ARC
  8
0
  6
CONTINUOUS
 62
1
 10
26.453495
 20
61.828710
 40
0.025000
 50
0.000000
 51
90.000000
  0
LINE
  8
0
  6
CONTINUOUS
 62
1
 10
26.453494
 20
61.853710
 11
26.383494
 21
61.853710
  0
ARC
  8
0
  6
CONTINUOUS
 62
1
 10
25.823495
 20
60.408311
 40
0.025000
 50
180.000000
 51
270.000000
  0
LINE
  8
0
  6
CONTINUOUS
 62
1
 10
25.823497
 20
60.383311
 11
26.238494
 21
60.383311
  0
ARC
  8
0
  6
CONTINUOUS
 62
1
 10
26.333495
 20
61.828710
 40
0.025000
 50
0.000000
 51
43.467054
  0
ARC
  8
0
  6
CONTINUOUS
 62
1
 10
26.381411
 20
60.328275
 40
0.022715
 50
176.389937
 51
275.247574
  0
LINE
  8
0
  6
CONTINUOUS
 62
1
 10
26.893495
 20
60.305385
 11
26.383494
 21
60.305385
  0
ARC
  8
0
  6
CONTINUOUS
 62
1
 10
26.893495
 20
60.280386
 40
0.025000
 50
0.000000
 51
90.000000
  0
ARC
  8
0
  6
CONTINUOUS
 62
1
 10
26.893495
 20
59.991173
 40
0.025000
 50
270.000000
 51
0.000000
  0
LINE
  8
0
  6
CONTINUOUS
 62
1
 10
26.383494
 20
59.966173
 11
26.893495
 21
59.966173
  0
LINE
  8
0
  6
CONTINUOUS
 62
1
 10
26.893495
 20
62.001248
 11
26.383494
 21
62.001248
  0
ARC
  8
0
  6
CONTINUOUS
 62
1
 10
26.893495
 20
61.976247
 40
0.025000
 50
0.000000
 51
90.000000
  0
LINE
  8
0
  6
CONTINUOUS
 62
1
 10
26.478498
 20
61.662035
 11
26.893495
 21
61.662035
  0
ARC
  8
0
  6
CONTINUOUS
 62
1
 10
26.893495
 20
61.687035
 40
0.025000
 50
270.000000
 51
0.000000
  0
LINE
  8
0
  6
CONTINUOUS
 62
1
 10
26.496934
 20
61.515643
 11
26.478498
 21
61.483709
  0
LINE
  8
0
  6
CONTINUOUS
 62
1
 10
26.998495
 20
61.483709
 11
26.980059
 21
61.515643
  0
LINE
  8
0
  6
CONTINUOUS
 62
1
 10
26.478498
 20
60.483710
 11
26.497118
 21
60.451458
  0
LINE
  8
0
  6
CONTINUOUS
 62
1
 10
26.979874
 20
60.451458
 11
26.998495
 21
60.483710
  0
LINE
  8
0
  6
CONTINUOUS
 62
1
 10
27.023493
 20
60.483710
 11
27.029620
 21
60.473098
  0
LINE
  8
0
  6
CONTINUOUS
 62
1
 10
27.029620
 20
61.494324
 11
27.023493
 21
61.483709
  0
LINE
  8
0
  6
CONTINUOUS
 62
1
 10
27.023493
 20
61.283711
 11
26.998495
 21
61.283711
  0
LINE
  8
0
  6
CONTINUOUS
 62
1
 10
26.998495
 20
60.683711
 11
27.023493
 21
60.683711
  0
LINE
  8
0
  6
CONTINUOUS
 62
1
 10
103.628495
 20
100.013712
 11
103.614353
 21
100.013712
  0
LINE
  8
0
  6
CONTINUOUS
 62
1
 10
103.614353
 20
48.713710
 11
103.628495
 21
48.713710
  0
ARC
  8
0
  6
CONTINUOUS
 62
1
 10
99.228411
 20
100.010933
 40
0.290631
 50
99.889545
 51
142.287635
  0
ARC
  8
0
  6
CONTINUOUS
 62
1
 10
99.205640
 20
48.678634
 40
0.249976
 50
214.038607
 51
263.765910
  0
LINE
  8
0
  6
CONTINUOUS
 62
1
 10
98.998495
 20
48.538710
 11
98.998495
 21
100.188711
  0
ARC
  8
0
  6
CONTINUOUS
 62
1
 10
99.181115
 20
100.224775
 40
0.083991
 50
91.787507
 51
146.695093
  0
ARC
  8
0
  6
CONTINUOUS
 62
1
 10
99.195783
 20
100.192600
 40
0.197326
 50
95.026151
 51
181.129260
  0
ARC
  8
0
  6
CONTINUOUS
 62
1
 10
99.181191
 20
48.502675
 40
0.084035
 50
213.304401
 51
268.161810
  0
ARC
  8
0
  6
CONTINUOUS
 62
1
 10
99.194465
 20
48.534057
 40
0.196025
 50
178.639716
 51
265.326987
  0
LINE
  8
0
  6
CONTINUOUS
 62
1
 10
103.914353
 20
100.313708
 11
103.928495
 21
100.313708
  0
LINE
  8
0
  6
CONTINUOUS
 62
1
 10
103.925257
 20
100.393709
 11
104.033495
 21
100.393709
  0
LINE
  8
0
  6
CONTINUOUS
 62
1
 10
103.928495
 20
48.413710
 11
103.914353
 21
48.413710
  0
LINE
  8
0
  6
CONTINUOUS
 62
1
 10
104.033495
 20
48.333710
 11
103.925257
 21
48.333710
  0
LINE
  8
0
  6
CONTINUOUS
 62
1
 10
40.653496
 20
122.039941
 11
40.725296
 21
122.081396
  0
LINE
  8
0
  6
CONTINUOUS
 62
1
 10
40.725296
 20
122.081396
 11
40.779148
 21
122.112486
  0
LINE
  8
0
  6
CONTINUOUS
 62
1
 10
40.779148
 20
122.112486
 11
40.802579
 21
122.126016
  0
LINE
  8
0
  6
CONTINUOUS
 62
1
 10
40.802579
 20
122.126016
 11
40.803556
 21
122.126582
  0
LINE
  8
0
  6
CONTINUOUS
 62
1
 10
40.653496
 20
121.630362
 11
40.719186
 21
121.639565
  0
LINE
  8
0
  6
CONTINUOUS
 62
1
 10
40.719186
 20
121.639565
 11
40.850030
 21
121.691534
  0
LINE
  8
0
  6
CONTINUOUS
 62
1
 10
40.850030
 20
121.691534
 11
40.790247
 21
121.657017
  0
LINE
  8
0
  6
CONTINUOUS
 62
1
 10
40.790247
 20
121.657017
 11
40.719287
 21
121.616051
  0
LINE
  8
0
  6
CONTINUOUS
 62
1
 10
40.719287
 20
121.616051
 11
40.653496
 21
121.578065
  0
LINE
  8
0
  6
CONTINUOUS
 62
1
 10
40.850030
 20
121.691534
 11
40.926384
 21
121.746364
  0
LINE
  8
0
  6
CONTINUOUS
 62
1
 10
40.926384
 20
121.746364
 11
41.050034
 21
121.893606
  0
LINE
  8
0
  6
CONTINUOUS
 62
1
 10
40.925031
 20
122.110113
 11
40.780877
 21
122.089913
  0
LINE
  8
0
  6
CONTINUOUS
 62
1
 10
40.780877
 20
122.089913
 11
40.650033
 21
122.037944
  0
LINE
  8
0
  6
CONTINUOUS
 62
1
 10
40.925031
 20
122.110113
 11
41.050034
 21
121.893606
  0
LINE
  8
0
  6
CONTINUOUS
 62
1
 10
40.907149
 20
121.147159
 11
40.890824
 21
121.137735
  0
LINE
  8
0
  6
CONTINUOUS
 62
1
 10
40.890824
 20
121.137735
 11
40.842878
 21
121.110049
  0
LINE
  8
0
  6
CONTINUOUS
 62
1
 10
40.842878
 20
121.110049
 11
40.766315
 21
121.065852
  0
LINE
  8
0
  6
CONTINUOUS
 62
1
 10
40.766315
 20
121.065852
 11
40.665959
 21
121.007904
  0
LINE
  8
0
  6
CONTINUOUS
 62
1
 10
40.665959
 20
121.007904
 11
40.653496
 21
121.000710
  0
LINE
  8
0
  6
CONTINUOUS
 62
1
 10
40.960257
 20
121.755174
 11
40.953218
 21
121.751109
  0
LINE
  8
0
  6
CONTINUOUS
 62
1
 10
40.953218
 20
121.751109
 11
40.932225
 21
121.738985
  0
LINE
  8
0
  6
CONTINUOUS
 62
1
 10
40.932225
 20
121.738985
 11
40.897630
 21
121.719018
  0
LINE
  8
0
  6
CONTINUOUS
 62
1
 10
40.897630
 20
121.719018
 11
40.850030
 21
121.691534
  0
LINE
  8
0
  6
CONTINUOUS
 62
1
 10
42.937492
 20
125.653711
 11
43.837492
 21
125.653711
  0
ARC
  8
0
  6
CONTINUOUS
 62
1
 10
42.937491
 20
125.453710
 40
0.200000
 50
90.000000
 51
180.000000
  0
LINE
  8
0
  6
CONTINUOUS
 62
1
 10
42.737489
 20
124.019220
 11
42.737489
 21
125.453708
  0
ARC
  8
0
  6
CONTINUOUS
 62
1
 10
42.537491
 20
124.019223
 40
0.200000
 50
299.981639
 51
0.000000
  0
LINE
  8
0
  6
CONTINUOUS
 62
1
 10
41.483878
 20
123.180476
 11
42.637436
 21
123.845985
  0
ARC
  8
0
  6
CONTINUOUS
 62
1
 10
41.383936
 20
123.353710
 40
0.200000
 50
270.000000
 51
299.981639
  0
LINE
  8
0
  6
CONTINUOUS
 62
1
 10
40.653496
 20
123.153707
 11
41.383933
 21
123.153707
  0
LINE
  8
0
  6
CONTINUOUS
 62
1
 10
42.537491
 20
129.153708
 11
40.653496
 21
129.153708
  0
ARC
  8
0
  6
CONTINUOUS
 62
1
 10
42.537491
 20
128.953710
 40
0.200000
 50
0.000000
 51
90.000000
  0
LINE
  8
0
  6
CONTINUOUS
 62
1
 10
42.737489
 20
128.353712
 11
42.737489
 21
128.953710
  0
ARC
  8
0
  6
CONTINUOUS
 62
1
 10
42.937491
 20
128.353710
 40
0.200000
 50
180.000000
 51
270.000000
  0
LINE
  8
0
  6
CONTINUOUS
 62
1
 10
43.837492
 20
128.153709
 11
42.937492
 21
128.153709
  0
CIRCLE
  8
0
  6
CONTINUOUS
 62
1
 10
41.437491
 20
125.153710
 40
0.320000
  0
CIRCLE
  8
0
  6
CONTINUOUS
 62
1
 10
41.437491
 20
127.653710
 40
0.320000
  0
LINE
  8
0
  6
CONTINUOUS
 62
1
 10
44.537489
 20
125.653711
 11
43.837492
 21
125.653711
  0
LINE
  8
0
  6
CONTINUOUS
 62
1
 10
43.837492
 20
128.153709
 11
44.537489
 21
128.153709
  0
LINE
  8
0
  6
CONTINUOUS
 62
1
 10
44.537489
 20
128.153709
 11
44.537489
 21
125.653711
  0
LINE
  8
0
  6
CONTINUOUS
 62
1
 10
46.656530
 20
123.692694
 11
46.656530
 21
123.192695
  0
LINE
  8
0
  6
CONTINUOUS
 62
1
 10
46.656530
 20
123.192695
 11
46.356534
 21
123.192695
  0
LINE
  8
0
  6
CONTINUOUS
 62
1
 10
46.356534
 20
123.692694
 11
46.356534
 21
123.192695
  0
LINE
  8
0
  6
CONTINUOUS
 62
1
 10
46.656530
 20
124.357060
 11
46.656530
 21
123.692694
  0
LINE
  8
0
  6
CONTINUOUS
 62
1
 10
46.356534
 20
124.357060
 11
46.356534
 21
123.692694
  0
ARC
  8
0
  6
CONTINUOUS
 62
1
 10
45.956532
 20
124.357057
 40
0.700000
 50
0.000000
 51
80.000000
  0
ARC
  8
0
  6
CONTINUOUS
 62
1
 10
45.956532
 20
124.357057
 40
0.400000
 50
0.000000
 51
80.000000
  0
LINE
  8
0
  6
CONTINUOUS
 62
1
 10
46.025990
 20
124.750981
 11
44.815938
 21
124.964347
  0
LINE
  8
0
  6
CONTINUOUS
 62
1
 10
46.078085
 20
125.046423
 11
44.868033
 21
125.259790
  0
ARC
  8
0
  6
CONTINUOUS
 62
1
 10
44.937491
 20
125.653710
 40
0.400000
 50
180.000000
 51
260.000000
  0
ARC
  8
0
  6
CONTINUOUS
 62
1
 10
44.937491
 20
125.653710
 40
0.700000
 50
180.000000
 51
260.000000
  0
LINE
  8
0
  6
CONTINUOUS
 62
1
 10
40.653496
 20
129.373708
 11
43.207787
 21
129.373708
  0
LINE
  8
0
  6
CONTINUOUS
 62
1
 10
43.207787
 20
130.103710
 11
43.207787
 21
129.373708
  0
LINE
  8
0
  6
CONTINUOUS
 62
1
 10
43.058496
 20
130.373707
 11
43.066840
 21
130.372670
  0
LINE
  8
0
  6
CONTINUOUS
 62
1
 10
43.066840
 20
130.372670
 11
43.075250
 21
130.369523
  0
LINE
  8
0
  6
CONTINUOUS
 62
1
 10
43.075250
 20
130.369523
 11
43.083839
 21
130.364165
  0
LINE
  8
0
  6
CONTINUOUS
 62
1
 10
43.083839
 20
130.364165
 11
43.092488
 21
130.356619
  0
LINE
  8
0
  6
CONTINUOUS
 62
1
 10
43.092488
 20
130.356619
 11
43.100839
 21
130.347350
  0
LINE
  8
0
  6
CONTINUOUS
 62
1
 10
43.100839
 20
130.347350
 11
43.117844
 21
130.322757
  0
LINE
  8
0
  6
CONTINUOUS
 62
1
 10
43.117844
 20
130.322757
 11
43.126498
 21
130.307493
  0
LINE
  8
0
  6
CONTINUOUS
 62
1
 10
43.126498
 20
130.307493
 11
43.134849
 21
130.291167
  0
LINE
  8
0
  6
CONTINUOUS
 62
1
 10
43.134849
 20
130.291167
 11
43.143259
 21
130.273262
  0
LINE
  8
0
  6
CONTINUOUS
 62
1
 10
43.143259
 20
130.273262
 11
43.151848
 21
130.253604
  0
LINE
  8
0
  6
CONTINUOUS
 62
1
 10
43.151848
 20
130.253604
 11
43.160503
 21
130.232558
  0
LINE
  8
0
  6
CONTINUOUS
 62
1
 10
43.160503
 20
130.232558
 11
43.168854
 21
130.211243
  0
LINE
  8
0
  6
CONTINUOUS
 62
1
 10
43.168854
 20
130.211243
 11
43.177264
 21
130.188939
  0
LINE
  8
0
  6
CONTINUOUS
 62
1
 10
43.177264
 20
130.188939
 11
43.185853
 21
130.165461
  0
LINE
  8
0
  6
CONTINUOUS
 62
1
 10
43.185853
 20
130.165461
 11
43.194507
 21
130.141303
  0
LINE
  8
0
  6
CONTINUOUS
 62
1
 10
43.194507
 20
130.141303
 11
43.201135
 21
130.122593
  0
LINE
  8
0
  6
CONTINUOUS
 62
1
 10
43.201135
 20
130.122593
 11
43.207787
 21
130.103710
  0
LINE
  8
0
  6
CONTINUOUS
 62
1
 10
35.058491
 20
130.373707
 11
43.058496
 21
130.373707
  0
LINE
  8
0
  6
CONTINUOUS
 62
1
 10
34.926914
 20
130.153713
 11
34.934543
 21
130.174860
  0
LINE
  8
0
  6
CONTINUOUS
 62
1
 10
34.934543
 20
130.174860
 11
34.943198
 21
130.198243
  0
LINE
  8
0
  6
CONTINUOUS
 62
1
 10
34.943198
 20
130.198243
 11
34.951549
 21
130.220070
  0
LINE
  8
0
  6
CONTINUOUS
 62
1
 10
34.951549
 20
130.220070
 11
34.968548
 21
130.261567
  0
LINE
  8
0
  6
CONTINUOUS
 62
1
 10
34.968548
 20
130.261567
 11
34.977202
 21
130.280831
  0
LINE
  8
0
  6
CONTINUOUS
 62
1
 10
34.977202
 20
130.280831
 11
34.985553
 21
130.298027
  0
LINE
  8
0
  6
CONTINUOUS
 62
1
 10
34.985553
 20
130.298027
 11
34.993963
 21
130.313834
  0
LINE
  8
0
  6
CONTINUOUS
 62
1
 10
34.993963
 20
130.313834
 11
35.002558
 21
130.328283
  0
LINE
  8
0
  6
CONTINUOUS
 62
1
 10
35.002558
 20
130.328283
 11
35.011213
 21
130.340984
  0
LINE
  8
0
  6
CONTINUOUS
 62
1
 10
35.011213
 20
130.340984
 11
35.019563
 21
130.351373
  0
LINE
  8
0
  6
CONTINUOUS
 62
1
 10
35.019563
 20
130.351373
 11
35.027968
 21
130.359909
  0
LINE
  8
0
  6
CONTINUOUS
 62
1
 10
35.027968
 20
130.359909
 11
35.036563
 21
130.366555
  0
LINE
  8
0
  6
CONTINUOUS
 62
1
 10
35.036563
 20
130.366555
 11
35.045217
 21
130.371079
  0
LINE
  8
0
  6
CONTINUOUS
 62
1
 10
35.045217
 20
130.371079
 11
35.051839
 21
130.373052
  0
LINE
  8
0
  6
CONTINUOUS
 62
1
 10
35.051839
 20
130.373052
 11
35.058491
 21
130.373707
  0
ARC
  8
0
  6
CONTINUOUS
 62
1
 10
35.050152
 20
130.108508
 40
0.140417
 50
139.071890
 51
161.220043
  0
ARC
  8
0
  6
CONTINUOUS
 62
1
 10
35.058472
 20
130.103750
 40
0.269957
 50
89.996002
 51
169.334508
  0
LINE
  8
0
  6
CONTINUOUS
 62
1
 10
43.328493
 20
130.103710
 11
43.208491
 21
130.103710
  0
ARC
  8
0
  6
CONTINUOUS
 62
1
 10
43.062560
 20
130.104908
 40
0.145936
 50
359.529645
 51
40.836191
  0
ARC
  8
0
  6
CONTINUOUS
 62
1
 10
43.058501
 20
130.103715
 40
0.269992
 50
359.998922
 51
90.001078
  0
LINE
  8
0
  6
CONTINUOUS
 62
1
 10
43.208491
 20
130.103710
 11
43.208491
 21
129.373708
  0
LINE
  8
0
  6
CONTINUOUS
 62
1
 10
43.328493
 20
130.103710
 11
43.328493
 21
129.373708
  0
LINE
  8
0
  6
CONTINUOUS
 62
1
 10
43.328493
 20
129.373708
 11
43.208491
 21
129.373708
  0
LINE
  8
0
  6
CONTINUOUS
 62
1
 10
42.937492
 20
123.800859
 11
42.937492
 21
125.653711
  0
LINE
  8
0
  6
CONTINUOUS
 62
1
 10
42.937492
 20
128.153709
 11
42.937492
 21
129.373708
  0
ARC
  8
0
  6
CONTINUOUS
 62
1
 10
42.813491
 20
123.800859
 40
0.124000
 50
300.000000
 51
0.000000
  0
LINE
  8
0
  6
CONTINUOUS
 62
1
 10
40.653496
 20
122.410604
 11
42.875491
 21
123.693469
  0
LINE
  8
0
  6
CONTINUOUS
 62
1
 10
42.935990
 20
123.588684
 11
40.653496
 21
122.270885
  0
LINE
  8
0
  6
CONTINUOUS
 62
1
 10
42.875992
 20
123.692605
 11
40.653496
 21
122.409448
  0
LINE
  8
0
  6
CONTINUOUS
 62
1
 10
42.938494
 20
129.373708
 11
42.938494
 21
128.153709
  0
LINE
  8
0
  6
CONTINUOUS
 62
1
 10
42.938494
 20
125.653711
 11
42.938494
 21
123.800859
  0
LINE
  8
0
  6
CONTINUOUS
 62
1
 10
43.058490
 20
129.373708
 11
43.058490
 21
128.153709
  0
LINE
  8
0
  6
CONTINUOUS
 62
1
 10
43.058490
 20
125.653711
 11
43.058490
 21
123.800859
  0
ARC
  8
0
  6
CONTINUOUS
 62
1
 10
42.813491
 20
123.800859
 40
0.245000
 50
300.000000
 51
0.000000
  0
ARC
  8
0
  6
CONTINUOUS
 62
1
 10
42.813491
 20
123.800859
 40
0.125000
 50
300.000000
 51
0.000000
  0
LINE
  8
0
  6
CONTINUOUS
 62
1
 10
40.533494
 20
130.053708
 11
34.423493
 21
130.053708
  0
LINE
  8
0
  6
CONTINUOUS
 62
1
 10
40.533494
 20
119.703713
 11
40.533494
 21
130.053708
  0
LINE
  8
0
  6
CONTINUOUS
 62
1
 10
34.423493
 20
130.053708
 11
34.423493
 21
119.703713
  0
LINE
  8
0
  6
CONTINUOUS
 62
1
 10
40.653496
 20
130.033001
 11
40.533494
 21
130.033001
  0
LINE
  8
0
  6
CONTINUOUS
 62
1
 10
40.653496
 20
130.033001
 11
40.653496
 21
119.703713
  0
LINE
  8
0
  6
CONTINUOUS
 62
1
 10
34.303497
 20
119.703713
 11
34.303497
 21
130.033001
  0
LINE
  8
0
  6
CONTINUOUS
 62
1
 10
34.303497
 20
130.033001
 11
34.423493
 21
130.033001
  0
LINE
  8
0
  6
CONTINUOUS
 62
1
 10
34.424202
 20
130.153713
 11
40.532790
 21
130.153713
  0
LINE
  8
0
  6
CONTINUOUS
 62
1
 10
34.424202
 20
130.153713
 11
34.424202
 21
130.053708
  0
LINE
  8
0
  6
CONTINUOUS
 62
1
 10
40.532790
 20
130.153713
 11
40.532790
 21
130.053708
  0
LINE
  8
0
  6
CONTINUOUS
 62
1
 10
33.628492
 20
128.490201
 11
33.628492
 21
127.017221
  0
LINE
  8
0
  6
CONTINUOUS
 62
1
 10
101.839807
 20
110.744944
 11
101.844298
 21
110.731128
  0
LINE
  8
0
  6
CONTINUOUS
 62
1
 10
101.844298
 20
110.731128
 11
101.859569
 21
110.684124
  0
LINE
  8
0
  6
CONTINUOUS
 62
1
 10
101.859569
 20
110.684124
 11
101.884853
 21
110.606310
  0
LINE
  8
0
  6
CONTINUOUS
 62
1
 10
101.884853
 20
110.606310
 11
101.918787
 21
110.501870
  0
LINE
  8
0
  6
CONTINUOUS
 62
1
 10
101.918787
 20
110.501870
 11
101.959542
 21
110.376438
  0
LINE
  8
0
  6
CONTINUOUS
 62
1
 10
101.959542
 20
110.376438
 11
102.004920
 21
110.236779
  0
LINE
  8
0
  6
CONTINUOUS
 62
1
 10
102.004920
 20
110.236779
 11
102.052475
 21
110.090420
  0
LINE
  8
0
  6
CONTINUOUS
 62
1
 10
102.052475
 20
110.090420
 11
102.099644
 21
109.945252
  0
LINE
  8
0
  6
CONTINUOUS
 62
1
 10
102.099644
 20
109.945252
 11
102.143883
 21
109.809098
  0
LINE
  8
0
  6
CONTINUOUS
 62
1
 10
102.143883
 20
109.809098
 11
102.182808
 21
109.689298
  0
LINE
  8
0
  6
CONTINUOUS
 62
1
 10
102.182808
 20
109.689298
 11
102.214319
 21
109.592315
  0
LINE
  8
0
  6
CONTINUOUS
 62
1
 10
102.214319
 20
109.592315
 11
102.236719
 21
109.523377
  0
LINE
  8
0
  6
CONTINUOUS
 62
1
 10
102.236719
 20
109.523377
 11
102.248800
 21
109.486195
  0
LINE
  8
0
  6
CONTINUOUS
 62
1
 10
102.248800
 20
109.486195
 11
102.250800
 21
109.480038
  0
LINE
  8
0
  6
CONTINUOUS
 62
1
 10
101.471401
 20
110.746160
 11
101.471909
 21
110.744592
  0
LINE
  8
0
  6
CONTINUOUS
 62
1
 10
101.471909
 20
110.744592
 11
101.480899
 21
110.716930
  0
LINE
  8
0
  6
CONTINUOUS
 62
1
 10
101.480899
 20
110.716930
 11
101.500714
 21
110.655948
  0
LINE
  8
0
  6
CONTINUOUS
 62
1
 10
101.500714
 20
110.655948
 11
101.530429
 21
110.564491
  0
LINE
  8
0
  6
CONTINUOUS
 62
1
 10
101.530429
 20
110.564491
 11
101.568654
 21
110.446849
  0
LINE
  8
0
  6
CONTINUOUS
 62
1
 10
101.568654
 20
110.446849
 11
101.613602
 21
110.308513
  0
LINE
  8
0
  6
CONTINUOUS
 62
1
 10
101.613602
 20
110.308513
 11
101.663172
 21
110.155949
  0
LINE
  8
0
  6
CONTINUOUS
 62
1
 10
101.663172
 20
110.155949
 11
101.715045
 21
109.996304
  0
LINE
  8
0
  6
CONTINUOUS
 62
1
 10
101.715045
 20
109.996304
 11
101.766796
 21
109.837028
  0
LINE
  8
0
  6
CONTINUOUS
 62
1
 10
101.766796
 20
109.837028
 11
101.816005
 21
109.685579
  0
LINE
  8
0
  6
CONTINUOUS
 62
1
 10
101.816005
 20
109.685579
 11
101.860371
 21
109.549037
  0
LINE
  8
0
  6
CONTINUOUS
 62
1
 10
101.860371
 20
109.549037
 11
101.897820
 21
109.433779
  0
LINE
  8
0
  6
CONTINUOUS
 62
1
 10
101.897820
 20
109.433779
 11
101.926600
 21
109.345201
  0
LINE
  8
0
  6
CONTINUOUS
 62
1
 10
101.926600
 20
109.345201
 11
101.945366
 21
109.287444
  0
LINE
  8
0
  6
CONTINUOUS
 62
1
 10
101.945366
 20
109.287444
 11
101.953241
 21
109.263208
  0
LINE
  8
0
  6
CONTINUOUS
 62
1
 10
101.953241
 20
109.263208
 11
101.953467
 21
109.262511
  0
LINE
  8
0
  6
CONTINUOUS
 62
1
 10
102.906951
 20
106.975207
 11
102.901449
 21
106.992140
  0
LINE
  8
0
  6
CONTINUOUS
 62
1
 10
102.901449
 20
106.992140
 11
102.885004
 21
107.042751
  0
LINE
  8
0
  6
CONTINUOUS
 62
1
 10
102.885004
 20
107.042751
 11
102.857796
 21
107.126489
  0
LINE
  8
0
  6
CONTINUOUS
 62
1
 10
102.857796
 20
107.126489
 11
102.820124
 21
107.242432
  0
LINE
  8
0
  6
CONTINUOUS
 62
1
 10
102.820124
 20
107.242432
 11
102.772399
 21
107.389316
  0
LINE
  8
0
  6
CONTINUOUS
 62
1
 10
102.772399
 20
107.389316
 11
102.715145
 21
107.565525
  0
LINE
  8
0
  6
CONTINUOUS
 62
1
 10
102.715145
 20
107.565525
 11
102.648989
 21
107.769129
  0
LINE
  8
0
  6
CONTINUOUS
 62
1
 10
102.648989
 20
107.769129
 11
102.574656
 21
107.997903
  0
LINE
  8
0
  6
CONTINUOUS
 62
1
 10
102.574656
 20
107.997903
 11
102.492961
 21
108.249333
  0
LINE
  8
0
  6
CONTINUOUS
 62
1
 10
102.492961
 20
108.249333
 11
102.404798
 21
108.520672
  0
LINE
  8
0
  6
CONTINUOUS
 62
1
 10
102.404798
 20
108.520672
 11
102.311133
 21
108.808944
  0
LINE
  8
0
  6
CONTINUOUS
 62
1
 10
102.311133
 20
108.808944
 11
102.212993
 21
109.110990
  0
LINE
  8
0
  6
CONTINUOUS
 62
1
 10
102.212993
 20
109.110990
 11
102.123491
 21
109.386447
  0
LINE
  8
0
  6
CONTINUOUS
 62
1
 10
101.681919
 20
110.745469
 11
101.592298
 21
111.021295
  0
LINE
  8
0
  6
CONTINUOUS
 62
1
 10
101.592298
 20
111.021295
 11
101.494158
 21
111.323336
  0
LINE
  8
0
  6
CONTINUOUS
 62
1
 10
101.494158
 20
111.323336
 11
101.400493
 21
111.611608
  0
LINE
  8
0
  6
CONTINUOUS
 62
1
 10
101.400493
 20
111.611608
 11
101.312330
 21
111.882946
  0
LINE
  8
0
  6
CONTINUOUS
 62
1
 10
101.312330
 20
111.882946
 11
101.230634
 21
112.134382
  0
LINE
  8
0
  6
CONTINUOUS
 62
1
 10
101.230634
 20
112.134382
 11
101.156301
 21
112.363151
  0
LINE
  8
0
  6
CONTINUOUS
 62
1
 10
101.156301
 20
112.363151
 11
101.090145
 21
112.566760
  0
LINE
  8
0
  6
CONTINUOUS
 62
1
 10
101.090145
 20
112.566760
 11
101.032891
 21
112.742969
  0
LINE
  8
0
  6
CONTINUOUS
 62
1
 10
101.032891
 20
112.742969
 11
100.985167
 21
112.889847
  0
LINE
  8
0
  6
CONTINUOUS
 62
1
 10
100.985167
 20
112.889847
 11
100.947494
 21
113.005796
  0
LINE
  8
0
  6
CONTINUOUS
 62
1
 10
100.947494
 20
113.005796
 11
100.920287
 21
113.089529
  0
LINE
  8
0
  6
CONTINUOUS
 62
1
 10
100.920287
 20
113.089529
 11
100.903842
 21
113.140145
  0
LINE
  8
0
  6
CONTINUOUS
 62
1
 10
100.903842
 20
113.140145
 11
100.898340
 21
113.157073
  0
LINE
  8
0
  6
CONTINUOUS
 62
1
 10
102.121338
 20
112.629142
 11
102.068935
 21
112.790421
  0
LINE
  8
0
  6
CONTINUOUS
 62
1
 10
102.068935
 20
112.790421
 11
102.027405
 21
112.918237
  0
LINE
  8
0
  6
CONTINUOUS
 62
1
 10
102.027405
 20
112.918237
 11
101.997322
 21
113.010827
  0
LINE
  8
0
  6
CONTINUOUS
 62
1
 10
101.997322
 20
113.010827
 11
101.979104
 21
113.066891
  0
LINE
  8
0
  6
CONTINUOUS
 62
1
 10
101.979104
 20
113.066891
 11
101.973003
 21
113.085672
  0
LINE
  8
0
  6
CONTINUOUS
 62
1
 10
103.734400
 20
107.664648
 11
103.728300
 21
107.683423
  0
LINE
  8
0
  6
CONTINUOUS
 62
1
 10
103.728300
 20
107.683423
 11
103.710081
 21
107.739493
  0
LINE
  8
0
  6
CONTINUOUS
 62
1
 10
103.710081
 20
107.739493
 11
103.679999
 21
107.832077
  0
LINE
  8
0
  6
CONTINUOUS
 62
1
 10
103.679999
 20
107.832077
 11
103.638468
 21
107.959893
  0
LINE
  8
0
  6
CONTINUOUS
 62
1
 10
103.638468
 20
107.959893
 11
103.586065
 21
108.121177
  0
LINE
  8
0
  6
CONTINUOUS
 62
1
 10
102.996533
 20
108.290568
 11
102.993078
 21
108.308682
  0
LINE
  8
0
  6
CONTINUOUS
 62
1
 10
102.993078
 20
108.308682
 11
102.994880
 21
108.328965
  0
LINE
  8
0
  6
CONTINUOUS
 62
1
 10
102.994880
 20
108.328965
 11
103.002127
 21
108.349147
  0
LINE
  8
0
  6
CONTINUOUS
 62
1
 10
103.002127
 20
108.349147
 11
103.015059
 21
108.369741
  0
LINE
  8
0
  6
CONTINUOUS
 62
1
 10
103.015059
 20
108.369741
 11
103.048147
 21
108.403280
  0
LINE
  8
0
  6
CONTINUOUS
 62
1
 10
103.048147
 20
108.403280
 11
103.085533
 21
108.430317
  0
LINE
  8
0
  6
CONTINUOUS
 62
1
 10
103.012865
 20
108.267417
 11
103.002953
 21
108.277342
  0
LINE
  8
0
  6
CONTINUOUS
 62
1
 10
103.002953
 20
108.277342
 11
102.996533
 21
108.290568
  0
LINE
  8
0
  6
CONTINUOUS
 62
1
 10
103.085533
 20
108.430317
 11
103.124215
 21
108.452907
  0
LINE
  8
0
  6
CONTINUOUS
 62
1
 10
103.124215
 20
108.452907
 11
103.163857
 21
108.467123
  0
LINE
  8
0
  6
CONTINUOUS
 62
1
 10
103.163857
 20
108.467123
 11
103.182985
 21
108.468392
  0
LINE
  8
0
  6
CONTINUOUS
 62
1
 10
103.182985
 20
108.468392
 11
103.199704
 21
108.463672
  0
LINE
  8
0
  6
CONTINUOUS
 62
1
 10
103.199704
 20
108.463672
 11
103.211964
 21
108.452603
  0
LINE
  8
0
  6
CONTINUOUS
 62
1
 10
103.059095
 20
108.120897
 11
103.030610
 21
108.202109
  0
LINE
  8
0
  6
CONTINUOUS
 62
1
 10
103.160494
 20
108.223566
 11
103.163568
 21
108.218297
  0
LINE
  8
0
  6
CONTINUOUS
 62
1
 10
103.163568
 20
108.218297
 11
103.168306
 21
108.214697
  0
LINE
  8
0
  6
CONTINUOUS
 62
1
 10
103.168306
 20
108.214697
 11
103.180696
 21
108.211735
  0
ARC
  8
0
  6
CONTINUOUS
 62
1
 10
103.186436
 20
108.259478
 40
0.042765
 50
315.397027
 51
11.406686
  0
LINE
  8
0
  6
CONTINUOUS
 62
1
 10
103.228260
 20
108.195463
 11
103.216884
 21
108.229449
  0
LINE
  8
0
  6
CONTINUOUS
 62
1
 10
103.171800
 20
108.302370
 11
103.201123
 21
108.317277
  0
LINE
  8
0
  6
CONTINUOUS
 62
1
 10
103.201123
 20
108.317277
 11
103.215526
 21
108.320394
  0
LINE
  8
0
  6
CONTINUOUS
 62
1
 10
103.215526
 20
108.320394
 11
103.229374
 21
108.320472
  0
LINE
  8
0
  6
CONTINUOUS
 62
1
 10
103.229374
 20
108.320472
 11
103.252263
 21
108.312061
  0
LINE
  8
0
  6
CONTINUOUS
 62
1
 10
103.252263
 20
108.312061
 11
103.253921
 21
108.309653
  0
ARC
  8
0
  6
CONTINUOUS
 62
1
 10
103.218900
 20
108.216269
 40
0.098141
 50
118.680272
 51
189.811077
  0
LINE
  8
0
  6
CONTINUOUS
 62
1
 10
103.128003
 20
108.189771
 11
103.122194
 21
108.199546
  0
LINE
  8
0
  6
CONTINUOUS
 62
1
 10
103.087442
 20
108.170524
 11
103.128003
 21
108.189771
  0
LINE
  8
0
  6
CONTINUOUS
 62
1
 10
103.030610
 20
108.202109
 11
103.067317
 21
108.227399
  0
LINE
  8
0
  6
CONTINUOUS
 62
1
 10
103.103077
 20
107.990333
 11
103.088751
 21
108.036968
  0
LINE
  8
0
  6
CONTINUOUS
 62
1
 10
103.088751
 20
108.036968
 11
103.298253
 21
108.181086
  0
ARC
  8
0
  6
CONTINUOUS
 62
1
 10
103.455256
 20
107.404331
 40
0.197816
 50
116.866146
 51
162.108534
  0
LINE
  8
0
  6
CONTINUOUS
 62
1
 10
103.365862
 20
107.580796
 11
103.402739
 21
107.608905
  0
LINE
  8
0
  6
CONTINUOUS
 62
1
 10
103.402739
 20
107.608905
 11
103.439111
 21
107.632396
  0
LINE
  8
0
  6
CONTINUOUS
 62
1
 10
103.439111
 20
107.632396
 11
103.456609
 21
107.640794
  0
LINE
  8
0
  6
CONTINUOUS
 62
1
 10
103.456609
 20
107.640794
 11
103.469376
 21
107.644191
  0
LINE
  8
0
  6
CONTINUOUS
 62
1
 10
103.469376
 20
107.644191
 11
103.478095
 21
107.642564
  0
LINE
  8
0
  6
CONTINUOUS
 62
1
 10
103.478095
 20
107.642564
 11
103.482077
 21
107.636759
  0
LINE
  8
0
  6
CONTINUOUS
 62
1
 10
103.286438
 20
107.409230
 11
103.299922
 21
107.433286
  0
LINE
  8
0
  6
CONTINUOUS
 62
1
 10
103.430852
 20
107.550248
 11
103.455695
 21
107.568368
  0
LINE
  8
0
  6
CONTINUOUS
 62
1
 10
103.455695
 20
107.568368
 11
103.477634
 21
107.580289
  0
LINE
  8
0
  6
CONTINUOUS
 62
1
 10
103.477634
 20
107.580289
 11
103.493487
 21
107.584736
  0
LINE
  8
0
  6
CONTINUOUS
 62
1
 10
103.493487
 20
107.584736
 11
103.500209
 21
107.580593
  0
ARC
  8
0
  6
CONTINUOUS
 62
1
 10
103.504114
 20
107.431145
 40
0.139832
 50
121.595963
 51
160.597820
  0
LINE
  8
0
  6
CONTINUOUS
 62
1
 10
103.299922
 20
107.433286
 11
103.372223
 21
107.477596
  0
LINE
  8
0
  6
CONTINUOUS
 62
1
 10
103.308191
 20
107.362315
 11
103.304994
 21
107.375947
  0
LINE
  8
0
  6
CONTINUOUS
 62
1
 10
103.304994
 20
107.375947
 11
103.507134
 21
107.541397
  0
LINE
  8
0
  6
CONTINUOUS
 62
1
 10
102.566269
 20
109.623417
 11
102.561489
 21
109.646109
  0
LINE
  8
0
  6
CONTINUOUS
 62
1
 10
102.561489
 20
109.646109
 11
102.562351
 21
109.669527
  0
LINE
  8
0
  6
CONTINUOUS
 62
1
 10
102.562351
 20
109.669527
 11
102.569274
 21
109.691057
  0
LINE
  8
0
  6
CONTINUOUS
 62
1
 10
102.569274
 20
109.691057
 11
102.582287
 21
109.710935
  0
LINE
  8
0
  6
CONTINUOUS
 62
1
 10
102.582287
 20
109.710935
 11
102.616766
 21
109.739450
  0
LINE
  8
0
  6
CONTINUOUS
 62
1
 10
102.616766
 20
109.739450
 11
102.656227
 21
109.759000
  0
ARC
  8
0
  6
CONTINUOUS
 62
1
 10
102.636775
 20
109.642429
 40
0.073024
 50
195.090497
 51
254.565748
  0
ARC
  8
0
  6
CONTINUOUS
 62
1
 10
102.725592
 20
109.637675
 40
0.139754
 50
83.919639
 51
119.757766
  0
LINE
  8
0
  6
CONTINUOUS
 62
1
 10
102.622275
 20
109.443787
 11
102.607136
 21
109.489897
  0
LINE
  8
0
  6
CONTINUOUS
 62
1
 10
102.791675
 20
109.572521
 11
102.837902
 21
109.593227
  0
LINE
  8
0
  6
CONTINUOUS
 62
1
 10
102.744817
 20
109.576419
 11
102.784443
 21
109.594139
  0
LINE
  8
0
  6
CONTINUOUS
 62
1
 10
102.752048
 20
109.554800
 11
102.744817
 21
109.576419
  0
LINE
  8
0
  6
CONTINUOUS
 62
1
 10
102.607136
 20
109.489897
 11
102.752048
 21
109.554800
  0
LINE
  8
0
  6
CONTINUOUS
 62
1
 10
102.710124
 20
109.199402
 11
102.688899
 21
109.266397
  0
LINE
  8
0
  6
CONTINUOUS
 62
1
 10
102.688899
 20
109.266397
 11
102.910827
 21
109.371456
  0
LINE
  8
0
  6
CONTINUOUS
 62
1
 10
101.490407
 20
112.809446
 11
101.384996
 21
112.811312
  0
ARC
  8
0
  6
CONTINUOUS
 62
1
 10
101.342532
 20
112.820604
 40
0.037338
 50
169.867957
 51
208.010901
  0
LINE
  8
0
  6
CONTINUOUS
 62
1
 10
101.352198
 20
112.676683
 11
101.309568
 21
112.803069
  0
LINE
  8
0
  6
CONTINUOUS
 62
1
 10
101.487944
 20
112.610790
 11
101.438228
 21
112.614205
  0
LINE
  8
0
  6
CONTINUOUS
 62
1
 10
101.438228
 20
112.614205
 11
101.413701
 21
112.618884
  0
LINE
  8
0
  6
CONTINUOUS
 62
1
 10
101.413701
 20
112.618884
 11
101.391452
 21
112.626889
  0
LINE
  8
0
  6
CONTINUOUS
 62
1
 10
101.391452
 20
112.626889
 11
101.375112
 21
112.638274
  0
LINE
  8
0
  6
CONTINUOUS
 62
1
 10
101.375112
 20
112.638274
 11
101.364224
 21
112.650940
  0
LINE
  8
0
  6
CONTINUOUS
 62
1
 10
101.364224
 20
112.650940
 11
101.352198
 21
112.676683
  0
LINE
  8
0
  6
CONTINUOUS
 62
1
 10
101.744739
 20
112.606195
 11
101.487944
 21
112.610790
  0
LINE
  8
0
  6
CONTINUOUS
 62
1
 10
101.847454
 20
112.642440
 11
101.843865
 21
112.629917
  0
LINE
  8
0
  6
CONTINUOUS
 62
1
 10
101.843865
 20
112.629917
 11
101.833616
 21
112.618980
  0
LINE
  8
0
  6
CONTINUOUS
 62
1
 10
101.833616
 20
112.618980
 11
101.815554
 21
112.611672
  0
LINE
  8
0
  6
CONTINUOUS
 62
1
 10
101.815554
 20
112.611672
 11
101.793249
 21
112.607869
  0
LINE
  8
0
  6
CONTINUOUS
 62
1
 10
101.793249
 20
112.607869
 11
101.744739
 21
112.606195
  0
LINE
  8
0
  6
CONTINUOUS
 62
1
 10
101.595819
 20
112.807575
 11
101.598454
 21
112.851730
  0
LINE
  8
0
  6
CONTINUOUS
 62
1
 10
101.718799
 20
112.805399
 11
101.595819
 21
112.807575
  0
LINE
  8
0
  6
CONTINUOUS
 62
1
 10
101.767331
 20
112.662110
 11
101.718799
 21
112.805399
  0
ARC
  8
0
  6
CONTINUOUS
 62
1
 10
102.135574
 20
111.164828
 40
0.068265
 50
149.868949
 51
202.078388
  0
ARC
  8
0
  6
CONTINUOUS
 62
1
 10
102.157075
 20
111.166329
 40
0.089005
 50
197.767291
 51
249.182400
  0
LINE
  8
0
  6
CONTINUOUS
 62
1
 10
102.227988
 20
111.081746
 11
102.177247
 21
111.075643
  0
LINE
  8
0
  6
CONTINUOUS
 62
1
 10
102.177247
 20
111.075643
 11
102.125443
 21
111.083135
  0
ARC
  8
0
  6
CONTINUOUS
 62
1
 10
102.219762
 20
111.211713
 40
0.130227
 50
273.621328
 51
320.494921
  0
LINE
  8
0
  6
CONTINUOUS
 62
1
 10
102.235761
 20
110.951325
 11
102.229166
 21
110.965106
  0
LINE
  8
0
  6
CONTINUOUS
 62
1
 10
102.229166
 20
110.965106
 11
102.219902
 21
110.977438
  0
LINE
  8
0
  6
CONTINUOUS
 62
1
 10
102.219902
 20
110.977438
 11
102.213596
 21
110.982314
  0
LINE
  8
0
  6
CONTINUOUS
 62
1
 10
102.213596
 20
110.982314
 11
102.206790
 21
110.985526
  0
LINE
  8
0
  6
CONTINUOUS
 62
1
 10
102.206790
 20
110.985526
 11
102.199366
 21
110.987052
  0
LINE
  8
0
  6
CONTINUOUS
 62
1
 10
102.199366
 20
110.987052
 11
102.192022
 21
110.986540
  0
LINE
  8
0
  6
CONTINUOUS
 62
1
 10
102.274795
 20
110.960087
 11
102.235760
 21
110.951325
  0
ARC
  8
0
  6
CONTINUOUS
 62
1
 10
102.303215
 20
110.983538
 40
0.041562
 50
16.073022
 51
100.836555
  0
LINE
  8
0
  6
CONTINUOUS
 62
1
 10
102.344478
 20
110.972664
 11
102.345579
 21
110.979983
  0
LINE
  8
0
  6
CONTINUOUS
 62
1
 10
102.345579
 20
110.979983
 11
102.343152
 21
110.995045
  0
LINE
  8
0
  6
CONTINUOUS
 62
1
 10
102.334126
 20
110.902229
 11
102.319323
 21
110.948077
  0
LINE
  8
0
  6
CONTINUOUS
 62
1
 10
102.374521
 20
110.926220
 11
102.362752
 21
110.915604
  0
LINE
  8
0
  6
CONTINUOUS
 62
1
 10
102.362752
 20
110.915604
 11
102.334126
 21
110.902229
  0
ARC
  8
0
  6
CONTINUOUS
 62
1
 10
102.283197
 20
111.016719
 40
0.048656
 50
138.727390
 51
188.887978
  0
ARC
  8
0
  6
CONTINUOUS
 62
1
 10
102.193590
 20
110.972797
 40
0.065015
 50
132.416334
 51
202.290574
  0
LINE
  8
0
  6
CONTINUOUS
 62
1
 10
102.174161
 20
110.897627
 11
102.148845
 21
110.919192
  0
LINE
  8
0
  6
CONTINUOUS
 62
1
 10
102.148845
 20
110.919192
 11
102.133434
 21
110.948136
  0
LINE
  8
0
  6
CONTINUOUS
 62
1
 10
102.223069
 20
110.887751
 11
102.198172
 21
110.888794
  0
LINE
  8
0
  6
CONTINUOUS
 62
1
 10
102.198172
 20
110.888794
 11
102.174161
 21
110.897627
  0
LINE
  8
0
  6
CONTINUOUS
 62
1
 10
102.217050
 20
110.713670
 11
102.194478
 21
110.783729
  0
LINE
  8
0
  6
CONTINUOUS
 62
1
 10
102.268125
 20
110.696813
 11
102.217050
 21
110.713670
  0
LINE
  8
0
  6
CONTINUOUS
 62
1
 10
102.447319
 20
110.795256
 11
102.252005
 21
110.747638
  0
LINE
  8
0
  6
CONTINUOUS
 62
1
 10
101.147806
 20
113.140497
 11
101.147797
 21
113.140503
  0
LINE
  8
0
  6
CONTINUOUS
 62
1
 10
101.147797
 20
113.140503
 11
101.166733
 21
113.137886
  0
LINE
  8
0
  6
CONTINUOUS
 62
1
 10
101.166733
 20
113.137886
 11
101.220600
 21
113.131019
  0
LINE
  8
0
  6
CONTINUOUS
 62
1
 10
101.220600
 20
113.131019
 11
101.301291
 21
113.122299
  0
LINE
  8
0
  6
CONTINUOUS
 62
1
 10
101.301291
 20
113.122299
 11
101.396623
 21
113.114485
  0
LINE
  8
0
  6
CONTINUOUS
 62
1
 10
101.396623
 20
113.114485
 11
101.492134
 21
113.109431
  0
LINE
  8
0
  6
CONTINUOUS
 62
1
 10
101.492134
 20
113.109431
 11
101.573270
 21
113.107380
  0
LINE
  8
0
  6
CONTINUOUS
 62
1
 10
101.573270
 20
113.107380
 11
101.627539
 21
113.107189
  0
LINE
  8
0
  6
CONTINUOUS
 62
1
 10
101.627539
 20
113.107189
 11
101.646690
 21
113.107350
  0
LINE
  8
0
  6
CONTINUOUS
 62
1
 10
103.216701
 20
107.365414
 11
103.213998
 21
107.370159
  0
LINE
  8
0
  6
CONTINUOUS
 62
1
 10
103.213998
 20
107.370159
 11
103.189616
 21
107.368013
  0
LINE
  8
0
  6
CONTINUOUS
 62
1
 10
103.189616
 20
107.368013
 11
103.152126
 21
107.351324
  0
LINE
  8
0
  6
CONTINUOUS
 62
1
 10
103.152126
 20
107.351324
 11
103.107464
 21
107.322034
  0
LINE
  8
0
  6
CONTINUOUS
 62
1
 10
103.107464
 20
107.322034
 11
103.062698
 21
107.284477
  0
LINE
  8
0
  6
CONTINUOUS
 62
1
 10
103.062698
 20
107.284477
 11
103.024552
 21
107.244357
  0
LINE
  8
0
  6
CONTINUOUS
 62
1
 10
103.024552
 20
107.244357
 11
102.998633
 21
107.208160
  0
LINE
  8
0
  6
CONTINUOUS
 62
1
 10
102.998633
 20
107.208160
 11
102.988425
 21
107.181695
  0
LINE
  8
0
  6
CONTINUOUS
 62
1
 10
102.988425
 20
107.181695
 11
102.995458
 21
107.169375
  0
LINE
  8
0
  6
CONTINUOUS
 62
1
 10
101.795953
 20
111.011925
 11
101.794476
 21
111.010578
  0
LINE
  8
0
  6
CONTINUOUS
 62
1
 10
101.794476
 20
111.010578
 11
101.774757
 21
110.962054
  0
LINE
  8
0
  6
CONTINUOUS
 62
1
 10
101.774757
 20
110.962054
 11
101.776377
 21
110.907534
  0
LINE
  8
0
  6
CONTINUOUS
 62
1
 10
101.776377
 20
110.907534
 11
101.799168
 21
110.855135
  0
LINE
  8
0
  6
CONTINUOUS
 62
1
 10
101.799168
 20
110.855135
 11
101.839646
 21
110.812983
  0
LINE
  8
0
  6
CONTINUOUS
 62
1
 10
101.839646
 20
110.812983
 11
101.891719
 21
110.787484
  0
LINE
  8
0
  6
CONTINUOUS
 62
1
 10
101.891719
 20
110.787484
 11
101.947671
 21
110.782865
  0
LINE
  8
0
  6
CONTINUOUS
 62
1
 10
101.947671
 20
110.782865
 11
101.999050
 21
110.799834
  0
LINE
  8
0
  6
CONTINUOUS
 62
1
 10
101.999050
 20
110.799834
 11
102.024658
 21
110.823604
  0
LINE
  8
0
  6
CONTINUOUS
 62
1
 10
102.447283
 20
109.524128
 11
102.411007
 21
109.527966
  0
LINE
  8
0
  6
CONTINUOUS
 62
1
 10
102.411007
 20
109.527966
 11
102.359638
 21
109.510782
  0
LINE
  8
0
  6
CONTINUOUS
 62
1
 10
102.359638
 20
109.510782
 11
102.317409
 21
109.473696
  0
LINE
  8
0
  6
CONTINUOUS
 62
1
 10
102.317409
 20
109.473696
 11
102.290786
 21
109.422144
  0
LINE
  8
0
  6
CONTINUOUS
 62
1
 10
102.290786
 20
109.422144
 11
102.283401
 21
109.364185
  0
LINE
  8
0
  6
CONTINUOUS
 62
1
 10
102.283401
 20
109.364185
 11
102.296332
 21
109.308597
  0
LINE
  8
0
  6
CONTINUOUS
 62
1
 10
102.296332
 20
109.308597
 11
102.327533
 21
109.263971
  0
LINE
  8
0
  6
CONTINUOUS
 62
1
 10
102.327533
 20
109.263971
 11
102.372317
 21
109.236893
  0
LINE
  8
0
  6
CONTINUOUS
 62
1
 10
102.953348
 20
108.152047
 11
102.924155
 21
108.169034
  0
LINE
  8
0
  6
CONTINUOUS
 62
1
 10
102.924155
 20
108.169034
 11
102.878928
 21
108.169970
  0
LINE
  8
0
  6
CONTINUOUS
 62
1
 10
102.878928
 20
108.169970
 11
102.829951
 21
108.151212
  0
LINE
  8
0
  6
CONTINUOUS
 62
1
 10
102.829951
 20
108.151212
 11
102.784802
 21
108.115712
  0
LINE
  8
0
  6
CONTINUOUS
 62
1
 10
102.784802
 20
108.115712
 11
102.750384
 21
108.068737
  0
LINE
  8
0
  6
CONTINUOUS
 62
1
 10
102.750384
 20
108.068737
 11
102.731540
 21
108.017793
  0
LINE
  8
0
  6
CONTINUOUS
 62
1
 10
102.731540
 20
108.017793
 11
102.730952
 21
107.970843
  0
LINE
  8
0
  6
CONTINUOUS
 62
1
 10
102.730952
 20
107.970843
 11
102.748543
 21
107.935241
  0
LINE
  8
0
  6
CONTINUOUS
 62
1
 10
101.483567
 20
112.507418
 11
101.478366
 21
112.526533
  0
LINE
  8
0
  6
CONTINUOUS
 62
1
 10
101.478366
 20
112.526533
 11
101.461684
 21
112.544486
  0
LINE
  8
0
  6
CONTINUOUS
 62
1
 10
101.461684
 20
112.544486
 11
101.449609
 21
112.552044
  0
LINE
  8
0
  6
CONTINUOUS
 62
1
 10
101.449609
 20
112.552044
 11
101.435459
 21
112.558213
  0
LINE
  8
0
  6
CONTINUOUS
 62
1
 10
101.435459
 20
112.558213
 11
101.403366
 21
112.565848
  0
LINE
  8
0
  6
CONTINUOUS
 62
1
 10
101.403366
 20
112.565848
 11
101.370752
 21
112.566522
  0
LINE
  8
0
  6
CONTINUOUS
 62
1
 10
101.370752
 20
112.566522
 11
101.342695
 21
112.559798
  0
LINE
  8
0
  6
CONTINUOUS
 62
1
 10
101.342695
 20
112.559798
 11
101.323044
 21
112.546965
  0
LINE
  8
0
  6
CONTINUOUS
 62
1
 10
101.323044
 20
112.546965
 11
101.317494
 21
112.538794
  0
LINE
  8
0
  6
CONTINUOUS
 62
1
 10
101.317494
 20
112.538794
 11
101.315237
 21
112.529740
  0
LINE
  8
0
  6
CONTINUOUS
 62
1
 10
102.058879
 20
110.885486
 11
102.057416
 21
110.940394
  0
LINE
  8
0
  6
CONTINUOUS
 62
1
 10
102.057416
 20
110.940394
 11
102.034641
 21
110.992834
  0
LINE
  8
0
  6
CONTINUOUS
 62
1
 10
102.034641
 20
110.992834
 11
101.993494
 21
111.034319
  0
LINE
  8
0
  6
CONTINUOUS
 62
1
 10
101.993494
 20
111.034319
 11
101.940665
 21
111.058816
  0
LINE
  8
0
  6
CONTINUOUS
 62
1
 10
101.940665
 20
111.058816
 11
101.884263
 21
111.062989
  0
LINE
  8
0
  6
CONTINUOUS
 62
1
 10
101.884263
 20
111.062989
 11
101.833065
 21
111.046073
  0
LINE
  8
0
  6
CONTINUOUS
 62
1
 10
101.833065
 20
111.046073
 11
101.794654
 21
111.010817
  0
LINE
  8
0
  6
CONTINUOUS
 62
1
 10
101.794654
 20
111.010817
 11
101.774993
 21
110.962209
  0
LINE
  8
0
  6
CONTINUOUS
 62
1
 10
101.774993
 20
110.962209
 11
101.776707
 21
110.907653
  0
LINE
  8
0
  6
CONTINUOUS
 62
1
 10
101.776707
 20
110.907653
 11
101.799616
 21
110.855219
  0
LINE
  8
0
  6
CONTINUOUS
 62
1
 10
101.799616
 20
110.855219
 11
101.840174
 21
110.813126
  0
LINE
  8
0
  6
CONTINUOUS
 62
1
 10
101.840174
 20
110.813126
 11
101.892341
 21
110.787699
  0
LINE
  8
0
  6
CONTINUOUS
 62
1
 10
101.892341
 20
110.787699
 11
101.948318
 21
110.783204
  0
LINE
  8
0
  6
CONTINUOUS
 62
1
 10
101.948318
 20
110.783204
 11
101.999703
 21
110.800353
  0
LINE
  8
0
  6
CONTINUOUS
 62
1
 10
101.999703
 20
110.800353
 11
102.038568
 21
110.836729
  0
LINE
  8
0
  6
CONTINUOUS
 62
1
 10
102.038568
 20
110.836729
 11
102.058879
 21
110.885486
  0
LINE
  8
0
  6
CONTINUOUS
 62
1
 10
102.546433
 20
109.336862
 11
102.554478
 21
109.394488
  0
LINE
  8
0
  6
CONTINUOUS
 62
1
 10
102.554478
 20
109.394488
 11
102.541936
 21
109.450254
  0
LINE
  8
0
  6
CONTINUOUS
 62
1
 10
102.541936
 20
109.450254
 11
102.510050
 21
109.495112
  0
LINE
  8
0
  6
CONTINUOUS
 62
1
 10
102.510050
 20
109.495112
 11
102.464114
 21
109.522322
  0
LINE
  8
0
  6
CONTINUOUS
 62
1
 10
102.464114
 20
109.522322
 11
102.411312
 21
109.527883
  0
LINE
  8
0
  6
CONTINUOUS
 62
1
 10
102.411312
 20
109.527883
 11
102.359939
 21
109.510645
  0
LINE
  8
0
  6
CONTINUOUS
 62
1
 10
102.359939
 20
109.510645
 11
102.317719
 21
109.473482
  0
LINE
  8
0
  6
CONTINUOUS
 62
1
 10
102.317719
 20
109.473482
 11
102.291138
 21
109.421840
  0
LINE
  8
0
  6
CONTINUOUS
 62
1
 10
102.291138
 20
109.421840
 11
102.283837
 21
109.363845
  0
LINE
  8
0
  6
CONTINUOUS
 62
1
 10
102.283837
 20
109.363845
 11
102.296874
 21
109.308222
  0
LINE
  8
0
  6
CONTINUOUS
 62
1
 10
102.296874
 20
109.308222
 11
102.328166
 21
109.263655
  0
LINE
  8
0
  6
CONTINUOUS
 62
1
 10
102.328166
 20
109.263655
 11
102.373050
 21
109.236649
  0
LINE
  8
0
  6
CONTINUOUS
 62
1
 10
102.373050
 20
109.236649
 11
102.424947
 21
109.231505
  0
LINE
  8
0
  6
CONTINUOUS
 62
1
 10
102.424947
 20
109.231505
 11
102.476172
 21
109.248838
  0
LINE
  8
0
  6
CONTINUOUS
 62
1
 10
102.476172
 20
109.248838
 11
102.518945
 21
109.286246
  0
LINE
  8
0
  6
CONTINUOUS
 62
1
 10
102.518945
 20
109.286246
 11
102.546433
 21
109.336862
  0
LINE
  8
0
  6
CONTINUOUS
 62
1
 10
102.217354
 20
110.713938
 11
102.194775
 21
110.784015
  0
LINE
  8
0
  6
CONTINUOUS
 62
1
 10
102.194775
 20
110.784015
 11
102.432577
 21
110.841992
  0
LINE
  8
0
  6
CONTINUOUS
 62
1
 10
102.432577
 20
110.841992
 11
102.447621
 21
110.795531
  0
LINE
  8
0
  6
CONTINUOUS
 62
1
 10
102.447621
 20
110.795531
 11
102.252307
 21
110.747912
  0
LINE
  8
0
  6
CONTINUOUS
 62
1
 10
102.252307
 20
110.747912
 11
102.268432
 21
110.697070
  0
LINE
  8
0
  6
CONTINUOUS
 62
1
 10
102.268432
 20
110.697070
 11
102.217354
 21
110.713938
  0
LINE
  8
0
  6
CONTINUOUS
 62
1
 10
102.217354
 20
110.713938
 11
102.217050
 21
110.713670
  0
LINE
  8
0
  6
CONTINUOUS
 62
1
 10
102.268432
 20
110.697070
 11
102.268125
 21
110.696813
  0
LINE
  8
0
  6
CONTINUOUS
 62
1
 10
102.194775
 20
110.784015
 11
102.194478
 21
110.783729
  0
LINE
  8
0
  6
CONTINUOUS
 62
1
 10
102.566681
 20
109.623352
 11
102.561899
 21
109.646049
  0
LINE
  8
0
  6
CONTINUOUS
 62
1
 10
102.561899
 20
109.646049
 11
102.562759
 21
109.669474
  0
LINE
  8
0
  6
CONTINUOUS
 62
1
 10
102.562759
 20
109.669474
 11
102.569679
 21
109.691003
  0
LINE
  8
0
  6
CONTINUOUS
 62
1
 10
102.569679
 20
109.691003
 11
102.582692
 21
109.710893
  0
LINE
  8
0
  6
CONTINUOUS
 62
1
 10
102.582692
 20
109.710893
 11
102.617169
 21
109.739414
  0
LINE
  8
0
  6
CONTINUOUS
 62
1
 10
102.617169
 20
109.739414
 11
102.656631
 21
109.758958
  0
LINE
  8
0
  6
CONTINUOUS
 62
1
 10
102.656631
 20
109.758958
 11
102.697707
 21
109.772929
  0
LINE
  8
0
  6
CONTINUOUS
 62
1
 10
102.697707
 20
109.772929
 11
102.740256
 21
109.776726
  0
LINE
  8
0
  6
CONTINUOUS
 62
1
 10
102.740256
 20
109.776726
 11
102.762238
 21
109.771517
  0
LINE
  8
0
  6
CONTINUOUS
 62
1
 10
102.762238
 20
109.771517
 11
102.779592
 21
109.760949
  0
LINE
  8
0
  6
CONTINUOUS
 62
1
 10
102.779592
 20
109.760949
 11
102.793560
 21
109.743765
  0
LINE
  8
0
  6
CONTINUOUS
 62
1
 10
102.793560
 20
109.743765
 11
102.802700
 21
109.722981
  0
LINE
  8
0
  6
CONTINUOUS
 62
1
 10
102.802700
 20
109.722981
 11
102.807572
 21
109.700611
  0
LINE
  8
0
  6
CONTINUOUS
 62
1
 10
102.807572
 20
109.700611
 11
102.806897
 21
109.677491
  0
LINE
  8
0
  6
CONTINUOUS
 62
1
 10
102.806897
 20
109.677491
 11
102.799722
 21
109.655496
  0
LINE
  8
0
  6
CONTINUOUS
 62
1
 10
102.799722
 20
109.655496
 11
102.787163
 21
109.636399
  0
LINE
  8
0
  6
CONTINUOUS
 62
1
 10
102.787163
 20
109.636399
 11
102.753066
 21
109.607920
  0
LINE
  8
0
  6
CONTINUOUS
 62
1
 10
102.753066
 20
109.607920
 11
102.714011
 21
109.588608
  0
LINE
  8
0
  6
CONTINUOUS
 62
1
 10
102.714011
 20
109.588608
 11
102.666504
 21
109.573051
  0
LINE
  8
0
  6
CONTINUOUS
 62
1
 10
102.666504
 20
109.573051
 11
102.617759
 21
109.571955
  0
ARC
  8
0
  6
CONTINUOUS
 62
1
 10
102.638323
 20
109.643469
 40
0.074413
 50
195.685316
 51
253.957678
  0
ARC
  8
0
  6
CONTINUOUS
 62
1
 10
102.734897
 20
109.697501
 40
0.029452
 50
17.244676
 51
82.401792
  0
LINE
  8
0
  6
CONTINUOUS
 62
1
 10
102.738792
 20
109.726694
 11
102.705054
 21
109.724066
  0
LINE
  8
0
  6
CONTINUOUS
 62
1
 10
102.705054
 20
109.724066
 11
102.672422
 21
109.712890
  0
LINE
  8
0
  6
CONTINUOUS
 62
1
 10
102.672422
 20
109.712890
 11
102.626773
 21
109.688345
  0
LINE
  8
0
  6
CONTINUOUS
 62
1
 10
102.626773
 20
109.688345
 11
102.616996
 21
109.679374
  0
LINE
  8
0
  6
CONTINUOUS
 62
1
 10
102.616996
 20
109.679374
 11
102.609497
 21
109.668103
  0
LINE
  8
0
  6
CONTINUOUS
 62
1
 10
102.609497
 20
109.668103
 11
102.605569
 21
109.654972
  0
LINE
  8
0
  6
CONTINUOUS
 62
1
 10
102.605569
 20
109.654972
 11
102.605588
 21
109.648082
  0
LINE
  8
0
  6
CONTINUOUS
 62
1
 10
102.605588
 20
109.648082
 11
102.607058
 21
109.641430
  0
LINE
  8
0
  6
CONTINUOUS
 62
1
 10
102.607058
 20
109.641430
 11
102.613675
 21
109.629461
  0
LINE
  8
0
  6
CONTINUOUS
 62
1
 10
102.613675
 20
109.629461
 11
102.618644
 21
109.624860
  0
LINE
  8
0
  6
CONTINUOUS
 62
1
 10
102.618644
 20
109.624860
 11
102.624231
 21
109.621617
  0
LINE
  8
0
  6
CONTINUOUS
 62
1
 10
102.624231
 20
109.621617
 11
102.635436
 21
109.619030
  0
LINE
  8
0
  6
CONTINUOUS
 62
1
 10
102.635436
 20
109.619030
 11
102.649909
 21
109.619591
  0
LINE
  8
0
  6
CONTINUOUS
 62
1
 10
102.649909
 20
109.619591
 11
102.700367
 21
109.635338
  0
LINE
  8
0
  6
CONTINUOUS
 62
1
 10
102.700367
 20
109.635338
 11
102.744857
 21
109.659693
  0
LINE
  8
0
  6
CONTINUOUS
 62
1
 10
102.744857
 20
109.659693
 11
102.754546
 21
109.669223
  0
LINE
  8
0
  6
CONTINUOUS
 62
1
 10
102.754546
 20
109.669223
 11
102.761241
 21
109.680036
  0
LINE
  8
0
  6
CONTINUOUS
 62
1
 10
102.761241
 20
109.680036
 11
102.764681
 21
109.693018
  0
LINE
  8
0
  6
CONTINUOUS
 62
1
 10
102.764681
 20
109.693018
 11
102.763025
 21
109.706232
  0
LINE
  8
0
  6
CONTINUOUS
 62
1
 10
102.566681
 20
109.623352
 11
102.566475
 21
109.623387
  0
LINE
  8
0
  6
CONTINUOUS
 62
1
 10
102.566475
 20
109.623387
 11
102.566269
 21
109.623417
  0
LINE
  8
0
  6
CONTINUOUS
 62
1
 10
102.617759
 20
109.571955
 11
102.617550
 21
109.571996
  0
LINE
  8
0
  6
CONTINUOUS
 62
1
 10
102.617550
 20
109.571996
 11
102.617341
 21
109.572038
  0
LINE
  8
0
  6
CONTINUOUS
 62
1
 10
102.447621
 20
110.795531
 11
102.447319
 21
110.795256
  0
ARC
  8
0
  6
CONTINUOUS
 62
1
 10
102.734491
 20
109.697565
 40
0.029447
 50
17.250305
 51
82.406540
  0
LINE
  8
0
  6
CONTINUOUS
 62
1
 10
102.699951
 20
109.635416
 11
102.744441
 21
109.659764
  0
LINE
  8
0
  6
CONTINUOUS
 62
1
 10
102.744441
 20
109.659764
 11
102.754131
 21
109.669295
  0
LINE
  8
0
  6
CONTINUOUS
 62
1
 10
102.754131
 20
109.669295
 11
102.760827
 21
109.680107
  0
LINE
  8
0
  6
CONTINUOUS
 62
1
 10
102.760827
 20
109.680107
 11
102.764267
 21
109.693089
  0
LINE
  8
0
  6
CONTINUOUS
 62
1
 10
102.764267
 20
109.693089
 11
102.762613
 21
109.706297
  0
LINE
  8
0
  6
CONTINUOUS
 62
1
 10
102.618230
 20
109.624931
 11
102.623817
 21
109.621689
  0
LINE
  8
0
  6
CONTINUOUS
 62
1
 10
102.623817
 20
109.621689
 11
102.635021
 21
109.619108
  0
LINE
  8
0
  6
CONTINUOUS
 62
1
 10
102.635021
 20
109.619108
 11
102.649493
 21
109.619668
  0
LINE
  8
0
  6
CONTINUOUS
 62
1
 10
102.649493
 20
109.619668
 11
102.699951
 21
109.635416
  0
LINE
  8
0
  6
CONTINUOUS
 62
1
 10
102.208900
 20
110.932603
 11
102.223358
 21
110.888067
  0
LINE
  8
0
  6
CONTINUOUS
 62
1
 10
102.223358
 20
110.888067
 11
102.198460
 21
110.889110
  0
LINE
  8
0
  6
CONTINUOUS
 62
1
 10
102.198460
 20
110.889110
 11
102.174448
 21
110.897943
  0
LINE
  8
0
  6
CONTINUOUS
 62
1
 10
102.174447
 20
110.897943
 11
102.149128
 21
110.919520
  0
LINE
  8
0
  6
CONTINUOUS
 62
1
 10
102.149128
 20
110.919520
 11
102.133715
 21
110.948470
  0
ARC
  8
0
  6
CONTINUOUS
 62
1
 10
102.187537
 20
110.974393
 40
0.059739
 50
103.735478
 51
205.716978
  0
ARC
  8
0
  6
CONTINUOUS
 62
1
 10
102.184865
 20
110.968060
 40
0.065385
 50
39.383319
 51
100.141108
  0
ARC
  8
0
  6
CONTINUOUS
 62
1
 10
102.291106
 20
111.014803
 40
0.055951
 50
100.945228
 51
185.389910
  0
ARC
  8
0
  6
CONTINUOUS
 62
1
 10
102.296211
 20
110.977971
 40
0.093103
 50
15.151391
 51
99.725834
  0
ARC
  8
0
  6
CONTINUOUS
 62
1
 10
102.318618
 20
110.973978
 40
0.073165
 50
282.469214
 51
22.778176
  0
LINE
  8
0
  6
CONTINUOUS
 62
1
 10
102.334416
 20
110.902539
 11
102.319607
 21
110.948405
  0
ARC
  8
0
  6
CONTINUOUS
 62
1
 10
102.310237
 20
110.982687
 40
0.035540
 50
285.287268
 51
20.924406
  0
ARC
  8
0
  6
CONTINUOUS
 62
1
 10
102.303763
 20
110.984324
 40
0.041182
 50
15.571960
 51
101.320829
  0
LINE
  8
0
  6
CONTINUOUS
 62
1
 10
102.295678
 20
111.024705
 11
102.286820
 21
111.021319
  0
LINE
  8
0
  6
CONTINUOUS
 62
1
 10
102.286820
 20
111.021319
 11
102.279602
 21
111.015490
  0
LINE
  8
0
  6
CONTINUOUS
 62
1
 10
102.279602
 20
111.015490
 11
102.274456
 21
111.007795
  0
LINE
  8
0
  6
CONTINUOUS
 62
1
 10
102.274456
 20
111.007795
 11
102.271333
 21
110.998967
  0
LINE
  8
0
  6
CONTINUOUS
 62
1
 10
102.271333
 20
110.998967
 11
102.270709
 21
110.979769
  0
LINE
  8
0
  6
CONTINUOUS
 62
1
 10
102.270709
 20
110.979769
 11
102.275078
 21
110.960421
  0
LINE
  8
0
  6
CONTINUOUS
 62
1
 10
102.275078
 20
110.960421
 11
102.236044
 21
110.951653
  0
LINE
  8
0
  6
CONTINUOUS
 62
1
 10
102.236044
 20
110.951653
 11
102.229448
 21
110.965446
  0
LINE
  8
0
  6
CONTINUOUS
 62
1
 10
102.229448
 20
110.965446
 11
102.220182
 21
110.977778
  0
LINE
  8
0
  6
CONTINUOUS
 62
1
 10
102.220182
 20
110.977778
 11
102.213877
 21
110.982659
  0
LINE
  8
0
  6
CONTINUOUS
 62
1
 10
102.213877
 20
110.982659
 11
102.207069
 21
110.985866
  0
LINE
  8
0
  6
CONTINUOUS
 62
1
 10
102.207069
 20
110.985866
 11
102.199645
 21
110.987398
  0
LINE
  8
0
  6
CONTINUOUS
 62
1
 10
102.199645
 20
110.987398
 11
102.195926
 21
110.987404
  0
LINE
  8
0
  6
CONTINUOUS
 62
1
 10
102.195926
 20
110.987404
 11
102.192301
 21
110.986885
  0
ARC
  8
0
  6
CONTINUOUS
 62
1
 10
102.197940
 20
110.965787
 40
0.021838
 50
104.963157
 51
204.293445
  0
ARC
  8
0
  6
CONTINUOUS
 62
1
 10
102.211948
 20
110.968274
 40
0.035801
 50
198.688211
 51
265.116786
  0
LINE
  8
0
  6
CONTINUOUS
 62
1
 10
102.133715
 20
110.948470
 11
102.133434
 21
110.948136
  0
LINE
  8
0
  6
CONTINUOUS
 62
1
 10
102.174447
 20
110.897943
 11
102.174304
 21
110.897788
  0
LINE
  8
0
  6
CONTINUOUS
 62
1
 10
102.174304
 20
110.897788
 11
102.174161
 21
110.897627
  0
LINE
  8
0
  6
CONTINUOUS
 62
1
 10
102.223358
 20
110.888067
 11
102.223069
 21
110.887751
  0
LINE
  8
0
  6
CONTINUOUS
 62
1
 10
102.622704
 20
109.443667
 11
102.607562
 21
109.489790
  0
LINE
  8
0
  6
CONTINUOUS
 62
1
 10
102.607562
 20
109.489790
 11
102.752474
 21
109.554693
  0
LINE
  8
0
  6
CONTINUOUS
 62
1
 10
102.752474
 20
109.554693
 11
102.745240
 21
109.576318
  0
LINE
  8
0
  6
CONTINUOUS
 62
1
 10
102.745240
 20
109.576318
 11
102.784866
 21
109.594038
  0
LINE
  8
0
  6
CONTINUOUS
 62
1
 10
102.784866
 20
109.594038
 11
102.792100
 21
109.572414
  0
LINE
  8
0
  6
CONTINUOUS
 62
1
 10
102.792100
 20
109.572414
 11
102.838327
 21
109.593120
  0
LINE
  8
0
  6
CONTINUOUS
 62
1
 10
102.838327
 20
109.593120
 11
102.853152
 21
109.548005
  0
LINE
  8
0
  6
CONTINUOUS
 62
1
 10
102.853152
 20
109.548005
 11
102.806924
 21
109.527293
  0
LINE
  8
0
  6
CONTINUOUS
 62
1
 10
102.806924
 20
109.527293
 11
102.840445
 21
109.421858
  0
LINE
  8
0
  6
CONTINUOUS
 62
1
 10
102.840445
 20
109.421858
 11
102.800823
 21
109.404138
  0
LINE
  8
0
  6
CONTINUOUS
 62
1
 10
102.800823
 20
109.404138
 11
102.622704
 21
109.443667
  0
LINE
  8
0
  6
CONTINUOUS
 62
1
 10
102.785090
 20
109.454337
 11
102.767296
 21
109.509578
  0
LINE
  8
0
  6
CONTINUOUS
 62
1
 10
102.767296
 20
109.509578
 11
102.691859
 21
109.475771
  0
LINE
  8
0
  6
CONTINUOUS
 62
1
 10
102.691859
 20
109.475771
 11
102.785090
 21
109.454337
  0
LINE
  8
0
  6
CONTINUOUS
 62
1
 10
102.752474
 20
109.554693
 11
102.752048
 21
109.554800
  0
LINE
  8
0
  6
CONTINUOUS
 62
1
 10
102.607562
 20
109.489790
 11
102.607136
 21
109.489897
  0
LINE
  8
0
  6
CONTINUOUS
 62
1
 10
102.622704
 20
109.443667
 11
102.622275
 21
109.443787
  0
LINE
  8
0
  6
CONTINUOUS
 62
1
 10
102.738382
 20
109.726754
 11
102.738587
 21
109.726724
  0
LINE
  8
0
  6
CONTINUOUS
 62
1
 10
102.738587
 20
109.726724
 11
102.738792
 21
109.726694
  0
LINE
  8
0
  6
CONTINUOUS
 62
1
 10
102.192301
 20
110.986885
 11
102.192161
 21
110.986713
  0
LINE
  8
0
  6
CONTINUOUS
 62
1
 10
102.192161
 20
110.986713
 11
102.192022
 21
110.986540
  0
LINE
  8
0
  6
CONTINUOUS
 62
1
 10
102.762613
 20
109.706297
 11
102.762819
 21
109.706262
  0
LINE
  8
0
  6
CONTINUOUS
 62
1
 10
102.762819
 20
109.706262
 11
102.763025
 21
109.706232
  0
LINE
  8
0
  6
CONTINUOUS
 62
1
 10
102.236044
 20
110.951653
 11
102.235761
 21
110.951325
  0
LINE
  8
0
  6
CONTINUOUS
 62
1
 10
102.275078
 20
110.960421
 11
102.274795
 21
110.960087
  0
LINE
  8
0
  6
CONTINUOUS
 62
1
 10
102.072577
 20
111.139563
 11
102.067986
 21
111.161080
  0
LINE
  8
0
  6
CONTINUOUS
 62
1
 10
102.067986
 20
111.161080
 11
102.069416
 21
111.182228
  0
LINE
  8
0
  6
CONTINUOUS
 62
1
 10
102.069416
 20
111.182228
 11
102.077196
 21
111.200461
  0
LINE
  8
0
  6
CONTINUOUS
 62
1
 10
102.077196
 20
111.200461
 11
102.091520
 21
111.216387
  0
LINE
  8
0
  6
CONTINUOUS
 62
1
 10
102.091520
 20
111.216387
 11
102.128702
 21
111.236444
  0
LINE
  8
0
  6
CONTINUOUS
 62
1
 10
102.128702
 20
111.236444
 11
102.170954
 21
111.247554
  0
LINE
  8
0
  6
CONTINUOUS
 62
1
 10
102.170954
 20
111.247554
 11
102.214803
 21
111.253378
  0
LINE
  8
0
  6
CONTINUOUS
 62
1
 10
102.214803
 20
111.253378
 11
102.259959
 21
111.249736
  0
LINE
  8
0
  6
CONTINUOUS
 62
1
 10
102.259959
 20
111.249736
 11
102.283053
 21
111.241397
  0
LINE
  8
0
  6
CONTINUOUS
 62
1
 10
102.283053
 20
111.241397
 11
102.301272
 21
111.228940
  0
LINE
  8
0
  6
CONTINUOUS
 62
1
 10
102.301272
 20
111.228940
 11
102.315683
 21
111.210981
  0
LINE
  8
0
  6
CONTINUOUS
 62
1
 10
102.315683
 20
111.210981
 11
102.324944
 21
111.190483
  0
LINE
  8
0
  6
CONTINUOUS
 62
1
 10
102.324944
 20
111.190483
 11
102.329636
 21
111.169180
  0
LINE
  8
0
  6
CONTINUOUS
 62
1
 10
102.329636
 20
111.169180
 11
102.328446
 21
111.148062
  0
LINE
  8
0
  6
CONTINUOUS
 62
1
 10
102.328446
 20
111.148062
 11
102.320509
 21
111.129245
  0
LINE
  8
0
  6
CONTINUOUS
 62
1
 10
102.320509
 20
111.129245
 11
102.306725
 21
111.113581
  0
LINE
  8
0
  6
CONTINUOUS
 62
1
 10
102.306725
 20
111.113581
 11
102.270053
 21
111.093154
  0
LINE
  8
0
  6
CONTINUOUS
 62
1
 10
102.270053
 20
111.093154
 11
102.228258
 21
111.082116
  0
LINE
  8
0
  6
CONTINUOUS
 62
1
 10
102.228258
 20
111.082116
 11
102.177517
 21
111.076012
  0
LINE
  8
0
  6
CONTINUOUS
 62
1
 10
102.177517
 20
111.076012
 11
102.125711
 21
111.083510
  0
ARC
  8
0
  6
CONTINUOUS
 62
1
 10
102.157411
 20
111.166769
 40
0.089089
 50
197.781452
 51
249.156402
  0
ARC
  8
0
  6
CONTINUOUS
 62
1
 10
102.248330
 20
111.169502
 40
0.036326
 50
20.135756
 51
75.751167
  0
LINE
  8
0
  6
CONTINUOUS
 62
1
 10
102.257271
 20
111.204711
 11
102.221449
 21
111.207947
  0
LINE
  8
0
  6
CONTINUOUS
 62
1
 10
102.221449
 20
111.207947
 11
102.186596
 21
111.203262
  0
LINE
  8
0
  6
CONTINUOUS
 62
1
 10
102.186596
 20
111.203262
 11
102.137673
 21
111.188653
  0
LINE
  8
0
  6
CONTINUOUS
 62
1
 10
102.137673
 20
111.188653
 11
102.127133
 21
111.182114
  0
LINE
  8
0
  6
CONTINUOUS
 62
1
 10
102.127133
 20
111.182114
 11
102.118899
 21
111.173162
  0
LINE
  8
0
  6
CONTINUOUS
 62
1
 10
102.118899
 20
111.173162
 11
102.114435
 21
111.161861
  0
LINE
  8
0
  6
CONTINUOUS
 62
1
 10
102.114435
 20
111.161861
 11
102.114320
 21
111.155578
  0
LINE
  8
0
  6
CONTINUOUS
 62
1
 10
102.114320
 20
111.155578
 11
102.115710
 21
111.149248
  0
LINE
  8
0
  6
CONTINUOUS
 62
1
 10
102.115710
 20
111.149248
 11
102.122471
 21
111.137149
  0
LINE
  8
0
  6
CONTINUOUS
 62
1
 10
102.122471
 20
111.137149
 11
102.127583
 21
111.132124
  0
LINE
  8
0
  6
CONTINUOUS
 62
1
 10
102.127583
 20
111.132124
 11
102.133521
 21
111.128154
  0
LINE
  8
0
  6
CONTINUOUS
 62
1
 10
102.133521
 20
111.128154
 11
102.145386
 21
111.123839
  0
LINE
  8
0
  6
CONTINUOUS
 62
1
 10
102.145386
 20
111.123839
 11
102.160735
 21
111.121854
  0
LINE
  8
0
  6
CONTINUOUS
 62
1
 10
102.160735
 20
111.121854
 11
102.214606
 21
111.127678
  0
LINE
  8
0
  6
CONTINUOUS
 62
1
 10
102.214606
 20
111.127678
 11
102.262288
 21
111.142430
  0
LINE
  8
0
  6
CONTINUOUS
 62
1
 10
102.262288
 20
111.142430
 11
102.272395
 21
111.149153
  0
LINE
  8
0
  6
CONTINUOUS
 62
1
 10
102.272395
 20
111.149153
 11
102.280077
 21
111.158302
  0
LINE
  8
0
  6
CONTINUOUS
 62
1
 10
102.280077
 20
111.158302
 11
102.283937
 21
111.169633
  0
LINE
  8
0
  6
CONTINUOUS
 62
1
 10
102.283937
 20
111.169633
 11
102.282436
 21
111.182007
  0
LINE
  8
0
  6
CONTINUOUS
 62
1
 10
102.072577
 20
111.139563
 11
102.072446
 21
111.139366
  0
LINE
  8
0
  6
CONTINUOUS
 62
1
 10
102.072446
 20
111.139366
 11
102.072315
 21
111.139169
  0
LINE
  8
0
  6
CONTINUOUS
 62
1
 10
102.125711
 20
111.083510
 11
102.125577
 21
111.083320
  0
LINE
  8
0
  6
CONTINUOUS
 62
1
 10
102.125577
 20
111.083320
 11
102.125443
 21
111.083135
  0
LINE
  8
0
  6
CONTINUOUS
 62
1
 10
102.691429
 20
109.475890
 11
102.784655
 21
109.454474
  0
LINE
  8
0
  6
CONTINUOUS
 62
1
 10
102.784655
 20
109.454474
 11
102.785090
 21
109.454337
  0
LINE
  8
0
  6
CONTINUOUS
 62
1
 10
102.784655
 20
109.454474
 11
102.766867
 21
109.509697
  0
LINE
  8
0
  6
CONTINUOUS
 62
1
 10
102.319607
 20
110.948405
 11
102.319323
 21
110.948077
  0
LINE
  8
0
  6
CONTINUOUS
 62
1
 10
102.334416
 20
110.902539
 11
102.334126
 21
110.902229
  0
LINE
  8
0
  6
CONTINUOUS
 62
1
 10
102.295678
 20
111.024705
 11
102.295401
 21
111.024359
  0
LINE
  8
0
  6
CONTINUOUS
 62
1
 10
102.784866
 20
109.594038
 11
102.784443
 21
109.594139
  0
LINE
  8
0
  6
CONTINUOUS
 62
1
 10
102.745240
 20
109.576318
 11
102.744817
 21
109.576419
  0
LINE
  8
0
  6
CONTINUOUS
 62
1
 10
102.343433
 20
110.995379
 11
102.343152
 21
110.995045
  0
LINE
  8
0
  6
CONTINUOUS
 62
1
 10
102.186338
 20
111.202857
 11
102.137414
 21
111.188248
  0
LINE
  8
0
  6
CONTINUOUS
 62
1
 10
102.137414
 20
111.188248
 11
102.126874
 21
111.181715
  0
LINE
  8
0
  6
CONTINUOUS
 62
1
 10
102.257012
 20
111.204305
 11
102.221191
 21
111.207542
  0
LINE
  8
0
  6
CONTINUOUS
 62
1
 10
102.221191
 20
111.207542
 11
102.186338
 21
111.202857
  0
ARC
  8
0
  6
CONTINUOUS
 62
1
 10
102.248106
 20
111.169137
 40
0.036278
 50
20.105605
 51
75.789534
  0
ARC
  8
0
  6
CONTINUOUS
 62
1
 10
102.253963
 20
111.172278
 40
0.029713
 50
307.690434
 51
18.299126
  0
LINE
  8
0
  6
CONTINUOUS
 62
1
 10
102.911274
 20
109.371278
 11
102.910827
 21
109.371456
  0
LINE
  8
0
  6
CONTINUOUS
 62
1
 10
102.689347
 20
109.266224
 11
102.911274
 21
109.371278
  0
LINE
  8
0
  6
CONTINUOUS
 62
1
 10
102.689347
 20
109.266224
 11
102.688899
 21
109.266397
  0
LINE
  8
0
  6
CONTINUOUS
 62
1
 10
102.710578
 20
109.199211
 11
102.710124
 21
109.199402
  0
LINE
  8
0
  6
CONTINUOUS
 62
1
 10
102.710578
 20
109.199211
 11
102.689347
 21
109.266224
  0
LINE
  8
0
  6
CONTINUOUS
 62
1
 10
102.911274
 20
109.371278
 11
102.925445
 21
109.326777
  0
LINE
  8
0
  6
CONTINUOUS
 62
1
 10
102.925445
 20
109.326777
 11
102.743142
 21
109.240445
  0
LINE
  8
0
  6
CONTINUOUS
 62
1
 10
102.743142
 20
109.240445
 11
102.758214
 21
109.192041
  0
LINE
  8
0
  6
CONTINUOUS
 62
1
 10
102.758214
 20
109.192041
 11
102.710578
 21
109.199211
  0
LINE
  8
0
  6
CONTINUOUS
 62
1
 10
102.838327
 20
109.593120
 11
102.837902
 21
109.593227
  0
LINE
  8
0
  6
CONTINUOUS
 62
1
 10
102.186338
 20
111.202857
 11
102.186467
 21
111.203059
  0
LINE
  8
0
  6
CONTINUOUS
 62
1
 10
102.186467
 20
111.203059
 11
102.186596
 21
111.203262
  0
LINE
  8
0
  6
CONTINUOUS
 62
1
 10
102.178024
 20
112.454680
 11
102.242293
 21
112.256882
  0
LINE
  8
0
  6
CONTINUOUS
 62
1
 10
102.242293
 20
112.256882
 11
102.314362
 21
112.035075
  0
LINE
  8
0
  6
CONTINUOUS
 62
1
 10
102.314362
 20
112.035075
 11
102.393313
 21
111.792090
  0
LINE
  8
0
  6
CONTINUOUS
 62
1
 10
102.393313
 20
111.792090
 11
102.478138
 21
111.531028
  0
LINE
  8
0
  6
CONTINUOUS
 62
1
 10
102.478138
 20
111.531028
 11
102.567754
 21
111.255214
  0
LINE
  8
0
  6
CONTINUOUS
 62
1
 10
102.567754
 20
111.255214
 11
102.661019
 21
110.968175
  0
LINE
  8
0
  6
CONTINUOUS
 62
1
 10
102.661019
 20
110.968175
 11
102.756742
 21
110.673568
  0
LINE
  8
0
  6
CONTINUOUS
 62
1
 10
102.756742
 20
110.673568
 11
102.853702
 21
110.375157
  0
LINE
  8
0
  6
CONTINUOUS
 62
1
 10
102.853702
 20
110.375157
 11
102.950662
 21
110.076746
  0
LINE
  8
0
  6
CONTINUOUS
 62
1
 10
102.950662
 20
110.076746
 11
103.046385
 21
109.782138
  0
LINE
  8
0
  6
CONTINUOUS
 62
1
 10
103.046385
 20
109.782138
 11
103.139649
 21
109.495100
  0
LINE
  8
0
  6
CONTINUOUS
 62
1
 10
103.139649
 20
109.495100
 11
103.229266
 21
109.219292
  0
LINE
  8
0
  6
CONTINUOUS
 62
1
 10
103.229266
 20
109.219292
 11
103.314090
 21
108.958229
  0
LINE
  8
0
  6
CONTINUOUS
 62
1
 10
103.314090
 20
108.958229
 11
103.393041
 21
108.715239
  0
LINE
  8
0
  6
CONTINUOUS
 62
1
 10
103.393041
 20
108.715239
 11
103.465111
 21
108.493432
  0
LINE
  8
0
  6
CONTINUOUS
 62
1
 10
103.465111
 20
108.493432
 11
103.529380
 21
108.295634
  0
LINE
  8
0
  6
CONTINUOUS
 62
1
 10
102.282174
 20
111.181608
 11
102.282305
 21
111.181810
  0
LINE
  8
0
  6
CONTINUOUS
 62
1
 10
102.282305
 20
111.181810
 11
102.282436
 21
111.182007
  0
LINE
  8
0
  6
CONTINUOUS
 62
1
 10
102.257012
 20
111.204305
 11
102.257271
 21
111.204711
  0
LINE
  8
0
  6
CONTINUOUS
 62
1
 10
102.955380
 20
108.016613
 11
102.975378
 21
108.066180
  0
LINE
  8
0
  6
CONTINUOUS
 62
1
 10
102.975378
 20
108.066180
 11
102.976948
 21
108.112654
  0
LINE
  8
0
  6
CONTINUOUS
 62
1
 10
102.976948
 20
108.112654
 11
102.959007
 21
108.148584
  0
LINE
  8
0
  6
CONTINUOUS
 62
1
 10
102.959007
 20
108.148584
 11
102.924650
 21
108.168563
  0
LINE
  8
0
  6
CONTINUOUS
 62
1
 10
102.924650
 20
108.168563
 11
102.879377
 21
108.169469
  0
LINE
  8
0
  6
CONTINUOUS
 62
1
 10
102.879377
 20
108.169469
 11
102.830384
 21
108.150670
  0
LINE
  8
0
  6
CONTINUOUS
 62
1
 10
102.830384
 20
108.150670
 11
102.785229
 21
108.115104
  0
LINE
  8
0
  6
CONTINUOUS
 62
1
 10
102.785229
 20
108.115104
 11
102.750829
 21
108.068058
  0
LINE
  8
0
  6
CONTINUOUS
 62
1
 10
102.750829
 20
108.068058
 11
102.732053
 21
108.017096
  0
LINE
  8
0
  6
CONTINUOUS
 62
1
 10
102.732053
 20
108.017096
 11
102.731552
 21
107.970115
  0
LINE
  8
0
  6
CONTINUOUS
 62
1
 10
102.731552
 20
107.970115
 11
102.749238
 21
107.934573
  0
LINE
  8
0
  6
CONTINUOUS
 62
1
 10
102.749238
 20
107.934573
 11
102.782403
 21
107.915625
  0
LINE
  8
0
  6
CONTINUOUS
 62
1
 10
102.782403
 20
107.915625
 11
102.826322
 21
107.916138
  0
LINE
  8
0
  6
CONTINUOUS
 62
1
 10
102.826322
 20
107.916138
 11
102.874603
 21
107.935676
  0
LINE
  8
0
  6
CONTINUOUS
 62
1
 10
102.874603
 20
107.935676
 11
102.920096
 21
107.971302
  0
LINE
  8
0
  6
CONTINUOUS
 62
1
 10
102.920096
 20
107.971302
 11
102.955380
 21
108.016613
  0
LINE
  8
0
  6
CONTINUOUS
 62
1
 10
102.997077
 20
108.290097
 11
102.996805
 21
108.290335
  0
LINE
  8
0
  6
CONTINUOUS
 62
1
 10
102.996805
 20
108.290335
 11
102.996533
 21
108.290568
  0
LINE
  8
0
  6
CONTINUOUS
 62
1
 10
102.997077
 20
108.290097
 11
102.993621
 21
108.308211
  0
LINE
  8
0
  6
CONTINUOUS
 62
1
 10
102.993621
 20
108.308211
 11
102.995420
 21
108.328506
  0
LINE
  8
0
  6
CONTINUOUS
 62
1
 10
102.995420
 20
108.328506
 11
103.002665
 21
108.348688
  0
LINE
  8
0
  6
CONTINUOUS
 62
1
 10
103.002665
 20
108.348688
 11
103.015597
 21
108.369288
  0
LINE
  8
0
  6
CONTINUOUS
 62
1
 10
103.015597
 20
108.369288
 11
103.048684
 21
108.402827
  0
LINE
  8
0
  6
CONTINUOUS
 62
1
 10
103.048684
 20
108.402827
 11
103.086070
 21
108.429864
  0
LINE
  8
0
  6
CONTINUOUS
 62
1
 10
103.086070
 20
108.429864
 11
103.124753
 21
108.452454
  0
LINE
  8
0
  6
CONTINUOUS
 62
1
 10
103.124753
 20
108.452454
 11
103.164395
 21
108.466670
  0
LINE
  8
0
  6
CONTINUOUS
 62
1
 10
103.164395
 20
108.466670
 11
103.183524
 21
108.467939
  0
LINE
  8
0
  6
CONTINUOUS
 62
1
 10
103.183524
 20
108.467939
 11
103.200244
 21
108.463213
  0
LINE
  8
0
  6
CONTINUOUS
 62
1
 10
103.200244
 20
108.463213
 11
103.212506
 21
108.452138
  0
LINE
  8
0
  6
CONTINUOUS
 62
1
 10
103.212506
 20
108.452138
 11
103.220071
 21
108.436766
  0
LINE
  8
0
  6
CONTINUOUS
 62
1
 10
103.220071
 20
108.436766
 11
103.223561
 21
108.419010
  0
LINE
  8
0
  6
CONTINUOUS
 62
1
 10
103.223561
 20
108.419010
 11
103.221904
 21
108.399263
  0
LINE
  8
0
  6
CONTINUOUS
 62
1
 10
103.221904
 20
108.399263
 11
103.214636
 21
108.379564
  0
LINE
  8
0
  6
CONTINUOUS
 62
1
 10
103.214636
 20
108.379564
 11
103.201723
 21
108.359393
  0
LINE
  8
0
  6
CONTINUOUS
 62
1
 10
103.201723
 20
108.359393
 11
103.168806
 21
108.326402
  0
LINE
  8
0
  6
CONTINUOUS
 62
1
 10
103.168806
 20
108.326402
 11
103.131758
 21
108.299759
  0
LINE
  8
0
  6
CONTINUOUS
 62
1
 10
103.131758
 20
108.299759
 11
103.087087
 21
108.273980
  0
LINE
  8
0
  6
CONTINUOUS
 62
1
 10
103.087087
 20
108.273980
 11
103.041955
 21
108.260027
  0
ARC
  8
0
  6
CONTINUOUS
 62
1
 10
103.037580
 20
108.302021
 40
0.042222
 50
196.404672
 51
275.946050
  0
ARC
  8
0
  6
CONTINUOUS
 62
1
 10
103.165600
 20
108.405718
 40
0.018145
 50
20.738302
 51
104.670622
  0
LINE
  8
0
  6
CONTINUOUS
 62
1
 10
103.161004
 20
108.423272
 11
103.129581
 21
108.412221
  0
LINE
  8
0
  6
CONTINUOUS
 62
1
 10
103.129581
 20
108.412221
 11
103.098829
 21
108.394119
  0
LINE
  8
0
  6
CONTINUOUS
 62
1
 10
103.098829
 20
108.394119
 11
103.055515
 21
108.361235
  0
LINE
  8
0
  6
CONTINUOUS
 62
1
 10
103.055515
 20
108.361235
 11
103.046072
 21
108.351025
  0
LINE
  8
0
  6
CONTINUOUS
 62
1
 10
103.046072
 20
108.351025
 11
103.038604
 21
108.339462
  0
LINE
  8
0
  6
CONTINUOUS
 62
1
 10
103.038604
 20
108.339462
 11
103.034408
 21
108.327213
  0
LINE
  8
0
  6
CONTINUOUS
 62
1
 10
103.034408
 20
108.327213
 11
103.034154
 21
108.321360
  0
LINE
  8
0
  6
CONTINUOUS
 62
1
 10
103.034154
 20
108.321360
 11
103.035205
 21
108.316067
  0
LINE
  8
0
  6
CONTINUOUS
 62
1
 10
103.035205
 20
108.316067
 11
103.040791
 21
108.307591
  0
LINE
  8
0
  6
CONTINUOUS
 62
1
 10
103.040791
 20
108.307591
 11
103.045150
 21
108.305064
  0
LINE
  8
0
  6
CONTINUOUS
 62
1
 10
103.045150
 20
108.305064
 11
103.050240
 21
108.303741
  0
LINE
  8
0
  6
CONTINUOUS
 62
1
 10
103.050240
 20
108.303741
 11
103.061561
 21
108.304760
  0
LINE
  8
0
  6
CONTINUOUS
 62
1
 10
103.061561
 20
108.304760
 11
103.073934
 21
108.308777
  0
LINE
  8
0
  6
CONTINUOUS
 62
1
 10
103.073934
 20
108.308777
 11
103.121378
 21
108.335486
  0
LINE
  8
0
  6
CONTINUOUS
 62
1
 10
103.121378
 20
108.335486
 11
103.163684
 21
108.367857
  0
LINE
  8
0
  6
CONTINUOUS
 62
1
 10
103.163684
 20
108.367857
 11
103.172770
 21
108.377996
  0
LINE
  8
0
  6
CONTINUOUS
 62
1
 10
103.172770
 20
108.377996
 11
103.179784
 21
108.389410
  0
LINE
  8
0
  6
CONTINUOUS
 62
1
 10
103.179784
 20
108.389410
 11
103.183507
 21
108.401331
  0
LINE
  8
0
  6
CONTINUOUS
 62
1
 10
103.183507
 20
108.401331
 11
103.182569
 21
108.412144
  0
LINE
  8
0
  6
CONTINUOUS
 62
1
 10
103.120832
 20
108.335969
 11
103.163138
 21
108.368340
  0
LINE
  8
0
  6
CONTINUOUS
 62
1
 10
103.163138
 20
108.368340
 11
103.172224
 21
108.378473
  0
LINE
  8
0
  6
CONTINUOUS
 62
1
 10
103.172224
 20
108.378473
 11
103.179239
 21
108.389887
  0
LINE
  8
0
  6
CONTINUOUS
 62
1
 10
103.179239
 20
108.389887
 11
103.182963
 21
108.401802
  0
LINE
  8
0
  6
CONTINUOUS
 62
1
 10
103.182963
 20
108.401802
 11
103.182026
 21
108.412614
  0
LINE
  8
0
  6
CONTINUOUS
 62
1
 10
103.034661
 20
108.316538
 11
103.040246
 21
108.308062
  0
LINE
  8
0
  6
CONTINUOUS
 62
1
 10
103.040246
 20
108.308062
 11
103.044605
 21
108.305541
  0
LINE
  8
0
  6
CONTINUOUS
 62
1
 10
103.044605
 20
108.305541
 11
103.049695
 21
108.304217
  0
LINE
  8
0
  6
CONTINUOUS
 62
1
 10
103.049695
 20
108.304217
 11
103.061015
 21
108.305237
  0
LINE
  8
0
  6
CONTINUOUS
 62
1
 10
103.061015
 20
108.305237
 11
103.073388
 21
108.309254
  0
LINE
  8
0
  6
CONTINUOUS
 62
1
 10
103.073388
 20
108.309254
 11
103.120832
 21
108.335969
  0
LINE
  8
0
  6
CONTINUOUS
 62
1
 10
103.182026
 20
108.412614
 11
103.182297
 21
108.412382
  0
LINE
  8
0
  6
CONTINUOUS
 62
1
 10
103.182297
 20
108.412382
 11
103.182569
 21
108.412144
  0
LINE
  8
0
  6
CONTINUOUS
 62
1
 10
103.059656
 20
108.120373
 11
103.031163
 21
108.201614
  0
LINE
  8
0
  6
CONTINUOUS
 62
1
 10
103.031163
 20
108.201614
 11
103.067870
 21
108.226904
  0
LINE
  8
0
  6
CONTINUOUS
 62
1
 10
103.067870
 20
108.226904
 11
103.088000
 21
108.170006
  0
LINE
  8
0
  6
CONTINUOUS
 62
1
 10
103.088000
 20
108.170006
 11
103.128562
 21
108.189252
  0
LINE
  8
0
  6
CONTINUOUS
 62
1
 10
103.128562
 20
108.189252
 11
103.122752
 21
108.199027
  0
ARC
  8
0
  6
CONTINUOUS
 62
1
 10
103.219477
 20
108.215764
 40
0.098163
 50
118.690167
 51
189.816967
  0
LINE
  8
0
  6
CONTINUOUS
 62
1
 10
103.172352
 20
108.301875
 11
103.201675
 21
108.316776
  0
LINE
  8
0
  6
CONTINUOUS
 62
1
 10
103.201675
 20
108.316776
 11
103.216077
 21
108.319893
  0
LINE
  8
0
  6
CONTINUOUS
 62
1
 10
103.216077
 20
108.319893
 11
103.229928
 21
108.319971
  0
LINE
  8
0
  6
CONTINUOUS
 62
1
 10
103.229928
 20
108.319971
 11
103.252819
 21
108.311549
  0
LINE
  8
0
  6
CONTINUOUS
 62
1
 10
103.252819
 20
108.311549
 11
103.266139
 21
108.292213
  0
ARC
  8
0
  6
CONTINUOUS
 62
1
 10
103.171325
 20
108.272780
 40
0.096785
 50
306.448316
 51
11.582994
  0
LINE
  8
0
  6
CONTINUOUS
 62
1
 10
103.228825
 20
108.194926
 11
103.217445
 21
108.228925
  0
ARC
  8
0
  6
CONTINUOUS
 62
1
 10
103.186990
 20
108.258955
 40
0.042771
 50
315.402734
 51
11.411948
  0
LINE
  8
0
  6
CONTINUOUS
 62
1
 10
103.228914
 20
108.267417
 11
103.222685
 21
108.276108
  0
LINE
  8
0
  6
CONTINUOUS
 62
1
 10
103.222685
 20
108.276108
 11
103.218001
 21
108.278474
  0
LINE
  8
0
  6
CONTINUOUS
 62
1
 10
103.218001
 20
108.278474
 11
103.212050
 21
108.279559
  0
LINE
  8
0
  6
CONTINUOUS
 62
1
 10
103.212050
 20
108.279559
 11
103.205829
 21
108.279231
  0
LINE
  8
0
  6
CONTINUOUS
 62
1
 10
103.205829
 20
108.279231
 11
103.199008
 21
108.277443
  0
LINE
  8
0
  6
CONTINUOUS
 62
1
 10
103.199008
 20
108.277443
 11
103.185610
 21
108.270302
  0
ARC
  8
0
  6
CONTINUOUS
 62
1
 10
103.204807
 20
108.230317
 40
0.044355
 50
115.646396
 51
189.433160
  0
LINE
  8
0
  6
CONTINUOUS
 62
1
 10
103.161052
 20
108.223048
 11
103.164127
 21
108.217779
  0
LINE
  8
0
  6
CONTINUOUS
 62
1
 10
103.164127
 20
108.217779
 11
103.168865
 21
108.214179
  0
LINE
  8
0
  6
CONTINUOUS
 62
1
 10
103.168865
 20
108.214179
 11
103.181256
 21
108.211210
  0
LINE
  8
0
  6
CONTINUOUS
 62
1
 10
103.181256
 20
108.211210
 11
103.182929
 21
108.179769
  0
LINE
  8
0
  6
CONTINUOUS
 62
1
 10
103.182929
 20
108.179769
 11
103.059656
 21
108.120373
  0
LINE
  8
0
  6
CONTINUOUS
 62
1
 10
103.067870
 20
108.226904
 11
103.067317
 21
108.227399
  0
LINE
  8
0
  6
CONTINUOUS
 62
1
 10
103.031163
 20
108.201614
 11
103.030610
 21
108.202109
  0
LINE
  8
0
  6
CONTINUOUS
 62
1
 10
103.059656
 20
108.120373
 11
103.059095
 21
108.120897
  0
LINE
  8
0
  6
CONTINUOUS
 62
1
 10
103.172352
 20
108.301875
 11
103.172076
 21
108.302119
  0
LINE
  8
0
  6
CONTINUOUS
 62
1
 10
103.172076
 20
108.302119
 11
103.171800
 21
108.302370
  0
LINE
  8
0
  6
CONTINUOUS
 62
1
 10
103.122752
 20
108.199027
 11
103.122194
 21
108.199546
  0
LINE
  8
0
  6
CONTINUOUS
 62
1
 10
103.128562
 20
108.189252
 11
103.128003
 21
108.189771
  0
LINE
  8
0
  6
CONTINUOUS
 62
1
 10
103.228914
 20
108.267417
 11
103.228635
 21
108.267674
  0
LINE
  8
0
  6
CONTINUOUS
 62
1
 10
103.228635
 20
108.267674
 11
103.228356
 21
108.267936
  0
LINE
  8
0
  6
CONTINUOUS
 62
1
 10
103.181256
 20
108.211210
 11
103.180976
 21
108.211473
  0
LINE
  8
0
  6
CONTINUOUS
 62
1
 10
103.180976
 20
108.211473
 11
103.180696
 21
108.211735
  0
LINE
  8
0
  6
CONTINUOUS
 62
1
 10
103.217445
 20
108.228925
 11
103.216884
 21
108.229449
  0
LINE
  8
0
  6
CONTINUOUS
 62
1
 10
103.228825
 20
108.194926
 11
103.228542
 21
108.195195
  0
LINE
  8
0
  6
CONTINUOUS
 62
1
 10
103.228542
 20
108.195195
 11
103.228260
 21
108.195463
  0
LINE
  8
0
  6
CONTINUOUS
 62
1
 10
103.103651
 20
107.989773
 11
103.089320
 21
108.036420
  0
LINE
  8
0
  6
CONTINUOUS
 62
1
 10
103.089320
 20
108.036420
 11
103.298823
 21
108.180538
  0
LINE
  8
0
  6
CONTINUOUS
 62
1
 10
103.298823
 20
108.180538
 11
103.308428
 21
108.149508
  0
LINE
  8
0
  6
CONTINUOUS
 62
1
 10
103.308428
 20
108.149508
 11
103.136394
 21
108.031127
  0
LINE
  8
0
  6
CONTINUOUS
 62
1
 10
103.136394
 20
108.031127
 11
103.146398
 21
107.997760
  0
LINE
  8
0
  6
CONTINUOUS
 62
1
 10
103.146398
 20
107.997760
 11
103.103651
 21
107.989773
  0
LINE
  8
0
  6
CONTINUOUS
 62
1
 10
103.298823
 20
108.180538
 11
103.298253
 21
108.181086
  0
LINE
  8
0
  6
CONTINUOUS
 62
1
 10
103.089320
 20
108.036420
 11
103.088751
 21
108.036968
  0
LINE
  8
0
  6
CONTINUOUS
 62
1
 10
103.103651
 20
107.989773
 11
103.103077
 21
107.990333
  0
LINE
  8
0
  6
CONTINUOUS
 62
1
 10
101.483694
 20
112.508228
 11
101.478491
 21
112.527350
  0
LINE
  8
0
  6
CONTINUOUS
 62
1
 10
101.478491
 20
112.527350
 11
101.461807
 21
112.545302
  0
LINE
  8
0
  6
CONTINUOUS
 62
1
 10
101.461807
 20
112.545302
 11
101.449730
 21
112.552872
  0
LINE
  8
0
  6
CONTINUOUS
 62
1
 10
101.449730
 20
112.552872
 11
101.435581
 21
112.559041
  0
LINE
  8
0
  6
CONTINUOUS
 62
1
 10
101.435581
 20
112.559041
 11
101.403487
 21
112.566677
  0
LINE
  8
0
  6
CONTINUOUS
 62
1
 10
101.403487
 20
112.566677
 11
101.370873
 21
112.567350
  0
LINE
  8
0
  6
CONTINUOUS
 62
1
 10
101.370873
 20
112.567350
 11
101.342817
 21
112.560621
  0
LINE
  8
0
  6
CONTINUOUS
 62
1
 10
101.342817
 20
112.560621
 11
101.323168
 21
112.547788
  0
LINE
  8
0
  6
CONTINUOUS
 62
1
 10
101.323168
 20
112.547788
 11
101.317617
 21
112.539610
  0
LINE
  8
0
  6
CONTINUOUS
 62
1
 10
101.317617
 20
112.539610
 11
101.315362
 21
112.530556
  0
LINE
  8
0
  6
CONTINUOUS
 62
1
 10
101.315362
 20
112.530556
 11
101.320447
 21
112.511298
  0
LINE
  8
0
  6
CONTINUOUS
 62
1
 10
101.320447
 20
112.511298
 11
101.337274
 21
112.493077
  0
LINE
  8
0
  6
CONTINUOUS
 62
1
 10
101.337274
 20
112.493077
 11
101.363914
 21
112.478843
  0
LINE
  8
0
  6
CONTINUOUS
 62
1
 10
101.363914
 20
112.478843
 11
101.395908
 21
112.470683
  0
LINE
  8
0
  6
CONTINUOUS
 62
1
 10
101.395908
 20
112.470683
 11
101.412299
 21
112.469467
  0
LINE
  8
0
  6
CONTINUOUS
 62
1
 10
101.412299
 20
112.469467
 11
101.428252
 21
112.470350
  0
LINE
  8
0
  6
CONTINUOUS
 62
1
 10
101.428252
 20
112.470350
 11
101.456363
 21
112.477711
  0
LINE
  8
0
  6
CONTINUOUS
 62
1
 10
101.456363
 20
112.477711
 11
101.476026
 21
112.490967
  0
LINE
  8
0
  6
CONTINUOUS
 62
1
 10
101.476026
 20
112.490967
 11
101.481488
 21
112.499216
  0
LINE
  8
0
  6
CONTINUOUS
 62
1
 10
101.481488
 20
112.499216
 11
101.483694
 21
112.508228
  0
LINE
  8
0
  6
CONTINUOUS
 62
1
 10
101.438650
 20
112.514320
 11
101.436453
 21
112.523267
  0
LINE
  8
0
  6
CONTINUOUS
 62
1
 10
101.436453
 20
112.523267
 11
101.428626
 21
112.531593
  0
LINE
  8
0
  6
CONTINUOUS
 62
1
 10
101.428626
 20
112.531593
 11
101.416354
 21
112.538060
  0
LINE
  8
0
  6
CONTINUOUS
 62
1
 10
101.416354
 20
112.538060
 11
101.401517
 21
112.541720
  0
LINE
  8
0
  6
CONTINUOUS
 62
1
 10
101.401517
 20
112.541720
 11
101.386373
 21
112.542024
  0
LINE
  8
0
  6
CONTINUOUS
 62
1
 10
101.386373
 20
112.542024
 11
101.373228
 21
112.538943
  0
LINE
  8
0
  6
CONTINUOUS
 62
1
 10
101.373228
 20
112.538943
 11
101.364088
 21
112.532917
  0
LINE
  8
0
  6
CONTINUOUS
 62
1
 10
101.364088
 20
112.532917
 11
101.360330
 21
112.524840
  0
LINE
  8
0
  6
CONTINUOUS
 62
1
 10
101.360330
 20
112.524840
 11
101.362528
 21
112.515911
  0
LINE
  8
0
  6
CONTINUOUS
 62
1
 10
101.362528
 20
112.515911
 11
101.370341
 21
112.507489
  0
LINE
  8
0
  6
CONTINUOUS
 62
1
 10
101.370341
 20
112.507489
 11
101.382590
 21
112.500873
  0
LINE
  8
0
  6
CONTINUOUS
 62
1
 10
101.382590
 20
112.500873
 11
101.397411
 21
112.497106
  0
LINE
  8
0
  6
CONTINUOUS
 62
1
 10
101.397411
 20
112.497106
 11
101.412553
 21
112.496784
  0
LINE
  8
0
  6
CONTINUOUS
 62
1
 10
101.412553
 20
112.496784
 11
101.425710
 21
112.499961
  0
LINE
  8
0
  6
CONTINUOUS
 62
1
 10
101.425710
 20
112.499961
 11
101.434877
 21
112.506130
  0
LINE
  8
0
  6
CONTINUOUS
 62
1
 10
101.434877
 20
112.506130
 11
101.438650
 21
112.514320
  0
LINE
  8
0
  6
CONTINUOUS
 62
1
 10
101.438523
 20
112.513509
 11
101.436327
 21
112.522450
  0
LINE
  8
0
  6
CONTINUOUS
 62
1
 10
101.436327
 20
112.522450
 11
101.428499
 21
112.530777
  0
LINE
  8
0
  6
CONTINUOUS
 62
1
 10
101.428499
 20
112.530777
 11
101.416225
 21
112.537244
  0
LINE
  8
0
  6
CONTINUOUS
 62
1
 10
101.416225
 20
112.537244
 11
101.401388
 21
112.540898
  0
LINE
  8
0
  6
CONTINUOUS
 62
1
 10
101.401388
 20
112.540898
 11
101.386247
 21
112.541202
  0
LINE
  8
0
  6
CONTINUOUS
 62
1
 10
101.386247
 20
112.541202
 11
101.373103
 21
112.538126
  0
LINE
  8
0
  6
CONTINUOUS
 62
1
 10
101.373103
 20
112.538126
 11
101.363963
 21
112.532100
  0
LINE
  8
0
  6
CONTINUOUS
 62
1
 10
101.363963
 20
112.532100
 11
101.360204
 21
112.524018
  0
LINE
  8
0
  6
CONTINUOUS
 62
1
 10
101.360204
 20
112.524018
 11
101.362404
 21
112.515089
  0
LINE
  8
0
  6
CONTINUOUS
 62
1
 10
101.362404
 20
112.515089
 11
101.370221
 21
112.506673
  0
LINE
  8
0
  6
CONTINUOUS
 62
1
 10
101.370221
 20
112.506673
 11
101.382471
 21
112.500063
  0
LINE
  8
0
  6
CONTINUOUS
 62
1
 10
101.382471
 20
112.500063
 11
101.397292
 21
112.496296
  0
LINE
  8
0
  6
CONTINUOUS
 62
1
 10
101.397292
 20
112.496296
 11
101.412431
 21
112.495980
  0
LINE
  8
0
  6
CONTINUOUS
 62
1
 10
101.412431
 20
112.495980
 11
101.425587
 21
112.499151
  0
LINE
  8
0
  6
CONTINUOUS
 62
1
 10
101.425587
 20
112.499151
 11
101.434752
 21
112.505320
  0
LINE
  8
0
  6
CONTINUOUS
 62
1
 10
101.434752
 20
112.505320
 11
101.438523
 21
112.513509
  0
LINE
  8
0
  6
CONTINUOUS
 62
1
 10
101.488060
 20
112.611631
 11
101.438345
 21
112.615046
  0
LINE
  8
0
  6
CONTINUOUS
 62
1
 10
101.438345
 20
112.615046
 11
101.413818
 21
112.619731
  0
LINE
  8
0
  6
CONTINUOUS
 62
1
 10
101.413818
 20
112.619731
 11
101.391568
 21
112.627736
  0
LINE
  8
0
  6
CONTINUOUS
 62
1
 10
101.391568
 20
112.627736
 11
101.375226
 21
112.639126
  0
LINE
  8
0
  6
CONTINUOUS
 62
1
 10
101.375226
 20
112.639126
 11
101.364337
 21
112.651798
  0
LINE
  8
0
  6
CONTINUOUS
 62
1
 10
101.364337
 20
112.651798
 11
101.352309
 21
112.677547
  0
LINE
  8
0
  6
CONTINUOUS
 62
1
 10
101.385094
 20
112.812218
 11
101.433620
 21
112.668696
  0
LINE
  8
0
  6
CONTINUOUS
 62
1
 10
101.433620
 20
112.668696
 11
101.767443
 21
112.662968
  0
LINE
  8
0
  6
CONTINUOUS
 62
1
 10
101.767443
 20
112.662968
 11
101.718896
 21
112.806299
  0
LINE
  8
0
  6
CONTINUOUS
 62
1
 10
101.718896
 20
112.806299
 11
101.595916
 21
112.808475
  0
LINE
  8
0
  6
CONTINUOUS
 62
1
 10
101.595916
 20
112.808475
 11
101.598547
 21
112.852648
  0
LINE
  8
0
  6
CONTINUOUS
 62
1
 10
101.598547
 20
112.852648
 11
101.662087
 21
112.851432
  0
LINE
  8
0
  6
CONTINUOUS
 62
1
 10
101.662087
 20
112.851432
 11
101.713627
 21
112.848309
  0
LINE
  8
0
  6
CONTINUOUS
 62
1
 10
101.713627
 20
112.848309
 11
101.738999
 21
112.844244
  0
LINE
  8
0
  6
CONTINUOUS
 62
1
 10
101.738999
 20
112.844244
 11
101.761641
 21
112.837449
  0
LINE
  8
0
  6
CONTINUOUS
 62
1
 10
101.761641
 20
112.837449
 11
101.777866
 21
112.828150
  0
LINE
  8
0
  6
CONTINUOUS
 62
1
 10
101.777866
 20
112.828150
 11
101.789012
 21
112.817481
  0
LINE
  8
0
  6
CONTINUOUS
 62
1
 10
101.789012
 20
112.817481
 11
101.801590
 21
112.795284
  0
LINE
  8
0
  6
CONTINUOUS
 62
1
 10
101.801590
 20
112.795284
 11
101.844258
 21
112.669083
  0
LINE
  8
0
  6
CONTINUOUS
 62
1
 10
101.844258
 20
112.669083
 11
101.847567
 21
112.643292
  0
LINE
  8
0
  6
CONTINUOUS
 62
1
 10
101.847567
 20
112.643292
 11
101.843980
 21
112.630764
  0
LINE
  8
0
  6
CONTINUOUS
 62
1
 10
101.843980
 20
112.630764
 11
101.833732
 21
112.619826
  0
LINE
  8
0
  6
CONTINUOUS
 62
1
 10
101.833732
 20
112.619826
 11
101.815671
 21
112.612519
  0
LINE
  8
0
  6
CONTINUOUS
 62
1
 10
101.815671
 20
112.612519
 11
101.793366
 21
112.608710
  0
LINE
  8
0
  6
CONTINUOUS
 62
1
 10
101.793366
 20
112.608710
 11
101.744857
 21
112.607035
  0
LINE
  8
0
  6
CONTINUOUS
 62
1
 10
101.744857
 20
112.607035
 11
101.488060
 21
112.611631
  0
LINE
  8
0
  6
CONTINUOUS
 62
1
 10
101.352309
 20
112.677547
 11
101.309666
 21
112.803963
  0
LINE
  8
0
  6
CONTINUOUS
 62
1
 10
101.309666
 20
112.803963
 11
101.305333
 21
112.826088
  0
LINE
  8
0
  6
CONTINUOUS
 62
1
 10
101.305333
 20
112.826088
 11
101.308396
 21
112.837383
  0
LINE
  8
0
  6
CONTINUOUS
 62
1
 10
101.308396
 20
112.837383
 11
101.316625
 21
112.845513
  0
LINE
  8
0
  6
CONTINUOUS
 62
1
 10
101.316625
 20
112.845513
 11
101.333661
 21
112.851724
  0
LINE
  8
0
  6
CONTINUOUS
 62
1
 10
101.333661
 20
112.851724
 11
101.355855
 21
112.854978
  0
LINE
  8
0
  6
CONTINUOUS
 62
1
 10
101.355855
 20
112.854978
 11
101.405313
 21
112.856272
  0
LINE
  8
0
  6
CONTINUOUS
 62
1
 10
101.405313
 20
112.856272
 11
101.455267
 21
112.855312
  0
LINE
  8
0
  6
CONTINUOUS
 62
1
 10
101.455267
 20
112.855312
 11
101.490505
 21
112.810346
  0
LINE
  8
0
  6
CONTINUOUS
 62
1
 10
101.490505
 20
112.810346
 11
101.385094
 21
112.812218
  0
ARC
  8
0
  6
CONTINUOUS
 62
1
 10
103.486170
 20
108.189424
 40
0.119616
 50
326.966023
 51
19.240147
  0
ARC
  8
0
  6
CONTINUOUS
 62
1
 10
103.589260
 20
108.122318
 40
0.003392
 50
145.941783
 51
199.642290
  0
ARC
  8
0
  6
CONTINUOUS
 62
1
 10
102.080670
 20
112.515245
 40
0.119572
 50
16.747880
 51
69.042409
  0
ARC
  8
0
  6
CONTINUOUS
 62
1
 10
102.124606
 20
112.630109
 40
0.003408
 50
196.473108
 51
249.953527
  0
LINE
  8
0
  6
CONTINUOUS
 62
1
 10
101.744857
 20
112.607035
 11
101.744798
 21
112.606618
  0
LINE
  8
0
  6
CONTINUOUS
 62
1
 10
101.744798
 20
112.606618
 11
101.744739
 21
112.606195
  0
ARC
  8
0
  6
CONTINUOUS
 62
1
 10
102.339243
 20
115.756166
 40
2.694580
 50
263.253838
 51
263.751119
  0
LINE
  8
0
  6
CONTINUOUS
 62
1
 10
102.045945
 20
113.077596
 11
103.943730
 21
112.865540
  0
LINE
  8
0
  6
CONTINUOUS
 62
1
 10
103.943730
 20
112.865540
 11
104.090716
 21
112.849346
  0
LINE
  8
0
  6
CONTINUOUS
 62
1
 10
101.718896
 20
112.806299
 11
101.718799
 21
112.805399
  0
LINE
  8
0
  6
CONTINUOUS
 62
1
 10
101.490505
 20
112.810346
 11
101.490407
 21
112.809446
  0
LINE
  8
0
  6
CONTINUOUS
 62
1
 10
101.595916
 20
112.808475
 11
101.595819
 21
112.807575
  0
LINE
  8
0
  6
CONTINUOUS
 62
1
 10
101.598547
 20
112.852648
 11
101.598454
 21
112.851730
  0
LINE
  8
0
  6
CONTINUOUS
 62
1
 10
104.274747
 20
112.473765
 11
104.393339
 21
112.108776
  0
LINE
  8
0
  6
CONTINUOUS
 62
1
 10
104.393339
 20
112.108776
 11
104.513365
 21
111.739376
  0
LINE
  8
0
  6
CONTINUOUS
 62
1
 10
104.513365
 20
111.739376
 11
104.634350
 21
111.367026
  0
LINE
  8
0
  6
CONTINUOUS
 62
1
 10
104.634350
 20
111.367026
 11
104.755815
 21
110.993192
  0
LINE
  8
0
  6
CONTINUOUS
 62
1
 10
104.755815
 20
110.993192
 11
104.877280
 21
110.619363
  0
LINE
  8
0
  6
CONTINUOUS
 62
1
 10
104.877280
 20
110.619363
 11
104.998264
 21
110.247007
  0
LINE
  8
0
  6
CONTINUOUS
 62
1
 10
104.998264
 20
110.247007
 11
105.118290
 21
109.877607
  0
LINE
  8
0
  6
CONTINUOUS
 62
1
 10
105.118290
 20
109.877607
 11
105.236882
 21
109.512618
  0
LINE
  8
0
  6
CONTINUOUS
 62
1
 10
105.236882
 20
109.512618
 11
105.280547
 21
109.378233
  0
LINE
  8
0
  6
CONTINUOUS
 62
1
 10
105.280547
 20
109.378233
 11
105.312455
 21
109.280029
  0
LINE
  8
0
  6
CONTINUOUS
 62
1
 10
105.312455
 20
109.280029
 11
105.331890
 21
109.220216
  0
LINE
  8
0
  6
CONTINUOUS
 62
1
 10
105.331890
 20
109.220216
 11
105.338417
 21
109.200129
  0
LINE
  8
0
  6
CONTINUOUS
 62
1
 10
104.175059
 20
112.780574
 11
104.179293
 21
112.767544
  0
LINE
  8
0
  6
CONTINUOUS
 62
1
 10
104.179293
 20
112.767544
 11
104.185959
 21
112.747028
  0
LINE
  8
0
  6
CONTINUOUS
 62
1
 10
104.185959
 20
112.747028
 11
104.195028
 21
112.719116
  0
LINE
  8
0
  6
CONTINUOUS
 62
1
 10
104.195028
 20
112.719116
 11
104.206463
 21
112.683925
  0
LINE
  8
0
  6
CONTINUOUS
 62
1
 10
104.206463
 20
112.683925
 11
104.220215
 21
112.641600
  0
LINE
  8
0
  6
CONTINUOUS
 62
1
 10
104.220215
 20
112.641600
 11
104.236226
 21
112.592319
  0
LINE
  8
0
  6
CONTINUOUS
 62
1
 10
104.236226
 20
112.592319
 11
104.254429
 21
112.536296
  0
LINE
  8
0
  6
CONTINUOUS
 62
1
 10
104.254429
 20
112.536296
 11
104.274747
 21
112.473765
  0
ARC
  8
0
  6
CONTINUOUS
 62
1
 10
104.079626
 20
112.749639
 40
0.100322
 50
17.960419
 51
83.653273
  0
ARC
  8
0
  6
CONTINUOUS
 62
1
 10
103.455848
 20
107.403653
 40
0.197768
 50
116.863069
 51
162.119148
  0
LINE
  8
0
  6
CONTINUOUS
 62
1
 10
103.366484
 20
107.580081
 11
103.403361
 21
107.608190
  0
LINE
  8
0
  6
CONTINUOUS
 62
1
 10
103.403361
 20
107.608190
 11
103.439734
 21
107.631674
  0
LINE
  8
0
  6
CONTINUOUS
 62
1
 10
103.439734
 20
107.631674
 11
103.457232
 21
107.640079
  0
LINE
  8
0
  6
CONTINUOUS
 62
1
 10
103.457232
 20
107.640079
 11
103.470001
 21
107.643476
  0
LINE
  8
0
  6
CONTINUOUS
 62
1
 10
103.470001
 20
107.643476
 11
103.478719
 21
107.641843
  0
LINE
  8
0
  6
CONTINUOUS
 62
1
 10
103.478719
 20
107.641843
 11
103.482703
 21
107.636037
  0
ARC
  8
0
  6
CONTINUOUS
 62
1
 10
103.294324
 20
107.702284
 40
0.199688
 50
296.773522
 51
340.624764
  0
LINE
  8
0
  6
CONTINUOUS
 62
1
 10
103.384276
 20
107.524005
 11
103.341841
 21
107.491574
  0
LINE
  8
0
  6
CONTINUOUS
 62
1
 10
103.341841
 20
107.491574
 11
103.301036
 21
107.465514
  0
LINE
  8
0
  6
CONTINUOUS
 62
1
 10
103.301035
 20
107.465514
 11
103.288101
 21
107.459959
  0
LINE
  8
0
  6
CONTINUOUS
 62
1
 10
103.288101
 20
107.459959
 11
103.277796
 21
107.457790
  0
LINE
  8
0
  6
CONTINUOUS
 62
1
 10
103.277796
 20
107.457790
 11
103.270970
 21
107.459423
  0
LINE
  8
0
  6
CONTINUOUS
 62
1
 10
103.270970
 20
107.459423
 11
103.268883
 21
107.461527
  0
LINE
  8
0
  6
CONTINUOUS
 62
1
 10
103.268883
 20
107.461527
 11
103.267632
 21
107.464376
  0
LINE
  8
0
  6
CONTINUOUS
 62
1
 10
103.446480
 20
107.607153
 11
103.444799
 21
107.609197
  0
LINE
  8
0
  6
CONTINUOUS
 62
1
 10
103.444799
 20
107.609197
 11
103.441138
 21
107.609400
  0
LINE
  8
0
  6
CONTINUOUS
 62
1
 10
103.441138
 20
107.609400
 11
103.435970
 21
107.607916
  0
LINE
  8
0
  6
CONTINUOUS
 62
1
 10
103.435970
 20
107.607916
 11
103.429830
 21
107.605073
  0
LINE
  8
0
  6
CONTINUOUS
 62
1
 10
103.429830
 20
107.605073
 11
103.401127
 21
107.586494
  0
LINE
  8
0
  6
CONTINUOUS
 62
1
 10
103.401127
 20
107.586494
 11
103.371851
 21
107.564083
  0
ARC
  8
0
  6
CONTINUOUS
 62
1
 10
103.424537
 20
107.446006
 40
0.129298
 50
114.046090
 51
158.100035
  0
LINE
  8
0
  6
CONTINUOUS
 62
1
 10
103.304569
 20
107.494232
 11
103.307991
 21
107.491657
  0
LINE
  8
0
  6
CONTINUOUS
 62
1
 10
103.307991
 20
107.491657
 11
103.311259
 21
107.491925
  0
LINE
  8
0
  6
CONTINUOUS
 62
1
 10
103.311259
 20
107.491925
 11
103.315437
 21
107.493249
  0
LINE
  8
0
  6
CONTINUOUS
 62
1
 10
103.315437
 20
107.493249
 11
103.324335
 21
107.497773
  0
LINE
  8
0
  6
CONTINUOUS
 62
1
 10
103.324335
 20
107.497773
 11
103.336498
 21
107.505527
  0
LINE
  8
0
  6
CONTINUOUS
 62
1
 10
103.336498
 20
107.505527
 11
103.381463
 21
107.539502
  0
ARC
  8
0
  6
CONTINUOUS
 62
1
 10
103.328052
 20
107.655901
 40
0.128068
 50
294.648560
 51
337.626704
  0
LINE
  8
0
  6
CONTINUOUS
 62
1
 10
103.267632
 20
107.464376
 11
103.267319
 21
107.464740
  0
LINE
  8
0
  6
CONTINUOUS
 62
1
 10
103.267319
 20
107.464740
 11
103.267007
 21
107.465103
  0
ARC
  8
0
  6
CONTINUOUS
 62
1
 10
103.327400
 20
107.656658
 40
0.128106
 50
294.653110
 51
337.616125
  0
LINE
  8
0
  6
CONTINUOUS
 62
1
 10
103.303944
 20
107.494953
 11
103.307365
 21
107.492378
  0
LINE
  8
0
  6
CONTINUOUS
 62
1
 10
103.307365
 20
107.492378
 11
103.310633
 21
107.492647
  0
LINE
  8
0
  6
CONTINUOUS
 62
1
 10
103.310633
 20
107.492647
 11
103.314811
 21
107.493970
  0
LINE
  8
0
  6
CONTINUOUS
 62
1
 10
103.314811
 20
107.493970
 11
103.323708
 21
107.498494
  0
LINE
  8
0
  6
CONTINUOUS
 62
1
 10
103.323708
 20
107.498494
 11
103.335871
 21
107.506248
  0
LINE
  8
0
  6
CONTINUOUS
 62
1
 10
103.335871
 20
107.506248
 11
103.380836
 21
107.540229
  0
LINE
  8
0
  6
CONTINUOUS
 62
1
 10
103.170029
 20
107.283619
 11
103.202242
 21
107.319972
  0
LINE
  8
0
  6
CONTINUOUS
 62
1
 10
103.202242
 20
107.319972
 11
103.219863
 21
107.349154
  0
LINE
  8
0
  6
CONTINUOUS
 62
1
 10
103.219863
 20
107.349154
 11
103.219239
 21
107.366547
  0
LINE
  8
0
  6
CONTINUOUS
 62
1
 10
103.219239
 20
107.366547
 11
103.200660
 21
107.369742
  0
LINE
  8
0
  6
CONTINUOUS
 62
1
 10
103.200660
 20
107.369742
 11
103.167225
 21
107.358113
  0
LINE
  8
0
  6
CONTINUOUS
 62
1
 10
103.167225
 20
107.358113
 11
103.124304
 21
107.332876
  0
LINE
  8
0
  6
CONTINUOUS
 62
1
 10
103.124304
 20
107.332876
 11
103.078738
 21
107.297668
  0
LINE
  8
0
  6
CONTINUOUS
 62
1
 10
103.078738
 20
107.297668
 11
103.037540
 21
107.257691
  0
LINE
  8
0
  6
CONTINUOUS
 62
1
 10
103.037540
 20
107.257691
 11
103.006746
 21
107.219365
  0
LINE
  8
0
  6
CONTINUOUS
 62
1
 10
103.006746
 20
107.219365
 11
102.990730
 21
107.188854
  0
LINE
  8
0
  6
CONTINUOUS
 62
1
 10
102.990730
 20
107.188854
 11
102.991705
 21
107.171217
  0
LINE
  8
0
  6
CONTINUOUS
 62
1
 10
102.991705
 20
107.171217
 11
103.009337
 21
107.169065
  0
LINE
  8
0
  6
CONTINUOUS
 62
1
 10
103.009337
 20
107.169065
 11
103.041262
 21
107.182649
  0
LINE
  8
0
  6
CONTINUOUS
 62
1
 10
103.041262
 20
107.182649
 11
103.082924
 21
107.209465
  0
LINE
  8
0
  6
CONTINUOUS
 62
1
 10
103.082924
 20
107.209465
 11
103.128359
 21
107.245216
  0
LINE
  8
0
  6
CONTINUOUS
 62
1
 10
103.128359
 20
107.245216
 11
103.170029
 21
107.283619
  0
LINE
  8
0
  6
CONTINUOUS
 62
1
 10
103.445854
 20
107.607874
 11
103.446167
 21
107.607511
  0
LINE
  8
0
  6
CONTINUOUS
 62
1
 10
103.446167
 20
107.607511
 11
103.446480
 21
107.607153
  0
LINE
  8
0
  6
CONTINUOUS
 62
1
 10
103.303944
 20
107.494953
 11
103.304257
 21
107.494596
  0
LINE
  8
0
  6
CONTINUOUS
 62
1
 10
103.304257
 20
107.494596
 11
103.304569
 21
107.494232
  0
LINE
  8
0
  6
CONTINUOUS
 62
1
 10
103.287069
 20
107.408491
 11
103.300552
 21
107.432553
  0
LINE
  8
0
  6
CONTINUOUS
 62
1
 10
103.300552
 20
107.432553
 11
103.372854
 21
107.476857
  0
ARC
  8
0
  6
CONTINUOUS
 62
1
 10
103.504736
 20
107.430424
 40
0.139817
 50
121.596271
 51
160.603885
  0
LINE
  8
0
  6
CONTINUOUS
 62
1
 10
103.431481
 20
107.549515
 11
103.456325
 21
107.567635
  0
LINE
  8
0
  6
CONTINUOUS
 62
1
 10
103.456325
 20
107.567635
 11
103.478263
 21
107.579550
  0
LINE
  8
0
  6
CONTINUOUS
 62
1
 10
103.478263
 20
107.579550
 11
103.494118
 21
107.583997
  0
LINE
  8
0
  6
CONTINUOUS
 62
1
 10
103.494118
 20
107.583997
 11
103.500840
 21
107.579854
  0
ARC
  8
0
  6
CONTINUOUS
 62
1
 10
103.369165
 20
107.629308
 40
0.140655
 50
301.419333
 51
339.415017
  0
LINE
  8
0
  6
CONTINUOUS
 62
1
 10
103.442488
 20
107.509276
 11
103.417191
 21
107.490507
  0
LINE
  8
0
  6
CONTINUOUS
 62
1
 10
103.417191
 20
107.490507
 11
103.393304
 21
107.475010
  0
LINE
  8
0
  6
CONTINUOUS
 62
1
 10
103.393304
 20
107.475010
 11
103.287069
 21
107.408491
  0
LINE
  8
0
  6
CONTINUOUS
 62
1
 10
103.464724
 20
107.550362
 11
103.461726
 21
107.551959
  0
LINE
  8
0
  6
CONTINUOUS
 62
1
 10
103.461726
 20
107.551959
 11
103.454768
 21
107.549712
  0
LINE
  8
0
  6
CONTINUOUS
 62
1
 10
103.454768
 20
107.549712
 11
103.445274
 21
107.544258
  0
LINE
  8
0
  6
CONTINUOUS
 62
1
 10
103.445274
 20
107.544258
 11
103.440006
 21
107.540533
  0
LINE
  8
0
  6
CONTINUOUS
 62
1
 10
103.440006
 20
107.540533
 11
103.434660
 21
107.536384
  0
ARC
  8
0
  6
CONTINUOUS
 62
1
 10
103.459482
 20
107.490522
 40
0.052149
 50
118.422922
 51
163.051357
  0
LINE
  8
0
  6
CONTINUOUS
 62
1
 10
103.409598
 20
107.505724
 11
103.412487
 21
107.504186
  0
LINE
  8
0
  6
CONTINUOUS
 62
1
 10
103.412487
 20
107.504186
 11
103.415415
 21
107.504895
  0
LINE
  8
0
  6
CONTINUOUS
 62
1
 10
103.415415
 20
107.504895
 11
103.419312
 21
107.506588
  0
LINE
  8
0
  6
CONTINUOUS
 62
1
 10
103.419312
 20
107.506588
 11
103.428609
 21
107.512137
  0
LINE
  8
0
  6
CONTINUOUS
 62
1
 10
103.428609
 20
107.512137
 11
103.433754
 21
107.515839
  0
LINE
  8
0
  6
CONTINUOUS
 62
1
 10
103.433754
 20
107.515839
 11
103.438979
 21
107.519922
  0
ARC
  8
0
  6
CONTINUOUS
 62
1
 10
103.403850
 20
107.575741
 40
0.065953
 50
302.183306
 51
337.368436
  0
LINE
  8
0
  6
CONTINUOUS
 62
1
 10
103.431481
 20
107.549515
 11
103.431167
 21
107.549879
  0
LINE
  8
0
  6
CONTINUOUS
 62
1
 10
103.431167
 20
107.549879
 11
103.430852
 21
107.550248
  0
LINE
  8
0
  6
CONTINUOUS
 62
1
 10
103.372854
 20
107.476857
 11
103.372223
 21
107.477596
  0
LINE
  8
0
  6
CONTINUOUS
 62
1
 10
103.287069
 20
107.408491
 11
103.286438
 21
107.409230
  0
LINE
  8
0
  6
CONTINUOUS
 62
1
 10
103.300552
 20
107.432553
 11
103.299922
 21
107.433286
  0
ARC
  8
0
  6
CONTINUOUS
 62
1
 10
103.403163
 20
107.576528
 40
0.066023
 50
302.201578
 51
337.348530
  0
LINE
  8
0
  6
CONTINUOUS
 62
1
 10
103.408967
 20
107.506463
 11
103.411856
 21
107.504931
  0
LINE
  8
0
  6
CONTINUOUS
 62
1
 10
103.411856
 20
107.504931
 11
103.414784
 21
107.505640
  0
LINE
  8
0
  6
CONTINUOUS
 62
1
 10
103.414784
 20
107.505640
 11
103.418680
 21
107.507327
  0
LINE
  8
0
  6
CONTINUOUS
 62
1
 10
103.418680
 20
107.507327
 11
103.427977
 21
107.512882
  0
LINE
  8
0
  6
CONTINUOUS
 62
1
 10
103.427977
 20
107.512882
 11
103.433122
 21
107.516584
  0
LINE
  8
0
  6
CONTINUOUS
 62
1
 10
103.433122
 20
107.516584
 11
103.438347
 21
107.520661
  0
LINE
  8
0
  6
CONTINUOUS
 62
1
 10
103.464093
 20
107.551101
 11
103.464724
 21
107.550362
  0
LINE
  8
0
  6
CONTINUOUS
 62
1
 10
103.438347
 20
107.520661
 11
103.438979
 21
107.519922
  0
LINE
  8
0
  6
CONTINUOUS
 62
1
 10
103.408967
 20
107.506463
 11
103.409282
 21
107.506093
  0
LINE
  8
0
  6
CONTINUOUS
 62
1
 10
103.409282
 20
107.506093
 11
103.409598
 21
107.505724
  0
LINE
  8
0
  6
CONTINUOUS
 62
1
 10
103.507769
 20
107.540646
 11
103.507134
 21
107.541397
  0
LINE
  8
0
  6
CONTINUOUS
 62
1
 10
103.305629
 20
107.375196
 11
103.507769
 21
107.540646
  0
LINE
  8
0
  6
CONTINUOUS
 62
1
 10
103.305629
 20
107.375196
 11
103.304994
 21
107.375947
  0
LINE
  8
0
  6
CONTINUOUS
 62
1
 10
103.308828
 20
107.361564
 11
103.308191
 21
107.362315
  0
LINE
  8
0
  6
CONTINUOUS
 62
1
 10
103.308828
 20
107.361564
 11
103.305629
 21
107.375196
  0
LINE
  8
0
  6
CONTINUOUS
 62
1
 10
103.507769
 20
107.540646
 11
103.509948
 21
107.531485
  0
LINE
  8
0
  6
CONTINUOUS
 62
1
 10
103.509948
 20
107.531485
 11
103.344008
 21
107.395592
  0
LINE
  8
0
  6
CONTINUOUS
 62
1
 10
103.344008
 20
107.395592
 11
103.345888
 21
107.386228
  0
LINE
  8
0
  6
CONTINUOUS
 62
1
 10
103.345888
 20
107.386228
 11
103.308828
 21
107.361564
  0
LINE
  8
0
  6
CONTINUOUS
 62
1
 10
101.147890
 20
113.141492
 11
101.147863
 21
113.141498
  0
LINE
  8
0
  6
CONTINUOUS
 62
1
 10
101.147863
 20
113.141498
 11
101.166821
 21
113.138881
  0
LINE
  8
0
  6
CONTINUOUS
 62
1
 10
101.166821
 20
113.138881
 11
101.220737
 21
113.132003
  0
LINE
  8
0
  6
CONTINUOUS
 62
1
 10
101.220737
 20
113.132003
 11
101.301490
 21
113.123283
  0
LINE
  8
0
  6
CONTINUOUS
 62
1
 10
101.301490
 20
113.123283
 11
101.396878
 21
113.115469
  0
LINE
  8
0
  6
CONTINUOUS
 62
1
 10
101.396878
 20
113.115469
 11
101.492417
 21
113.110420
  0
LINE
  8
0
  6
CONTINUOUS
 62
1
 10
101.492417
 20
113.110420
 11
101.573528
 21
113.108376
  0
LINE
  8
0
  6
CONTINUOUS
 62
1
 10
101.573528
 20
113.108376
 11
101.627747
 21
113.108191
  0
LINE
  8
0
  6
CONTINUOUS
 62
1
 10
101.627747
 20
113.108191
 11
101.646756
 21
113.108352
  0
LINE
  8
0
  6
CONTINUOUS
 62
1
 10
63.328304
 20
121.203712
 11
61.638494
 21
121.203712
  0
LINE
  8
0
  6
CONTINUOUS
 62
1
 10
65.038495
 20
121.203712
 11
63.328304
 21
121.203712
  0
LINE
  8
0
  6
CONTINUOUS
 62
1
 10
98.278495
 20
102.128711
 11
98.278495
 21
113.997480
  0
ARC
  8
0
  6
CONTINUOUS
 62
1
 10
98.378495
 20
102.128710
 40
0.100000
 50
180.000000
 51
270.000000
  0
ARC
  8
0
  6
CONTINUOUS
 62
1
 10
98.378495
 20
113.997478
 40
0.100000
 50
90.000000
 51
180.000000
  0
LINE
  8
0
  6
CONTINUOUS
 62
1
 10
104.438658
 20
102.073362
 11
105.680528
 21
103.553364
  0
LINE
  8
0
  6
CONTINUOUS
 62
1
 10
104.499941
 20
102.021941
 11
105.741811
 21
103.501943
  0
LINE
  8
0
  6
CONTINUOUS
 62
1
 10
98.378495
 20
101.948711
 11
104.342902
 21
101.948711
  0
LINE
  8
0
  6
CONTINUOUS
 62
1
 10
98.378495
 20
102.028713
 11
104.342902
 21
102.028713
  0
ARC
  8
0
  6
CONTINUOUS
 62
1
 10
104.342902
 20
102.153710
 40
0.125000
 50
270.000000
 51
320.000000
  0
ARC
  8
0
  6
CONTINUOUS
 62
1
 10
104.342902
 20
102.153710
 40
0.205000
 50
270.000000
 51
320.000000
  0
ARC
  8
0
  6
CONTINUOUS
 62
1
 10
104.914483
 20
104.196153
 40
1.000000
 50
320.000000
 51
70.000000
  0
ARC
  8
0
  6
CONTINUOUS
 62
1
 10
104.914483
 20
104.196153
 40
1.080000
 50
320.000000
 51
70.000000
  0
LINE
  8
0
  6
CONTINUOUS
 62
1
 10
98.278495
 20
101.948711
 11
98.278495
 21
102.028713
  0
LINE
  8
0
  6
CONTINUOUS
 62
1
 10
98.378495
 20
101.948711
 11
98.278495
 21
101.948711
  0
LINE
  8
0
  6
CONTINUOUS
 62
1
 10
98.278495
 20
102.028713
 11
98.378495
 21
102.028713
  0
LINE
  8
0
  6
CONTINUOUS
 62
1
 10
105.256503
 20
105.135843
 11
103.311464
 21
105.843779
  0
LINE
  8
0
  6
CONTINUOUS
 62
1
 10
105.283865
 20
105.211022
 11
103.338826
 21
105.918959
  0
ARC
  8
0
  6
CONTINUOUS
 62
1
 10
103.680846
 20
106.858650
 40
1.080000
 50
198.000000
 51
250.000000
  0
ARC
  8
0
  6
CONTINUOUS
 62
1
 10
103.680846
 20
106.858650
 40
1.000000
 50
198.000000
 51
250.000000
  0
LINE
  8
0
  6
CONTINUOUS
 62
1
 10
102.653705
 20
106.524911
 11
100.221293
 21
114.011106
  0
LINE
  8
0
  6
CONTINUOUS
 62
1
 10
102.729789
 20
106.549635
 11
100.297378
 21
114.035824
  0
LINE
  8
0
  6
CONTINUOUS
 62
1
 10
98.378495
 20
114.097479
 11
100.102411
 21
114.097479
  0
LINE
  8
0
  6
CONTINUOUS
 62
1
 10
98.378495
 20
114.177480
 11
100.102411
 21
114.177480
  0
LINE
  8
0
  6
CONTINUOUS
 62
1
 10
98.278495
 20
114.097479
 11
98.278495
 21
114.177480
  0
LINE
  8
0
  6
CONTINUOUS
 62
1
 10
98.278495
 20
114.177480
 11
98.378495
 21
114.177480
  0
LINE
  8
0
  6
CONTINUOUS
 62
1
 10
98.378495
 20
114.097479
 11
98.278495
 21
114.097479
  0
ARC
  8
0
  6
CONTINUOUS
 62
1
 10
100.102411
 20
113.972478
 40
0.205000
 50
18.000000
 51
90.000000
  0
ARC
  8
0
  6
CONTINUOUS
 62
1
 10
100.102411
 20
113.972478
 40
0.125000
 50
18.000000
 51
90.000000
  0
LINE
  8
0
  6
CONTINUOUS
 62
1
 10
100.325781
 20
114.310637
 11
100.372757
 21
114.331552
  0
ARC
  8
0
  6
CONTINUOUS
 62
1
 10
100.376623
 20
114.196443
 40
0.125000
 50
114.000000
 51
198.000000
  0
ARC
  8
0
  6
CONTINUOUS
 62
1
 10
100.376623
 20
114.196443
 40
0.205000
 50
162.270398
 51
188.956998
  0
LINE
  8
0
  6
CONTINUOUS
 62
1
 10
100.257741
 20
114.157817
 11
100.297378
 21
114.035824
  0
LINE
  8
0
  6
CONTINUOUS
 62
1
 10
101.280074
 20
114.735517
 11
101.311306
 21
114.749423
  0
LINE
  8
0
  6
CONTINUOUS
 62
1
 10
101.311306
 20
114.749423
 11
101.384760
 21
114.782122
  0
ARC
  8
0
  6
CONTINUOUS
 62
1
 10
27.678495
 20
124.514335
 40
0.125000
 50
75.000000
 51
180.000000
  0
LINE
  8
0
  6
CONTINUOUS
 62
1
 10
31.013482
 20
123.750135
 11
27.710848
 21
124.635073
  0
ARC
  8
0
  6
CONTINUOUS
 62
1
 10
30.353495
 20
121.287026
 40
2.550000
 50
0.000000
 51
75.000000
  0
LINE
  8
0
  6
CONTINUOUS
 62
1
 10
32.903497
 20
119.703713
 11
32.903497
 21
121.287027
  0
LINE
  8
0
  6
CONTINUOUS
 62
1
 10
27.553498
 20
119.703713
 11
32.903497
 21
119.703713
  0
LINE
  8
0
  6
CONTINUOUS
 62
1
 10
27.553498
 20
124.514332
 11
27.553498
 21
119.703713
  0
LINE
  8
0
  6
CONTINUOUS
 62
1
 10
32.903497
 20
119.703713
 11
32.978498
 21
119.703713
  0
LINE
  8
0
  6
CONTINUOUS
 62
1
 10
32.978498
 20
121.315393
 11
32.978498
 21
119.703713
  0
ARC
  8
0
  6
CONTINUOUS
 62
1
 10
30.398495
 20
121.315393
 40
2.580000
 50
0.000000
 51
75.000000
  0
ARC
  8
0
  6
CONTINUOUS
 62
1
 10
30.398495
 20
121.315393
 40
2.500000
 50
12.059482
 51
52.392255
  0
LINE
  8
0
  6
CONTINUOUS
 62
1
 10
27.553498
 20
119.714561
 11
27.478497
 21
119.714561
  0
LINE
  8
0
  6
CONTINUOUS
 62
1
 10
27.478497
 20
119.714561
 11
27.478497
 21
124.501654
  0
LINE
  8
0
  6
CONTINUOUS
 62
1
 10
27.736555
 20
124.699673
 11
31.066250
 21
123.807481
  0
ARC
  8
0
  6
CONTINUOUS
 62
1
 10
27.683495
 20
124.501656
 40
0.205000
 50
75.000000
 51
180.000000
  0
LINE
  8
0
  6
CONTINUOUS
 62
1
 10
27.478497
 20
119.714561
 11
27.478497
 21
119.583002
  0
LINE
  8
0
  6
CONTINUOUS
 62
1
 10
27.558492
 20
119.703713
 11
27.558492
 21
119.583157
  0
LINE
  8
0
  6
CONTINUOUS
 62
1
 10
92.627495
 20
115.943709
 11
92.627495
 21
119.458708
  0
LINE
  8
0
  6
CONTINUOUS
 62
1
 10
27.723496
 20
115.943709
 11
92.627495
 21
115.943709
  0
LINE
  8
0
  6
CONTINUOUS
 62
1
 10
27.599202
 20
119.703713
 11
27.609556
 21
119.701615
  0
LINE
  8
0
  6
CONTINUOUS
 62
1
 10
27.609556
 20
119.701615
 11
27.616571
 21
119.697830
  0
LINE
  8
0
  6
CONTINUOUS
 62
1
 10
27.616571
 20
119.697830
 11
27.627258
 21
119.688472
  0
LINE
  8
0
  6
CONTINUOUS
 62
1
 10
27.627258
 20
119.688472
 11
27.637618
 21
119.675401
  0
LINE
  8
0
  6
CONTINUOUS
 62
1
 10
27.637618
 20
119.675401
 11
27.644633
 21
119.664428
  0
LINE
  8
0
  6
CONTINUOUS
 62
1
 10
27.644633
 20
119.664428
 11
27.651744
 21
119.651648
  0
LINE
  8
0
  6
CONTINUOUS
 62
1
 10
27.651744
 20
119.651648
 11
27.655320
 21
119.644633
  0
LINE
  8
0
  6
CONTINUOUS
 62
1
 10
27.655320
 20
119.644633
 11
27.665679
 21
119.622216
  0
LINE
  8
0
  6
CONTINUOUS
 62
1
 10
27.665679
 20
119.622216
 11
27.672695
 21
119.605419
  0
LINE
  8
0
  6
CONTINUOUS
 62
1
 10
27.672695
 20
119.605419
 11
27.679812
 21
119.587204
  0
LINE
  8
0
  6
CONTINUOUS
 62
1
 10
27.679812
 20
119.587204
 11
27.683382
 21
119.577655
  0
LINE
  8
0
  6
CONTINUOUS
 62
1
 10
27.683382
 20
119.577655
 11
27.693741
 21
119.548681
  0
LINE
  8
0
  6
CONTINUOUS
 62
1
 10
27.693741
 20
119.548681
 11
27.700757
 21
119.528153
  0
LINE
  8
0
  6
CONTINUOUS
 62
1
 10
27.700757
 20
119.528153
 11
27.707874
 21
119.506773
  0
LINE
  8
0
  6
CONTINUOUS
 62
1
 10
27.707874
 20
119.506773
 11
27.711444
 21
119.495878
  0
LINE
  8
0
  6
CONTINUOUS
 62
1
 10
27.711444
 20
119.495878
 11
27.717452
 21
119.477394
  0
LINE
  8
0
  6
CONTINUOUS
 62
1
 10
27.717452
 20
119.477394
 11
27.723496
 21
119.458708
  0
LINE
  8
0
  6
CONTINUOUS
 62
1
 10
32.978498
 20
119.703713
 11
92.627495
 21
119.703713
  0
LINE
  8
0
  6
CONTINUOUS
 62
1
 10
92.627495
 20
119.458708
 11
92.627495
 21
119.703713
  0
ARC
  8
0
  6
CONTINUOUS
 62
1
 10
27.526713
 20
119.387337
 40
0.209326
 50
19.935092
 51
69.738874
  0
LINE
  8
0
  6
CONTINUOUS
 62
1
 10
27.599202
 20
119.583711
 11
27.599202
 21
119.703713
  0
ARC
  8
0
  6
CONTINUOUS
 62
1
 10
38.254376
 20
140.520064
 40
23.547402
 50
242.766044
 51
243.434509
  0
LINE
  8
0
  6
CONTINUOUS
 62
1
 10
27.478497
 20
119.583002
 11
27.598493
 21
119.583002
  0
ARC
  8
0
  6
CONTINUOUS
 62
1
 10
36.323385
 20
128.232678
 40
12.285790
 50
224.751965
 51
225.574068
  0
LINE
  8
0
  6
CONTINUOUS
 62
1
 10
27.478497
 20
115.943709
 11
27.723496
 21
115.943709
  0
LINE
  8
0
  6
CONTINUOUS
 62
1
 10
27.478497
 20
119.583002
 11
27.478497
 21
115.943709
  0
LINE
  8
0
  6
CONTINUOUS
 62
1
 10
101.805176
 20
119.453707
 11
101.805176
 21
119.458708
  0
LINE
  8
0
  6
CONTINUOUS
 62
1
 10
101.830176
 20
119.453707
 11
101.805176
 21
119.453707
  0
LINE
  8
0
  6
CONTINUOUS
 62
1
 10
101.830176
 20
119.582567
 11
101.830176
 21
119.453707
  0
ARC
  8
0
  6
CONTINUOUS
 62
1
 10
101.805176
 20
117.373710
 40
2.209000
 50
293.500000
 51
89.351550
  0
LINE
  8
0
  6
CONTINUOUS
 62
1
 10
100.054500
 20
114.203712
 11
102.686012
 21
115.347925
  0
LINE
  8
0
  6
CONTINUOUS
 62
1
 10
98.323495
 20
114.203712
 11
100.054500
 21
114.203712
  0
LINE
  8
0
  6
CONTINUOUS
 62
1
 10
98.323495
 20
116.188708
 11
98.323495
 21
114.203712
  0
LINE
  8
0
  6
CONTINUOUS
 62
1
 10
98.273495
 20
116.188708
 11
98.323495
 21
116.188708
  0
LINE
  8
0
  6
CONTINUOUS
 62
1
 10
92.673495
 20
119.458708
 11
92.673495
 21
116.188708
  0
ARC
  8
0
  6
CONTINUOUS
 62
1
 10
100.505176
 20
115.843166
 40
0.025035
 50
259.894559
 51
75.794895
  0
ARC
  8
0
  6
CONTINUOUS
 62
1
 10
100.555176
 20
116.123710
 40
0.260000
 50
99.711022
 51
260.288978
  0
ARC
  8
0
  6
CONTINUOUS
 62
1
 10
100.505176
 20
116.404254
 40
0.025035
 50
284.205105
 51
100.105441
  0
ARC
  8
0
  6
CONTINUOUS
 62
1
 10
100.555176
 20
116.123710
 40
0.310000
 50
100.105441
 51
259.894559
  0
ARC
  8
0
  6
CONTINUOUS
 62
1
 10
100.555176
 20
116.123710
 40
0.310000
 50
280.105441
 51
79.894559
  0
ARC
  8
0
  6
CONTINUOUS
 62
1
 10
100.605176
 20
116.404254
 40
0.025035
 50
79.894559
 51
255.794895
  0
ARC
  8
0
  6
CONTINUOUS
 62
1
 10
100.555176
 20
116.123710
 40
0.260000
 50
279.711022
 51
80.288978
  0
ARC
  8
0
  6
CONTINUOUS
 62
1
 10
100.605176
 20
115.843166
 40
0.025035
 50
104.205105
 51
280.105441
  0
LINE
  8
0
  6
CONTINUOUS
 62
1
 10
92.673495
 20
115.943709
 11
98.273495
 21
115.943709
  0
LINE
  8
0
  6
CONTINUOUS
 62
1
 10
92.673495
 20
115.943709
 11
92.673495
 21
116.188708
  0
LINE
  8
0
  6
CONTINUOUS
 62
1
 10
98.273495
 20
116.188708
 11
98.273495
 21
115.943709
  0
LINE
  8
0
  6
CONTINUOUS
 62
1
 10
92.673495
 20
119.458708
 11
92.673495
 21
119.703713
  0
LINE
  8
0
  6
CONTINUOUS
 62
1
 10
92.673495
 20
119.703713
 11
101.805176
 21
119.703713
  0
LINE
  8
0
  6
CONTINUOUS
 62
1
 10
101.805176
 20
119.669422
 11
101.805176
 21
119.458708
  0
LINE
  8
0
  6
CONTINUOUS
 62
1
 10
100.600563
 20
114.309201
 11
102.734261
 21
115.236959
  0
LINE
  8
0
  6
CONTINUOUS
 62
1
 10
100.552713
 20
114.419249
 11
102.686411
 21
115.347007
  0
LINE
  8
0
  6
CONTINUOUS
 62
1
 10
100.417151
 20
114.229450
 11
100.369301
 21
114.339498
  0
LINE
  8
0
  6
CONTINUOUS
 62
1
 10
100.600563
 20
114.309201
 11
100.564781
 21
114.293644
  0
LINE
  8
0
  6
CONTINUOUS
 62
1
 10
100.564781
 20
114.293644
 11
100.530374
 21
114.278683
  0
LINE
  8
0
  6
CONTINUOUS
 62
1
 10
100.530374
 20
114.278683
 11
100.498665
 21
114.264896
  0
LINE
  8
0
  6
CONTINUOUS
 62
1
 10
100.498665
 20
114.264896
 11
100.470871
 21
114.252809
  0
LINE
  8
0
  6
CONTINUOUS
 62
1
 10
100.470871
 20
114.252809
 11
100.448061
 21
114.242890
  0
LINE
  8
0
  6
CONTINUOUS
 62
1
 10
100.448061
 20
114.242890
 11
100.431112
 21
114.235523
  0
LINE
  8
0
  6
CONTINUOUS
 62
1
 10
100.431112
 20
114.235523
 11
100.420675
 21
114.230981
  0
LINE
  8
0
  6
CONTINUOUS
 62
1
 10
100.420675
 20
114.230981
 11
100.417151
 21
114.229450
  0
LINE
  8
0
  6
CONTINUOUS
 62
1
 10
100.369301
 20
114.339498
 11
100.372825
 21
114.341029
  0
LINE
  8
0
  6
CONTINUOUS
 62
1
 10
100.372825
 20
114.341029
 11
100.383262
 21
114.345571
  0
LINE
  8
0
  6
CONTINUOUS
 62
1
 10
100.383262
 20
114.345571
 11
100.400212
 21
114.352938
  0
LINE
  8
0
  6
CONTINUOUS
 62
1
 10
100.400212
 20
114.352938
 11
100.423021
 21
114.362857
  0
LINE
  8
0
  6
CONTINUOUS
 62
1
 10
100.423021
 20
114.362857
 11
100.450815
 21
114.374945
  0
LINE
  8
0
  6
CONTINUOUS
 62
1
 10
100.450815
 20
114.374945
 11
100.482524
 21
114.388731
  0
LINE
  8
0
  6
CONTINUOUS
 62
1
 10
100.482524
 20
114.388731
 11
100.516931
 21
114.403692
  0
LINE
  8
0
  6
CONTINUOUS
 62
1
 10
100.516931
 20
114.403692
 11
100.552713
 21
114.419249
  0
ARC
  8
0
  6
CONTINUOUS
 62
1
 10
101.805176
 20
117.373710
 40
2.210000
 50
293.500000
 51
90.000000
  0
LINE
  8
0
  6
CONTINUOUS
 62
1
 10
101.805176
 20
119.669422
 11
101.805176
 21
119.703713
  0
ARC
  8
0
  6
CONTINUOUS
 62
1
 10
101.805176
 20
117.373710
 40
2.330000
 50
293.500000
 51
90.000000
  0
LINE
  8
0
  6
CONTINUOUS
 62
1
 10
92.673495
 20
119.703713
 11
92.627495
 21
119.699356
  0
LINE
  8
0
  6
CONTINUOUS
 62
1
 10
92.673495
 20
119.583711
 11
92.649109
 21
119.581309
  0
LINE
  8
0
  6
CONTINUOUS
 62
1
 10
92.649109
 20
119.581309
 11
92.627495
 21
119.574937
  0
LINE
  8
0
  6
CONTINUOUS
 62
1
 10
98.848495
 20
75.363710
 11
98.848495
 21
73.363709
  0
ARC
  8
0
  6
CONTINUOUS
 62
1
 10
104.136397
 20
97.693754
 40
0.050000
 50
30.000000
 51
87.595142
  0
ARC
  8
0
  6
CONTINUOUS
 62
1
 10
104.136397
 20
93.693666
 40
0.050000
 50
272.404858
 51
330.000000
  0
LINE
  8
0
  6
CONTINUOUS
 62
1
 10
104.331796
 20
97.455314
 11
104.179698
 21
97.718754
  0
LINE
  8
0
  6
CONTINUOUS
 62
1
 10
104.331796
 20
97.443709
 11
104.333384
 21
97.449970
  0
LINE
  8
0
  6
CONTINUOUS
 62
1
 10
104.333384
 20
97.449970
 11
104.331796
 21
97.455314
  0
LINE
  8
0
  6
CONTINUOUS
 62
1
 10
104.331796
 20
93.932107
 11
104.333384
 21
93.937451
  0
LINE
  8
0
  6
CONTINUOUS
 62
1
 10
104.333384
 20
93.937451
 11
104.331796
 21
93.943709
  0
LINE
  8
0
  6
CONTINUOUS
 62
1
 10
104.331796
 20
93.932107
 11
104.179698
 21
93.668666
  0
LINE
  8
0
  6
CONTINUOUS
 62
1
 10
104.338495
 20
97.430313
 11
104.338495
 21
93.957108
  0
LINE
  8
0
  6
CONTINUOUS
 62
1
 10
104.338495
 20
93.957108
 11
104.338364
 21
93.954059
  0
LINE
  8
0
  6
CONTINUOUS
 62
1
 10
104.338364
 20
93.954059
 11
104.338160
 21
93.952265
  0
LINE
  8
0
  6
CONTINUOUS
 62
1
 10
104.338160
 20
93.952265
 11
104.337088
 21
93.947825
  0
LINE
  8
0
  6
CONTINUOUS
 62
1
 10
104.337088
 20
93.947825
 11
104.335065
 21
93.944704
  0
LINE
  8
0
  6
CONTINUOUS
 62
1
 10
104.335065
 20
93.944704
 11
104.331796
 21
93.943709
  0
LINE
  8
0
  6
CONTINUOUS
 62
1
 10
104.338495
 20
97.430313
 11
104.338364
 21
97.433361
  0
LINE
  8
0
  6
CONTINUOUS
 62
1
 10
104.338364
 20
97.433361
 11
104.338160
 21
97.435155
  0
LINE
  8
0
  6
CONTINUOUS
 62
1
 10
104.338160
 20
97.435155
 11
104.337088
 21
97.439596
  0
LINE
  8
0
  6
CONTINUOUS
 62
1
 10
104.337088
 20
97.439596
 11
104.335065
 21
97.442716
  0
LINE
  8
0
  6
CONTINUOUS
 62
1
 10
104.335065
 20
97.442716
 11
104.331796
 21
97.443709
  0
ARC
  8
0
  6
CONTINUOUS
 62
1
 10
104.288481
 20
97.430310
 40
0.050014
 50
0.003108
 51
29.995926
  0
ARC
  8
0
  6
CONTINUOUS
 62
1
 10
104.288493
 20
93.957108
 40
0.050002
 50
330.000512
 51
0.000453
  0
LINE
  8
0
  6
CONTINUOUS
 62
1
 10
104.138495
 20
57.163710
 11
104.298495
 21
57.163710
  0
LINE
  8
0
  6
CONTINUOUS
 62
1
 10
104.298495
 20
56.964272
 11
104.298495
 21
57.163710
  0
LINE
  8
0
  6
CONTINUOUS
 62
1
 10
104.298495
 20
51.363109
 11
104.298495
 21
56.964272
  0
LINE
  8
0
  6
CONTINUOUS
 62
1
 10
104.138495
 20
51.163710
 11
104.298495
 21
51.163710
  0
LINE
  8
0
  6
CONTINUOUS
 62
1
 10
104.298495
 20
51.163710
 11
104.298495
 21
51.363109
  0
LINE
  8
0
  6
CONTINUOUS
 62
1
 10
104.438495
 20
56.909939
 11
104.438495
 21
51.417482
  0
ARC
  8
0
  6
CONTINUOUS
 62
1
 10
104.138495
 20
51.417482
 40
0.300000
 50
302.230951
 51
359.999968
  0
ARC
  8
0
  6
CONTINUOUS
 62
1
 10
104.138496
 20
56.909939
 40
0.300000
 50
0.000041
 51
57.769112
  0
ARC
  8
0
  6
CONTINUOUS
 62
1
 10
99.969143
 20
103.453710
 40
5.010000
 50
270.000000
 51
315.000000
  0
LINE
  8
0
  6
CONTINUOUS
 62
1
 10
99.178495
 20
98.443708
 11
99.969143
 21
98.443708
  0
LINE
  8
0
  6
CONTINUOUS
 62
1
 10
99.178495
 20
100.318709
 11
99.178495
 21
98.443708
  0
LINE
  8
0
  6
CONTINUOUS
 62
1
 10
103.511748
 20
99.911103
 11
103.919353
 21
100.318709
  0
CIRCLE
  8
0
  6
CONTINUOUS
 62
1
 10
101.178495
 20
99.563710
 40
0.160000
  0
LINE
  8
0
  6
CONTINUOUS
 62
1
 10
103.518819
 20
48.823386
 11
103.933495
 21
48.408710
  0
ARC
  8
0
  6
CONTINUOUS
 62
1
 10
99.969143
 20
45.273710
 40
5.020000
 50
45.000000
 51
90.000000
  0
LINE
  8
0
  6
CONTINUOUS
 62
1
 10
99.178495
 20
50.293710
 11
99.969143
 21
50.293710
  0
ARC
  8
0
  6
CONTINUOUS
 62
1
 10
99.969143
 20
103.453710
 40
5.020000
 50
270.000000
 51
315.000000
  0
LINE
  8
0
  6
CONTINUOUS
 62
1
 10
103.933495
 20
100.318709
 11
103.518819
 21
99.904033
  0
CIRCLE
  8
0
  6
CONTINUOUS
 62
1
 10
101.178495
 20
74.363710
 40
0.160000
  0
CIRCLE
  8
0
  6
CONTINUOUS
 62
1
 10
101.178495
 20
51.163710
 40
0.160000
  0
CIRCLE
  8
0
  6
CONTINUOUS
 62
1
 10
101.178495
 20
97.563710
 40
0.160000
  0
LINE
  8
0
  6
CONTINUOUS
 62
1
 10
99.178495
 20
98.433712
 11
99.178495
 21
50.293710
  0
LINE
  8
0
  6
CONTINUOUS
 62
1
 10
99.969143
 20
98.433712
 11
99.178495
 21
98.433712
  0
LINE
  8
0
  6
CONTINUOUS
 62
1
 10
99.178495
 20
48.408710
 11
99.178495
 21
50.283710
  0
LINE
  8
0
  6
CONTINUOUS
 62
1
 10
99.178495
 20
50.283710
 11
99.969143
 21
50.283710
  0
ARC
  8
0
  6
CONTINUOUS
 62
1
 10
99.969143
 20
45.273710
 40
5.010000
 50
45.000000
 51
90.000000
  0
LINE
  8
0
  6
CONTINUOUS
 62
1
 10
103.511748
 20
48.816315
 11
103.919353
 21
48.408710
  0
CIRCLE
  8
0
  6
CONTINUOUS
 62
1
 10
101.178495
 20
49.163710
 40
0.160000
  0
ARC
  8
0
  6
CONTINUOUS
 62
1
 10
105.512376
 20
100.311797
 40
1.593038
 50
172.355711
 51
179.751409
  0
LINE
  8
0
  6
CONTINUOUS
 62
1
 10
99.178495
 20
100.318709
 11
99.178495
 21
100.523707
  0
LINE
  8
0
  6
CONTINUOUS
 62
1
 10
99.178495
 20
100.523707
 11
103.933495
 21
100.523707
  0
LINE
  8
0
  6
CONTINUOUS
 62
1
 10
104.095976
 20
48.408710
 11
103.933495
 21
48.408710
  0
LINE
  8
0
  6
CONTINUOUS
 62
1
 10
103.933495
 20
100.318709
 11
104.095976
 21
100.318709
  0
LINE
  8
0
  6
CONTINUOUS
 62
1
 10
104.138495
 20
100.318709
 11
104.138495
 21
48.408710
  0
ARC
  8
0
  6
CONTINUOUS
 62
1
 10
105.512515
 20
48.415630
 40
1.593177
 50
180.248848
 51
187.643965
  0
LINE
  8
0
  6
CONTINUOUS
 62
1
 10
103.933495
 20
48.203710
 11
99.178495
 21
48.203710
  0
LINE
  8
0
  6
CONTINUOUS
 62
1
 10
99.178495
 20
48.203710
 11
99.178495
 21
48.408710
  0
LINE
  8
0
  6
CONTINUOUS
 62
1
 10
103.933495
 20
100.443712
 11
103.933495
 21
100.523707
  0
ARC
  8
0
  6
CONTINUOUS
 62
1
 10
103.933495
 20
100.318710
 40
0.205000
 50
0.000000
 51
90.000000
  0
ARC
  8
0
  6
CONTINUOUS
 62
1
 10
103.933495
 20
100.318710
 40
0.125000
 50
0.000000
 51
90.000000
  0
LINE
  8
0
  6
CONTINUOUS
 62
1
 10
104.095976
 20
100.318709
 11
104.138495
 21
100.318709
  0
LINE
  8
0
  6
CONTINUOUS
 62
1
 10
103.933495
 20
48.283710
 11
103.933495
 21
48.203710
  0
ARC
  8
0
  6
CONTINUOUS
 62
1
 10
103.933495
 20
48.408710
 40
0.125000
 50
270.000000
 51
0.000000
  0
LINE
  8
0
  6
CONTINUOUS
 62
1
 10
104.095976
 20
48.408710
 11
104.138495
 21
48.408710
  0
ARC
  8
0
  6
CONTINUOUS
 62
1
 10
103.933495
 20
48.408710
 40
0.205000
 50
270.000000
 51
0.000000
  0
LINE
  8
0
  6
CONTINUOUS
 62
1
 10
102.328495
 20
48.003710
 11
104.028495
 21
48.003710
  0
LINE
  8
0
  6
CONTINUOUS
 62
1
 10
103.178495
 20
47.953710
 11
103.978495
 21
47.953710
  0
LINE
  8
0
  6
CONTINUOUS
 62
1
 10
102.328495
 20
48.153710
 11
104.028495
 21
48.153710
  0
LINE
  8
0
  6
CONTINUOUS
 62
1
 10
103.933495
 20
48.203710
 11
103.978495
 21
48.203710
  0
LINE
  8
0
  6
CONTINUOUS
 62
1
 10
103.837082
 20
48.203710
 11
103.853068
 21
48.184620
  0
LINE
  8
0
  6
CONTINUOUS
 62
1
 10
103.853068
 20
48.184620
 11
103.853831
 21
48.183710
  0
LINE
  8
0
  6
CONTINUOUS
 62
1
 10
103.875709
 20
48.183710
 11
103.853831
 21
48.183710
  0
LINE
  8
0
  6
CONTINUOUS
 62
1
 10
103.875709
 20
48.183710
 11
103.874946
 21
48.184620
  0
LINE
  8
0
  6
CONTINUOUS
 62
1
 10
103.874946
 20
48.184620
 11
103.858960
 21
48.203710
  0
LINE
  8
0
  6
CONTINUOUS
 62
1
 10
103.858960
 20
48.183710
 11
103.858960
 21
48.203710
  0
LINE
  8
0
  6
CONTINUOUS
 62
1
 10
104.028495
 20
100.573710
 11
102.328495
 21
100.573710
  0
LINE
  8
0
  6
CONTINUOUS
 62
1
 10
103.978495
 20
100.523707
 11
103.933495
 21
100.523707
  0
LINE
  8
0
  6
CONTINUOUS
 62
1
 10
102.378745
 20
100.523707
 11
102.359649
 21
100.542799
  0
LINE
  8
0
  6
CONTINUOUS
 62
1
 10
102.359649
 20
100.542799
 11
102.358739
 21
100.543711
  0
LINE
  8
0
  6
CONTINUOUS
 62
1
 10
102.358495
 20
100.543711
 11
102.358739
 21
100.543711
  0
LINE
  8
0
  6
CONTINUOUS
 62
1
 10
104.028495
 20
100.723711
 11
102.328495
 21
100.723711
  0
LINE
  8
0
  6
CONTINUOUS
 62
1
 10
103.978495
 20
100.773713
 11
102.378495
 21
100.773713
  0
CIRCLE
  8
0
  6
CONTINUOUS
 62
1
 10
41.437491
 20
125.153710
 40
0.295000
  0
CIRCLE
  8
0
  6
CONTINUOUS
 62
1
 10
41.437491
 20
125.153710
 40
0.252500
  0
CIRCLE
  8
0
  6
CONTINUOUS
 62
1
 10
41.437491
 20
125.153710
 40
0.210000
  0
LINE
  8
0
  6
CONTINUOUS
 62
1
 10
103.178495
 20
47.703710
 11
103.978495
 21
47.703710
  0
LINE
  8
0
  6
CONTINUOUS
 62
1
 10
98.828495
 20
47.953710
 11
103.178495
 21
47.953710
  0
LINE
  8
0
  6
CONTINUOUS
 62
1
 10
98.828495
 20
47.703710
 11
103.178495
 21
47.703710
  0
LINE
  8
0
  6
CONTINUOUS
 62
1
 10
98.528495
 20
48.253710
 11
98.528495
 21
49.253710
  0
ARC
  8
0
  6
CONTINUOUS
 62
1
 10
98.828495
 20
48.253710
 40
0.550000
 50
180.000000
 51
270.000000
  0
ARC
  8
0
  6
CONTINUOUS
 62
1
 10
98.828495
 20
48.253710
 40
0.300000
 50
180.000000
 51
270.000000
  0
LINE
  8
0
  6
CONTINUOUS
 62
1
 10
98.278495
 20
49.753710
 11
98.528495
 21
49.753710
  0
LINE
  8
0
  6
CONTINUOUS
 62
1
 10
98.528495
 20
49.253710
 11
98.528495
 21
49.753710
  0
LINE
  8
0
  6
CONTINUOUS
 62
1
 10
102.788495
 20
47.653710
 11
103.568495
 21
47.653710
  0
LINE
  8
0
  6
CONTINUOUS
 62
1
 10
103.568495
 20
101.153710
 11
102.788495
 21
101.153710
  0
LINE
  8
0
  6
CONTINUOUS
 62
1
 10
103.178495
 20
101.103708
 11
103.978495
 21
101.103708
  0
LINE
  8
0
  6
CONTINUOUS
 62
1
 10
103.178495
 20
100.853708
 11
103.978495
 21
100.853708
  0
LINE
  8
0
  6
CONTINUOUS
 62
1
 10
98.828495
 20
101.103708
 11
103.178495
 21
101.103708
  0
LINE
  8
0
  6
CONTINUOUS
 62
1
 10
98.828495
 20
100.853708
 11
103.178495
 21
100.853708
  0
ARC
  8
0
  6
CONTINUOUS
 62
1
 10
98.828495
 20
101.403710
 40
0.550000
 50
180.000000
 51
270.000000
  0
ARC
  8
0
  6
CONTINUOUS
 62
1
 10
98.828495
 20
101.403710
 40
0.300000
 50
180.000000
 51
270.000000
  0
LINE
  8
0
  6
CONTINUOUS
 62
1
 10
98.528495
 20
101.403710
 11
98.528495
 21
101.948711
  0
LINE
  8
0
  6
CONTINUOUS
 62
1
 10
97.898495
 20
47.828710
 11
97.898495
 21
47.623710
  0
LINE
  8
0
  6
CONTINUOUS
 62
1
 10
27.559202
 20
47.623710
 11
97.898495
 21
47.623710
  0
ARC
  8
0
  6
CONTINUOUS
 62
1
 10
27.365275
 20
47.881470
 40
0.322565
 50
306.956147
 51
350.586141
  0
ARC
  8
0
  6
CONTINUOUS
 62
1
 10
27.741559
 20
47.501745
 40
0.332081
 50
100.069841
 51
142.388026
  0
LINE
  8
0
  6
CONTINUOUS
 62
1
 10
27.478497
 20
47.704417
 11
27.478497
 21
115.853003
  0
ARC
  8
0
  6
CONTINUOUS
 62
1
 10
27.730704
 20
116.037771
 40
0.312646
 50
216.226641
 51
261.315215
  0
ARC
  8
0
  6
CONTINUOUS
 62
1
 10
97.923495
 20
47.978710
 40
0.150000
 50
270.000000
 51
0.000000
  0
LINE
  8
0
  6
CONTINUOUS
 62
1
 10
97.923495
 20
47.828710
 11
97.898495
 21
47.828710
  0
LINE
  8
0
  6
CONTINUOUS
 62
1
 10
98.073495
 20
48.003710
 11
98.073495
 21
47.978710
  0
ARC
  8
0
  6
CONTINUOUS
 62
1
 10
27.478012
 20
47.908737
 40
0.220517
 50
291.603418
 51
338.721303
  0
LINE
  8
0
  6
CONTINUOUS
 62
1
 10
27.559202
 20
47.703710
 11
27.559202
 21
47.623710
  0
ARC
  8
0
  6
CONTINUOUS
 62
1
 10
27.768145
 20
47.618572
 40
0.226547
 50
111.940941
 51
157.732714
  0
LINE
  8
0
  6
CONTINUOUS
 62
1
 10
27.478497
 20
47.704417
 11
27.558492
 21
47.704417
  0
LINE
  8
0
  6
CONTINUOUS
 62
1
 10
98.073495
 20
115.728709
 11
98.100779
 21
115.739271
  0
LINE
  8
0
  6
CONTINUOUS
 62
1
 10
98.100779
 20
115.739271
 11
98.119010
 21
115.746424
  0
LINE
  8
0
  6
CONTINUOUS
 62
1
 10
98.119010
 20
115.746424
 11
98.146031
 21
115.757325
  0
LINE
  8
0
  6
CONTINUOUS
 62
1
 10
98.146031
 20
115.757325
 11
98.170914
 21
115.767893
  0
LINE
  8
0
  6
CONTINUOUS
 62
1
 10
98.170914
 20
115.767893
 11
98.186805
 21
115.775052
  0
LINE
  8
0
  6
CONTINUOUS
 62
1
 10
98.186805
 20
115.775052
 11
98.201980
 21
115.782312
  0
LINE
  8
0
  6
CONTINUOUS
 62
1
 10
98.201980
 20
115.782312
 11
98.209203
 21
115.785953
  0
LINE
  8
0
  6
CONTINUOUS
 62
1
 10
98.209203
 20
115.785953
 11
98.228452
 21
115.796521
  0
LINE
  8
0
  6
CONTINUOUS
 62
1
 10
98.228452
 20
115.796521
 11
98.239939
 21
115.803680
  0
LINE
  8
0
  6
CONTINUOUS
 62
1
 10
98.239939
 20
115.803680
 11
98.250203
 21
115.810940
  0
LINE
  8
0
  6
CONTINUOUS
 62
1
 10
98.250203
 20
115.810940
 11
98.254803
 21
115.814581
  0
LINE
  8
0
  6
CONTINUOUS
 62
1
 10
98.254803
 20
115.814581
 11
98.265926
 21
115.825149
  0
LINE
  8
0
  6
CONTINUOUS
 62
1
 10
98.265926
 20
115.825149
 11
98.271523
 21
115.832308
  0
LINE
  8
0
  6
CONTINUOUS
 62
1
 10
98.271523
 20
115.832308
 11
98.275547
 21
115.839568
  0
LINE
  8
0
  6
CONTINUOUS
 62
1
 10
98.275547
 20
115.839568
 11
98.276928
 21
115.843216
  0
LINE
  8
0
  6
CONTINUOUS
 62
1
 10
98.276928
 20
115.843216
 11
98.278102
 21
115.848097
  0
LINE
  8
0
  6
CONTINUOUS
 62
1
 10
98.278102
 20
115.848097
 11
98.278495
 21
115.853003
  0
LINE
  8
0
  6
CONTINUOUS
 62
1
 10
98.278495
 20
48.003710
 11
98.278495
 21
101.948711
  0
LINE
  8
0
  6
CONTINUOUS
 62
1
 10
98.278495
 20
102.028713
 11
98.278495
 21
102.128711
  0
LINE
  8
0
  6
CONTINUOUS
 62
1
 10
98.278495
 20
113.997480
 11
98.278495
 21
114.097479
  0
LINE
  8
0
  6
CONTINUOUS
 62
1
 10
98.278495
 20
114.177480
 11
98.278495
 21
115.853003
  0
LINE
  8
0
  6
CONTINUOUS
 62
1
 10
98.278495
 20
48.003710
 11
98.073495
 21
48.003710
  0
ARC
  8
0
  6
CONTINUOUS
 62
1
 10
27.762578
 20
115.933248
 40
0.219294
 50
201.464424
 51
248.861610
  0
LINE
  8
0
  6
CONTINUOUS
 62
1
 10
27.478497
 20
115.853003
 11
27.558492
 21
115.853003
  0
ARC
  8
0
  6
CONTINUOUS
 62
1
 10
97.980817
 20
115.946916
 40
0.237072
 50
293.012141
 51
336.663137
  0
LINE
  8
0
  6
CONTINUOUS
 62
1
 10
98.278495
 20
115.853003
 11
98.198495
 21
115.853003
  0
ARC
  8
0
  6
CONTINUOUS
 62
1
 10
27.365294
 20
115.675959
 40
0.322544
 50
9.412727
 51
53.045417
  0
LINE
  8
0
  6
CONTINUOUS
 62
1
 10
98.197788
 20
115.933707
 11
27.559202
 21
115.933707
  0
ARC
  8
0
  6
CONTINUOUS
 62
1
 10
98.391716
 20
115.675947
 40
0.322565
 50
126.956279
 51
170.585852
  0
ARC
  8
0
  6
CONTINUOUS
 62
1
 10
98.278998
 20
115.648669
 40
0.220540
 50
111.606588
 51
158.719755
  0
LINE
  8
0
  6
CONTINUOUS
 62
1
 10
98.197788
 20
115.853712
 11
98.197788
 21
115.933707
  0
ARC
  8
0
  6
CONTINUOUS
 62
1
 10
27.478003
 20
115.648679
 40
0.220526
 50
21.278820
 51
68.395146
  0
LINE
  8
0
  6
CONTINUOUS
 62
1
 10
27.559202
 20
115.933707
 11
27.559202
 21
115.853712
  0
LINE
  8
0
  6
CONTINUOUS
 62
1
 10
30.358492
 20
115.943709
 11
30.358492
 21
115.933707
  0
LINE
  8
0
  6
CONTINUOUS
 62
1
 10
98.197788
 20
115.933707
 11
98.197788
 21
115.943709
  0
LINE
  8
0
  6
CONTINUOUS
 62
1
 10
92.627495
 20
116.933712
 11
92.673495
 21
116.933712
  0
LINE
  8
0
  6
CONTINUOUS
 62
1
 10
96.028495
 20
30.703710
 11
90.728495
 21
30.703710
  0
LINE
  8
0
  6
CONTINUOUS
 62
1
 10
96.228495
 20
31.303710
 11
90.528495
 21
31.303710
  0
LINE
  8
0
  6
CONTINUOUS
 62
1
 10
37.728493
 20
31.303710
 11
32.028495
 21
31.303710
  0
LINE
  8
0
  6
CONTINUOUS
 62
1
 10
37.528496
 20
30.703710
 11
32.228493
 21
30.703710
  0
LINE
  8
0
  6
CONTINUOUS
 62
1
 10
97.878495
 20
47.503710
 11
97.878495
 21
47.623710
  0
LINE
  8
0
  6
CONTINUOUS
 62
1
 10
88.878495
 20
47.503710
 11
97.878495
 21
47.503710
  0
LINE
  8
0
  6
CONTINUOUS
 62
1
 10
88.878495
 20
47.503710
 11
88.878495
 21
47.623710
  0
LINE
  8
0
  6
CONTINUOUS
 62
1
 10
96.474460
 20
38.103710
 11
90.282530
 21
38.103710
  0
LINE
  8
0
  6
CONTINUOUS
 62
1
 10
39.378493
 20
47.503710
 11
39.378493
 21
47.623710
  0
LINE
  8
0
  6
CONTINUOUS
 62
1
 10
30.378495
 20
47.503710
 11
30.378495
 21
47.623710
  0
LINE
  8
0
  6
CONTINUOUS
 62
1
 10
30.378495
 20
47.503710
 11
39.378493
 21
47.503710
  0
LINE
  8
0
  6
CONTINUOUS
 62
1
 10
37.974458
 20
38.103710
 11
31.782531
 21
38.103710
  0
LINE
  8
0
  6
CONTINUOUS
 62
1
 10
25.108497
 20
86.953044
 11
25.648497
 21
86.953044
  0
LINE
  8
0
  6
CONTINUOUS
 62
1
 10
25.108497
 20
86.953044
 11
25.108497
 21
88.652375
  0
LINE
  8
0
  6
CONTINUOUS
 62
1
 10
25.108497
 20
88.652375
 11
25.648497
 21
88.652375
  0
LINE
  8
0
  6
CONTINUOUS
 62
1
 10
25.648497
 20
86.953044
 11
25.648497
 21
88.652375
  0
LINE
  8
0
  6
CONTINUOUS
 62
1
 10
25.108497
 20
88.652375
 11
25.108497
 21
90.353042
  0
LINE
  8
0
  6
CONTINUOUS
 62
1
 10
25.108497
 20
90.353042
 11
25.648497
 21
90.353042
  0
LINE
  8
0
  6
CONTINUOUS
 62
1
 10
25.648497
 20
88.652375
 11
25.648497
 21
90.353042
  0
LINE
  8
0
  6
CONTINUOUS
 62
1
 10
27.138494
 20
87.038302
 11
27.478497
 21
87.038302
  0
LINE
  8
0
  6
CONTINUOUS
 62
1
 10
27.138494
 20
88.606617
 11
27.478497
 21
88.606617
  0
LINE
  8
0
  6
CONTINUOUS
 62
1
 10
27.138494
 20
87.038302
 11
27.138494
 21
88.606617
  0
LINE
  8
0
  6
CONTINUOUS
 62
1
 10
27.138494
 20
88.700804
 11
27.478497
 21
88.700804
  0
LINE
  8
0
  6
CONTINUOUS
 62
1
 10
27.138494
 20
88.606617
 11
27.138494
 21
88.700804
  0
LINE
  8
0
  6
CONTINUOUS
 62
1
 10
27.138494
 20
90.269118
 11
27.478497
 21
90.269118
  0
LINE
  8
0
  6
CONTINUOUS
 62
1
 10
27.138494
 20
88.700804
 11
27.138494
 21
90.269118
  0
LINE
  8
0
  6
CONTINUOUS
 62
1
 10
26.308494
 20
88.653710
 11
26.308494
 21
90.341210
  0
LINE
  8
0
  6
CONTINUOUS
 62
1
 10
26.308494
 20
86.966211
 11
26.308494
 21
88.653710
  0
LINE
  8
0
  6
CONTINUOUS
 62
1
 10
24.213498
 20
88.653710
 11
24.213498
 21
89.716211
  0
LINE
  8
0
  6
CONTINUOUS
 62
1
 10
24.213498
 20
87.591210
 11
24.213498
 21
88.653710
  0
LINE
  8
0
  6
CONTINUOUS
 62
1
 10
26.843493
 20
88.653710
 11
26.843493
 21
90.238711
  0
LINE
  8
0
  6
CONTINUOUS
 62
1
 10
26.843493
 20
87.068710
 11
26.843493
 21
88.653710
  0
LINE
  8
0
  6
CONTINUOUS
 62
1
 10
27.138494
 20
86.991209
 11
27.478497
 21
86.991209
  0
LINE
  8
0
  6
CONTINUOUS
 62
1
 10
27.138494
 20
86.991209
 11
27.138494
 21
87.038302
  0
LINE
  8
0
  6
CONTINUOUS
 62
1
 10
27.138494
 20
90.316209
 11
27.478497
 21
90.316209
  0
LINE
  8
0
  6
CONTINUOUS
 62
1
 10
27.138494
 20
90.269118
 11
27.138494
 21
90.316209
  0
LINE
  8
0
  6
CONTINUOUS
 62
1
 10
25.108497
 20
90.354377
 11
25.648497
 21
90.354377
  0
LINE
  8
0
  6
CONTINUOUS
 62
1
 10
25.648497
 20
90.353042
 11
25.648497
 21
90.354377
  0
LINE
  8
0
  6
CONTINUOUS
 62
1
 10
25.108497
 20
90.353042
 11
25.108497
 21
90.354377
  0
LINE
  8
0
  6
CONTINUOUS
 62
1
 10
26.478498
 20
61.520405
 11
26.469581
 21
61.539014
  0
LINE
  8
0
  6
CONTINUOUS
 62
1
 10
26.469581
 20
61.539014
 11
26.443313
 21
61.555365
  0
LINE
  8
0
  6
CONTINUOUS
 62
1
 10
26.443313
 20
61.555365
 11
26.403879
 21
61.566999
  0
LINE
  8
0
  6
CONTINUOUS
 62
1
 10
26.403879
 20
61.566999
 11
26.357757
 21
61.572832
  0
LINE
  8
0
  6
CONTINUOUS
 62
1
 10
26.357757
 20
61.572832
 11
26.333498
 21
61.573566
  0
LINE
  8
0
  6
CONTINUOUS
 62
1
 10
26.478498
 20
61.520405
 11
26.478498
 21
60.949071
  0
LINE
  8
0
  6
CONTINUOUS
 62
1
 10
25.798492
 20
60.987775
 11
25.798492
 21
61.559109
  0
ARC
  8
0
  6
CONTINUOUS
 62
1
 10
26.456564
 20
60.942680
 40
0.022194
 50
262.049368
 51
351.225738
  0
LINE
  8
0
  6
CONTINUOUS
 62
1
 10
26.478498
 20
60.939294
 11
26.478498
 21
60.305385
  0
ARC
  8
0
  6
CONTINUOUS
 62
1
 10
26.380280
 20
60.942478
 40
0.022015
 50
188.315942
 51
278.395870
  0
LINE
  8
0
  6
CONTINUOUS
 62
1
 10
26.358496
 20
60.356463
 11
26.358496
 21
60.939294
  0
LINE
  8
0
  6
CONTINUOUS
 62
1
 10
26.383494
 20
60.920699
 11
26.453494
 21
60.920699
  0
LINE
  8
0
  6
CONTINUOUS
 62
1
 10
25.798492
 20
60.965267
 11
25.798492
 21
60.987775
  0
LINE
  8
0
  6
CONTINUOUS
 62
1
 10
26.478498
 20
60.949071
 11
26.478498
 21
60.939294
  0
LINE
  8
0
  6
CONTINUOUS
 62
1
 10
26.333498
 20
61.573566
 11
26.333498
 21
61.584109
  0
LINE
  8
0
  6
CONTINUOUS
 62
1
 10
26.358496
 20
61.583099
 11
26.358496
 21
61.828710
  0
LINE
  8
0
  6
CONTINUOUS
 62
1
 10
26.478498
 20
61.828710
 11
26.478498
 21
61.510628
  0
LINE
  8
0
  6
CONTINUOUS
 62
1
 10
25.798492
 20
60.430819
 11
25.798492
 21
60.481226
  0
LINE
  8
0
  6
CONTINUOUS
 62
1
 10
25.798492
 20
60.408312
 11
25.798492
 21
60.430819
  0
ARC
  8
0
  6
CONTINUOUS
 62
1
 10
26.333785
 20
61.829790
 40
0.023905
 50
42.099695
 51
90.689267
  0
LINE
  8
0
  6
CONTINUOUS
 62
1
 10
26.333498
 20
60.352799
 11
26.340728
 21
60.353078
  0
LINE
  8
0
  6
CONTINUOUS
 62
1
 10
26.340728
 20
60.353078
 11
26.347123
 21
60.353854
  0
LINE
  8
0
  6
CONTINUOUS
 62
1
 10
26.347123
 20
60.353854
 11
26.352476
 21
60.355090
  0
LINE
  8
0
  6
CONTINUOUS
 62
1
 10
26.352476
 20
60.355090
 11
26.356583
 21
60.356870
  0
LINE
  8
0
  6
CONTINUOUS
 62
1
 10
26.356583
 20
60.356870
 11
26.358496
 21
60.359397
  0
LINE
  8
0
  6
CONTINUOUS
 62
1
 10
26.358496
 20
60.359397
 11
26.358496
 21
60.359472
  0
LINE
  8
0
  6
CONTINUOUS
 62
1
 10
26.358496
 20
61.828631
 11
26.358496
 21
61.573745
  0
LINE
  8
0
  6
CONTINUOUS
 62
1
 10
26.358496
 20
60.949071
 11
26.358496
 21
60.359472
  0
LINE
  8
0
  6
CONTINUOUS
 62
1
 10
26.238494
 20
60.359472
 11
26.238494
 21
60.359397
  0
LINE
  8
0
  6
CONTINUOUS
 62
1
 10
26.238494
 20
60.359397
 11
26.240407
 21
60.356870
  0
LINE
  8
0
  6
CONTINUOUS
 62
1
 10
26.240407
 20
60.356870
 11
26.244514
 21
60.355090
  0
LINE
  8
0
  6
CONTINUOUS
 62
1
 10
26.244514
 20
60.355090
 11
26.249867
 21
60.353854
  0
LINE
  8
0
  6
CONTINUOUS
 62
1
 10
26.249867
 20
60.353854
 11
26.256262
 21
60.353078
  0
LINE
  8
0
  6
CONTINUOUS
 62
1
 10
26.256262
 20
60.353078
 11
26.263492
 21
60.352799
  0
LINE
  8
0
  6
CONTINUOUS
 62
1
 10
26.238494
 20
60.359472
 11
26.238494
 21
60.940267
  0
LINE
  8
0
  6
CONTINUOUS
 62
1
 10
26.238494
 20
61.584109
 11
26.238494
 21
61.828631
  0
LINE
  8
0
  6
CONTINUOUS
 62
1
 10
26.333498
 20
61.853693
 11
26.263492
 21
61.853693
  0
LINE
  8
0
  6
CONTINUOUS
 62
1
 10
26.333498
 20
60.352799
 11
26.263492
 21
60.352799
  0
ARC
  8
0
  6
CONTINUOUS
 62
1
 10
26.382166
 20
60.109904
 40
0.143675
 50
180.351763
 51
270.529622
  0
ARC
  8
0
  6
CONTINUOUS
 62
1
 10
26.379809
 20
60.333788
 40
0.141374
 50
181.655458
 51
271.493648
  0
LINE
  8
0
  6
CONTINUOUS
 62
1
 10
26.238494
 20
60.109021
 11
26.238494
 21
60.329704
  0
LINE
  8
0
  6
CONTINUOUS
 62
1
 10
26.918494
 20
60.211855
 11
26.918494
 21
59.991173
  0
LINE
  8
0
  6
CONTINUOUS
 62
1
 10
26.918494
 20
60.280386
 11
26.918494
 21
60.211855
  0
LINE
  8
0
  6
CONTINUOUS
 62
1
 10
26.358496
 20
60.359472
 11
26.358496
 21
60.329704
  0
LINE
  8
0
  6
CONTINUOUS
 62
1
 10
26.238494
 20
60.329704
 11
26.238494
 21
60.359472
  0
LINE
  8
0
  6
CONTINUOUS
 62
1
 10
26.383494
 20
59.966235
 11
26.383494
 21
59.966173
  0
LINE
  8
0
  6
CONTINUOUS
 62
1
 10
26.358496
 20
61.858399
 11
26.358496
 21
61.828710
  0
LINE
  8
0
  6
CONTINUOUS
 62
1
 10
26.238494
 20
61.828631
 11
26.238494
 21
61.858399
  0
ARC
  8
0
  6
CONTINUOUS
 62
1
 10
26.382431
 20
61.857247
 40
0.143942
 50
89.576960
 51
179.541356
  0
ARC
  8
0
  6
CONTINUOUS
 62
1
 10
26.383204
 20
61.858034
 40
0.024710
 50
89.326502
 51
179.154374
  0
LINE
  8
0
  6
CONTINUOUS
 62
1
 10
26.918494
 20
61.976248
 11
26.918494
 21
61.907716
  0
LINE
  8
0
  6
CONTINUOUS
 62
1
 10
26.918494
 20
61.907716
 11
26.918494
 21
61.687034
  0
LINE
  8
0
  6
CONTINUOUS
 62
1
 10
26.202451
 20
60.940267
 11
26.238494
 21
60.737473
  0
LINE
  8
0
  6
CONTINUOUS
 62
1
 10
26.238494
 20
60.737473
 11
26.238250
 21
60.719614
  0
LINE
  8
0
  6
CONTINUOUS
 62
1
 10
26.238250
 20
60.719614
 11
26.193838
 21
60.486230
  0
LINE
  8
0
  6
CONTINUOUS
 62
1
 10
26.193838
 20
60.486230
 11
25.763153
 21
60.486230
  0
ARC
  8
0
  6
CONTINUOUS
 62
1
 10
26.483024
 20
60.743770
 40
0.764553
 50
180.471906
 51
199.685074
  0
LINE
  8
0
  6
CONTINUOUS
 62
1
 10
25.763153
 20
60.988714
 11
25.730752
 21
60.865624
  0
LINE
  8
0
  6
CONTINUOUS
 62
1
 10
25.730752
 20
60.865624
 11
25.718497
 21
60.737473
  0
LINE
  8
0
  6
CONTINUOUS
 62
1
 10
25.798492
 20
60.988714
 11
25.763153
 21
60.988714
  0
LINE
  8
0
  6
CONTINUOUS
 62
1
 10
25.763153
 20
60.988714
 11
25.744216
 21
61.051570
  0
LINE
  8
0
  6
CONTINUOUS
 62
1
 10
25.744216
 20
61.051570
 11
25.718497
 21
61.237453
  0
LINE
  8
0
  6
CONTINUOUS
 62
1
 10
25.718497
 20
60.737473
 11
25.718497
 21
61.237453
  0
ARC
  8
0
  6
CONTINUOUS
 62
1
 10
26.488455
 20
61.227603
 40
0.770021
 50
160.377429
 51
179.267064
  0
LINE
  8
0
  6
CONTINUOUS
 62
1
 10
25.798492
 20
61.486193
 11
25.763153
 21
61.486193
  0
LINE
  8
0
  6
CONTINUOUS
 62
1
 10
25.763153
 20
60.486230
 11
25.730752
 21
60.485005
  0
LINE
  8
0
  6
CONTINUOUS
 62
1
 10
25.730752
 20
60.485005
 11
25.718497
 21
60.483728
  0
LINE
  8
0
  6
CONTINUOUS
 62
1
 10
25.718497
 20
60.483728
 11
25.718497
 21
60.737473
  0
LINE
  8
0
  6
CONTINUOUS
 62
1
 10
26.193838
 20
60.486230
 11
26.238494
 21
60.483728
  0
ARC
  8
0
  6
CONTINUOUS
 62
1
 10
25.759306
 20
61.155085
 40
0.331131
 50
89.334314
 51
97.079137
  0
LINE
  8
0
  6
CONTINUOUS
 62
1
 10
25.718497
 20
61.237453
 11
25.718497
 21
61.483692
  0
ARC
  8
0
  6
CONTINUOUS
 62
1
 10
26.205064
 20
60.680633
 40
0.199722
 50
266.777836
 51
279.635615
  0
LINE
  8
0
  6
CONTINUOUS
 62
1
 10
26.193838
 20
60.481226
 11
25.763153
 21
60.481226
  0
ARC
  8
0
  6
CONTINUOUS
 62
1
 10
25.751902
 20
60.680197
 40
0.199288
 50
260.350312
 51
273.236237
  0
LINE
  8
0
  6
CONTINUOUS
 62
1
 10
26.953839
 20
61.180119
 11
26.998495
 21
60.895927
  0
LINE
  8
0
  6
CONTINUOUS
 62
1
 10
26.998495
 20
60.895927
 11
26.998251
 21
60.875726
  0
LINE
  8
0
  6
CONTINUOUS
 62
1
 10
26.998251
 20
60.875726
 11
26.953839
 21
60.611737
  0
LINE
  8
0
  6
CONTINUOUS
 62
1
 10
26.953839
 20
60.611737
 11
26.523154
 21
60.611737
  0
ARC
  8
0
  6
CONTINUOUS
 62
1
 10
27.447374
 20
60.902566
 40
0.968899
 50
180.392603
 51
197.467514
  0
LINE
  8
0
  6
CONTINUOUS
 62
1
 10
26.523154
 20
61.180119
 11
26.490753
 21
61.040886
  0
LINE
  8
0
  6
CONTINUOUS
 62
1
 10
26.490753
 20
61.040886
 11
26.478498
 21
60.895927
  0
LINE
  8
0
  6
CONTINUOUS
 62
1
 10
26.953839
 20
61.180119
 11
26.523154
 21
61.180119
  0
LINE
  8
0
  6
CONTINUOUS
 62
1
 10
26.953839
 20
61.180119
 11
26.972770
 21
61.227117
  0
LINE
  8
0
  6
CONTINUOUS
 62
1
 10
26.972770
 20
61.227117
 11
26.998495
 21
61.366107
  0
LINE
  8
0
  6
CONTINUOUS
 62
1
 10
26.998495
 20
61.366107
 11
26.998495
 21
60.895927
  0
LINE
  8
0
  6
CONTINUOUS
 62
1
 10
26.523154
 20
61.180119
 11
26.504217
 21
61.227117
  0
LINE
  8
0
  6
CONTINUOUS
 62
1
 10
26.504217
 20
61.227117
 11
26.478498
 21
61.366107
  0
LINE
  8
0
  6
CONTINUOUS
 62
1
 10
26.523154
 20
60.611737
 11
26.490753
 21
60.563624
  0
LINE
  8
0
  6
CONTINUOUS
 62
1
 10
26.490753
 20
60.563624
 11
26.478498
 21
60.513532
  0
LINE
  8
0
  6
CONTINUOUS
 62
1
 10
26.953839
 20
60.611737
 11
26.998495
 21
60.513532
  0
LINE
  8
0
  6
CONTINUOUS
 62
1
 10
26.998495
 20
60.895927
 11
26.998495
 21
60.513532
  0
ARC
  8
0
  6
CONTINUOUS
 62
1
 10
26.926164
 20
61.356975
 40
0.447759
 50
154.165976
 51
178.831376
  0
LINE
  8
0
  6
CONTINUOUS
 62
1
 10
26.953839
 20
61.552092
 11
26.523154
 21
61.552092
  0
LINE
  8
0
  6
CONTINUOUS
 62
1
 10
26.998495
 20
61.366107
 11
26.994954
 21
61.416720
  0
LINE
  8
0
  6
CONTINUOUS
 62
1
 10
26.994954
 20
61.416720
 11
26.953839
 21
61.552092
  0
ARC
  8
0
  6
CONTINUOUS
 62
1
 10
26.853327
 20
60.520288
 40
0.145325
 50
313.759856
 51
357.335467
  0
LINE
  8
0
  6
CONTINUOUS
 62
1
 10
26.953839
 20
60.415327
 11
26.523154
 21
60.415327
  0
LINE
  8
0
  6
CONTINUOUS
 62
1
 10
26.498072
 20
60.452010
 11
26.523154
 21
60.415327
  0
LINE
  8
0
  6
CONTINUOUS
 62
1
 10
26.497315
 20
61.515422
 11
26.505684
 21
61.529434
  0
LINE
  8
0
  6
CONTINUOUS
 62
1
 10
26.505684
 20
61.529434
 11
26.523154
 21
61.552092
  0
LINE
  8
0
  6
CONTINUOUS
 62
1
 10
26.979678
 20
61.515422
 11
26.971303
 21
61.529434
  0
LINE
  8
0
  6
CONTINUOUS
 62
1
 10
26.971303
 20
61.529434
 11
26.953839
 21
61.552092
  0
LINE
  8
0
  6
CONTINUOUS
 62
1
 10
26.998495
 20
61.366107
 11
26.998495
 21
61.483709
  0
LINE
  8
0
  6
CONTINUOUS
 62
1
 10
26.998495
 20
60.513532
 11
26.998495
 21
60.483710
  0
LINE
  8
0
  6
CONTINUOUS
 62
1
 10
27.478497
 20
60.866611
 11
27.068155
 21
60.866611
  0
ARC
  8
0
  6
CONTINUOUS
 62
1
 10
27.927924
 20
61.147390
 40
0.904456
 50
180.424503
 51
198.085775
  0
LINE
  8
0
  6
CONTINUOUS
 62
1
 10
27.068155
 20
61.414768
 11
27.035754
 21
61.280489
  0
LINE
  8
0
  6
CONTINUOUS
 62
1
 10
27.035754
 20
61.280489
 11
27.023493
 21
61.140689
  0
LINE
  8
0
  6
CONTINUOUS
 62
1
 10
27.478497
 20
61.414768
 11
27.068155
 21
61.414768
  0
LINE
  8
0
  6
CONTINUOUS
 62
1
 10
27.068155
 20
60.866611
 11
27.035754
 21
60.761017
  0
LINE
  8
0
  6
CONTINUOUS
 62
1
 10
27.035754
 20
60.761017
 11
27.023493
 21
60.651082
  0
LINE
  8
0
  6
CONTINUOUS
 62
1
 10
27.023493
 20
60.651082
 11
27.023493
 21
61.140689
  0
LINE
  8
0
  6
CONTINUOUS
 62
1
 10
27.478497
 20
60.435553
 11
27.068155
 21
60.435553
  0
ARC
  8
0
  6
CONTINUOUS
 62
1
 10
27.595515
 20
60.657224
 40
0.572055
 50
180.615201
 51
202.799007
  0
LINE
  8
0
  6
CONTINUOUS
 62
1
 10
27.068155
 20
61.414768
 11
27.049218
 21
61.429563
  0
LINE
  8
0
  6
CONTINUOUS
 62
1
 10
27.049218
 20
61.429563
 11
27.023493
 21
61.473317
  0
LINE
  8
0
  6
CONTINUOUS
 62
1
 10
27.023493
 20
61.140689
 11
27.023493
 21
61.473317
  0
ARC
  8
0
  6
CONTINUOUS
 62
1
 10
27.103316
 20
61.458739
 40
0.081143
 50
115.678399
 51
169.650115
  0
LINE
  8
0
  6
CONTINUOUS
 62
1
 10
27.478497
 20
61.531869
 11
27.068155
 21
61.531869
  0
ARC
  8
0
  6
CONTINUOUS
 62
1
 10
27.109267
 20
60.513222
 40
0.087879
 50
192.566203
 51
242.106688
  0
LINE
  8
0
  6
CONTINUOUS
 62
1
 10
27.023493
 20
60.651082
 11
27.023493
 21
60.484539
  0
LINE
  8
0
  6
CONTINUOUS
 62
1
 10
29.718493
 20
115.933707
 11
29.718493
 21
115.943709
  0
LINE
  8
0
  6
CONTINUOUS
 62
1
 10
27.598493
 20
115.787938
 11
27.598493
 21
115.837029
  0
LINE
  8
0
  6
CONTINUOUS
 62
1
 10
27.598493
 20
115.933707
 11
27.598493
 21
115.943709
  0
LINE
  8
0
  6
CONTINUOUS
 62
1
 10
97.923495
 20
47.828710
 11
97.923495
 21
47.703710
  0
LINE
  8
0
  6
CONTINUOUS
 62
1
 10
97.923495
 20
47.703710
 11
97.898495
 21
47.703710
  0
LINE
  8
0
  6
CONTINUOUS
 62
1
 10
98.198495
 20
48.003710
 11
98.198495
 21
47.978710
  0
LINE
  8
0
  6
CONTINUOUS
 62
1
 10
98.198495
 20
47.978710
 11
98.073495
 21
47.978710
  0
ARC
  8
0
  6
CONTINUOUS
 62
1
 10
97.923495
 20
47.978710
 40
0.275000
 50
270.000000
 51
0.000000
  0
ENDSEC
  0
EOF
