  0
SECTION
  2
HEADER
  9
$ACADVER
  1
AC1015
  9
$ACADMAINTVER
 70
     6
  9
$DWGCODEPAGE
  3
ANSI_1252
  9
$INSBASE
 10
0.0
 20
0.0
 30
0.0
  9
$EXTMIN
 10
0.0
 20
0.0
 30
0.0
  9
$EXTMAX
 10
431.8
 20
279.4
 30
0.0
  9
$LIMMIN
 10
0.0
 20
0.0
  9
$LIMMAX
 10
431.8
 20
279.4
  9
$ORTHOMODE
 70
     0
  9
$REGENMODE
 70
     1
  9
$FILLMODE
 70
     1
  9
$QTEXTMODE
 70
     0
  9
$MIRRTEXT
 70
     1
  9
$LTSCALE
 40
1.0
  9
$ATTMODE
 70
     1
  9
$TEXTSIZE
 40
3.5
  9
$TRACEWID
 40
1.0
  9
$TEXTSTYLE
  7
Standard
  9
$CLAYER
  8
0
  9
$CELTYPE
  6
ByLayer
  9
$CECOLOR
 62
   256
  9
$CELTSCALE
 40
1.0
  9
$DISPSILH
 70
     0
  9
$DIMSCALE
 40
1.0
  9
$DIMASZ
 40
3.302
  9
$DIMEXO
 40
1.0
  9
$DIMDLI
 40
3.75
  9
$DIMRND
 40
0.0
  9
$DIMDLE
 40
0.0
  9
$DIMEXE
 40
1.0
  9
$DIMTP
 40
0.0
  9
$DIMTM
 40
0.0
  9
$DIMTXT
 40
3.5
  9
$DIMCEN
 40
2.5
  9
$DIMTSZ
 40
0.0
  9
$DIMTOL
 70
     0
  9
$DIMLIM
 70
     0
  9
$DIMTIH
 70
     1
  9
$DIMTOH
 70
     1
  9
$DIMSE1
 70
     0
  9
$DIMSE2
 70
     0
  9
$DIMTAD
 70
     1
  9
$DIMZIN
 70
     0
  9
$DIMBLK
  1

  9
$DIMASO
 70
     1
  9
$DIMSHO
 70
     1
  9
$DIMPOST
  1

  9
$DIMAPOST
  1

  9
$DIMALT
 70
     0
  9
$DIMALTD
 70
     3
  9
$DIMALTF
 40
0.0393700787
  9
$DIMLFAC
 40
5.0
  9
$DIMTOFL
 70
     1
  9
$DIMTVP
 40
0.0
  9
$DIMTIX
 70
     0
  9
$DIMSOXD
 70
     0
  9
$DIMSAH
 70
     0
  9
$DIMBLK1
  1

  9
$DIMBLK2
  1

  9
$DIMSTYLE
  2
ISO-25
  9
$DIMCLRD
 70
     0
  9
$DIMCLRE
 70
     0
  9
$DIMCLRT
 70
     0
  9
$DIMTFAC
 40
1.0
  9
$DIMGAP
 40
1.524
  9
$DIMJUST
 70
     0
  9
$DIMSD1
 70
     0
  9
$DIMSD2
 70
     0
  9
$DIMTOLJ
 70
     0
  9
$DIMTZIN
 70
     0
  9
$DIMALTZ
 70
     0
  9
$DIMALTTZ
 70
     0
  9
$DIMUPT
 70
     0
  9
$DIMDEC
 70
     2
  9
$DIMTDEC
 70
     2
  9
$DIMALTU
 70
     2
  9
$DIMALTTD
 70
     3
  9
$DIMTXSTY
  7
Standard
  9
$DIMAUNIT
 70
     0
  9
$DIMADEC
 70
     2
  9
$DIMALTRND
 40
0.0
  9
$DIMAZIN
 70
     0
  9
$DIMDSEP
 70
    44
  9
$DIMATFIT
 70
     3
  9
$DIMFRAC
 70
     0
  9
$DIMLDRBLK
  1

  9
$DIMLUNIT
 70
     2
  9
$DIMLWD
 70
    -2
  9
$DIMLWE
 70
    -2
  9
$DIMTMOVE
 70
     0
  9
$LUNITS
 70
     2
  9
$LUPREC
 70
     2
  9
$SKETCHINC
 40
1.0
  9
$FILLETRAD
 40
10.0
  9
$AUNITS
 70
     0
  9
$AUPREC
 70
     2
  9
$MENU
  1
.
  9
$ELEVATION
 40
0.0
  9
$PELEVATION
 40
0.0
  9
$THICKNESS
 40
0.0
  9
$LIMCHECK
 70
     0
  9
$CHAMFERA
 40
10.0
  9
$CHAMFERB
 40
10.0
  9
$CHAMFERC
 40
20.0
  9
$CHAMFERD
 40
0.0
  9
$SKPOLY
 70
     0
  9
$TDCREATE
 40
2456051.350343206
  9
$TDUCREATE
 40
2456051.308676539
  9
$TDUPDATE
 40
2456051.350344826
  9
$TDUUPDATE
 40
2456051.308678159
  9
$TDINDWG
 40
0.0000000116
  9
$TDUSRTIMER
 40
0.0000000116
  9
$USRTIMER
 70
     1
  9
$ANGBASE
 50
0.0
  9
$ANGDIR
 70
     0
  9
$PDMODE
 70
     0
  9
$PDSIZE
 40
-1.0
  9
$PLINEWID
 40
0.0
  9
$SPLFRAME
 70
     0
  9
$SPLINETYPE
 70
     6
  9
$SPLINESEGS
 70
     8
  9
$HANDSEED
  5
36F
  9
$SURFTAB1
 70
     6
  9
$SURFTAB2
 70
     6
  9
$SURFTYPE
 70
     6
  9
$SURFU
 70
     6
  9
$SURFV
 70
     6
  9
$UCSBASE
  2

  9
$UCSNAME
  2

  9
$UCSORG
 10
0.0
 20
0.0
 30
0.0
  9
$UCSXDIR
 10
1.0
 20
0.0
 30
0.0
  9
$UCSYDIR
 10
0.0
 20
1.0
 30
0.0
  9
$UCSORTHOREF
  2

  9
$UCSORTHOVIEW
 70
     0
  9
$UCSORGTOP
 10
0.0
 20
0.0
 30
0.0
  9
$UCSORGBOTTOM
 10
0.0
 20
0.0
 30
0.0
  9
$UCSORGLEFT
 10
0.0
 20
0.0
 30
0.0
  9
$UCSORGRIGHT
 10
0.0
 20
0.0
 30
0.0
  9
$UCSORGFRONT
 10
0.0
 20
0.0
 30
0.0
  9
$UCSORGBACK
 10
0.0
 20
0.0
 30
0.0
  9
$PUCSBASE
  2

  9
$PUCSNAME
  2

  9
$PUCSORG
 10
0.0
 20
0.0
 30
0.0
  9
$PUCSXDIR
 10
1.0
 20
0.0
 30
0.0
  9
$PUCSYDIR
 10
0.0
 20
1.0
 30
0.0
  9
$PUCSORTHOREF
  2

  9
$PUCSORTHOVIEW
 70
     0
  9
$PUCSORGTOP
 10
0.0
 20
0.0
 30
0.0
  9
$PUCSORGBOTTOM
 10
0.0
 20
0.0
 30
0.0
  9
$PUCSORGLEFT
 10
0.0
 20
0.0
 30
0.0
  9
$PUCSORGRIGHT
 10
0.0
 20
0.0
 30
0.0
  9
$PUCSORGFRONT
 10
0.0
 20
0.0
 30
0.0
  9
$PUCSORGBACK
 10
0.0
 20
0.0
 30
0.0
  9
$USERI1
 70
     0
  9
$USERI2
 70
     0
  9
$USERI3
 70
     0
  9
$USERI4
 70
     0
  9
$USERI5
 70
     0
  9
$USERR1
 40
0.0
  9
$USERR2
 40
0.0
  9
$USERR3
 40
0.0
  9
$USERR4
 40
0.0
  9
$USERR5
 40
0.0
  9
$WORLDVIEW
 70
     1
  9
$SHADEDGE
 70
     3
  9
$SHADEDIF
 70
    70
  9
$TILEMODE
 70
     1
  9
$MAXACTVP
 70
    64
  9
$PINSBASE
 10
0.0
 20
0.0
 30
0.0
  9
$PLIMCHECK
 70
     0
  9
$PEXTMIN
 10
1.0000000000E+20
 20
1.0000000000E+20
 30
1.0000000000E+20
  9
$PEXTMAX
 10
-1.0000000000E+20
 20
-1.0000000000E+20
 30
-1.0000000000E+20
  9
$PLIMMIN
 10
0.0
 20
0.0
  9
$PLIMMAX
 10
420.0
 20
297.0
  9
$UNITMODE
 70
     0
  9
$VISRETAIN
 70
     1
  9
$PLINEGEN
 70
     0
  9
$PSLTSCALE
 70
     1
  9
$TREEDEPTH
 70
  3020
  9
$CMLSTYLE
  2
Standard
  9
$CMLJUST
 70
     0
  9
$CMLSCALE
 40
20.0
  9
$PROXYGRAPHICS
 70
     1
  9
$MEASUREMENT
 70
     1
  9
$CELWEIGHT
370
    -1
  9
$ENDCAPS
280
     0
  9
$JOINSTYLE
280
     0
  9
$LWDISPLAY
290
     1
  9
$INSUNITS
 70
     4
  9
$HYPERLINKBASE
  1

  9
$STYLESHEET
  1

  9
$XEDIT
290
     1
  9
$CEPSNTYPE
380
     0
  9
$PSTYLEMODE
290
     1
  9
$FINGERPRINTGUID
  2
{D3E8D3E4-07AF-4A66-9690-6539EEC94AFB}
  9
$VERSIONGUID
  2
{FAEB1C32-E019-11D5-929B-00C0DF256EC4}
  9
$EXTNAMES
290
     1
  9
$PSVPSCALE
 40
0.0
  9
$OLESTARTUP
290
     0
  0
ENDSEC
  0
SECTION
  2
CLASSES
  0
CLASS
  1
ACDBDICTIONARYWDFLT
  2
AcDbDictionaryWithDefault
  3
ObjectDBX Classes
 90
        0
280
     0
281
     0
  0
CLASS
  1
VISUALSTYLE
  2
AcDbVisualStyle
  3
ObjectDBX Classes
 90
     4095
280
     0
281
     0
  0
CLASS
  1
MATERIAL
  2
AcDbMaterial
  3
ObjectDBX Classes
 90
     1153
280
     0
281
     0
  0
CLASS
  1
ACDBPLACEHOLDER
  2
AcDbPlaceHolder
  3
ObjectDBX Classes
 90
        0
280
     0
281
     0
  0
CLASS
  1
LAYOUT
  2
AcDbLayout
  3
ObjectDBX Classes
 90
        0
280
     0
281
     0
  0
ENDSEC
  0
SECTION
  2
TABLES
  0
TABLE
  2
VPORT
  5
8
330
0
100
AcDbSymbolTable
 70
     1
  0
VPORT
  5
29
330
8
100
AcDbSymbolTableRecord
100
AcDbViewportTableRecord
  2
*Active
 70
     0
 10
0.0
 20
0.0
 11
1.0
 21
1.0
 12
215.9
 22
139.7
 13
0.0
 23
0.0
 14
10.0
 24
10.0
 15
10.0
 25
10.0
 16
0.0
 26
0.0
 36
1.0
 17
0.0
 27
0.0
 37
0.0
 40
279.4
 41
1.5454545455
 42
50.0
 43
0.0
 44
0.0
 50
0.0
 51
0.0
 71
     0
 72
  2000
 73
     1
 74
     3
 75
     0
 76
     0
 77
     0
 78
     0
281
     0
 65
     1
110
0.0
120
0.0
130
0.0
111
1.0
121
0.0
131
0.0
112
0.0
122
1.0
132
0.0
 79
     0
146
0.0
  0
ENDTAB
  0
TABLE
  2
LTYPE
  5
5
330
0
100
AcDbSymbolTable
 70
     6
  0
LTYPE
  5
14
330
5
100
AcDbSymbolTableRecord
100
AcDbLinetypeTableRecord
  2
ByBlock
 70
     0
  3

 72
    65
 73
     0
 40
0.0
  0
LTYPE
  5
15
330
5
100
AcDbSymbolTableRecord
100
AcDbLinetypeTableRecord
  2
ByLayer
 70
     0
  3

 72
    65
 73
     0
 40
0.0
  0
LTYPE
  5
16
330
5
100
AcDbSymbolTableRecord
100
AcDbLinetypeTableRecord
  2
Continuous
 70
     0
  3
Solid line
 72
    65
 73
     0
 40
0.0
  0
LTYPE
  5
3F
330
5
100
AcDbSymbolTableRecord
100
AcDbLinetypeTableRecord
  2
HIDDEN
 70
     0
  3
Hidden __ __ __ __ __ __ __ __ __ __ __ __ __ __
 72
    65
 73
     2
 40
1.905
 49
1.27
 74
     0
 49
-0.635
 74
     0
  0
LTYPE
  5
40
330
5
100
AcDbSymbolTableRecord
100
AcDbLinetypeTableRecord
  2
PHANTOM
 70
     0
  3
Phantom ______  __  __  ______  __  __  ______
 72
    65
 73
     6
 40
12.7
 49
6.35
 74
     0
 49
-1.27
 74
     0
 49
1.27
 74
     0
 49
-1.27
 74
     0
 49
1.27
 74
     0
 49
-1.27
 74
     0
  0
LTYPE
  5
41
330
5
100
AcDbSymbolTableRecord
100
AcDbLinetypeTableRecord
  2
CENTER
 70
     0
  3
Center ____ _ ____ _ ____ _ ____ _ ____ _ ____
 72
    65
 73
     4
 40
10.16
 49
6.35
 74
     0
 49
-1.27
 74
     0
 49
1.27
 74
     0
 49
-1.27
 74
     0
  0
LTYPE
  5
42
330
5
100
AcDbSymbolTableRecord
100
AcDbLinetypeTableRecord
  2
CENTERX2
 70
     0
  3
Center (2x) ________  __  ________  __  _____
 72
    65
 73
     4
 40
20.32
 49
12.7
 74
     0
 49
-2.54
 74
     0
 49
2.54
 74
     0
 49
-2.54
 74
     0
  0
LTYPE
  5
43
330
5
100
AcDbSymbolTableRecord
100
AcDbLinetypeTableRecord
  2
DOT2
 70
     0
  3
Dot (.5x) ........................................
 72
    65
 73
     2
 40
0.635
 49
0.0
 74
     0
 49
-0.635
 74
     0
  0
ENDTAB
  0
TABLE
  2
LAYER
  5
2
330
0
100
AcDbSymbolTable
 70
     1
  0
LAYER
  5
10
330
2
100
AcDbSymbolTableRecord
100
AcDbLayerTableRecord
  2
0
 70
     0
 62
     7
  6
Continuous
370
    -3
390
F
  0
ENDTAB
  0
TABLE
  2
STYLE
  5
3
330
0
100
AcDbSymbolTable
 70
     1
  0
STYLE
  5
11
330
3
100
AcDbSymbolTableRecord
100
AcDbTextStyleTableRecord
  2
Standard
 70
     0
 40
0.0
 41
1.0
 50
0.0
 71
     0
 42
3.5
  3
txt
  4

  0
ENDTAB
  0
TABLE
  2
VIEW
  5
6
330
0
100
AcDbSymbolTable
 70
     0
  0
ENDTAB
  0
TABLE
  2
UCS
  5
7
330
0
100
AcDbSymbolTable
 70
     0
  0
ENDTAB
  0
TABLE
  2
APPID
  5
9
330
0
100
AcDbSymbolTable
 70
     1
  0
APPID
  5
12
330
9
100
AcDbSymbolTableRecord
100
AcDbRegAppTableRecord
  2
ACAD
 70
     0
  0
ENDTAB
  0
TABLE
  2
DIMSTYLE
  5
A
330
0
100
AcDbSymbolTable
 70
     1
100
AcDbDimStyleTable
  0
DIMSTYLE
105
27
330
A
100
AcDbSymbolTableRecord
100
AcDbDimStyleTableRecord
  2
ISO-25
 70
     0
 41
2.5
 42
0.625
 43
3.75
 44
1.25
 73
     0
 74
     0
 77
     1
 78
     8
140
2.5
141
2.5
143
0.0393700787
147
0.625
171
     3
172
     1
178
     0
271
     2
272
     2
274
     3
278
    44
283
     0
284
     8
340
11
  0
ENDTAB
  0
TABLE
  2
BLOCK_RECORD
  5
1
330
0
100
AcDbSymbolTable
 70
     1
  0
BLOCK_RECORD
  5
1F
330
1
100
AcDbSymbolTableRecord
100
AcDbBlockTableRecord
  2
*Model_Space
340
22
  0
BLOCK_RECORD
  5
1B
330
1
100
AcDbSymbolTableRecord
100
AcDbBlockTableRecord
  2
*Paper_Space
340
1E
  0
BLOCK_RECORD
  5
23
330
1
100
AcDbSymbolTableRecord
100
AcDbBlockTableRecord
  2
*Paper_Space0
340
26
  0
ENDTAB
  0
ENDSEC
  0
SECTION
  2
BLOCKS
  0
BLOCK
  5
20
330
1F
100
AcDbEntity
  8
0
100
AcDbBlockBegin
  2
*Model_Space
 70
     0
 10
0.0
 20
0.0
 30
0.0
  3
*Model_Space
  1

  0
ENDBLK
  5
21
330
1F
100
AcDbEntity
  8
0
100
AcDbBlockEnd
  0
BLOCK
  5
1C
330
1B
100
AcDbEntity
 67
     1
  8
0
100
AcDbBlockBegin
  2
*Paper_Space
 70
     0
 10
0.0
 20
0.0
 30
0.0
  3
*Paper_Space
  1

  0
ENDBLK
  5
1D
330
1B
100
AcDbEntity
 67
     1
  8
0
100
AcDbBlockEnd
  0
BLOCK
  5
24
330
23
100
AcDbEntity
  8
0
100
AcDbBlockBegin
  2
*Paper_Space0
 70
     0
 10
0.0
 20
0.0
 30
0.0
  3
*Paper_Space0
  1

  0
ENDBLK
  5
25
330
23
100
AcDbEntity
  8
0
100
AcDbBlockEnd
  0
ENDSEC
  0
SECTION
  2
ENTITIES
  0
LINE
  5
44
330
1F
100
AcDbEntity
  8
0
  6
Continuous
 62
     7
370
    15
100
AcDbLine
 10
280.7911444032
 20
188.0363408444
 30
0.0
 11
280.7911444032
 21
188.0493588756
 31
0.0
  0
SPLINE
  5
45
330
1F
100
AcDbEntity
  8
0
  6
Continuous
 62
     7
370
    15
100
AcDbSpline
210
0.0
220
0.0
230
1.0
 70
     8
 71
     3
 72
    15
 73
    11
 74
     0
 42
0.00000001
 43
0.00000001
 12
1.0
 22
0.0
 32
0.0
 13
1.0
 23
0.0
 33
0.0
 40
0.0
 40
0.0
 40
0.0
 40
0.0
 40
0.0000442362997764
 40
0.0001312560338603
 40
0.0008500853263308
 40
0.0021557328957136
 40
0.0130762042124696
 40
0.1383688875923061
 40
0.3679856065945983
 40
1.0
 40
1.0
 40
1.0
 40
1.0
 10
125.2561972614357
 20
188.4052612635773
 30
0.0
 10
125.2561981619504
 20
188.4052600297147
 30
0.0
 10
125.2562008339185
 20
188.4052563686508
 30
0.0
 10
125.2562181461757
 20
188.4052326484967
 30
0.0
 10
125.2562611488078
 20
188.4051737374826
 30
0.0
 10
125.2565248657398
 20
188.4048125950735
 30
0.0
 10
125.2593304212472
 20
188.400978818706
 30
0.0
 10
125.2669223096827
 20
188.3908715389516
 30
0.0
 10
125.2881408971687
 20
188.3641218379243
 30
0.0
 10
125.3090088817701
 20
188.3427256710773
 30
0.0
 10
125.3243157415613
 20
188.3270313847217
 30
0.0
  0
LINE
  5
46
330
1F
100
AcDbEntity
  8
0
  6
Continuous
 62
     7
370
    15
100
AcDbLine
 10
278.9411444032
 20
189.5604837026
 30
0.0
 11
278.9211444032
 21
189.5604837026
 31
0.0
  0
LINE
  5
47
330
1F
100
AcDbEntity
  8
0
  6
Continuous
 62
     7
370
    15
100
AcDbLine
 10
279.1011444032
 20
241.4325342605
 30
0.0
 11
279.0811444032
 21
241.4325342605
 31
0.0
  0
LINE
  5
48
330
1F
100
AcDbEntity
  8
0
  6
Continuous
 62
     7
370
    15
100
AcDbLine
 10
279.0811444032
 20
237.3282363215
 30
0.0
 11
279.1011444032
 21
237.3282363215
 31
0.0
  0
LINE
  5
49
330
1F
100
AcDbEntity
  8
0
  6
Continuous
 62
     7
370
    15
100
AcDbLine
 10
279.0811444032
 20
237.3186765838
 30
0.0
 11
279.1011444032
 21
237.3186765838
 31
0.0
  0
LINE
  5
4A
330
1F
100
AcDbEntity
  8
0
  6
Continuous
 62
     7
370
    15
100
AcDbLine
 10
133.1516086808
 20
230.3928226208
 30
0.0
 11
133.1325875505
 21
230.3990029607
 31
0.0
  0
LINE
  5
4B
330
1F
100
AcDbEntity
  8
0
  6
Continuous
 62
     7
370
    15
100
AcDbLine
 10
130.4478565372
 20
222.654021396
 30
0.0
 11
130.6380678405
 21
222.5922179971
 31
0.0
  0
LINE
  5
4C
330
1F
100
AcDbEntity
  8
0
  6
Continuous
 62
     7
370
    15
100
AcDbLine
 10
129.586209783
 20
219.5167351688
 30
0.0
 11
129.3959984797
 21
219.5785385677
 31
0.0
  0
LINE
  5
4D
330
1F
100
AcDbEntity
  8
0
  6
Continuous
 62
     7
370
    15
100
AcDbLine
 10
128.6852593926
 20
217.3911085802
 30
0.0
 11
128.8754706959
 21
217.3293051814
 31
0.0
  0
LINE
  5
4E
330
1F
100
AcDbEntity
  8
0
  6
Continuous
 62
     7
370
    15
100
AcDbLine
 10
128.8754706959
 20
217.3293051814
 30
0.0
 11
128.9384743714
 21
217.3614071575
 31
0.0
  0
LINE
  5
4F
330
1F
100
AcDbEntity
  8
0
  6
Continuous
 62
     7
370
    15
100
AcDbLine
 10
129.6183117591
 20
219.4537314933
 30
0.0
 11
129.586209783
 21
219.5167351688
 31
0.0
  0
LINE
  5
50
330
1F
100
AcDbEntity
  8
0
  6
Continuous
 62
     7
370
    15
100
AcDbLine
 10
129.3959984797
 20
219.5785385677
 30
0.0
 11
129.3329948042
 21
219.5464365916
 31
0.0
  0
LINE
  5
51
330
1F
100
AcDbEntity
  8
0
  6
Continuous
 62
     7
370
    15
100
AcDbLine
 10
128.6531574165
 20
217.4541122558
 30
0.0
 11
128.6852593926
 21
217.3911085802
 31
0.0
  0
LINE
  5
52
330
1F
100
AcDbEntity
  8
0
  6
Continuous
 62
     7
370
    15
100
AcDbLine
 10
130.6527688012
 20
229.4232409186
 30
0.0
 11
130.1121279627
 21
229.3873182351
 31
0.0
  0
LINE
  5
53
330
1F
100
AcDbEntity
  8
0
  6
Continuous
 62
     7
370
    15
100
AcDbLine
 10
132.2614545908
 20
229.5301294594
 30
0.0
 11
131.6423449932
 21
229.4889929479
 31
0.0
  0
LINE
  5
54
330
1F
100
AcDbEntity
  8
0
  6
Continuous
 62
     7
370
    15
100
AcDbLine
 10
126.5893342268
 20
218.5452739494
 30
0.0
 11
128.2442336639
 21
217.1663947476
 31
0.0
  0
LINE
  5
55
330
1F
100
AcDbEntity
  8
0
  6
Continuous
 62
     7
370
    15
100
AcDbLine
 10
130.1121279627
 20
229.3873182351
 30
0.0
 11
130.0049003994
 21
229.3756170538
 31
0.0
  0
LINE
  5
56
330
1F
100
AcDbEntity
  8
0
  6
Continuous
 62
     7
370
    15
100
AcDbLine
 10
123.4370953945
 20
221.4063323027
 30
0.0
 11
126.5893342268
 21
218.5452739494
 31
0.0
  0
ARC
  5
57
330
1F
100
AcDbEntity
  8
0
  6
Continuous
 62
     7
370
    15
100
AcDbCircle
 10
123.5715112431
 20
221.5544281489
 30
0.0
 40
0.20000000000001
100
AcDbArc
 50
162.0
 51
227.772254682
  0
LINE
  5
58
330
1F
100
AcDbEntity
  8
0
  6
Continuous
 62
     7
370
    15
100
AcDbLine
 10
129.8098898287
 20
221.9849889508
 30
0.0
 11
130.1924699999
 21
221.8680224543
 31
0.0
  0
LINE
  5
59
330
1F
100
AcDbEntity
  8
0
  6
Continuous
 62
     7
370
    15
100
AcDbLine
 10
131.6491576198
 20
229.4914500204
 30
0.0
 11
130.6502681025
 21
229.4250791706
 31
0.0
  0
LINE
  5
5A
330
1F
100
AcDbEntity
  8
0
  6
Continuous
 62
     7
370
    15
100
AcDbLine
 10
156.1611444032
 20
65.0509348827
 30
0.0
 11
156.1611444032
 21
65.4509348827
 31
0.0
  0
LINE
  5
5B
330
1F
100
AcDbEntity
  8
0
  6
Continuous
 62
     7
370
    15
100
AcDbLine
 10
137.7611444032
 20
65.4509348827
 30
0.0
 11
137.7611444032
 21
65.0509348827
 31
0.0
  0
LINE
  5
5C
330
1F
100
AcDbEntity
  8
0
  6
Continuous
 62
     7
370
    15
100
AcDbLine
 10
273.9611444032
 20
65.0509348827
 30
0.0
 11
273.9611444032
 21
65.4509348827
 31
0.0
  0
LINE
  5
5D
330
1F
100
AcDbEntity
  8
0
  6
Continuous
 62
     7
370
    15
100
AcDbLine
 10
255.5611444032
 20
65.4509348827
 30
0.0
 11
255.5611444032
 21
65.0509348827
 31
0.0
  0
LINE
  5
5E
330
1F
100
AcDbEntity
  8
0
  6
Continuous
 62
     7
370
    15
100
AcDbLine
 10
270.4211444032
 20
65.4509348827
 30
0.0
 11
270.4211444032
 21
79.8509348827
 31
0.0
  0
LINE
  5
5F
330
1F
100
AcDbEntity
  8
0
  6
Continuous
 62
     7
370
    15
100
AcDbLine
 10
259.1011444032
 20
79.8509348827
 30
0.0
 11
259.1011444032
 21
65.4509348827
 31
0.0
  0
LINE
  5
60
330
1F
100
AcDbEntity
  8
0
  6
Continuous
 62
     7
370
    15
100
AcDbLine
 10
152.6211444032
 20
65.4509348827
 30
0.0
 11
152.6211444032
 21
79.8509348827
 31
0.0
  0
LINE
  5
61
330
1F
100
AcDbEntity
  8
0
  6
Continuous
 62
     7
370
    15
100
AcDbLine
 10
141.3011444032
 20
79.8509348827
 30
0.0
 11
141.3011444032
 21
65.4509348827
 31
0.0
  0
ARC
  5
62
330
1F
100
AcDbEntity
  8
0
  6
Continuous
 62
     7
370
    15
100
AcDbCircle
 10
271.4411444032
 20
98.3509348827
 30
0.0
 40
0.3000000000000256
100
AcDbArc
 50
90.0
 51
180.0
  0
ARC
  5
63
330
1F
100
AcDbEntity
  8
0
  6
Continuous
 62
     7
370
    15
100
AcDbCircle
 10
258.0811444032
 20
98.3509348827
 30
0.0
 40
0.3000000000000256
100
AcDbArc
 50
0.0
 51
90.0
  0
LINE
  5
64
330
1F
100
AcDbEntity
  8
0
  6
Continuous
 62
     7
370
    15
100
AcDbLine
 10
271.1411444032
 20
81.0574480718
 30
0.0
 11
271.1411444032
 21
98.3509348827
 31
0.0
  0
LINE
  5
65
330
1F
100
AcDbEntity
  8
0
  6
Continuous
 62
     7
370
    15
100
AcDbLine
 10
258.3811444032
 20
98.3509348827
 30
0.0
 11
258.3811444032
 21
81.0574480718
 31
0.0
  0
ARC
  5
66
330
1F
100
AcDbEntity
  8
0
  6
Continuous
 62
     7
370
    15
100
AcDbCircle
 10
270.2011444032
 20
81.0574480718
 30
0.0
 40
0.9400000000000002
100
AcDbArc
 50
350.5402980318
 51
0.0
  0
ARC
  5
67
330
1F
100
AcDbEntity
  8
0
  6
Continuous
 62
     7
370
    15
100
AcDbCircle
 10
259.3211444032
 20
81.0574480718
 30
0.0
 40
0.9400000000000002
100
AcDbArc
 50
180.0
 51
189.4597019682
  0
LINE
  5
68
330
1F
100
AcDbEntity
  8
0
  6
Continuous
 62
     7
370
    15
100
AcDbLine
 10
258.3939270486
 20
80.9029554269
 30
0.0
 11
258.5692143591
 21
79.8509348827
 31
0.0
  0
LINE
  5
69
330
1F
100
AcDbEntity
  8
0
  6
Continuous
 62
     7
370
    15
100
AcDbLine
 10
270.9530744472
 20
79.8509348827
 30
0.0
 11
271.1283617578
 21
80.9029554269
 31
0.0
  0
ARC
  5
6A
330
1F
100
AcDbEntity
  8
0
  6
Continuous
 62
     7
370
    15
100
AcDbCircle
 10
153.6411444032
 20
98.3509348827
 30
0.0
 40
0.3000000000000256
100
AcDbArc
 50
90.0
 51
180.0
  0
ARC
  5
6B
330
1F
100
AcDbEntity
  8
0
  6
Continuous
 62
     7
370
    15
100
AcDbCircle
 10
140.2811444032
 20
98.3509348827
 30
0.0
 40
0.3000000000000256
100
AcDbArc
 50
0.0
 51
90.0
  0
LINE
  5
6C
330
1F
100
AcDbEntity
  8
0
  6
Continuous
 62
     7
370
    15
100
AcDbLine
 10
153.3411444032
 20
81.0574480718
 30
0.0
 11
153.3411444032
 21
98.3509348827
 31
0.0
  0
LINE
  5
6D
330
1F
100
AcDbEntity
  8
0
  6
Continuous
 62
     7
370
    15
100
AcDbLine
 10
140.5811444032
 20
98.3509348827
 30
0.0
 11
140.5811444032
 21
81.0574480718
 31
0.0
  0
ARC
  5
6E
330
1F
100
AcDbEntity
  8
0
  6
Continuous
 62
     7
370
    15
100
AcDbCircle
 10
152.4011444032
 20
81.0574480718
 30
0.0
 40
0.9400000000000002
100
AcDbArc
 50
350.5402980318
 51
0.0
  0
ARC
  5
6F
330
1F
100
AcDbEntity
  8
0
  6
Continuous
 62
     7
370
    15
100
AcDbCircle
 10
141.5211444032
 20
81.0574480718
 30
0.0
 40
0.9400000000000002
100
AcDbArc
 50
180.0
 51
189.4597019682
  0
LINE
  5
70
330
1F
100
AcDbEntity
  8
0
  6
Continuous
 62
     7
370
    15
100
AcDbLine
 10
140.5939270486
 20
80.9029554269
 30
0.0
 11
140.7692143591
 21
79.8509348827
 31
0.0
  0
LINE
  5
71
330
1F
100
AcDbEntity
  8
0
  6
Continuous
 62
     7
370
    15
100
AcDbLine
 10
153.1530744472
 20
79.8509348827
 30
0.0
 11
153.3283617578
 21
80.9029554269
 31
0.0
  0
ARC
  5
72
330
1F
100
AcDbEntity
  8
0
  6
Continuous
 62
     7
370
    15
100
AcDbCircle
 10
284.1098949036
 20
195.7859348827
 30
0.0
 40
1.600000000000024
100
AcDbArc
 50
12.635625093
 51
90.0
  0
ARC
  5
73
330
1F
100
AcDbEntity
  8
0
  6
Continuous
 62
     7
370
    15
100
AcDbCircle
 10
284.1098949036
 20
192.2359348827
 30
0.0
 40
1.600000000000024
100
AcDbArc
 50
270.0
 51
347.364374907
  0
LINE
  5
74
330
1F
100
AcDbEntity
  8
0
  6
Continuous
 62
     7
370
    15
100
AcDbLine
 10
283.8811444032
 20
190.6359348827
 30
0.0
 11
284.1098949036
 21
190.6359348827
 31
0.0
  0
LINE
  5
75
330
1F
100
AcDbEntity
  8
0
  6
Continuous
 62
     7
370
    15
100
AcDbLine
 10
284.1098949036
 20
197.3859348827
 30
0.0
 11
283.8811444032
 21
197.3859348827
 31
0.0
  0
LINE
  5
76
330
1F
100
AcDbEntity
  8
0
  6
Continuous
 62
     7
370
    15
100
AcDbLine
 10
281.4811444032
 20
190.6359348827
 30
0.0
 11
282.8011444032
 21
190.6359348827
 31
0.0
  0
LINE
  5
77
330
1F
100
AcDbEntity
  8
0
  6
Continuous
 62
     7
370
    15
100
AcDbLine
 10
282.8011444032
 20
197.3859348827
 30
0.0
 11
281.4811444032
 21
197.3859348827
 31
0.0
  0
LINE
  5
78
330
1F
100
AcDbEntity
  8
0
  6
Continuous
 62
     7
370
    15
100
AcDbLine
 10
280.4111444032
 20
190.8409348827
 30
0.0
 11
281.4811444032
 21
190.8409348827
 31
0.0
  0
LINE
  5
79
330
1F
100
AcDbEntity
  8
0
  6
Continuous
 62
     7
370
    15
100
AcDbLine
 10
281.4811444032
 20
197.1809348827
 30
0.0
 11
280.4111444032
 21
197.1809348827
 31
0.0
  0
LINE
  5
7A
330
1F
100
AcDbEntity
  8
0
  6
Continuous
 62
     7
370
    15
100
AcDbLine
 10
279.8211444032
 20
191.0259348827
 30
0.0
 11
280.4111444032
 21
191.0259348827
 31
0.0
  0
LINE
  5
7B
330
1F
100
AcDbEntity
  8
0
  6
Continuous
 62
     7
370
    15
100
AcDbLine
 10
280.4111444032
 20
196.9959348827
 30
0.0
 11
279.8211444032
 21
196.9959348827
 31
0.0
  0
LINE
  5
7C
330
1F
100
AcDbEntity
  8
0
  6
Continuous
 62
     7
370
    15
100
AcDbLine
 10
271.3011444032
 20
99.0509348827
 30
0.0
 11
271.3011444032
 21
99.1509348827
 31
0.0
  0
LINE
  5
7D
330
1F
100
AcDbEntity
  8
0
  6
Continuous
 62
     7
370
    15
100
AcDbLine
 10
269.2211444032
 20
99.1509348827
 30
0.0
 11
269.2211444032
 21
99.0509348827
 31
0.0
  0
LINE
  5
7E
330
1F
100
AcDbEntity
  8
0
  6
Continuous
 62
     7
370
    15
100
AcDbLine
 10
153.5011444032
 20
99.0509348827
 30
0.0
 11
153.5011444032
 21
99.1509348827
 31
0.0
  0
LINE
  5
7F
330
1F
100
AcDbEntity
  8
0
  6
Continuous
 62
     7
370
    15
100
AcDbLine
 10
151.4211444032
 20
99.1509348827
 30
0.0
 11
151.4211444032
 21
99.0509348827
 31
0.0
  0
LINE
  5
80
330
1F
100
AcDbEntity
  8
0
  6
Continuous
 62
     7
370
    15
100
AcDbLine
 10
142.5011444032
 20
99.0509348827
 30
0.0
 11
142.5011444032
 21
99.1509348827
 31
0.0
  0
LINE
  5
81
330
1F
100
AcDbEntity
  8
0
  6
Continuous
 62
     7
370
    15
100
AcDbLine
 10
140.4211444032
 20
99.1509348827
 30
0.0
 11
140.4211444032
 21
99.0509348827
 31
0.0
  0
LINE
  5
82
330
1F
100
AcDbEntity
  8
0
  6
Continuous
 62
     7
370
    15
100
AcDbLine
 10
260.3011444032
 20
99.0509348827
 30
0.0
 11
260.3011444032
 21
99.1509348827
 31
0.0
  0
LINE
  5
83
330
1F
100
AcDbEntity
  8
0
  6
Continuous
 62
     7
370
    15
100
AcDbLine
 10
258.2211444032
 20
99.1509348827
 30
0.0
 11
258.2211444032
 21
99.0509348827
 31
0.0
  0
LINE
  5
84
330
1F
100
AcDbEntity
  8
0
  6
Continuous
 62
     7
370
    15
100
AcDbLine
 10
140.5079063274
 20
181.4309348827
 30
0.0
 11
140.974382479
 21
181.4309348827
 31
0.0
  0
LINE
  5
85
330
1F
100
AcDbEntity
  8
0
  6
Continuous
 62
     7
370
    15
100
AcDbLine
 10
140.3745383476
 20
181.2309348827
 30
0.0
 11
141.1077504588
 21
181.2309348827
 31
0.0
  0
SPLINE
  5
86
330
1F
100
AcDbEntity
  8
0
  6
Continuous
 62
     7
370
    15
100
AcDbSpline
210
0.0
220
0.0
230
1.0
 70
     8
 71
     3
 72
    12
 73
     8
 74
     0
 42
0.00000001
 43
0.00000001
 12
1.0
 22
0.0
 32
0.0
 13
1.0
 23
0.0
 33
0.0
 40
0.0
 40
0.0
 40
0.0
 40
0.0
 40
0.1928947997657263
 40
0.412221439880695
 40
0.6315552886407568
 40
0.850889008376964
 40
1.0
 40
1.0
 40
1.0
 40
1.0
 10
131.4911444031767
 20
181.5809348826939
 30
0.0
 10
131.5002303732996
 20
181.624322534779
 30
0.0
 10
131.5196473388754
 20
181.7170431287884
 30
0.0
 10
131.549450756008
 20
181.8456690904916
 30
0.0
 10
131.5804753816618
 20
181.9476682534996
 30
0.0
 10
131.6082301482609
 20
182.002874021327
 30
0.0
 10
131.6255545196771
 20
182.0086124987942
 30
0.0
 10
131.632565759414
 20
182.0109348826939
 30
0.0
  0
LINE
  5
87
330
1F
100
AcDbEntity
  8
0
  6
Continuous
 62
     7
370
    15
100
AcDbLine
 10
134.9611444032
 20
182.0109348827
 30
0.0
 11
131.6325657594
 21
182.0109348827
 31
0.0
  0
LINE
  5
88
330
1F
100
AcDbEntity
  8
0
  6
Continuous
 62
     7
370
    15
100
AcDbLine
 10
131.4911444032
 20
181.5809348827
 30
0.0
 11
131.4911444032
 21
180.6809348827
 31
0.0
  0
CIRCLE
  5
89
330
1F
100
AcDbEntity
  8
0
  6
Continuous
 62
     7
370
    15
100
AcDbCircle
 10
140.7411444032
 20
181.1309348827
 30
0.0
 40
0.3800000000000239
  0
LINE
  5
8A
330
1F
100
AcDbEntity
  8
0
  6
Continuous
 62
     7
370
    15
100
AcDbLine
 10
131.6325657594
 20
180.2509348827
 30
0.0
 11
141.1411444032
 21
180.2509348827
 31
0.0
  0
SPLINE
  5
8B
330
1F
100
AcDbEntity
  8
0
  6
Continuous
 62
     7
370
    15
100
AcDbSpline
210
0.0
220
0.0
230
1.0
 70
     8
 71
     3
 72
    12
 73
     8
 74
     0
 42
0.00000001
 43
0.00000001
 12
1.0
 22
0.0
 32
0.0
 13
1.0
 23
0.0
 33
0.0
 40
0.0
 40
0.0
 40
0.0
 40
0.0
 40
0.1928947997657347
 40
0.4122214398807066
 40
0.6315552886407726
 40
0.8508890083769776
 40
0.9999999999999999
 40
0.9999999999999999
 40
0.9999999999999999
 40
0.9999999999999999
 10
131.632565759414
 20
180.2509348826939
 30
0.0
 10
131.623479789291
 20
180.2547856230994
 30
0.0
 10
131.6040628237152
 20
180.2630147602067
 30
0.0
 10
131.5742594065826
 20
180.3317147137944
 30
0.0
 10
131.5432347809289
 20
180.4409341478163
 30
0.0
 10
131.5154800143297
 20
180.5647211553858
 30
0.0
 10
131.4981556429135
 20
180.6474529907559
 30
0.0
 10
131.4911444031767
 20
180.6809348826939
 30
0.0
  0
LINE
  5
8C
330
1F
100
AcDbEntity
  8
0
  6
Continuous
 62
     7
370
    15
100
AcDbLine
 10
131.4911444032
 20
181.5809348827
 30
0.0
 11
131.0611444032
 21
181.5809348827
 31
0.0
  0
LINE
  5
8D
330
1F
100
AcDbEntity
  8
0
  6
Continuous
 62
     7
370
    15
100
AcDbLine
 10
131.4911444032
 20
180.6809348827
 30
0.0
 11
131.0611444032
 21
180.6809348827
 31
0.0
  0
LINE
  5
8E
330
1F
100
AcDbEntity
  8
0
  6
Continuous
 62
     7
370
    15
100
AcDbLine
 10
131.0611444032
 20
180.6809348827
 30
0.0
 11
131.0611444032
 21
181.5809348827
 31
0.0
  0
SPLINE
  5
8F
330
1F
100
AcDbEntity
  8
0
  6
Continuous
 62
     7
370
    15
100
AcDbSpline
210
0.0
220
0.0
230
1.0
 70
     8
 71
     3
 72
    12
 73
     8
 74
     0
 42
0.00000001
 43
0.00000001
 12
1.0
 22
0.0
 32
0.0
 13
1.0
 23
0.0
 33
0.0
 40
0.0
 40
0.0
 40
0.0
 40
0.0
 40
0.192894799765711
 40
0.4122214398806597
 40
0.6315552886407008
 40
0.8508890083768913
 40
1.0
 40
1.0
 40
1.0
 40
1.0
 10
131.4911444031767
 20
182.0109348826939
 30
0.0
 10
131.4477567510915
 20
182.0070841422883
 30
0.0
 10
131.3550361570821
 20
181.998855005181
 30
0.0
 10
131.2264101953789
 20
181.9301550515933
 30
0.0
 10
131.1244110323709
 20
181.8209356175715
 30
0.0
 10
131.0692052645435
 20
181.697148610002
 30
0.0
 10
131.0634667870762
 20
181.6144167746318
 30
0.0
 10
131.0611444031766
 20
181.5809348826939
 30
0.0
  0
LINE
  5
90
330
1F
100
AcDbEntity
  8
0
  6
Continuous
 62
     7
370
    15
100
AcDbLine
 10
131.4911444032
 20
182.0109348827
 30
0.0
 11
131.4911444032
 21
181.8809348827
 31
0.0
  0
SPLINE
  5
91
330
1F
100
AcDbEntity
  8
0
  6
Continuous
 62
     7
370
    15
100
AcDbSpline
210
0.0
220
0.0
230
1.0
 70
     8
 71
     3
 72
    12
 73
     8
 74
     0
 42
0.00000001
 43
0.00000001
 12
1.0
 22
0.0
 32
0.0
 13
1.0
 23
0.0
 33
0.0
 40
0.0
 40
0.0
 40
0.0
 40
0.0
 40
0.2241743151500197
 40
0.4483910025871495
 40
0.6726078467287889
 40
0.8968244803946985
 40
1.0
 40
1.0
 40
1.0
 40
1.0
 10
131.4911444031767
 20
181.8809348826939
 30
0.0
 10
131.4559270062996
 20
181.8773163539009
 30
0.0
 10
131.3854855559327
 20
181.870078612359
 30
0.0
 10
131.2926869190108
 20
181.8138119385031
 30
0.0
 10
131.2247107559305
 20
181.7316431347047
 30
0.0
 10
131.1944406205929
 20
181.64828901473
 30
0.0
 10
131.1919342649477
 20
181.5970747324972
 30
0.0
 10
131.1911444031766
 20
181.5809348826939
 30
0.0
  0
SPLINE
  5
92
330
1F
100
AcDbEntity
  8
0
  6
Continuous
 62
     7
370
    15
100
AcDbSpline
210
0.0
220
0.0
230
1.0
 70
     8
 71
     3
 72
    12
 73
     8
 74
     0
 42
0.00000001
 43
0.00000001
 12
1.0
 22
0.0
 32
0.0
 13
1.0
 23
0.0
 33
0.0
 40
0.0
 40
0.0
 40
0.0
 40
0.0
 40
0.2241743151500369
 40
0.4483910025871602
 40
0.6726078467288045
 40
0.8968244803947035
 40
1.0
 40
1.0
 40
1.0
 40
1.0
 10
131.1911444031766
 20
180.6809348826939
 30
0.0
 10
131.1947629319696
 20
180.6457174858168
 30
0.0
 10
131.2020006735115
 20
180.5752760354499
 30
0.0
 10
131.2582673473673
 20
180.482477398528
 30
0.0
 10
131.3404361511659
 20
180.4145012354477
 30
0.0
 10
131.4237902711405
 20
180.3842311001102
 30
0.0
 10
131.4750045533733
 20
180.3817247444649
 30
0.0
 10
131.4911444031767
 20
180.3809348826939
 30
0.0
  0
LINE
  5
93
330
1F
100
AcDbEntity
  8
0
  6
Continuous
 62
     7
370
    15
100
AcDbLine
 10
131.4911444032
 20
180.2509348827
 30
0.0
 11
131.4911444032
 21
180.3809348827
 31
0.0
  0
SPLINE
  5
94
330
1F
100
AcDbEntity
  8
0
  6
Continuous
 62
     7
370
    15
100
AcDbSpline
210
0.0
220
0.0
230
1.0
 70
     8
 71
     3
 72
    12
 73
     8
 74
     0
 42
0.00000001
 43
0.00000001
 12
1.0
 22
0.0
 32
0.0
 13
1.0
 23
0.0
 33
0.0
 40
0.0
 40
0.0
 40
0.0
 40
0.0
 40
0.1928947997657172
 40
0.4122214398806586
 40
0.631555288640713
 40
0.8508890083768998
 40
0.9999999999999999
 40
0.9999999999999999
 40
0.9999999999999999
 40
0.9999999999999999
 10
131.0611444031766
 20
180.6809348826939
 30
0.0
 10
131.0649951435822
 20
180.6375472306087
 30
0.0
 10
131.0732242806895
 20
180.5448266365993
 30
0.0
 10
131.1419242342771
 20
180.4162006748961
 30
0.0
 10
131.2511436682991
 20
180.3142015118881
 30
0.0
 10
131.3749306758685
 20
180.2589957440608
 30
0.0
 10
131.4576625112387
 20
180.2532572665935
 30
0.0
 10
131.4911444031767
 20
180.2509348826939
 30
0.0
  0
LINE
  5
95
330
1F
100
AcDbEntity
  8
0
  6
Continuous
 62
     7
370
    15
100
AcDbLine
 10
131.6325657594
 20
182.0109348827
 30
0.0
 11
131.4911444032
 21
182.0109348827
 31
0.0
  0
LINE
  5
96
330
1F
100
AcDbEntity
  8
0
  6
Continuous
 62
     7
370
    15
100
AcDbLine
 10
131.5619681204
 20
181.8809348827
 30
0.0
 11
131.4911444032
 21
181.8809348827
 31
0.0
  0
LINE
  5
97
330
1F
100
AcDbEntity
  8
0
  6
Continuous
 62
     7
370
    15
100
AcDbLine
 10
131.4911444032
 20
180.2509348827
 30
0.0
 11
131.6325657594
 21
180.2509348827
 31
0.0
  0
LINE
  5
98
330
1F
100
AcDbEntity
  8
0
  6
Continuous
 62
     7
370
    15
100
AcDbLine
 10
131.4911444032
 20
180.3809348827
 30
0.0
 11
131.5619035725
 21
180.3809348827
 31
0.0
  0
LINE
  5
99
330
1F
100
AcDbEntity
  8
0
  6
Continuous
 62
     7
370
    15
100
AcDbLine
 10
140.9632337746
 20
181.4392793509
 30
0.0
 11
140.5190550317
 21
181.4392793509
 31
0.0
  0
LINE
  5
9A
330
1F
100
AcDbEntity
  8
0
  6
Continuous
 62
     7
370
    15
100
AcDbLine
 10
140.5190550317
 20
180.8225904145
 30
0.0
 11
140.9632337746
 21
180.8225904145
 31
0.0
  0
LINE
  5
9B
330
1F
100
AcDbEntity
  8
0
  6
Continuous
 62
     7
370
    15
100
AcDbLine
 10
140.3745383476
 20
181.0309348827
 30
0.0
 11
141.1077504588
 21
181.0309348827
 31
0.0
  0
LINE
  5
9C
330
1F
100
AcDbEntity
  8
0
  6
Continuous
 62
     7
370
    15
100
AcDbLine
 10
140.974382479
 20
180.8309348827
 30
0.0
 11
140.5079063274
 21
180.8309348827
 31
0.0
  0
LINE
  5
9D
330
1F
100
AcDbEntity
  8
0
  6
Continuous
 62
     7
370
    15
100
AcDbLine
 10
140.6111444032
 20
180.8225904145
 30
0.0
 11
140.6111444032
 21
180.8309348827
 31
0.0
  0
LINE
  5
9E
330
1F
100
AcDbEntity
  8
0
  6
Continuous
 62
     7
370
    15
100
AcDbLine
 10
133.6111444032
 20
182.1209348827
 30
0.0
 11
133.6111444032
 21
182.0109348827
 31
0.0
  0
LINE
  5
9F
330
1F
100
AcDbEntity
  8
0
  6
Continuous
 62
     7
370
    15
100
AcDbLine
 10
133.6111444032
 20
182.1209348827
 30
0.0
 11
134.9611444032
 21
182.1209348827
 31
0.0
  0
LINE
  5
A0
330
1F
100
AcDbEntity
  8
0
  6
Continuous
 62
     7
370
    15
100
AcDbLine
 10
278.9411444032
 20
199.2784075325
 30
0.0
 11
278.9011444032
 21
199.2784075325
 31
0.0
  0
LINE
  5
A1
330
1F
100
AcDbEntity
  8
0
  6
Continuous
 62
     7
370
    15
100
AcDbLine
 10
278.9411444032
 20
199.2784075325
 30
0.0
 11
278.9411444032
 21
197.7853905691
 31
0.0
  0
LINE
  5
A2
330
1F
100
AcDbEntity
  8
0
  6
Continuous
 62
     7
370
    15
100
AcDbLine
 10
278.9411444032
 20
190.2364791963
 30
0.0
 11
278.9411444032
 21
189.5604837026
 31
0.0
  0
LINE
  5
A3
330
1F
100
AcDbEntity
  8
0
  6
Continuous
 62
     7
370
    15
100
AcDbLine
 10
278.9411444032
 20
199.4784075325
 30
0.0
 11
278.9011444032
 21
199.4784075325
 31
0.0
  0
LINE
  5
A4
330
1F
100
AcDbEntity
  8
0
  6
Continuous
 62
     7
370
    15
100
AcDbLine
 10
278.9411444032
 20
199.4784075325
 30
0.0
 11
278.9411444032
 21
199.2784075325
 31
0.0
  0
LINE
  5
A5
330
1F
100
AcDbEntity
  8
0
  6
Continuous
 62
     7
370
    15
100
AcDbLine
 10
280.7911444032
 20
188.0713588756
 30
0.0
 11
279.1912780972
 21
188.0713588756
 31
0.0
  0
LINE
  5
A6
330
1F
100
AcDbEntity
  8
0
  6
Continuous
 62
     7
370
    15
100
AcDbLine
 10
279.1492780972
 20
188.0713588756
 30
0.0
 11
278.9411444032
 21
188.0713588756
 31
0.0
  0
LINE
  5
A7
330
1F
100
AcDbEntity
  8
0
  6
Continuous
 62
     7
370
    15
100
AcDbLine
 10
280.7911444032
 20
188.0713588756
 30
0.0
 11
280.7911444032
 21
188.0513588756
 31
0.0
  0
LINE
  5
A8
330
1F
100
AcDbEntity
  8
0
  6
Continuous
 62
     7
370
    15
100
AcDbLine
 10
280.7911444032
 20
188.0513588756
 30
0.0
 11
279.1912780972
 21
188.0513588756
 31
0.0
  0
LINE
  5
A9
330
1F
100
AcDbEntity
  8
0
  6
Continuous
 62
     7
370
    15
100
AcDbLine
 10
279.1492780972
 20
188.0513588756
 30
0.0
 11
278.9411444032
 21
188.0513588756
 31
0.0
  0
LINE
  5
AA
330
1F
100
AcDbEntity
  8
0
  6
Continuous
 62
     7
370
    15
100
AcDbLine
 10
281.3911444032
 20
188.0713588756
 30
0.0
 11
281.3911444032
 21
188.0513588756
 31
0.0
  0
LINE
  5
AB
330
1F
100
AcDbEntity
  8
0
  6
Continuous
 62
     7
370
    15
100
AcDbLine
 10
281.3911444032
 20
188.0713588756
 30
0.0
 11
280.7911444032
 21
188.0713588756
 31
0.0
  0
LINE
  5
AC
330
1F
100
AcDbEntity
  8
0
  6
Continuous
 62
     7
370
    15
100
AcDbLine
 10
281.3911444032
 20
188.0513588756
 30
0.0
 11
280.7911444032
 21
188.0513588756
 31
0.0
  0
LINE
  5
AD
330
1F
100
AcDbEntity
  8
0
  6
Continuous
 62
     7
370
    15
100
AcDbLine
 10
279.7860839594
 20
188.0493588756
 30
0.0
 11
279.7860839594
 21
188.0513588756
 31
0.0
  0
LINE
  5
AE
330
1F
100
AcDbEntity
  8
0
  6
Continuous
 62
     7
370
    15
100
AcDbLine
 10
280.1860839594
 20
188.0493588756
 30
0.0
 11
280.1860839594
 21
188.0513588756
 31
0.0
  0
LINE
  5
AF
330
1F
100
AcDbEntity
  8
0
  6
Continuous
 62
     7
370
    15
100
AcDbLine
 10
279.7860839594
 20
188.0493588756
 30
0.0
 11
280.1860839594
 21
188.0493588756
 31
0.0
  0
LINE
  5
B0
330
1F
100
AcDbEntity
  8
0
  6
Continuous
 62
     7
370
    15
100
AcDbLine
 10
279.7809557542
 20
188.0493588756
 30
0.0
 11
279.7809557542
 21
188.0513588756
 31
0.0
  0
LINE
  5
B1
330
1F
100
AcDbEntity
  8
0
  6
Continuous
 62
     7
370
    15
100
AcDbLine
 10
281.2285159499
 20
188.0493588756
 30
0.0
 11
281.2285159499
 21
188.0513588756
 31
0.0
  0
LINE
  5
B2
330
1F
100
AcDbEntity
  8
0
  6
Continuous
 62
     7
370
    15
100
AcDbLine
 10
281.2285159499
 20
188.0493588756
 30
0.0
 11
280.1860839594
 21
188.0493588756
 31
0.0
  0
LINE
  5
B3
330
1F
100
AcDbEntity
  8
0
  6
Continuous
 62
     7
370
    15
100
AcDbLine
 10
279.7638525293
 20
188.0493588756
 30
0.0
 11
279.1912780972
 21
188.0493588756
 31
0.0
  0
LINE
  5
B4
330
1F
100
AcDbEntity
  8
0
  6
Continuous
 62
     7
370
    15
100
AcDbLine
 10
279.1492780972
 20
188.0493588756
 30
0.0
 11
278.9411444032
 21
188.0493588756
 31
0.0
  0
LINE
  5
B5
330
1F
100
AcDbEntity
  8
0
  6
Continuous
 62
     7
370
    15
100
AcDbLine
 10
280.7911444032
 20
188.0363408444
 30
0.0
 11
279.1912780972
 21
188.0363408444
 31
0.0
  0
LINE
  5
B6
330
1F
100
AcDbEntity
  8
0
  6
Continuous
 62
     7
370
    15
100
AcDbLine
 10
279.1492780972
 20
188.0363408444
 30
0.0
 11
278.9411444032
 21
188.0363408444
 31
0.0
  0
LINE
  5
B7
330
1F
100
AcDbEntity
  8
0
  6
Continuous
 62
     7
370
    15
100
AcDbLine
 10
279.9447618326
 20
188.0163408444
 30
0.0
 11
279.9447618326
 21
188.0363408444
 31
0.0
  0
LINE
  5
B8
330
1F
100
AcDbEntity
  8
0
  6
Continuous
 62
     7
370
    15
100
AcDbLine
 10
279.3447618326
 20
188.0163408444
 30
0.0
 11
279.3447618326
 21
188.0363408444
 31
0.0
  0
LINE
  5
B9
330
1F
100
AcDbEntity
  8
0
  6
Continuous
 62
     7
370
    15
100
AcDbLine
 10
279.3447618326
 20
188.0163408444
 30
0.0
 11
279.9447618326
 21
188.0163408444
 31
0.0
  0
LINE
  5
BA
330
1F
100
AcDbEntity
  8
0
  6
Continuous
 62
     7
370
    15
100
AcDbLine
 10
279.9601464479
 20
188.0163408444
 30
0.0
 11
279.9601464479
 21
188.0363408444
 31
0.0
  0
LINE
  5
BB
330
1F
100
AcDbEntity
  8
0
  6
Continuous
 62
     7
370
    15
100
AcDbLine
 10
279.3293772172
 20
188.0163408444
 30
0.0
 11
279.3293772172
 21
188.0363408444
 31
0.0
  0
LINE
  5
BC
330
1F
100
AcDbEntity
  8
0
  6
Continuous
 62
     7
370
    15
100
AcDbLine
 10
278.9111444032
 20
198.8387418611
 30
0.0
 11
278.9011444032
 21
198.8387418611
 31
0.0
  0
LINE
  5
BD
330
1F
100
AcDbEntity
  8
0
  6
Continuous
 62
     7
370
    15
100
AcDbLine
 10
278.9111444032
 20
198.8387418611
 30
0.0
 11
278.9111444032
 21
197.7853905691
 31
0.0
  0
LINE
  5
BE
330
1F
100
AcDbEntity
  8
0
  6
Continuous
 62
     7
370
    15
100
AcDbLine
 10
279.0711444038
 20
244.680461741
 30
0.0
 11
279.0611444038
 21
244.680461741
 31
0.0
  0
LINE
  5
BF
330
1F
100
AcDbEntity
  8
0
  6
Continuous
 62
     7
370
    15
100
AcDbLine
 10
279.0711444038
 20
244.6701372243
 30
0.0
 11
279.0611444038
 21
244.6701372243
 31
0.0
  0
LINE
  5
C0
330
1F
100
AcDbEntity
  8
0
  6
Continuous
 62
     7
370
    15
100
AcDbLine
 10
279.0711444038
 20
244.680461741
 30
0.0
 11
279.0711444038
 21
244.6701372243
 31
0.0
  0
LINE
  5
C1
330
1F
100
AcDbEntity
  8
0
  6
Continuous
 62
     7
370
    15
100
AcDbLine
 10
279.0711444038
 20
249.6804526021
 30
0.0
 11
279.0611444038
 21
249.6804526021
 31
0.0
  0
LINE
  5
C2
330
1F
100
AcDbEntity
  8
0
  6
Continuous
 62
     7
370
    15
100
AcDbLine
 10
279.0711444038
 20
249.6804526021
 30
0.0
 11
279.0711444038
 21
244.680461741
 31
0.0
  0
LINE
  5
C3
330
1F
100
AcDbEntity
  8
0
  6
Continuous
 62
     7
370
    15
100
AcDbLine
 10
279.1892780972
 20
185.6259931759
 30
0.0
 11
279.1492780972
 21
185.6259931759
 31
0.0
  0
LINE
  5
C4
330
1F
100
AcDbEntity
  8
0
  6
Continuous
 62
     7
370
    15
100
AcDbLine
 10
279.1892780972
 20
190.2364791963
 30
0.0
 11
279.1892780972
 21
185.6259931759
 31
0.0
  0
LINE
  5
C5
330
1F
100
AcDbEntity
  8
0
  6
Continuous
 62
     7
370
    15
100
AcDbLine
 10
279.1492780972
 20
190.2364791963
 30
0.0
 11
279.1492780972
 21
185.6259931759
 31
0.0
  0
LINE
  5
C6
330
1F
100
AcDbEntity
  8
0
  6
Continuous
 62
     7
370
    15
100
AcDbLine
 10
279.1912780972
 20
188.2259931759
 30
0.0
 11
279.1892780972
 21
188.2259931759
 31
0.0
  0
LINE
  5
C7
330
1F
100
AcDbEntity
  8
0
  6
Continuous
 62
     7
370
    15
100
AcDbLine
 10
279.1912780972
 20
185.8259931759
 30
0.0
 11
279.1892780972
 21
185.8259931759
 31
0.0
  0
LINE
  5
C8
330
1F
100
AcDbEntity
  8
0
  6
Continuous
 62
     7
370
    15
100
AcDbLine
 10
279.1912780972
 20
188.2259931759
 30
0.0
 11
279.1912780972
 21
185.8259931759
 31
0.0
  0
LINE
  5
C9
330
1F
100
AcDbEntity
  8
0
  6
Continuous
 62
     7
370
    15
100
AcDbLine
 10
279.1912780972
 20
190.2364791963
 30
0.0
 11
279.1912780972
 21
188.2259931759
 31
0.0
  0
LINE
  5
CA
330
1F
100
AcDbEntity
  8
0
  6
Continuous
 62
     7
370
    15
100
AcDbLine
 10
128.6333709841
 20
233.315681583
 30
0.0
 11
128.6493209469
 21
233.352363986
 31
0.0
  0
LINE
  5
CB
330
1F
100
AcDbEntity
  8
0
  6
Continuous
 62
     7
370
    15
100
AcDbLine
 10
128.6333709841
 20
233.315681583
 30
0.0
 11
128.4499589692
 21
233.3954313968
 31
0.0
  0
LINE
  5
CC
330
1F
100
AcDbEntity
  8
0
  6
Continuous
 62
     7
370
    15
100
AcDbLine
 10
128.4499589692
 20
233.3954313968
 30
0.0
 11
128.465908932
 21
233.4321137997
 31
0.0
  0
LINE
  5
CD
330
1F
100
AcDbEntity
  8
0
  6
Continuous
 62
     7
370
    15
100
AcDbLine
 10
130.1006671031
 20
232.6776830727
 30
0.0
 11
130.1166170659
 21
232.7143654757
 31
0.0
  0
LINE
  5
CE
330
1F
100
AcDbEntity
  8
0
  6
Continuous
 62
     7
370
    15
100
AcDbLine
 10
130.1006671031
 20
232.6776830727
 30
0.0
 11
128.6333709841
 21
233.315681583
 31
0.0
  0
LINE
  5
CF
330
1F
100
AcDbEntity
  8
0
  6
Continuous
 62
     7
370
    15
100
AcDbLine
 10
130.284079118
 20
232.5979332589
 30
0.0
 11
130.3000290807
 21
232.6346156619
 31
0.0
  0
LINE
  5
D0
330
1F
100
AcDbEntity
  8
0
  6
Continuous
 62
     7
370
    15
100
AcDbLine
 10
130.284079118
 20
232.5979332589
 30
0.0
 11
130.1006671031
 21
232.6776830727
 31
0.0
  0
LINE
  5
D1
330
1F
100
AcDbEntity
  8
0
  6
Continuous
 62
     7
370
    15
100
AcDbLine
 10
125.7411444032
 20
188.2509348827
 30
0.0
 11
125.4211444032
 21
188.2509348827
 31
0.0
  0
SPLINE
  5
D2
330
1F
100
AcDbEntity
  8
0
  6
Continuous
 62
     7
370
    15
100
AcDbSpline
210
0.0
220
0.0
230
1.0
 70
    24
 71
     3
 72
    11
 73
     7
 74
     0
 42
0.00000001
 43
0.00000001
 12
1.0
 22
0.0
 32
0.0
 13
1.0
 23
0.0
 33
0.0
 40
0.0
 40
0.0
 40
0.0
 40
0.0
 40
0.2833229682742939
 40
0.5580462786215542
 40
0.7754268978867116
 40
1.0
 40
1.0
 40
1.0
 40
1.0
 10
125.4211444031763
 20
188.6506058323429
 30
0.0
 10
125.4211444031763
 20
188.5911830938122
 30
0.0
 10
125.4211444031763
 20
188.4741412658782
 30
0.0
 10
125.4211444031763
 20
188.3443064268394
 30
0.0
 10
125.4211444031763
 20
188.2652744034295
 30
0.0
 10
125.4211444031763
 20
188.2557663021374
 30
0.0
 10
125.4211444031763
 20
188.2509348826945
 30
0.0
  0
LINE
  5
D3
330
1F
100
AcDbEntity
  8
0
  6
Continuous
 62
     7
370
    15
100
AcDbLine
 10
125.7411444032
 20
188.6506058323
 30
0.0
 11
125.4211444032
 21
188.6506058323
 31
0.0
  0
LINE
  5
D4
330
1F
100
AcDbEntity
  8
0
  6
Continuous
 62
     7
370
    15
100
AcDbLine
 10
125.7411444032
 20
199.8511851957
 30
0.0
 11
125.4211444032
 21
199.8511851957
 31
0.0
  0
LINE
  5
D5
330
1F
100
AcDbEntity
  8
0
  6
Continuous
 62
     7
370
    15
100
AcDbLine
 10
125.4211444032
 20
199.8511851957
 30
0.0
 11
125.4211444032
 21
188.6506058323
 31
0.0
  0
LINE
  5
D6
330
1F
100
AcDbEntity
  8
0
  6
Continuous
 62
     7
370
    15
100
AcDbLine
 10
125.7411444032
 20
200.2509348827
 30
0.0
 11
125.4211444032
 21
200.2509348827
 31
0.0
  0
SPLINE
  5
D7
330
1F
100
AcDbEntity
  8
0
  6
Continuous
 62
     7
370
    15
100
AcDbSpline
210
0.0
220
0.0
230
1.0
 70
    24
 71
     3
 72
    11
 73
     7
 74
     0
 42
0.00000001
 43
0.00000001
 12
1.0
 22
0.0
 32
0.0
 13
1.0
 23
0.0
 33
0.0
 40
0.0
 40
0.0
 40
0.0
 40
0.0
 40
0.2833048031626458
 40
0.5580362635661759
 40
0.7754301448953692
 40
1.0
 40
1.0
 40
1.0
 40
1.0
 10
125.4211444031763
 20
200.2509348826945
 30
0.0
 10
125.4211444031763
 20
200.2431455190674
 30
0.0
 10
125.4211444031763
 20
200.2278025127878
 30
0.0
 10
125.4211444031763
 20
200.1208961949923
 30
0.0
 10
125.4211444031763
 20
199.9906153537109
 30
0.0
 10
125.4211444031763
 20
199.8981622884729
 30
0.0
 10
125.4211444031763
 20
199.8511851956643
 30
0.0
  0
LINE
  5
D8
330
1F
100
AcDbEntity
  8
0
  6
Continuous
 62
     7
370
    15
100
AcDbLine
 10
125.1411444032
 20
188.7584779843
 30
0.0
 11
125.1411444032
 21
199.7433917811
 31
0.0
  0
SPLINE
  5
D9
330
1F
100
AcDbEntity
  8
0
  6
Continuous
 62
     7
370
    15
100
AcDbSpline
210
0.0
220
0.0
230
1.0
 70
     8
 71
     3
 72
    11
 73
     7
 74
     0
 42
0.00000001
 43
0.00000001
 12
1.0
 22
0.0
 32
0.0
 13
1.0
 23
0.0
 33
0.0
 40
0.0
 40
0.0
 40
0.0
 40
0.0
 40
0.2514381262281232
 40
0.5021657261619465
 40
0.762827714838661
 40
1.0
 40
1.0
 40
1.0
 40
1.0
 10
125.1411444031763
 20
199.7433917810765
 30
0.0
 10
125.1448065711258
 20
199.7540977400838
 30
0.0
 10
125.1521205582896
 20
199.7754794046699
 30
0.0
 10
125.2115725203671
 20
199.8059130563254
 30
0.0
 10
125.3002934023826
 20
199.8323032037478
 30
0.0
 10
125.3821481416173
 20
199.8450923450409
 30
0.0
 10
125.4211444031763
 20
199.8511851956643
 30
0.0
  0
SPLINE
  5
DA
330
1F
100
AcDbEntity
  8
0
  6
Continuous
 62
     7
370
    15
100
AcDbSpline
210
0.0
220
0.0
230
1.0
 70
     8
 71
     3
 72
    11
 73
     7
 74
     0
 42
0.00000001
 43
0.00000001
 12
1.0
 22
0.0
 32
0.0
 13
1.0
 23
0.0
 33
0.0
 40
0.0
 40
0.0
 40
0.0
 40
0.0
 40
0.2514401112120317
 40
0.5021687776352158
 40
0.7628238824258169
 40
1.0
 40
1.0
 40
1.0
 40
1.0
 10
125.1411444031763
 20
188.7584779843124
 30
0.0
 10
125.1448065573041
 20
188.7477642064545
 30
0.0
 10
125.1521205035674
 20
188.7263669651596
 30
0.0
 10
125.2115718190517
 20
188.6959114535834
 30
0.0
 10
125.3002919902322
 20
188.6695016788222
 30
0.0
 10
125.3821470972393
 20
188.6567032456104
 30
0.0
 10
125.4211444031763
 20
188.6506058323429
 30
0.0
  0
SPLINE
  5
DB
330
1F
100
AcDbEntity
  8
0
  6
Continuous
 62
     7
370
    15
100
AcDbSpline
210
0.0
220
0.0
230
1.0
 70
     8
 71
     3
 72
    11
 73
     7
 74
     0
 42
0.00000001
 43
0.00000001
 12
1.0
 22
0.0
 32
0.0
 13
1.0
 23
0.0
 33
0.0
 40
0.0
 40
0.0
 40
0.0
 40
0.0
 40
0.25144011551146
 40
0.5021687862218985
 40
0.7628301310728064
 40
1.0
 40
1.0
 40
1.0
 40
1.0
 10
125.1411444031763
 20
188.7584779843124
 30
0.0
 10
125.1448065591702
 20
188.7080494314293
 30
0.0
 10
125.1521205091606
 20
188.6073350122495
 30
0.0
 10
125.211572282362
 20
188.4641937723096
 30
0.0
 10
125.3002929300169
 20
188.3395191036603
 30
0.0
 10
125.3821480959282
 20
188.2795192053163
 30
0.0
 10
125.4211444031763
 20
188.2509348826945
 30
0.0
  0
SPLINE
  5
DC
330
1F
100
AcDbEntity
  8
0
  6
Continuous
 62
     7
370
    15
100
AcDbSpline
210
0.0
220
0.0
230
1.0
 70
    24
 71
     3
 72
    13
 73
     9
 74
     0
 42
0.00000001
 43
0.00000001
 12
1.0
 22
0.0
 32
0.0
 13
1.0
 23
0.0
 33
0.0
 40
0.0
 40
0.0
 40
0.0
 40
0.0
 40
0.1275744813590966
 40
0.2546483440425892
 40
0.5000017710082016
 40
0.7453551979738153
 40
0.8725131741728122
 40
0.9999999999999999
 40
0.9999999999999999
 40
0.9999999999999999
 40
0.9999999999999999
 10
125.4211444031763
 20
188.2509348826945
 30
0.0
 10
125.4211444031763
 20
188.2524457351834
 30
0.0
 10
125.4211444031763
 20
188.2554615113817
 30
0.0
 10
125.4211444031763
 20
188.2877620124359
 30
0.0
 10
125.4211444031763
 20
188.3611281952566
 30
0.0
 10
125.4211444031763
 20
188.4707881448947
 30
0.0
 10
125.4211444031763
 20
188.570818145758
 30
0.0
 10
125.4211444031763
 20
188.6239870492813
 30
0.0
 10
125.4211444031763
 20
188.6506058323429
 30
0.0
  0
SPLINE
  5
DD
330
1F
100
AcDbEntity
  8
0
  6
Continuous
 62
     7
370
    15
100
AcDbSpline
210
0.0
220
0.0
230
1.0
 70
     8
 71
     3
 72
    11
 73
     7
 74
     0
 42
0.00000001
 43
0.00000001
 12
1.0
 22
0.0
 32
0.0
 13
1.0
 23
0.0
 33
0.0
 40
0.0
 40
0.0
 40
0.0
 40
0.0
 40
0.2371761177076149
 40
0.4978312223648375
 40
0.7485598887879975
 40
1.0
 40
1.0
 40
1.0
 40
1.0
 10
125.4211444031763
 20
200.2509348826945
 30
0.0
 10
125.3821470972182
 20
200.2223497256297
 30
0.0
 10
125.3002919902129
 20
200.1623496555527
 30
0.0
 10
125.2115718190415
 20
200.0376748313217
 30
0.0
 10
125.1521205035674
 20
199.8945347510797
 30
0.0
 10
125.1448065573041
 20
199.7938203332724
 30
0.0
 10
125.1411444031763
 20
199.7433917810765
 30
0.0
  0
SPLINE
  5
DE
330
1F
100
AcDbEntity
  8
0
  6
Continuous
 62
     7
370
    15
100
AcDbSpline
210
0.0
220
0.0
230
1.0
 70
    24
 71
     3
 72
    13
 73
     9
 74
     0
 42
0.00000001
 43
0.00000001
 12
1.0
 22
0.0
 32
0.0
 13
1.0
 23
0.0
 33
0.0
 40
0.0
 40
0.0
 40
0.0
 40
0.0
 40
0.1275693177285212
 40
0.2546459829165802
 40
0.500014689481028
 40
0.7453717616663761
 40
0.8725249485133846
 40
1.0
 40
1.0
 40
1.0
 40
1.0
 10
125.4211444031763
 20
199.8511851956643
 30
0.0
 10
125.4211444031763
 20
199.8778242826958
 30
0.0
 10
125.4211444031763
 20
199.9309995808155
 30
0.0
 10
125.4211444031763
 20
200.031032064266
 30
0.0
 10
125.4211444031763
 20
200.1406966733179
 30
0.0
 10
125.4211444031763
 20
200.2141108175094
 30
0.0
 10
125.4211444031763
 20
200.2463931769536
 30
0.0
 10
125.4211444031763
 20
200.2494197055458
 30
0.0
 10
125.4211444031763
 20
200.2509348826945
 30
0.0
  0
LINE
  5
DF
330
1F
100
AcDbEntity
  8
0
  6
Continuous
 62
     7
370
    15
100
AcDbLine
 10
278.9211444032
 20
189.9078401993
 30
0.0
 11
278.9011444032
 21
189.9078401993
 31
0.0
  0
LINE
  5
E0
330
1F
100
AcDbEntity
  8
0
  6
Continuous
 62
     7
370
    15
100
AcDbLine
 10
278.9211444032
 20
189.9078401993
 30
0.0
 11
278.9211444032
 21
185.1078401993
 31
0.0
  0
LINE
  5
E1
330
1F
100
AcDbEntity
  8
0
  6
Continuous
 62
     7
370
    15
100
AcDbLine
 10
278.9211444032
 20
185.1078401993
 30
0.0
 11
278.9011444032
 21
185.1078401993
 31
0.0
  0
LINE
  5
E2
330
1F
100
AcDbEntity
  8
0
  6
Continuous
 62
     7
370
    15
100
AcDbLine
 10
278.9411444032
 20
185.6104837026
 30
0.0
 11
278.9211444032
 21
185.6104837026
 31
0.0
  0
LINE
  5
E3
330
1F
100
AcDbEntity
  8
0
  6
Continuous
 62
     7
370
    15
100
AcDbLine
 10
278.9411444032
 20
185.6104837026
 30
0.0
 11
278.9411444032
 21
185.4604837026
 31
0.0
  0
LINE
  5
E4
330
1F
100
AcDbEntity
  8
0
  6
Continuous
 62
     7
370
    15
100
AcDbLine
 10
278.9411444032
 20
185.4604837026
 30
0.0
 11
278.9211444032
 21
185.4604837026
 31
0.0
  0
LINE
  5
E5
330
1F
100
AcDbEntity
  8
0
  6
Continuous
 62
     7
370
    15
100
AcDbLine
 10
278.9411444032
 20
189.5104837026
 30
0.0
 11
278.9211444032
 21
189.5104837026
 31
0.0
  0
LINE
  5
E6
330
1F
100
AcDbEntity
  8
0
  6
Continuous
 62
     7
370
    15
100
AcDbLine
 10
278.9411444032
 20
189.5104837026
 30
0.0
 11
278.9411444032
 21
185.6104837026
 31
0.0
  0
LINE
  5
E7
330
1F
100
AcDbEntity
  8
0
  6
Continuous
 62
     7
370
    15
100
AcDbLine
 10
278.9411444032
 20
189.5604837026
 30
0.0
 11
278.9411444032
 21
189.5104837026
 31
0.0
  0
LINE
  5
E8
330
1F
100
AcDbEntity
  8
0
  6
Continuous
 62
     7
370
    15
100
AcDbLine
 10
279.0811444032
 20
236.9846785817
 30
0.0
 11
279.0611444032
 21
236.9846785817
 31
0.0
  0
LINE
  5
E9
330
1F
100
AcDbEntity
  8
0
  6
Continuous
 62
     7
370
    15
100
AcDbLine
 10
279.0811444032
 20
236.9846785817
 30
0.0
 11
279.0811444032
 21
236.9655591064
 31
0.0
  0
LINE
  5
EA
330
1F
100
AcDbEntity
  8
0
  6
Continuous
 62
     7
370
    15
100
AcDbLine
 10
279.0811444032
 20
236.9655591064
 30
0.0
 11
279.0611444032
 21
236.9655591064
 31
0.0
  0
LINE
  5
EB
330
1F
100
AcDbEntity
  8
0
  6
Continuous
 62
     7
370
    15
100
AcDbLine
 10
279.0811444032
 20
241.7846698084
 30
0.0
 11
279.0611444032
 21
241.7846698084
 31
0.0
  0
LINE
  5
EC
330
1F
100
AcDbEntity
  8
0
  6
Continuous
 62
     7
370
    15
100
AcDbLine
 10
279.0811444032
 20
241.7846698084
 30
0.0
 11
279.0811444032
 21
236.9846785817
 31
0.0
  0
LINE
  5
ED
330
1F
100
AcDbEntity
  8
0
  6
Continuous
 62
     7
370
    15
100
AcDbLine
 10
279.1011444032
 20
237.4870119443
 30
0.0
 11
279.0811444032
 21
237.4870119443
 31
0.0
  0
LINE
  5
EE
330
1F
100
AcDbEntity
  8
0
  6
Continuous
 62
     7
370
    15
100
AcDbLine
 10
279.1011444032
 20
237.336846639
 30
0.0
 11
279.0811444032
 21
237.336846639
 31
0.0
  0
LINE
  5
EF
330
1F
100
AcDbEntity
  8
0
  6
Continuous
 62
     7
370
    15
100
AcDbLine
 10
279.1011444032
 20
237.4870119443
 30
0.0
 11
279.1011444032
 21
237.336846639
 31
0.0
  0
LINE
  5
F0
330
1F
100
AcDbEntity
  8
0
  6
Continuous
 62
     7
370
    15
100
AcDbLine
 10
279.1011444032
 20
241.3826997486
 30
0.0
 11
279.0811444032
 21
241.3826997486
 31
0.0
  0
LINE
  5
F1
330
1F
100
AcDbEntity
  8
0
  6
Continuous
 62
     7
370
    15
100
AcDbLine
 10
279.1011444032
 20
241.3826997486
 30
0.0
 11
279.1011444032
 21
237.4870119443
 31
0.0
  0
LINE
  5
F2
330
1F
100
AcDbEntity
  8
0
  6
Continuous
 62
     7
370
    15
100
AcDbLine
 10
279.1011444032
 20
237.3282365043
 30
0.0
 11
279.0811444032
 21
237.3282365043
 31
0.0
  0
LINE
  5
F3
330
1F
100
AcDbEntity
  8
0
  6
Continuous
 62
     7
370
    15
100
AcDbLine
 10
279.1011444032
 20
237.336846639
 30
0.0
 11
279.1011444032
 21
237.3282365043
 31
0.0
  0
LINE
  5
F4
330
1F
100
AcDbEntity
  8
0
  6
Continuous
 62
     7
370
    15
100
AcDbLine
 10
279.1011444032
 20
241.4325342605
 30
0.0
 11
279.1011444032
 21
241.3826997486
 31
0.0
  0
LINE
  5
F5
330
1F
100
AcDbEntity
  8
0
  6
Continuous
 62
     7
370
    15
100
AcDbLine
 10
279.1011444032
 20
237.3282363215
 30
0.0
 11
279.1011444032
 21
237.3272869013
 31
0.0
  0
LINE
  5
F6
330
1F
100
AcDbEntity
  8
0
  6
Continuous
 62
     7
370
    15
100
AcDbLine
 10
279.1011444032
 20
237.3272869013
 30
0.0
 11
279.0811444032
 21
237.3272869013
 31
0.0
  0
LINE
  5
F7
330
1F
100
AcDbEntity
  8
0
  6
Continuous
 62
     7
370
    15
100
AcDbLine
 10
279.1011444032
 20
237.3186767666
 30
0.0
 11
279.0811444032
 21
237.3186767666
 31
0.0
  0
LINE
  5
F8
330
1F
100
AcDbEntity
  8
0
  6
Continuous
 62
     7
370
    15
100
AcDbLine
 10
279.1011444032
 20
237.3272869013
 30
0.0
 11
279.1011444032
 21
237.3186767666
 31
0.0
  0
LINE
  5
F9
330
1F
100
AcDbEntity
  8
0
  6
Continuous
 62
     7
370
    15
100
AcDbLine
 10
131.7756661684
 20
226.1581070023
 30
0.0
 11
131.7946872987
 21
226.1519266624
 31
0.0
  0
LINE
  5
FA
330
1F
100
AcDbEntity
  8
0
  6
Continuous
 62
     7
370
    15
100
AcDbLine
 10
131.7756661684
 20
226.1581070023
 30
0.0
 11
133.2589477414
 21
230.7231782805
 31
0.0
  0
LINE
  5
FB
330
1F
100
AcDbEntity
  8
0
  6
Continuous
 62
     7
370
    15
100
AcDbLine
 10
133.2589477414
 20
230.7231782805
 30
0.0
 11
133.2779688717
 21
230.7169979406
 31
0.0
  0
LINE
  5
FC
330
1F
100
AcDbEntity
  8
0
  6
Continuous
 62
     7
370
    15
100
AcDbLine
 10
131.8656178735
 20
226.4996712439
 30
0.0
 11
131.8846390039
 21
226.493490904
 31
0.0
  0
LINE
  5
FD
330
1F
100
AcDbEntity
  8
0
  6
Continuous
 62
     7
370
    15
100
AcDbLine
 10
131.9119704227
 20
226.6423297214
 30
0.0
 11
131.930991553
 21
226.6361493815
 31
0.0
  0
LINE
  5
FE
330
1F
100
AcDbEntity
  8
0
  6
Continuous
 62
     7
370
    15
100
AcDbLine
 10
131.8656178735
 20
226.4996712439
 30
0.0
 11
131.9119704227
 21
226.6423297214
 31
0.0
  0
LINE
  5
FF
330
1F
100
AcDbEntity
  8
0
  6
Continuous
 62
     7
370
    15
100
AcDbLine
 10
133.1171367007
 20
230.3514501349
 30
0.0
 11
133.1361578311
 21
230.345269795
 31
0.0
  0
LINE
  5
100
330
1F
100
AcDbEntity
  8
0
  6
Continuous
 62
     7
370
    15
100
AcDbLine
 10
131.9119704227
 20
226.6423297214
 30
0.0
 11
133.1171367007
 21
230.3514501349
 31
0.0
  0
LINE
  5
101
330
1F
100
AcDbEntity
  8
0
  6
Continuous
 62
     7
370
    15
100
AcDbLine
 10
133.1171367007
 20
230.3514501349
 30
0.0
 11
133.1325875505
 21
230.3990029607
 31
0.0
  0
LINE
  5
102
330
1F
100
AcDbEntity
  8
0
  6
Continuous
 62
     7
370
    15
100
AcDbLine
 10
130.3517295655
 20
223.6526001887
 30
0.0
 11
130.9223634753
 21
223.4671899921
 31
0.0
  0
LINE
  5
103
330
1F
100
AcDbEntity
  8
0
  6
Continuous
 62
     7
370
    15
100
AcDbLine
 10
129.3959984797
 20
219.5785385677
 30
0.0
 11
128.6852593926
 21
217.3911085802
 31
0.0
  0
LINE
  5
104
330
1F
100
AcDbEntity
  8
0
  6
Continuous
 62
     7
370
    15
100
AcDbLine
 10
128.8754706959
 20
217.3293051814
 30
0.0
 11
129.586209783
 21
219.5167351688
 31
0.0
  0
LINE
  5
105
330
1F
100
AcDbEntity
  8
0
  6
Continuous
 62
     7
370
    15
100
AcDbLine
 10
128.6531574165
 20
217.4541122558
 30
0.0
 11
129.3329948042
 21
219.5464365916
 31
0.0
  0
LINE
  5
106
330
1F
100
AcDbEntity
  8
0
  6
Continuous
 62
     7
370
    15
100
AcDbLine
 10
132.2614276467
 20
229.5300465342
 30
0.0
 11
128.2442336639
 21
217.1663947476
 31
0.0
  0
SPLINE
  5
107
330
1F
100
AcDbEntity
  8
0
  6
Continuous
 62
     7
370
    15
100
AcDbSpline
210
0.0
220
0.0
230
1.0
 70
     8
 71
     3
 72
     9
 73
     5
 74
     0
 42
0.00000001
 43
0.00000001
 12
1.0
 22
0.0
 32
0.0
 13
1.0
 23
0.0
 33
0.0
 40
0.0
 40
0.0
 40
0.0
 40
0.0
 40
0.5209744652335222
 40
1.0
 40
1.0
 40
1.0
 40
1.0
 10
127.06817499597
 20
219.6121498010077
 30
0.0
 10
127.0478740151814
 20
219.5678513506744
 30
0.0
 10
127.0089066911695
 20
219.4828213668854
 30
0.0
 10
126.9223969782166
 20
219.4557589611798
 30
0.0
 10
126.8809566167069
 20
219.4427953778145
 30
0.0
  0
LINE
  5
108
330
1F
100
AcDbEntity
  8
0
  6
Continuous
 62
     7
370
    15
100
AcDbLine
 10
129.8610413718
 20
228.2077086673
 30
0.0
 11
127.068174996
 21
219.612149801
 31
0.0
  0
SPLINE
  5
109
330
1F
100
AcDbEntity
  8
0
  6
Continuous
 62
     7
370
    15
100
AcDbSpline
210
0.0
220
0.0
230
1.0
 70
     8
 71
     3
 72
     9
 73
     5
 74
     0
 42
0.00000001
 43
0.00000001
 12
1.0
 22
0.0
 32
0.0
 13
1.0
 23
0.0
 33
0.0
 40
0.0
 40
0.0
 40
0.0
 40
0.0
 40
0.4790255347664942
 40
1.0
 40
1.0
 40
1.0
 40
1.0
 10
129.8103710250801
 20
228.4586058760289
 30
0.0
 10
129.8360763136677
 20
228.4231418845051
 30
0.0
 10
129.8897379386165
 20
228.349108270533
 30
0.0
 10
129.8708707140158
 20
228.256141816177
 30
0.0
 10
129.8610413717689
 20
228.2077086673342
 30
0.0
  0
LINE
  5
10A
330
1F
100
AcDbEntity
  8
0
  6
Continuous
 62
     7
370
    15
100
AcDbLine
 10
130.1121279627
 20
229.3873182351
 30
0.0
 11
129.8103710251
 21
228.458605876
 31
0.0
  0
LINE
  5
10B
330
1F
100
AcDbEntity
  8
0
  6
Continuous
 62
     7
370
    15
100
AcDbLine
 10
126.8809566167
 20
219.4427953778
 30
0.0
 11
126.5893342268
 21
218.5452739494
 31
0.0
  0
SPLINE
  5
10C
330
1F
100
AcDbEntity
  8
0
  6
Continuous
 62
     7
370
    15
100
AcDbSpline
210
0.0
220
0.0
230
1.0
 70
     8
 71
     3
 72
    13
 73
     9
 74
     0
 42
0.00000001
 43
0.00000001
 12
1.0
 22
0.0
 32
0.0
 13
1.0
 23
0.0
 33
0.0
 40
0.0
 40
0.0
 40
0.0
 40
0.0
 40
0.1250727558199241
 40
0.2500145503148427
 40
0.3748660964682045
 40
0.499925088095877
 40
0.7494595564241694
 40
1.0
 40
1.0
 40
1.0
 40
1.0
 10
131.1943070610767
 20
228.3128041745141
 30
0.0
 10
131.1876492005571
 20
228.2974926065508
 30
0.0
 10
131.1743404508383
 20
228.2668855030783
 30
0.0
 10
131.1302752611676
 20
228.2228419137871
 30
0.0
 10
131.0680089553651
 20
228.1860209343761
 30
0.0
 10
130.9686258570117
 20
228.1514199509191
 30
0.0
 10
130.8334598334687
 20
228.1312439744026
 30
0.0
 10
130.728629408023
 20
228.1304713242253
 30
0.0
 10
130.6761087542847
 20
228.130084221986
 30
0.0
  0
LINE
  5
10D
330
1F
100
AcDbEntity
  8
0
  6
Continuous
 62
     7
370
    15
100
AcDbLine
 10
131.2006423059
 20
228.3515508107
 30
0.0
 11
131.1943070611
 21
228.3128041745
 31
0.0
  0
SPLINE
  5
10E
330
1F
100
AcDbEntity
  8
0
  6
Continuous
 62
     7
370
    15
100
AcDbSpline
210
0.0
220
0.0
230
1.0
 70
     8
 71
     3
 72
    12
 73
     8
 74
     0
 42
0.00000001
 43
0.00000001
 12
1.0
 22
0.0
 32
0.0
 13
1.0
 23
0.0
 33
0.0
 40
0.0
 40
0.0
 40
0.0
 40
0.0
 40
0.2937662414858413
 40
0.5864414442827445
 40
0.7331257825883819
 40
0.8794461679041513
 40
1.0
 40
1.0
 40
1.0
 40
1.0
 10
130.6761087542847
 20
228.130084221986
 30
0.0
 10
130.624325536243
 20
228.1312378600755
 30
0.0
 10
130.5209514214217
 20
228.1335408516784
 30
0.0
 10
130.3991005886085
 20
228.1554579478776
 30
0.0
 10
130.3214537487676
 20
228.1901753801035
 30
0.0
 10
130.2810969319473
 20
228.2243912160515
 30
0.0
 10
130.27528994383
 20
228.2515485112506
 30
0.0
 10
130.2726667804638
 20
228.2638161481821
 30
0.0
  0
LINE
  5
10F
330
1F
100
AcDbEntity
  8
0
  6
Continuous
 62
     7
370
    15
100
AcDbLine
 10
131.320441063
 20
228.7648245478
 30
0.0
 11
131.2792388206
 21
228.6446960995
 31
0.0
  0
LINE
  5
110
330
1F
100
AcDbEntity
  8
0
  6
Continuous
 62
     7
370
    15
100
AcDbLine
 10
131.2792388206
 20
228.6446960995
 30
0.0
 11
130.4000787547
 21
228.6304273484
 31
0.0
  0
LINE
  5
111
330
1F
100
AcDbEntity
  8
0
  6
Continuous
 62
     7
370
    15
100
AcDbLine
 10
128.3606792699
 20
219.6369754924
 30
0.0
 11
128.2327632519
 21
219.2328386971
 31
0.0
  0
LINE
  5
112
330
1F
100
AcDbEntity
  8
0
  6
Continuous
 62
     7
370
    15
100
AcDbLine
 10
128.231949956
 20
219.7214460056
 30
0.0
 11
128.3606792699
 21
219.6369754924
 31
0.0
  0
LINE
  5
113
330
1F
100
AcDbEntity
  8
0
  6
Continuous
 62
     7
370
    15
100
AcDbLine
 10
127.668688941
 20
220.057356814
 30
0.0
 11
128.1469854138
 21
219.4604463553
 31
0.0
  0
LINE
  5
114
330
1F
100
AcDbEntity
  8
0
  6
Continuous
 62
     7
370
    15
100
AcDbLine
 10
127.5785680984
 20
219.9930070824
 30
0.0
 11
127.668688941
 21
220.057356814
 31
0.0
  0
LINE
  5
115
330
1F
100
AcDbEntity
  8
0
  6
Continuous
 62
     7
370
    15
100
AcDbLine
 10
129.8787179594
 20
225.7302209096
 30
0.0
 11
129.5263066703
 21
226.0020875119
 31
0.0
  0
SPLINE
  5
116
330
1F
100
AcDbEntity
  8
0
  6
Continuous
 62
     7
370
    15
100
AcDbSpline
210
0.0
220
0.0
230
1.0
 70
     8
 71
     3
 72
     9
 73
     5
 74
     0
 42
0.00000001
 43
0.00000001
 12
1.0
 22
0.0
 32
0.0
 13
1.0
 23
0.0
 33
0.0
 40
0.0
 40
0.0
 40
0.0
 40
0.0
 40
0.4985890458278915
 40
1.0
 40
1.0
 40
1.0
 40
1.0
 10
130.0557091188243
 20
225.6354521595742
 30
0.0
 10
130.0225164403001
 20
225.6457737708797
 30
0.0
 10
129.955943219725
 20
225.6664754116232
 30
0.0
 10
129.9045080946087
 20
225.7089324736351
 30
0.0
 10
129.8787179594461
 20
225.7302209096099
 30
0.0
  0
SPLINE
  5
117
330
1F
100
AcDbEntity
  8
0
  6
Continuous
 62
     7
370
    15
100
AcDbSpline
210
0.0
220
0.0
230
1.0
 70
     8
 71
     3
 72
    12
 73
     8
 74
     0
 42
0.00000001
 43
0.00000001
 12
1.0
 22
0.0
 32
0.0
 13
1.0
 23
0.0
 33
0.0
 40
0.0
 40
0.0
 40
0.0
 40
0.0
 40
0.2497670786619423
 40
0.3752111985127618
 40
0.5006480061081363
 40
0.7504925518114335
 40
1.0
 40
1.0
 40
1.0
 40
1.0
 10
130.393052373609
 20
225.8434416181395
 30
0.0
 10
130.3793959115488
 20
225.8115604836672
 30
0.0
 10
130.3588805677152
 20
225.7636672275207
 30
0.0
 10
130.3075287337557
 20
225.7112842910859
 30
0.0
 10
130.2480433929473
 20
225.6689882061886
 30
0.0
 10
130.1614632820192
 20
225.6301528105198
 30
0.0
 10
130.0909446382173
 20
225.6336865050531
 30
0.0
 10
130.0557091188242
 20
225.6354521595743
 30
0.0
  0
SPLINE
  5
118
330
1F
100
AcDbEntity
  8
0
  6
Continuous
 62
     7
370
    15
100
AcDbSpline
210
0.0
220
0.0
230
1.0
 70
     8
 71
     3
 72
     9
 73
     5
 74
     0
 42
0.00000001
 43
0.00000001
 12
1.0
 22
0.0
 32
0.0
 13
1.0
 23
0.0
 33
0.0
 40
0.0
 40
0.0
 40
0.0
 40
0.0
 40
0.499957147142343
 40
1.0
 40
1.0
 40
1.0
 40
1.0
 10
130.3748490800776
 20
226.0281766676354
 30
0.0
 10
130.3884862781549
 20
225.999673780234
 30
0.0
 10
130.4157630120814
 20
225.9426631192917
 30
0.0
 10
130.4006230189612
 20
225.8765173415474
 30
0.0
 10
130.393052373609
 20
225.8434416181395
 30
0.0
  0
SPLINE
  5
119
330
1F
100
AcDbEntity
  8
0
  6
Continuous
 62
     7
370
    15
100
AcDbSpline
210
0.0
220
0.0
230
1.0
 70
     8
 71
     3
 72
    10
 73
     6
 74
     0
 42
0.00000001
 43
0.00000001
 12
1.0
 22
0.0
 32
0.0
 13
1.0
 23
0.0
 33
0.0
 40
0.0
 40
0.0
 40
0.0
 40
0.0
 40
0.26917589257614
 40
0.5381985913562831
 40
1.0
 40
1.0
 40
1.0
 40
1.0
 10
128.8708449688822
 20
222.4329440457304
 30
0.0
 10
128.8624623913728
 20
222.4262685753037
 30
0.0
 10
128.8457020070593
 20
222.4129214336043
 30
0.0
 10
128.8114496923177
 20
222.3930325356317
 30
0.0
 10
128.7837362464764
 20
222.3860967295991
 30
0.0
 10
128.7662243606508
 20
222.3817140539822
 30
0.0
  0
SPLINE
  5
11A
330
1F
100
AcDbEntity
  8
0
  6
Continuous
 62
     7
370
    15
100
AcDbSpline
210
0.0
220
0.0
230
1.0
 70
     8
 71
     3
 72
    12
 73
     8
 74
     0
 42
0.00000001
 43
0.00000001
 12
1.0
 22
0.0
 32
0.0
 13
1.0
 23
0.0
 33
0.0
 40
0.0
 40
0.0
 40
0.0
 40
0.0
 40
0.3327331994421808
 40
0.5011599522861578
 40
0.6663480023110289
 40
0.8315380117323549
 40
0.9999999999999999
 40
0.9999999999999999
 40
0.9999999999999999
 40
0.9999999999999999
 10
129.299859441344
 20
222.4564794319639
 30
0.0
 10
129.2874547380906
 20
222.4250969670332
 30
0.0
 10
129.2687708781662
 20
222.3778289617555
 30
0.0
 10
129.2253619824777
 20
222.3290996542177
 30
0.0
 10
129.1868138276488
 20
222.3013286563824
 30
0.0
 10
129.1434947298794
 20
222.2827107386172
 30
0.0
 10
129.1125869257276
 20
222.2790252283894
 30
0.0
 10
129.0969814740101
 20
222.2771644021841
 30
0.0
  0
SPLINE
  5
11B
330
1F
100
AcDbEntity
  8
0
  6
Continuous
 62
     7
370
    15
100
AcDbSpline
210
0.0
220
0.0
230
1.0
 70
     8
 71
     3
 72
    13
 73
     9
 74
     0
 42
0.00000001
 43
0.00000001
 12
1.0
 22
0.0
 32
0.0
 13
1.0
 23
0.0
 33
0.0
 40
0.0
 40
0.0
 40
0.0
 40
0.0
 40
0.2491494704881485
 40
0.374886016153529
 40
0.499596193852999
 40
0.6248185188933664
 40
0.7500817860849104
 40
1.0
 40
1.0
 40
1.0
 40
1.0
 10
129.1657051977514
 20
222.7956287181875
 30
0.0
 10
129.1943752820172
 20
222.7803806080084
 30
0.0
 10
129.2375141000615
 20
222.7574373391838
 30
0.0
 10
129.278791256958
 20
222.704249797195
 30
0.0
 10
129.3016905478032
 20
222.6586552947539
 30
0.0
 10
129.314560284739
 20
222.6087125085633
 30
0.0
 10
129.3202900764676
 20
222.5396579356949
 30
0.0
 10
129.3080277189482
 20
222.4897346442991
 30
0.0
 10
129.299859441344
 20
222.4564794319639
 30
0.0
  0
LINE
  5
11C
330
1F
100
AcDbEntity
  8
0
  6
Continuous
 62
     7
370
    15
100
AcDbLine
 10
129.072123552
 20
222.8095929548
 30
0.0
 11
129.1657051978
 21
222.7956287182
 31
0.0
  0
SPLINE
  5
11D
330
1F
100
AcDbEntity
  8
0
  6
Continuous
 62
     7
370
    15
100
AcDbSpline
210
0.0
220
0.0
230
1.0
 70
     8
 71
     3
 72
    12
 73
     8
 74
     0
 42
0.00000001
 43
0.00000001
 12
1.0
 22
0.0
 32
0.0
 13
1.0
 23
0.0
 33
0.0
 40
0.0
 40
0.0
 40
0.0
 40
0.0
 40
0.1252144784896005
 40
0.2503747976094379
 40
0.500078830479716
 40
0.7499128799635169
 40
1.0
 40
1.0
 40
1.0
 40
1.0
 10
128.8175651913862
 20
222.9786322250726
 30
0.0
 10
128.8273752397297
 20
222.9744159355528
 30
0.0
 10
128.8469910932492
 20
222.9659851801968
 30
0.0
 10
128.8834277400751
 20
222.9428011600011
 30
0.0
 10
128.9236572280706
 20
222.9050623276966
 30
0.0
 10
128.9596212426003
 20
222.8475445188097
 30
0.0
 10
128.9738792961612
 20
222.8043215545678
 30
0.0
 10
128.9810119318042
 20
222.7826991322626
 30
0.0
  0
LINE
  5
11E
330
1F
100
AcDbEntity
  8
0
  6
Continuous
 62
     7
370
    15
100
AcDbLine
 10
128.7104488897
 20
222.9971114924
 30
0.0
 11
128.8175651914
 21
222.9786322251
 31
0.0
  0
LINE
  5
11F
330
1F
100
AcDbEntity
  8
0
  6
Continuous
 62
     7
370
    15
100
AcDbLine
 10
127.4326138732
 20
218.0798514393
 30
0.0
 11
127.7602688489
 21
217.7469360704
 31
0.0
  0
SPLINE
  5
120
330
1F
100
AcDbEntity
  8
0
  6
Continuous
 62
     7
370
    15
100
AcDbSpline
210
0.0
220
0.0
230
1.0
 70
     8
 71
     3
 72
     9
 73
     5
 74
     0
 42
0.00000001
 43
0.00000001
 12
1.0
 22
0.0
 32
0.0
 13
1.0
 23
0.0
 33
0.0
 40
0.0
 40
0.0
 40
0.0
 40
0.0
 40
0.4985493582762477
 40
1.0
 40
1.0
 40
1.0
 40
1.0
 10
127.2762871210383
 20
218.2296418292308
 30
0.0
 10
127.3044458785188
 20
218.2048901150523
 30
0.0
 10
127.3609272619826
 20
218.1552426453129
 30
0.0
 10
127.4086721622889
 20
218.1050304013177
 30
0.0
 10
127.4326138731864
 20
218.0798514393439
 30
0.0
  0
SPLINE
  5
121
330
1F
100
AcDbEntity
  8
0
  6
Continuous
 62
     7
370
    15
100
AcDbSpline
210
0.0
220
0.0
230
1.0
 70
     8
 71
     3
 72
    12
 73
     8
 74
     0
 42
0.00000001
 43
0.00000001
 12
1.0
 22
0.0
 32
0.0
 13
1.0
 23
0.0
 33
0.0
 40
0.0
 40
0.0
 40
0.0
 40
0.0
 40
0.249754081761224
 40
0.3738911159271442
 40
0.5006314448764156
 40
0.7505193279843998
 40
1.0
 40
1.0
 40
1.0
 40
1.0
 10
127.0404469228937
 20
218.3413732600807
 30
0.0
 10
127.0456704274081
 20
218.3469481575888
 30
0.0
 10
127.0534902072419
 20
218.3552939857561
 30
0.0
 10
127.0860100431673
 20
218.3474525504435
 30
0.0
 10
127.1268862935397
 20
218.3304585782271
 30
0.0
 10
127.1906283812144
 20
218.2958051768642
 30
0.0
 10
127.2477497343378
 20
218.2516842856188
 30
0.0
 10
127.2762871210383
 20
218.2296418292308
 30
0.0
  0
SPLINE
  5
122
330
1F
100
AcDbEntity
  8
0
  6
Continuous
 62
     7
370
    15
100
AcDbSpline
210
0.0
220
0.0
230
1.0
 70
     8
 71
     3
 72
    16
 73
    12
 74
     0
 42
0.00000001
 43
0.00000001
 12
1.0
 22
0.0
 32
0.0
 13
1.0
 23
0.0
 33
0.0
 40
0.0
 40
0.0
 40
0.0
 40
0.0
 40
0.1223889803851366
 40
0.2448011401976257
 40
0.3671801783437914
 40
0.4895567384501786
 40
0.6119340119709722
 40
0.7343069387742313
 40
0.8567766827540039
 40
0.9792781043038336
 40
1.0
 40
1.0
 40
1.0
 40
1.0
 10
130.650941883976
 20
229.4230458771365
 30
0.0
 10
130.6583767384817
 20
229.4226073572349
 30
0.0
 10
130.673247855591
 20
229.4217302343796
 30
0.0
 10
130.7888744575776
 20
229.4205931845425
 30
0.0
 10
130.9540191224574
 20
229.4236599960398
 30
0.0
 10
131.1504064117061
 20
229.4336329913375
 30
0.0
 10
131.3456171866513
 20
229.4500842671177
 30
0.0
 10
131.5128927723357
 20
229.4693199254282
 30
0.0
 10
131.6182284304492
 20
229.4840511933865
 30
0.0
 10
131.6613283991024
 20
229.4908395716599
 30
0.0
 10
131.6447665448961
 20
229.4888931516275
 30
0.0
 10
131.6423703358011
 20
229.4886115388728
 30
0.0
  0
SPLINE
  5
123
330
1F
100
AcDbEntity
  8
0
  6
Continuous
 62
     7
370
    15
100
AcDbSpline
210
0.0
220
0.0
230
1.0
 70
     8
 71
     3
 72
    12
 73
     8
 74
     0
 42
0.00000001
 43
0.00000001
 12
1.0
 22
0.0
 32
0.0
 13
1.0
 23
0.0
 33
0.0
 40
0.0
 40
0.0
 40
0.0
 40
0.0
 40
0.249939791663374
 40
0.4997978778708179
 40
0.7496260396545714
 40
0.8747793307588622
 40
0.9999999999999999
 40
0.9999999999999999
 40
0.9999999999999999
 40
0.9999999999999999
 10
128.8700162250365
 20
222.4327971253898
 30
0.0
 10
128.8528244299491
 20
222.4199850751933
 30
0.0
 10
128.8184464597817
 20
222.3943651630665
 30
0.0
 10
128.7573778559671
 20
222.3761689841728
 30
0.0
 10
128.704602546756
 20
222.3746788787335
 30
0.0
 10
128.6628312111395
 20
222.3825470329437
 30
0.0
 10
128.6425936682054
 20
222.3897344546398
 30
0.0
 10
128.6324721736757
 20
222.3933291325913
 30
0.0
  0
SPLINE
  5
124
330
1F
100
AcDbEntity
  8
0
  6
Continuous
 62
     7
370
    15
100
AcDbSpline
210
0.0
220
0.0
230
1.0
 70
     8
 71
     3
 72
    13
 73
     9
 74
     0
 42
0.00000001
 43
0.00000001
 12
1.0
 22
0.0
 32
0.0
 13
1.0
 23
0.0
 33
0.0
 40
0.0
 40
0.0
 40
0.0
 40
0.0
 40
0.2490557554843299
 40
0.3742797769338847
 40
0.4994467611766437
 40
0.6251195750157647
 40
0.7498272373036902
 40
1.0
 40
1.0
 40
1.0
 40
1.0
 10
128.6324721736757
 20
222.3933291325913
 30
0.0
 10
128.5999402395927
 20
222.410905080715
 30
0.0
 10
128.5510514074188
 20
222.4373181299952
 30
0.0
 10
128.5033232590523
 20
222.4977519174678
 30
0.0
 10
128.4760078408816
 20
222.5492858866641
 30
0.0
 10
128.4611513369769
 20
222.6063363518197
 30
0.0
 10
128.4575840536546
 20
222.6847318026533
 30
0.0
 10
128.4722399756627
 20
222.740793845325
 30
0.0
 10
128.4820204609969
 20
222.7782062978374
 30
0.0
  0
SPLINE
  5
125
330
1F
100
AcDbEntity
  8
0
  6
Continuous
 62
     7
370
    15
100
AcDbSpline
210
0.0
220
0.0
230
1.0
 70
     8
 71
     3
 72
    13
 73
     9
 74
     0
 42
0.00000001
 43
0.00000001
 12
1.0
 22
0.0
 32
0.0
 13
1.0
 23
0.0
 33
0.0
 40
0.0
 40
0.0
 40
0.0
 40
0.0
 40
0.2503025554917501
 40
0.37551565398937
 40
0.5006064407618065
 40
0.6257466650432827
 40
0.7509222574170527
 40
1.0
 40
1.0
 40
1.0
 40
1.0
 10
128.4820204609969
 20
222.7782062978374
 30
0.0
 10
128.4950936168189
 20
222.8149921643416
 30
0.0
 10
128.5147065794135
 20
222.8701800496221
 30
0.0
 10
128.5605179776674
 20
222.9317934523611
 30
0.0
 10
128.6046114026825
 20
222.967200659126
 30
0.0
 10
128.6553811254357
 20
222.9892524133831
 30
0.0
 10
128.7276776806214
 20
223.0035010794888
 30
0.0
 10
128.7811771128488
 20
222.988566901665
 30
0.0
 10
128.8167827215742
 20
222.9786277215636
 30
0.0
  0
SPLINE
  5
126
330
1F
100
AcDbEntity
  8
0
  6
Continuous
 62
     7
370
    15
100
AcDbSpline
210
0.0
220
0.0
230
1.0
 70
     8
 71
     3
 72
    12
 73
     8
 74
     0
 42
0.00000001
 43
0.00000001
 12
1.0
 22
0.0
 32
0.0
 13
1.0
 23
0.0
 33
0.0
 40
0.0
 40
0.0
 40
0.0
 40
0.0
 40
0.2499219900219945
 40
0.4996531707838482
 40
0.7495307429255916
 40
0.8747409284388546
 40
1.0
 40
1.0
 40
1.0
 40
1.0
 10
128.8167827215742
 20
222.9786277215636
 30
0.0
 10
128.8361495516485
 20
222.9694509677988
 30
0.0
 10
128.8748684257013
 20
222.9511044664939
 30
0.0
 10
128.9229562511581
 20
222.904897018987
 30
0.0
 10
128.9523641498423
 20
222.8569335929037
 30
0.0
 10
128.9703795491295
 20
222.8153975555674
 30
0.0
 10
128.9769378981582
 20
222.7935730085127
 30
0.0
 10
128.9802177126947
 20
222.7826586051515
 30
0.0
  0
SPLINE
  5
127
330
1F
100
AcDbEntity
  8
0
  6
Continuous
 62
     7
370
    15
100
AcDbSpline
210
0.0
220
0.0
230
1.0
 70
     8
 71
     3
 72
     9
 73
     5
 74
     0
 42
0.00000001
 43
0.00000001
 12
1.0
 22
0.0
 32
0.0
 13
1.0
 23
0.0
 33
0.0
 40
0.0
 40
0.0
 40
0.0
 40
0.0
 40
0.5006774376316678
 40
1.0
 40
1.0
 40
1.0
 40
1.0
 10
128.9802177341236
 20
222.7826585340858
 30
0.0
 10
129.0103630949101
 20
222.795042292855
 30
0.0
 10
129.070572240601
 20
222.8197762989006
 30
0.0
 10
129.1334981303793
 20
222.8036588465894
 30
0.0
 10
129.1649184469026
 20
222.7956110390024
 30
0.0
  0
SPLINE
  5
128
330
1F
100
AcDbEntity
  8
0
  6
Continuous
 62
     7
370
    15
100
AcDbSpline
210
0.0
220
0.0
230
1.0
 70
     8
 71
     3
 72
    13
 73
     9
 74
     0
 42
0.00000001
 43
0.00000001
 12
1.0
 22
0.0
 32
0.0
 13
1.0
 23
0.0
 33
0.0
 40
0.0
 40
0.0
 40
0.0
 40
0.0
 40
0.2491143909829493
 40
0.3748285244707785
 40
0.4995488283983327
 40
0.6247766880985962
 40
0.7500518284326478
 40
1.0
 40
1.0
 40
1.0
 40
1.0
 10
129.1649184469026
 20
222.7956110390024
 30
0.0
 10
129.193588439215
 20
222.7803613132085
 30
0.0
 10
129.2367265769701
 20
222.7574159016836
 30
0.0
 10
129.2780007519646
 20
222.7042199401311
 30
0.0
 10
129.3008965626168
 20
222.658615329717
 30
0.0
 10
129.3137626738905
 20
222.608659368663
 30
0.0
 10
129.3194863404192
 20
222.5395873909815
 30
0.0
 10
129.307219731334
 20
222.4896515322342
 30
0.0
 10
129.299048553225
 20
222.4563876699057
 30
0.0
  0
SPLINE
  5
129
330
1F
100
AcDbEntity
  8
0
  6
Continuous
 62
     7
370
    15
100
AcDbSpline
210
0.0
220
0.0
230
1.0
 70
     8
 71
     3
 72
    13
 73
     9
 74
     0
 42
0.00000001
 43
0.00000001
 12
1.0
 22
0.0
 32
0.0
 13
1.0
 23
0.0
 33
0.0
 40
0.0
 40
0.0
 40
0.0
 40
0.0
 40
0.2498521863135183
 40
0.3763112522169886
 40
0.5003491432164716
 40
0.6243634417464907
 40
0.7508444377455173
 40
1.0
 40
1.0
 40
1.0
 40
1.0
 10
129.2990480680151
 20
222.4563859725766
 30
0.0
 10
129.2866405011445
 20
222.424984627372
 30
0.0
 10
129.2679530239809
 20
222.3776899460262
 30
0.0
 10
129.2245389077505
 20
222.3290099255726
 30
0.0
 10
129.185988630625
 20
222.3010207586351
 30
0.0
 10
129.1426645079009
 20
222.2831709824475
 30
0.0
 10
129.0810151290084
 20
222.2718797895934
 30
0.0
 10
129.034634048271
 20
222.2841149067165
 30
0.0
 10
129.0038699919108
 20
222.2922303241833
 30
0.0
  0
SPLINE
  5
12A
330
1F
100
AcDbEntity
  8
0
  6
Continuous
 62
     7
370
    15
100
AcDbSpline
210
0.0
220
0.0
230
1.0
 70
     8
 71
     3
 72
    10
 73
     6
 74
     0
 42
0.00000001
 43
0.00000001
 12
1.0
 22
0.0
 32
0.0
 13
1.0
 23
0.0
 33
0.0
 40
0.0
 40
0.0
 40
0.0
 40
0.0
 40
0.2501852034838435
 40
0.5002421289519502
 40
1.0
 40
1.0
 40
1.0
 40
1.0
 10
129.0038699919108
 20
222.2922303241833
 30
0.0
 10
128.9893227033234
 20
222.2990474556942
 30
0.0
 10
128.9602355850122
 20
222.312678223353
 30
0.0
 10
128.9101548687746
 20
222.3572113989894
 30
0.0
 10
128.8860694201263
 20
222.4025670931223
 30
0.0
 10
128.8700162659399
 20
222.4327970448984
 30
0.0
  0
SPLINE
  5
12B
330
1F
100
AcDbEntity
  8
0
  6
Continuous
 62
     7
370
    15
100
AcDbSpline
210
0.0
220
0.0
230
1.0
 70
     8
 71
     3
 72
    14
 73
    10
 74
     0
 42
0.00000001
 43
0.00000001
 12
1.0
 22
0.0
 32
0.0
 13
1.0
 23
0.0
 33
0.0
 40
0.0
 40
0.0
 40
0.0
 40
0.0
 40
0.2492092525694951
 40
0.3728336094401516
 40
0.499369031173086
 40
0.624471810912741
 40
0.7496064278576868
 40
0.8747264991988924
 40
0.9999999999999999
 40
0.9999999999999999
 40
0.9999999999999999
 40
0.9999999999999999
 10
128.9831261982963
 20
222.5841926556936
 30
0.0
 10
128.9801530677312
 20
222.5711530995126
 30
0.0
 10
128.9757050667501
 20
222.5516450565874
 30
0.0
 10
128.9801304577474
 20
222.5249256149593
 30
0.0
 10
128.9871053616473
 20
222.5061311751597
 30
0.0
 10
128.9973746422669
 20
222.4889580146511
 30
0.0
 10
129.0108818289191
 20
222.4748651961742
 30
0.0
 10
129.0263641235091
 20
222.4634466138351
 30
0.0
 10
129.037834997507
 20
222.4584478393131
 30
0.0
 10
129.0435739489133
 20
222.4559469205446
 30
0.0
  0
SPLINE
  5
12C
330
1F
100
AcDbEntity
  8
0
  6
Continuous
 62
     7
370
    15
100
AcDbSpline
210
0.0
220
0.0
230
1.0
 70
     8
 71
     3
 72
    14
 73
    10
 74
     0
 42
0.00000001
 43
0.00000001
 12
1.0
 22
0.0
 32
0.0
 13
1.0
 23
0.0
 33
0.0
 40
0.0
 40
0.0
 40
0.0
 40
0.0
 40
0.2491714621761203
 40
0.3740967550199626
 40
0.4993374524212791
 40
0.6235955056693213
 40
0.7495417994922441
 40
0.8746927316312832
 40
1.0
 40
1.0
 40
1.0
 40
1.0
 10
129.0435739489133
 20
222.4559469205446
 30
0.0
 10
129.055416010198
 20
222.452433017729
 30
0.0
 10
129.073195240053
 20
222.4471573748872
 30
0.0
 10
129.0972476611081
 20
222.4510891276565
 30
0.0
 10
129.1140897180163
 20
222.4580289760218
 30
0.0
 10
129.1291923505195
 20
222.4688511848652
 30
0.0
 10
129.1416941889051
 20
222.4830570630226
 30
0.0
 10
129.1513130580965
 20
222.4998352839441
 30
0.0
 10
129.1557351616727
 20
222.512057227579
 30
0.0
 10
129.1579475936012
 20
222.5181720138705
 30
0.0
  0
SPLINE
  5
12D
330
1F
100
AcDbEntity
  8
0
  6
Continuous
 62
     7
370
    15
100
AcDbSpline
210
0.0
220
0.0
230
1.0
 70
     8
 71
     3
 72
    14
 73
    10
 74
     0
 42
0.00000001
 43
0.00000001
 12
1.0
 22
0.0
 32
0.0
 13
1.0
 23
0.0
 33
0.0
 40
0.0
 40
0.0
 40
0.0
 40
0.0
 40
0.249232528541572
 40
0.3744321993763279
 40
0.4994068932651559
 40
0.6237667692921239
 40
0.7496301179603791
 40
0.8747320553597095
 40
1.0
 40
1.0
 40
1.0
 40
1.0
 10
129.1579475936012
 20
222.5181720138705
 30
0.0
 10
129.160795633648
 20
222.5307442210882
 30
0.0
 10
129.1650743604452
 20
222.5496319610918
 30
0.0
 10
129.1611921693065
 20
222.575427045416
 30
0.0
 10
129.1548201055224
 20
222.5936318004962
 30
0.0
 10
129.1451049843372
 20
222.6101278870557
 30
0.0
 10
129.1325409756183
 20
222.624112437383
 30
0.0
 10
129.1177039898055
 20
222.6352951806298
 30
0.0
 10
129.1066615483075
 20
222.6401428987644
 30
0.0
 10
129.1011366667243
 20
222.6425683649664
 30
0.0
  0
SPLINE
  5
12E
330
1F
100
AcDbEntity
  8
0
  6
Continuous
 62
     7
370
    15
100
AcDbSpline
210
0.0
220
0.0
230
1.0
 70
     8
 71
     3
 72
    13
 73
     9
 74
     0
 42
0.00000001
 43
0.00000001
 12
1.0
 22
0.0
 32
0.0
 13
1.0
 23
0.0
 33
0.0
 40
0.0
 40
0.0
 40
0.0
 40
0.0
 40
0.2496200318128955
 40
0.3725865111810047
 40
0.5001234053130648
 40
0.6276419915517728
 40
0.7506327510160424
 40
1.0
 40
1.0
 40
1.0
 40
1.0
 10
129.1011366667243
 20
222.6425683649664
 30
0.0
 10
129.0892640727025
 20
222.6461143317015
 30
0.0
 10
129.0715428651813
 20
222.6514070935243
 30
0.0
 10
129.0472697486012
 20
222.6478797265717
 30
0.0
 10
129.029930438667
 20
222.6414873144265
 30
0.0
 10
129.0140351541808
 20
222.6317093483994
 30
0.0
 10
128.9955692528521
 20
222.6144117864452
 30
0.0
 10
128.9881169723504
 20
222.5963132208663
 30
0.0
 10
128.9831261982963
 20
222.5841926556936
 30
0.0
  0
SPLINE
  5
12F
330
1F
100
AcDbEntity
  8
0
  6
Continuous
 62
     7
370
    15
100
AcDbSpline
210
0.0
220
0.0
230
1.0
 70
     8
 71
     3
 72
    13
 73
     9
 74
     0
 42
0.00000001
 43
0.00000001
 12
1.0
 22
0.0
 32
0.0
 13
1.0
 23
0.0
 33
0.0
 40
0.0
 40
0.0
 40
0.0
 40
0.0
 40
0.2501656349015365
 40
0.3766938259174977
 40
0.5005755448809357
 40
0.6263437038425835
 40
0.7509128609612139
 40
1.0
 40
1.0
 40
1.0
 40
1.0
 10
128.6228404612344
 20
222.7250261315557
 30
0.0
 10
128.6184493339858
 20
222.7078461867655
 30
0.0
 10
128.6118372726449
 20
222.6819770095917
 30
0.0
 10
128.6137959338106
 20
222.6460645302367
 30
0.0
 10
128.6201779942936
 20
222.6199030144021
 30
0.0
 10
128.6313365411937
 20
222.5957755865746
 30
0.0
 10
128.652496240213
 20
222.5674311045252
 30
0.0
 10
128.6750405636845
 20
222.5557008505623
 30
0.0
 10
128.6900690834574
 20
222.5478812167708
 30
0.0
  0
SPLINE
  5
130
330
1F
100
AcDbEntity
  8
0
  6
Continuous
 62
     7
370
    15
100
AcDbSpline
210
0.0
220
0.0
230
1.0
 70
     8
 71
     3
 72
    12
 73
     8
 74
     0
 42
0.00000001
 43
0.00000001
 12
1.0
 22
0.0
 32
0.0
 13
1.0
 23
0.0
 33
0.0
 40
0.0
 40
0.0
 40
0.0
 40
0.0
 40
0.2493961816599384
 40
0.3723169349178247
 40
0.5002044993111647
 40
0.7498564481497892
 40
1.0
 40
1.0
 40
1.0
 40
1.0
 10
128.6900690834574
 20
222.5478812167708
 30
0.0
 10
128.7061629746437
 20
222.5435105143014
 30
0.0
 10
128.7301891172955
 20
222.5369856086832
 30
0.0
 10
128.7623818796156
 20
222.5439082491982
 30
0.0
 10
128.7921417782091
 20
222.5574180960745
 30
0.0
 10
128.8246615680427
 20
222.5863331371303
 30
0.0
 10
128.8377262232468
 20
222.6190134407185
 30
0.0
 10
128.8442649761006
 20
222.6353696648218
 30
0.0
  0
SPLINE
  5
131
330
1F
100
AcDbEntity
  8
0
  6
Continuous
 62
     7
370
    15
100
AcDbSpline
210
0.0
220
0.0
230
1.0
 70
     8
 71
     3
 72
    14
 73
    10
 74
     0
 42
0.00000001
 43
0.00000001
 12
1.0
 22
0.0
 32
0.0
 13
1.0
 23
0.0
 33
0.0
 40
0.0
 40
0.0
 40
0.0
 40
0.0
 40
0.2498531771764513
 40
0.4992697513088626
 40
0.6269925487614676
 40
0.7496444483444603
 40
0.8746817604947864
 40
0.9373322229615393
 40
1.0
 40
1.0
 40
1.0
 40
1.0
 10
128.8442649761006
 20
222.6353696648218
 30
0.0
 10
128.8484601494612
 20
222.6527383320294
 30
0.0
 10
128.8568431653752
 20
222.6874453157681
 30
0.0
 10
128.8485963842753
 20
222.7331232914561
 30
0.0
 10
128.8345761590724
 20
222.7657293998044
 30
0.0
 10
128.8197254684007
 20
222.7876721154248
 30
0.0
 10
128.8038512459198
 20
222.8021162161821
 30
0.0
 10
128.7895663740397
 20
222.8112671178296
 30
0.0
 10
128.7818554846999
 20
222.8145221683173
 30
0.0
 10
128.7779995073432
 20
222.8161499184279
 30
0.0
  0
SPLINE
  5
132
330
1F
100
AcDbEntity
  8
0
  6
Continuous
 62
     7
370
    15
100
AcDbSpline
210
0.0
220
0.0
230
1.0
 70
     8
 71
     3
 72
    13
 73
     9
 74
     0
 42
0.00000001
 43
0.00000001
 12
1.0
 22
0.0
 32
0.0
 13
1.0
 23
0.0
 33
0.0
 40
0.0
 40
0.0
 40
0.0
 40
0.0
 40
0.1240713461700837
 40
0.2503588321750931
 40
0.3733524772056123
 40
0.5008046121890617
 40
0.7500037011624993
 40
1.0
 40
1.0
 40
1.0
 40
1.0
 10
128.7779995073432
 20
222.8161499184279
 30
0.0
 10
128.7700977102633
 20
222.8187125900326
 30
0.0
 10
128.7541529756404
 20
222.8238837072164
 30
0.0
 10
128.7291978288382
 20
222.8248828958843
 30
0.0
 10
128.7046787886831
 20
222.8194424976103
 30
0.0
 10
128.6745540004121
 20
222.804917271743
 30
0.0
 10
128.64210613864
 20
222.774815929166
 30
0.0
 10
128.6292691871957
 20
222.7416403910894
 30
0.0
 10
128.6228404612344
 20
222.7250261315557
 30
0.0
  0
LINE
  5
133
330
1F
100
AcDbEntity
  8
0
  6
Continuous
 62
     7
370
    15
100
AcDbLine
 10
129.299048068
 20
222.4563859726
 30
0.0
 11
129.2998594413
 21
222.456479432
 31
0.0
  0
LINE
  5
134
330
1F
100
AcDbEntity
  8
0
  6
Continuous
 62
     7
370
    15
100
AcDbLine
 10
129.1649184469
 20
222.795611039
 30
0.0
 11
129.1657051978
 21
222.7956287182
 31
0.0
  0
SPLINE
  5
135
330
1F
100
AcDbEntity
  8
0
  6
Continuous
 62
     7
370
    15
100
AcDbSpline
210
0.0
220
0.0
230
1.0
 70
     8
 71
     3
 72
    10
 73
     6
 74
     0
 42
0.00000001
 43
0.00000001
 12
1.0
 22
0.0
 32
0.0
 13
1.0
 23
0.0
 33
0.0
 40
0.0
 40
0.0
 40
0.0
 40
0.0
 40
0.4990266094106497
 40
0.749205201024421
 40
1.0
 40
1.0
 40
1.0
 40
1.0
 10
129.0443943812768
 20
222.4560682607733
 30
0.0
 10
129.0562189262499
 20
222.4525911907856
 30
0.0
 10
129.0739715078288
 20
222.4473709502814
 30
0.0
 10
129.0981437856313
 20
222.4510373780082
 30
0.0
 10
129.1091451873836
 20
222.4562150013006
 30
0.0
 10
129.1146526542326
 20
222.4588069972374
 30
0.0
  0
SPLINE
  5
136
330
1F
100
AcDbEntity
  8
0
  6
Continuous
 62
     7
370
    15
100
AcDbSpline
210
0.0
220
0.0
230
1.0
 70
     8
 71
     3
 72
    14
 73
    10
 74
     0
 42
0.00000001
 43
0.00000001
 12
1.0
 22
0.0
 32
0.0
 13
1.0
 23
0.0
 33
0.0
 40
0.0
 40
0.0
 40
0.0
 40
0.0
 40
0.2491723618948332
 40
0.372785959370285
 40
0.4993182416229646
 40
0.6244256896634581
 40
0.7495721685249734
 40
0.874708442433742
 40
1.0
 40
1.0
 40
1.0
 40
1.0
 10
128.9839376601522
 20
222.5842863875389
 30
0.0
 10
128.9809658044776
 20
222.5712504264093
 30
0.0
 10
128.9765196208786
 20
222.5517473674061
 30
0.0
 10
128.9809473632752
 20
222.5250349326933
 30
0.0
 10
128.9879237370154
 20
222.5062448101206
 30
0.0
 10
128.9981942355767
 20
222.4890752032241
 30
0.0
 10
129.0117020551585
 20
222.4749849025168
 30
0.0
 10
129.0271846452792
 20
222.4635677980598
 30
0.0
 10
129.0386554317008
 20
222.4585691397139
 30
0.0
 10
129.0443943812768
 20
222.4560682607733
 30
0.0
  0
SPLINE
  5
137
330
1F
100
AcDbEntity
  8
0
  6
Continuous
 62
     7
370
    15
100
AcDbSpline
210
0.0
220
0.0
230
1.0
 70
     8
 71
     3
 72
    12
 73
     8
 74
     0
 42
0.00000001
 43
0.00000001
 12
1.0
 22
0.0
 32
0.0
 13
1.0
 23
0.0
 33
0.0
 40
0.0
 40
0.0
 40
0.0
 40
0.0
 40
0.1638941788024315
 40
0.333870517910437
 40
0.5038126817470268
 40
0.6677111569633958
 40
1.0
 40
1.0
 40
1.0
 40
1.0
 10
129.066159266861
 20
222.6497183523005
 30
0.0
 10
129.0602081041225
 20
222.6492151942089
 30
0.0
 10
129.0480849292778
 20
222.6481902056834
 30
0.0
 10
129.0307327370088
 20
222.6414954185297
 30
0.0
 10
129.0148425861196
 20
222.6318036693574
 30
0.0
 10
128.9963777535776
 20
222.6144876767474
 30
0.0
 10
128.9889271872439
 20
222.5963996527337
 30
0.0
 10
128.9839376601523
 20
222.5842863875388
 30
0.0
  0
LINE
  5
138
330
1F
100
AcDbEntity
  8
0
  6
Continuous
 62
     7
370
    15
100
AcDbLine
 10
129.0443943813
 20
222.4560682608
 30
0.0
 11
129.0435739489
 21
222.4559469205
 31
0.0
  0
LINE
  5
139
330
1F
100
AcDbEntity
  8
0
  6
Continuous
 62
     7
370
    15
100
AcDbLine
 10
128.9839376602
 20
222.5842863875
 30
0.0
 11
128.9831261983
 21
222.5841926557
 31
0.0
  0
LINE
  5
13A
330
1F
100
AcDbEntity
  8
0
  6
Continuous
 62
     7
370
    15
100
AcDbLine
 10
128.8167827216
 20
222.9786277216
 30
0.0
 11
128.8175651914
 21
222.9786322251
 31
0.0
  0
LINE
  5
13B
330
1F
100
AcDbEntity
  8
0
  6
Continuous
 62
     7
370
    15
100
AcDbLine
 10
128.690894367
 20
222.5480174874
 30
0.0
 11
128.739146181
 21
222.540141759
 31
0.0
  0
SPLINE
  5
13C
330
1F
100
AcDbEntity
  8
0
  6
Continuous
 62
     7
370
    15
100
AcDbSpline
210
0.0
220
0.0
230
1.0
 70
     8
 71
     3
 72
    13
 73
     9
 74
     0
 42
0.00000001
 43
0.00000001
 12
1.0
 22
0.0
 32
0.0
 13
1.0
 23
0.0
 33
0.0
 40
0.0
 40
0.0
 40
0.0
 40
0.0
 40
0.2501308945370022
 40
0.3766466186750791
 40
0.5005228104923279
 40
0.6262935326120282
 40
0.7508738199318644
 40
1.0
 40
1.0
 40
1.0
 40
1.0
 10
128.6236524688934
 20
222.7251215432101
 30
0.0
 10
128.6192630412863
 20
222.7079466337711
 30
0.0
 10
128.6126534496595
 20
222.6820846882555
 30
0.0
 10
128.6146154284042
 20
222.64618192103
 30
0.0
 10
128.6209997584106
 20
222.6200267730787
 30
0.0
 10
128.6321602295695
 20
222.5959046660594
 30
0.0
 10
128.6533222002089
 20
222.5675654301534
 30
0.0
 10
128.6758659152626
 20
222.5558364486326
 30
0.0
 10
128.6908943670182
 20
222.5480174874495
 30
0.0
  0
SPLINE
  5
13D
330
1F
100
AcDbEntity
  8
0
  6
Continuous
 62
     7
370
    15
100
AcDbSpline
210
0.0
220
0.0
230
1.0
 70
     8
 71
     3
 72
    13
 73
     9
 74
     0
 42
0.00000001
 43
0.00000001
 12
1.0
 22
0.0
 32
0.0
 13
1.0
 23
0.0
 33
0.0
 40
0.0
 40
0.0
 40
0.0
 40
0.0
 40
0.1240919388728686
 40
0.2503971044895831
 40
0.3734011982089513
 40
0.5008559757657546
 40
0.750037880264584
 40
1.0
 40
1.0
 40
1.0
 40
1.0
 10
128.7787978162627
 20
222.8162031696974
 30
0.0
 10
128.7708961031469
 20
222.8187659933523
 30
0.0
 10
128.7549517468681
 20
222.823937349593
 30
0.0
 10
128.7299977989728
 20
222.8249391261063
 30
0.0
 10
128.7054801653432
 20
222.8195031148302
 30
0.0
 10
128.6753585705943
 20
222.8049858763024
 30
0.0
 10
128.6429138424205
 20
222.7748970921052
 30
0.0
 10
128.6300796138242
 20
222.7417306737225
 30
0.0
 10
128.6236524688934
 20
222.7251215432101
 30
0.0
  0
LINE
  5
13E
330
1F
100
AcDbEntity
  8
0
  6
Continuous
 62
     7
370
    15
100
AcDbLine
 10
128.690894367
 20
222.5480174874
 30
0.0
 11
128.6900690835
 21
222.5478812168
 31
0.0
  0
LINE
  5
13F
330
1F
100
AcDbEntity
  8
0
  6
Continuous
 62
     7
370
    15
100
AcDbLine
 10
128.6236524689
 20
222.7251215432
 30
0.0
 11
128.6228404612
 21
222.7250261316
 31
0.0
  0
LINE
  5
140
330
1F
100
AcDbEntity
  8
0
  6
Continuous
 62
     7
370
    15
100
AcDbLine
 10
129.5258240517
 20
226.0030058553
 30
0.0
 11
129.6345148938
 21
226.1181028545
 31
0.0
  0
LINE
  5
141
330
1F
100
AcDbEntity
  8
0
  6
Continuous
 62
     7
370
    15
100
AcDbLine
 10
129.6345149278
 20
226.1181028903
 30
0.0
 11
129.87114241
 21
225.9356230921
 31
0.0
  0
SPLINE
  5
142
330
1F
100
AcDbEntity
  8
0
  6
Continuous
 62
     7
370
    15
100
AcDbSpline
210
0.0
220
0.0
230
1.0
 70
     8
 71
     3
 72
    12
 73
     8
 74
     0
 42
0.00000001
 43
0.00000001
 12
1.0
 22
0.0
 32
0.0
 13
1.0
 23
0.0
 33
0.0
 40
0.0
 40
0.0
 40
0.0
 40
0.0
 40
0.2495652157835318
 40
0.4991797181828017
 40
0.6246202923151504
 40
0.7500538881266668
 40
1.0
 40
1.0
 40
1.0
 40
1.0
 10
129.8711425089487
 20
225.9356230734326
 30
0.0
 10
129.8853563386348
 20
225.9671857889479
 30
0.0
 10
129.9137868050951
 20
226.0303174532968
 30
0.0
 10
129.9895962082899
 20
226.087131336361
 30
0.0
 10
130.0559651544742
 20
226.1173934890071
 30
0.0
 10
130.12706361905
 20
226.1366630699116
 30
0.0
 10
130.1797007611757
 20
226.13221862173
 30
0.0
 10
130.2147491368472
 20
226.1292592914315
 30
0.0
  0
SPLINE
  5
143
330
1F
100
AcDbEntity
  8
0
  6
Continuous
 62
     7
370
    15
100
AcDbSpline
210
0.0
220
0.0
230
1.0
 70
     8
 71
     3
 72
    12
 73
     8
 74
     0
 42
0.00000001
 43
0.00000001
 12
1.0
 22
0.0
 32
0.0
 13
1.0
 23
0.0
 33
0.0
 40
0.0
 40
0.0
 40
0.0
 40
0.0
 40
0.2496728853031904
 40
0.3737365959604358
 40
0.5005610950597215
 40
0.7502491606581587
 40
1.0
 40
1.0
 40
1.0
 40
1.0
 10
130.2147491368472
 20
226.1292592914315
 30
0.0
 10
130.2478018246452
 20
226.1205989795773
 30
0.0
 10
130.2972785590127
 20
226.1076353152674
 30
0.0
 10
130.346934543976
 20
226.06703953674
 30
0.0
 10
130.384984026108
 20
226.0180976809752
 30
0.0
 10
130.4140637352621
 20
225.9426614800543
 30
0.0
 10
130.3997338335375
 20
225.8771262426191
 30
0.0
 10
130.3925679821231
 20
225.8443545053875
 30
0.0
  0
SPLINE
  5
144
330
1F
100
AcDbEntity
  8
0
  6
Continuous
 62
     7
370
    15
100
AcDbSpline
210
0.0
220
0.0
230
1.0
 70
     8
 71
     3
 72
    12
 73
     8
 74
     0
 42
0.00000001
 43
0.00000001
 12
1.0
 22
0.0
 32
0.0
 13
1.0
 23
0.0
 33
0.0
 40
0.0
 40
0.0
 40
0.0
 40
0.0
 40
0.2498010644103006
 40
0.3752554482661988
 40
0.5006955456186222
 40
0.750526998239
 40
0.9999999999999999
 40
0.9999999999999999
 40
0.9999999999999999
 40
0.9999999999999999
 10
130.3925679821231
 20
225.8443545053875
 30
0.0
 10
130.3789087673623
 20
225.8124641449046
 30
0.0
 10
130.3583896604076
 20
225.7645578978009
 30
0.0
 10
130.3070321220487
 20
225.7121568144258
 30
0.0
 10
130.2475435877814
 20
225.6698467943035
 30
0.0
 10
130.1609605373137
 20
225.6309947740615
 30
0.0
 10
130.0904367816165
 20
225.6345255133988
 30
0.0
 10
130.0552002182835
 20
225.6362896157079
 30
0.0
  0
SPLINE
  5
145
330
1F
100
AcDbEntity
  8
0
  6
Continuous
 62
     7
370
    15
100
AcDbSpline
210
0.0
220
0.0
230
1.0
 70
     8
 71
     3
 72
     9
 73
     5
 74
     0
 42
0.00000001
 43
0.00000001
 12
1.0
 22
0.0
 32
0.0
 13
1.0
 23
0.0
 33
0.0
 40
0.0
 40
0.0
 40
0.0
 40
0.0
 40
0.4985784066826316
 40
1.0
 40
1.0
 40
1.0
 40
1.0
 10
130.0552002182835
 20
225.6362896157079
 30
0.0
 10
130.0220076866982
 20
225.646612719179
 30
0.0
 10
129.9554333402353
 20
225.6673177945146
 30
0.0
 10
129.9040031804744
 20
225.7097834276475
 30
0.0
 10
129.8782149878225
 20
225.7310766130742
 30
0.0
  0
LINE
  5
146
330
1F
100
AcDbEntity
  8
0
  6
Continuous
 62
     7
370
    15
100
AcDbLine
 10
129.8782149878
 20
225.7310766131
 30
0.0
 11
129.5258240517
 21
226.0030058553
 31
0.0
  0
SPLINE
  5
147
330
1F
100
AcDbEntity
  8
0
  6
Continuous
 62
     7
370
    15
100
AcDbSpline
210
0.0
220
0.0
230
1.0
 70
     8
 71
     3
 72
    12
 73
     8
 74
     0
 42
0.00000001
 43
0.00000001
 12
1.0
 22
0.0
 32
0.0
 13
1.0
 23
0.0
 33
0.0
 40
0.0
 40
0.0
 40
0.0
 40
0.0
 40
0.2494650970861876
 40
0.4991911802005456
 40
0.7489216475327304
 40
0.874377063562717
 40
1.0
 40
1.0
 40
1.0
 40
1.0
 10
130.2439501169693
 20
225.8658861367258
 30
0.0
 10
130.2467732084423
 20
225.8798935174565
 30
0.0
 10
130.2524223448573
 20
225.907922933195
 30
0.0
 10
130.2360203385578
 20
225.9459096635938
 30
0.0
 10
130.2112264149043
 20
225.9695635173586
 30
0.0
 10
130.1852428083283
 20
225.9809335769877
 30
0.0
 10
130.17098879825
 20
225.983991451219
 30
0.0
 10
130.1638570380466
 20
225.9855214084472
 30
0.0
  0
SPLINE
  5
148
330
1F
100
AcDbEntity
  8
0
  6
Continuous
 62
     7
370
    15
100
AcDbSpline
210
0.0
220
0.0
230
1.0
 70
     8
 71
     3
 72
    13
 73
     9
 74
     0
 42
0.00000001
 43
0.00000001
 12
1.0
 22
0.0
 32
0.0
 13
1.0
 23
0.0
 33
0.0
 40
0.0
 40
0.0
 40
0.0
 40
0.0
 40
0.2496577737272879
 40
0.3739042153736139
 40
0.5001253649641306
 40
0.627582054128571
 40
0.7505799935517987
 40
1.0
 40
1.0
 40
1.0
 40
1.0
 10
130.1638570380466
 20
225.9855214084472
 30
0.0
 10
130.1489146861272
 20
225.9868192311094
 30
0.0
 10
130.1265360183739
 20
225.9887629373155
 30
0.0
 10
130.0962672234717
 20
225.9806871107831
 30
0.0
 10
130.0747047500872
 20
225.970901939435
 30
0.0
 10
130.0551460720257
 20
225.9577922259708
 30
0.0
 10
130.0326438730114
 20
225.9362277878042
 30
0.0
 10
130.0238443344655
 20
225.9159789562512
 30
0.0
 10
130.0179510068609
 20
225.9024176771762
 30
0.0
  0
SPLINE
  5
149
330
1F
100
AcDbEntity
  8
0
  6
Continuous
 62
     7
370
    15
100
AcDbSpline
210
0.0
220
0.0
230
1.0
 70
     8
 71
     3
 72
    13
 73
     9
 74
     0
 42
0.00000001
 43
0.00000001
 12
1.0
 22
0.0
 32
0.0
 13
1.0
 23
0.0
 33
0.0
 40
0.0
 40
0.0
 40
0.0
 40
0.0
 40
0.2493607312738882
 40
0.3709706162195525
 40
0.499994021605989
 40
0.7493036421464695
 40
0.8745756260588499
 40
1.0
 40
1.0
 40
1.0
 40
1.0
 10
130.0179510068609
 20
225.9024176771762
 30
0.0
 10
130.0149738193729
 20
225.8886658550445
 30
0.0
 10
130.0105446974684
 20
225.8682074536584
 30
0.0
 10
130.0181520280894
 20
225.8425582329502
 30
0.0
 10
130.0308631759588
 20
225.8195670049865
 30
0.0
 10
130.0513312358189
 20
225.8010259029572
 30
0.0
 10
130.0768104968755
 20
225.7899534167337
 30
0.0
 10
130.0907868754039
 20
225.7870240939109
 30
0.0
 10
130.0977793125574
 20
225.7855585421803
 30
0.0
  0
SPLINE
  5
14A
330
1F
100
AcDbEntity
  8
0
  6
Continuous
 62
     7
370
    15
100
AcDbSpline
210
0.0
220
0.0
230
1.0
 70
     8
 71
     3
 72
    12
 73
     8
 74
     0
 42
0.00000001
 43
0.00000001
 12
1.0
 22
0.0
 32
0.0
 13
1.0
 23
0.0
 33
0.0
 40
0.0
 40
0.0
 40
0.0
 40
0.0
 40
0.2500306894986195
 40
0.499637815355051
 40
0.7492083316013859
 40
0.8745152807305419
 40
1.0
 40
1.0
 40
1.0
 40
1.0
 10
130.0977793125574
 20
225.7855585421803
 30
0.0
 10
130.1125214981189
 20
225.7843717669116
 30
0.0
 10
130.1419808952924
 20
225.782000226827
 30
0.0
 10
130.1865612895273
 20
225.7981785369581
 30
0.0
 10
130.2178176963972
 20
225.821599453835
 30
0.0
 10
130.236034046353
 20
225.8457474956518
 30
0.0
 10
130.2413101801261
 20
225.8591700848967
 30
0.0
 10
130.2439501169693
 20
225.8658861367258
 30
0.0
  0
LINE
  5
14B
330
1F
100
AcDbEntity
  8
0
  6
Continuous
 62
     7
370
    15
100
AcDbLine
 10
130.0552002183
 20
225.6362896157
 30
0.0
 11
130.0557091188
 21
225.6354521596
 31
0.0
  0
LINE
  5
14C
330
1F
100
AcDbEntity
  8
0
  6
Continuous
 62
     7
370
    15
100
AcDbLine
 10
130.3925679821
 20
225.8443545054
 30
0.0
 11
130.3930523736
 21
225.8434416181
 31
0.0
  0
ARC
  5
14D
330
1F
100
AcDbEntity
  8
0
  6
Continuous
 62
     7
370
    15
100
AcDbCircle
 10
127.1526468874
 20
219.7519514165
 30
0.0
 40
0.163340111826803
100
AcDbArc
 50
166.4017165856
 51
238.8585009506
  0
LINE
  5
14E
330
1F
100
AcDbEntity
  8
0
  6
Continuous
 62
     7
370
    15
100
AcDbLine
 10
126.9938855183
 20
219.790354799
 30
0.0
 11
129.6965612464
 21
228.1083353939
 31
0.0
  0
ARC
  5
14F
330
1F
100
AcDbEntity
  8
0
  6
Continuous
 62
     7
370
    15
100
AcDbCircle
 10
129.8464964639
 20
228.0459747249
 30
0.0
 40
0.1623866450453059
100
AcDbArc
 50
84.861152661
 51
157.4167229949
  0
LINE
  5
150
330
1F
100
AcDbEntity
  8
0
  6
Continuous
 62
     7
370
    15
100
AcDbLine
 10
129.8782149878
 20
225.7310766131
 30
0.0
 11
129.8787179594
 21
225.7302209096
 31
0.0
  0
SPLINE
  5
151
330
1F
100
AcDbEntity
  8
0
  6
Continuous
 62
     7
370
    15
100
AcDbSpline
210
0.0
220
0.0
230
1.0
 70
     8
 71
     3
 72
    13
 73
     9
 74
     0
 42
0.00000001
 43
0.00000001
 12
1.0
 22
0.0
 32
0.0
 13
1.0
 23
0.0
 33
0.0
 40
0.0
 40
0.0
 40
0.0
 40
0.0
 40
0.249692499060582
 40
0.3739500541233431
 40
0.5001755977310467
 40
0.6276291967108637
 40
0.7506166913136381
 40
1.0
 40
1.0
 40
1.0
 40
1.0
 10
130.1643317136092
 20
225.9845786186618
 30
0.0
 10
130.1493896620986
 20
225.9858767856392
 30
0.0
 10
130.1270118133761
 20
225.9878209754458
 30
0.0
 10
130.0967439600064
 20
225.9797489775665
 30
0.0
 10
130.0751827072527
 20
225.9699677182829
 30
0.0
 10
130.0556255261972
 20
225.9568628012888
 30
0.0
 10
130.033125772636
 20
225.9353060811696
 30
0.0
 10
130.0243278016955
 20
225.9150628194092
 30
0.0
 10
130.0184356450508
 20
225.9015055492049
 30
0.0
  0
SPLINE
  5
152
330
1F
100
AcDbEntity
  8
0
  6
Continuous
 62
     7
370
    15
100
AcDbSpline
210
0.0
220
0.0
230
1.0
 70
     8
 71
     3
 72
    11
 73
     7
 74
     0
 42
0.00000001
 43
0.00000001
 12
1.0
 22
0.0
 32
0.0
 13
1.0
 23
0.0
 33
0.0
 40
0.0
 40
0.0
 40
0.0
 40
0.0
 40
0.3326975374077675
 40
0.6654382894825246
 40
0.8326060751539307
 40
1.0
 40
1.0
 40
1.0
 40
1.0
 10
130.248758995502
 20
225.9063074587963
 30
0.0
 10
130.245050344375
 20
225.919258663576
 30
0.0
 10
130.237632560398
 20
225.9451627553901
 30
0.0
 10
130.2115601790835
 20
225.9686006972205
 30
0.0
 10
130.185742367266
 20
225.979995272778
 30
0.0
 10
130.171471813444
 20
225.9830501484099
 30
0.0
 10
130.1643317136092
 20
225.9845786186618
 30
0.0
  0
SPLINE
  5
153
330
1F
100
AcDbEntity
  8
0
  6
Continuous
 62
     7
370
    15
100
AcDbSpline
210
0.0
220
0.0
230
1.0
 70
     8
 71
     3
 72
    10
 73
     6
 74
     0
 42
0.00000001
 43
0.00000001
 12
1.0
 22
0.0
 32
0.0
 13
1.0
 23
0.0
 33
0.0
 40
0.0
 40
0.0
 40
0.0
 40
0.0
 40
0.4987026972376056
 40
0.7419298288675256
 40
1.0
 40
1.0
 40
1.0
 40
1.0
 10
130.0184356450508
 20
225.9015055492049
 30
0.0
 10
130.0154964809321
 20
225.8877796629237
 30
0.0
 10
130.011123828561
 20
225.8673593914552
 30
0.0
 10
130.0184793729319
 20
225.8415644783238
 30
0.0
 10
130.0254022439861
 20
225.8303731528492
 30
0.0
 10
130.0289661700392
 20
225.8246118067088
 30
0.0
  0
LINE
  5
154
330
1F
100
AcDbEntity
  8
0
  6
Continuous
 62
     7
370
    15
100
AcDbLine
 10
130.0184356451
 20
225.9015055492
 30
0.0
 11
130.0179510069
 21
225.9024176772
 31
0.0
  0
LINE
  5
155
330
1F
100
AcDbEntity
  8
0
  6
Continuous
 62
     7
370
    15
100
AcDbLine
 10
130.1643317136
 20
225.9845786187
 30
0.0
 11
130.163857038
 21
225.9855214084
 31
0.0
  0
LINE
  5
156
330
1F
100
AcDbEntity
  8
0
  6
Continuous
 62
     7
370
    15
100
AcDbLine
 10
129.5258240517
 20
226.0030058553
 30
0.0
 11
129.5263066703
 21
226.0020875119
 31
0.0
  0
LINE
  5
157
330
1F
100
AcDbEntity
  8
0
  6
Continuous
 62
     7
370
    15
100
AcDbLine
 10
128.3595944213
 20
219.6360403629
 30
0.0
 11
128.2316395026
 21
219.2317838432
 31
0.0
  0
LINE
  5
158
330
1F
100
AcDbEntity
  8
0
  6
Continuous
 62
     7
370
    15
100
AcDbLine
 10
128.2316395026
 20
219.2317838432
 30
0.0
 11
128.1598044409
 21
219.2790153696
 31
0.0
  0
LINE
  5
159
330
1F
100
AcDbEntity
  8
0
  6
Continuous
 62
     7
370
    15
100
AcDbLine
 10
128.1598043582
 20
219.279015424
 30
0.0
 11
127.5774707646
 21
219.9920335271
 31
0.0
  0
LINE
  5
15A
330
1F
100
AcDbEntity
  8
0
  6
Continuous
 62
     7
370
    15
100
AcDbLine
 10
127.5774707646
 20
219.9920335271
 30
0.0
 11
127.6676019435
 21
220.0564151354
 31
0.0
  0
LINE
  5
15B
330
1F
100
AcDbEntity
  8
0
  6
Continuous
 62
     7
370
    15
100
AcDbLine
 10
127.6676019709
 20
220.056415155
 30
0.0
 11
128.1458751252
 21
219.4594332544
 31
0.0
  0
LINE
  5
15C
330
1F
100
AcDbEntity
  8
0
  6
Continuous
 62
     7
370
    15
100
AcDbLine
 10
128.1458752118
 20
219.4594331976
 30
0.0
 11
128.2308652352
 21
219.7205112693
 31
0.0
  0
LINE
  5
15D
330
1F
100
AcDbEntity
  8
0
  6
Continuous
 62
     7
370
    15
100
AcDbLine
 10
128.2308652352
 20
219.7205112693
 30
0.0
 11
128.3595943347
 21
219.6360404198
 31
0.0
  0
LINE
  5
15E
330
1F
100
AcDbEntity
  8
0
  6
Continuous
 62
     7
370
    15
100
AcDbLine
 10
128.3595944213
 20
219.6360403629
 30
0.0
 11
128.3606792699
 21
219.6369754924
 31
0.0
  0
LINE
  5
15F
330
1F
100
AcDbEntity
  8
0
  6
Continuous
 62
     7
370
    15
100
AcDbLine
 10
128.2308652352
 20
219.7205112693
 30
0.0
 11
128.231949956
 21
219.7214460056
 31
0.0
  0
LINE
  5
160
330
1F
100
AcDbEntity
  8
0
  6
Continuous
 62
     7
370
    15
100
AcDbLine
 10
128.2316395026
 20
219.2317838432
 30
0.0
 11
128.2327632519
 21
219.2328386971
 31
0.0
  0
LINE
  5
161
330
1F
100
AcDbEntity
  8
0
  6
Continuous
 62
     7
370
    15
100
AcDbLine
 10
127.6676019709
 20
220.056415155
 30
0.0
 11
127.668688941
 21
220.057356814
 31
0.0
  0
LINE
  5
162
330
1F
100
AcDbEntity
  8
0
  6
Continuous
 62
     7
370
    15
100
AcDbLine
 10
127.5774707646
 20
219.9920335271
 30
0.0
 11
127.5785680984
 21
219.9930070824
 31
0.0
  0
SPLINE
  5
163
330
1F
100
AcDbEntity
  8
0
  6
Continuous
 62
     7
370
    15
100
AcDbSpline
210
0.0
220
0.0
230
1.0
 70
     8
 71
     3
 72
    13
 73
     9
 74
     0
 42
0.00000001
 43
0.00000001
 12
1.0
 22
0.0
 32
0.0
 13
1.0
 23
0.0
 33
0.0
 40
0.0
 40
0.0
 40
0.0
 40
0.0
 40
0.1250956737320967
 40
0.2500558013341888
 40
0.3749159999655876
 40
0.4999731466856662
 40
0.7494867147598763
 40
1.0
 40
1.0
 40
1.0
 40
1.0
 10
131.1940612498717
 20
228.314451336365
 30
0.0
 10
131.187401975317
 20
228.2991353018543
 30
0.0
 10
131.174090641796
 20
228.2685198283644
 30
0.0
 10
131.1300228315338
 20
228.2244639145222
 30
0.0
 10
131.0677538451526
 20
228.1876314751281
 30
0.0
 10
130.9683683678641
 20
228.1530194641925
 30
0.0
 10
130.8331976797004
 20
228.1328357775282
 30
0.0
 10
130.7283655059405
 20
228.1320624398012
 30
0.0
 10
130.6758446221652
 20
228.1316749978602
 30
0.0
  0
SPLINE
  5
164
330
1F
100
AcDbEntity
  8
0
  6
Continuous
 62
     7
370
    15
100
AcDbSpline
210
0.0
220
0.0
230
1.0
 70
     8
 71
     3
 72
    13
 73
     9
 74
     0
 42
0.00000001
 43
0.00000001
 12
1.0
 22
0.0
 32
0.0
 13
1.0
 23
0.0
 33
0.0
 40
0.0
 40
0.0
 40
0.0
 40
0.0
 40
0.2505105753551344
 40
0.5000962721196339
 40
0.6251931463734265
 40
0.74999080500372
 40
0.8748553160295097
 40
0.9999999999999999
 40
0.9999999999999999
 40
0.9999999999999999
 40
0.9999999999999999
 10
130.6758446221652
 20
228.1316749978602
 30
0.0
 10
130.6240338354408
 20
228.1328256543653
 30
0.0
 10
130.5206035460819
 20
228.1351227191811
 30
0.0
 10
130.39909527599
 20
228.1570853267907
 30
0.0
 10
130.3207403577187
 20
228.1917340265551
 30
0.0
 10
130.2800426218567
 20
228.2283420862218
 30
0.0
 10
130.2655406126587
 20
228.2729657306099
 30
0.0
 10
130.2730817292888
 20
228.3034559566683
 30
0.0
 10
130.2768565130821
 20
228.3187181541419
 30
0.0
  0
SPLINE
  5
165
330
1F
100
AcDbEntity
  8
0
  6
Continuous
 62
     7
370
    15
100
AcDbSpline
210
0.0
220
0.0
230
1.0
 70
     8
 71
     3
 72
    13
 73
     9
 74
     0
 42
0.00000001
 43
0.00000001
 12
1.0
 22
0.0
 32
0.0
 13
1.0
 23
0.0
 33
0.0
 40
0.0
 40
0.0
 40
0.0
 40
0.0
 40
0.1251545161558042
 40
0.2501008617554842
 40
0.3758171449776471
 40
0.5000181005468491
 40
0.749478311566531
 40
1.0
 40
1.0
 40
1.0
 40
1.0
 10
130.2768565130821
 20
228.3187181541419
 30
0.0
 10
130.2832667664997
 20
228.333691594993
 30
0.0
 10
130.2960766111066
 20
228.3636135712455
 30
0.0
 10
130.3388844102959
 20
228.4051369865352
 30
0.0
 10
130.4005485817752
 20
228.4387274703708
 30
0.0
 10
130.4986492584526
 20
228.4699350071058
 30
0.0
 10
130.6325005293005
 20
228.4878849280254
 30
0.0
 10
130.7360497028608
 20
228.4883908205474
 30
0.0
 10
130.7879342087291
 20
228.4886443038213
 30
0.0
  0
SPLINE
  5
166
330
1F
100
AcDbEntity
  8
0
  6
Continuous
 62
     7
370
    15
100
AcDbSpline
210
0.0
220
0.0
230
1.0
 70
     8
 71
     3
 72
     9
 73
     5
 74
     0
 42
0.00000001
 43
0.00000001
 12
1.0
 22
0.0
 32
0.0
 13
1.0
 23
0.0
 33
0.0
 40
0.0
 40
0.0
 40
0.0
 40
0.0
 40
0.5015975205459308
 40
1.0
 40
1.0
 40
1.0
 40
1.0
 10
130.7879342087291
 20
228.4886443038213
 30
0.0
 10
130.8485991524583
 20
228.4880143473821
 30
0.0
 10
130.9695426205664
 20
228.4867584471567
 30
0.0
 10
131.0706530042536
 20
228.4592871400172
 30
0.0
 10
131.1210466701819
 20
228.4455953724249
 30
0.0
  0
SPLINE
  5
167
330
1F
100
AcDbEntity
  8
0
  6
Continuous
 62
     7
370
    15
100
AcDbSpline
210
0.0
220
0.0
230
1.0
 70
     8
 71
     3
 72
    12
 73
     8
 74
     0
 42
0.00000001
 43
0.00000001
 12
1.0
 22
0.0
 32
0.0
 13
1.0
 23
0.0
 33
0.0
 40
0.0
 40
0.0
 40
0.0
 40
0.0
 40
0.2500199322705
 40
0.4997523634998364
 40
0.7495812811595972
 40
0.8747602791704373
 40
1.0
 40
1.0
 40
1.0
 40
1.0
 10
131.1210471826806
 20
228.4455951204775
 30
0.0
 10
131.1360140523829
 20
228.4377851330886
 30
0.0
 10
131.1659305811971
 20
228.4221741391127
 30
0.0
 10
131.1934566901877
 20
228.3902670119426
 30
0.0
 10
131.201472933296
 20
228.3596931138141
 30
0.0
 10
131.1998602870731
 20
228.334059242484
 30
0.0
 10
131.1959945747314
 20
228.3209883615695
 30
0.0
 10
131.1940612498717
 20
228.314451336365
 30
0.0
  0
SPLINE
  5
168
330
1F
100
AcDbEntity
  8
0
  6
Continuous
 62
     7
370
    15
100
AcDbSpline
210
0.0
220
0.0
230
1.0
 70
     8
 71
     3
 72
    11
 73
     7
 74
     0
 42
0.00000001
 43
0.00000001
 12
1.0
 22
0.0
 32
0.0
 13
1.0
 23
0.0
 33
0.0
 40
0.0
 40
0.0
 40
0.0
 40
0.0
 40
0.2498787444764474
 40
0.4996683178202789
 40
0.7496867531760449
 40
1.0
 40
1.0
 40
1.0
 40
1.0
 10
130.4310330665776
 20
228.3178418501975
 30
0.0
 10
130.4298366856763
 20
228.3120421021198
 30
0.0
 10
130.4274443508113
 20
228.3004446756487
 30
0.0
 10
130.4350669457869
 20
228.2842242008892
 30
0.0
 10
130.4505126489894
 20
228.2707183677843
 30
0.0
 10
130.464954749819
 20
228.2640728953664
 30
0.0
 10
130.4721800551081
 20
228.2607482012947
 30
0.0
  0
SPLINE
  5
169
330
1F
100
AcDbEntity
  8
0
  6
Continuous
 62
     7
370
    15
100
AcDbSpline
210
0.0
220
0.0
230
1.0
 70
     8
 71
     3
 72
     9
 73
     5
 74
     0
 42
0.00000001
 43
0.00000001
 12
1.0
 22
0.0
 32
0.0
 13
1.0
 23
0.0
 33
0.0
 40
0.0
 40
0.0
 40
0.0
 40
0.0
 40
0.4986106408009953
 40
1.0
 40
1.0
 40
1.0
 40
1.0
 10
130.4721800551081
 20
228.2607482012947
 30
0.0
 10
130.5083748098038
 20
228.2519209798775
 30
0.0
 10
130.5809660297534
 20
228.2342173436232
 30
0.0
 10
130.6641638462644
 20
228.2334525688738
 30
0.0
 10
130.7058783461717
 20
228.2330691189522
 30
0.0
  0
SPLINE
  5
16A
330
1F
100
AcDbEntity
  8
0
  6
Continuous
 62
     7
370
    15
100
AcDbSpline
210
0.0
220
0.0
230
1.0
 70
     8
 71
     3
 72
    14
 73
    10
 74
     0
 42
0.00000001
 43
0.00000001
 12
1.0
 22
0.0
 32
0.0
 13
1.0
 23
0.0
 33
0.0
 40
0.0
 40
0.0
 40
0.0
 40
0.0
 40
0.5000503932410342
 40
0.6251882939753851
 40
0.7501801332066841
 40
0.874800249556839
 40
0.9373518634018545
 40
0.9686655592073985
 40
1.0
 40
1.0
 40
1.0
 40
1.0
 10
130.7058783461717
 20
228.2330691189522
 30
0.0
 10
130.7678883028084
 20
228.2331457376245
 30
0.0
 10
130.8454162870341
 20
228.233241530164
 30
0.0
 10
130.9390796866144
 20
228.2499337543318
 30
0.0
 10
130.982712986393
 20
228.264915542217
 30
0.0
 10
131.0138191560157
 20
228.2826336137543
 30
0.0
 10
131.0272816648583
 20
228.2976577537694
 30
0.0
 10
131.0327985687861
 20
228.3065095722095
 30
0.0
 10
131.0345130526631
 20
228.3109888146276
 30
0.0
 10
131.0353705784643
 20
228.3132291774535
 30
0.0
  0
SPLINE
  5
16B
330
1F
100
AcDbEntity
  8
0
  6
Continuous
 62
     7
370
    15
100
AcDbSpline
210
0.0
220
0.0
230
1.0
 70
     8
 71
     3
 72
    13
 73
     9
 74
     0
 42
0.00000001
 43
0.00000001
 12
1.0
 22
0.0
 32
0.0
 13
1.0
 23
0.0
 33
0.0
 40
0.0
 40
0.0
 40
0.0
 40
0.0
 40
0.124507321443606
 40
0.1871149561646004
 40
0.2496480922122639
 40
0.3744484670758447
 40
0.4996666967161609
 40
1.0
 40
1.0
 40
1.0
 40
1.0
 10
131.0353705784643
 20
228.3132291774535
 30
0.0
 10
131.0367468234535
 20
228.3225133007622
 30
0.0
 10
131.0388151035984
 20
228.3364658804643
 30
0.0
 10
131.0283314118764
 20
228.3526235346241
 30
0.0
 10
131.0119277096606
 20
228.3665135540747
 30
0.0
 10
130.9806224101938
 20
228.378167717244
 30
0.0
 10
130.8952024050267
 20
228.3951993996908
 30
0.0
 10
130.8149985296964
 20
228.396135415394
 30
0.0
 10
130.7508492665773
 20
228.3968840664708
 30
0.0
  0
SPLINE
  5
16C
330
1F
100
AcDbEntity
  8
0
  6
Continuous
 62
     7
370
    15
100
AcDbSpline
210
0.0
220
0.0
230
1.0
 70
     8
 71
     3
 72
    12
 73
     8
 74
     0
 42
0.00000001
 43
0.00000001
 12
1.0
 22
0.0
 32
0.0
 13
1.0
 23
0.0
 33
0.0
 40
0.0
 40
0.0
 40
0.0
 40
0.0
 40
0.5004239683064456
 40
0.6316304148752665
 40
0.7507429765879041
 40
0.8754121094408552
 40
1.0
 40
1.0
 40
1.0
 40
1.0
 10
130.7508492665773
 20
228.3968840664708
 30
0.0
 10
130.6900758721262
 20
228.3969106175509
 30
0.0
 10
130.6133682666125
 20
228.3969441300738
 30
0.0
 10
130.5219451486123
 20
228.3795203269779
 30
0.0
 10
130.4801514899712
 20
228.3646613876287
 30
0.0
 10
130.4449312826088
 20
228.3440684287452
 30
0.0
 10
130.4356647984887
 20
228.3265821432328
 30
0.0
 10
130.4310330665776
 20
228.3178418501975
 30
0.0
  0
LINE
  5
16D
330
1F
100
AcDbEntity
  8
0
  6
Continuous
 62
     7
370
    15
100
AcDbLine
 10
131.1940612499
 20
228.3144513364
 30
0.0
 11
131.1943070611
 21
228.3128041745
 31
0.0
  0
LINE
  5
16E
330
1F
100
AcDbEntity
  8
0
  6
Continuous
 62
     7
370
    15
100
AcDbLine
 10
130.6758446222
 20
228.1316749979
 30
0.0
 11
130.6761087543
 21
228.130084222
 31
0.0
  0
SPLINE
  5
16F
330
1F
100
AcDbEntity
  8
0
  6
Continuous
 62
     7
370
    15
100
AcDbSpline
210
0.0
220
0.0
230
1.0
 70
     8
 71
     3
 72
    12
 73
     8
 74
     0
 42
0.00000001
 43
0.00000001
 12
1.0
 22
0.0
 32
0.0
 13
1.0
 23
0.0
 33
0.0
 40
0.0
 40
0.0
 40
0.0
 40
0.0
 40
0.5004635854630555
 40
0.6316754766176269
 40
0.7507852288350467
 40
0.8754391178153086
 40
0.9999999999999999
 40
0.9999999999999999
 40
0.9999999999999999
 40
0.9999999999999999
 10
130.7510870428881
 20
228.3952121757581
 30
0.0
 10
130.69031428773
 20
228.3952387732459
 30
0.0
 10
130.6136080893274
 20
228.3952723440815
 30
0.0
 10
130.5221860796712
 20
228.377854073294
 30
0.0
 10
130.4803945324305
 20
228.3630002398255
 30
0.0
 10
130.4451754933174
 20
228.3424141059171
 30
0.0
 10
130.4359098804897
 20
228.3249321660902
 30
0.0
 10
130.4312788030363
 20
228.3161944583013
 30
0.0
  0
SPLINE
  5
170
330
1F
100
AcDbEntity
  8
0
  6
Continuous
 62
     7
370
    15
100
AcDbSpline
210
0.0
220
0.0
230
1.0
 70
     8
 71
     3
 72
    13
 73
     9
 74
     0
 42
0.00000001
 43
0.00000001
 12
1.0
 22
0.0
 32
0.0
 13
1.0
 23
0.0
 33
0.0
 40
0.0
 40
0.0
 40
0.0
 40
0.0
 40
0.124480978182685
 40
0.1870789738153258
 40
0.2496062437234068
 40
0.3744054778937326
 40
0.4996293308729005
 40
1.0
 40
1.0
 40
1.0
 40
1.0
 10
131.0356165624689
 20
228.3115825474252
 30
0.0
 10
131.0369918218662
 20
228.320864014282
 30
0.0
 10
131.0390586606758
 20
228.3348128707292
 30
0.0
 10
131.0285732451651
 20
228.3509654353014
 30
0.0
 10
131.0121675089575
 20
228.3648515654917
 30
0.0
 10
130.9808609375205
 20
228.3765018138365
 30
0.0
 10
130.895438807014
 20
228.3935283451319
 30
0.0
 10
130.8152359076734
 20
228.394463893783
 30
0.0
 10
130.7510870428881
 20
228.3952121757581
 30
0.0
  0
LINE
  5
171
330
1F
100
AcDbEntity
  8
0
  6
Continuous
 62
     7
370
    15
100
AcDbLine
 10
130.7510870429
 20
228.3952121758
 30
0.0
 11
130.7508492666
 21
228.3968840665
 31
0.0
  0
LINE
  5
172
330
1F
100
AcDbEntity
  8
0
  6
Continuous
 62
     7
370
    15
100
AcDbLine
 10
130.431278803
 20
228.3161944583
 30
0.0
 11
130.4310330666
 21
228.3178418502
 31
0.0
  0
SPLINE
  5
173
330
1F
100
AcDbEntity
  8
0
  6
Continuous
 62
     7
370
    15
100
AcDbSpline
210
0.0
220
0.0
230
1.0
 70
     8
 71
     3
 72
     9
 73
     5
 74
     0
 42
0.00000001
 43
0.00000001
 12
1.0
 22
0.0
 32
0.0
 13
1.0
 23
0.0
 33
0.0
 40
0.0
 40
0.0
 40
0.0
 40
0.0
 40
0.5315589426747777
 40
0.9999999999999999
 40
0.9999999999999999
 40
0.9999999999999999
 40
0.9999999999999999
 10
129.6965612464244
 20
228.1083353938901
 30
0.0
 10
129.7049658797812
 20
228.1475858417542
 30
0.0
 10
129.7207771712149
 20
228.2214260967343
 30
0.0
 10
129.6812313789774
 20
228.2747508232463
 30
0.0
 10
129.6627065062489
 20
228.2997303145152
 30
0.0
  0
SPLINE
  5
174
330
1F
100
AcDbEntity
  8
0
  6
Continuous
 62
     7
370
    15
100
AcDbSpline
210
0.0
220
0.0
230
1.0
 70
     8
 71
     3
 72
    12
 73
     8
 74
     0
 42
0.00000001
 43
0.00000001
 12
1.0
 22
0.0
 32
0.0
 13
1.0
 23
0.0
 33
0.0
 40
0.0
 40
0.0
 40
0.0
 40
0.0
 40
0.0304717459545676
 40
0.0888135668586314
 40
0.3925556175489197
 40
0.696277439417521
 40
1.0
 40
1.0
 40
1.0
 40
1.0
 10
129.6627065062489
 20
228.2997303145152
 30
0.0
 10
129.6633140722064
 20
228.3017585411355
 30
0.0
 10
129.6650848962305
 20
228.3076700514511
 30
0.0
 10
129.6743389036835
 20
228.3336446654206
 30
0.0
 10
129.6984558141068
 20
228.3762180666285
 30
0.0
 10
129.7467897761281
 20
228.4255380552241
 30
0.0
 10
129.7863711256934
 20
228.444581161492
 30
0.0
 10
129.8061618245435
 20
228.454102726205
 30
0.0
  0
SPLINE
  5
175
330
1F
100
AcDbEntity
  8
0
  6
Continuous
 62
     7
370
    15
100
AcDbSpline
210
0.0
220
0.0
230
1.0
 70
     8
 71
     3
 72
    10
 73
     6
 74
     0
 42
0.00000001
 43
0.00000001
 12
1.0
 22
0.0
 32
0.0
 13
1.0
 23
0.0
 33
0.0
 40
0.0
 40
0.0
 40
0.0
 40
0.0
 40
0.2117958997139536
 40
0.4880069094699621
 40
1.0
 40
1.0
 40
1.0
 40
1.0
 10
129.8061618245435
 20
228.454102726205
 30
0.0
 10
129.8066990805204
 20
228.454352680622
 30
0.0
 10
129.8079369922519
 20
228.4549286100084
 30
0.0
 10
129.8095226300637
 20
228.4565174124878
 30
0.0
 10
129.8100369431506
 20
228.4577834785414
 30
0.0
 10
129.8103710250803
 20
228.4586058760288
 30
0.0
  0
SPLINE
  5
176
330
1F
100
AcDbEntity
  8
0
  6
Continuous
 62
     7
370
    15
100
AcDbSpline
210
0.0
220
0.0
230
1.0
 70
     8
 71
     3
 72
    11
 73
     7
 74
     0
 42
0.00000001
 43
0.00000001
 12
1.0
 22
0.0
 32
0.0
 13
1.0
 23
0.0
 33
0.0
 40
0.0
 40
0.0
 40
0.0
 40
0.0
 40
0.3704320937889574
 40
0.7442498469317935
 40
0.944248053772325
 40
1.0
 40
1.0
 40
1.0
 40
1.0
 10
126.8809566167069
 20
219.4427953778145
 30
0.0
 10
126.8811174215381
 20
219.4434016964859
 30
0.0
 10
126.8814405009178
 20
219.4446198754338
 30
0.0
 10
126.8812882512886
 20
219.4465809134382
 30
0.0
 10
126.880652023514
 20
219.448101594535
 30
0.0
 10
126.8802631578417
 20
219.4487174248913
 30
0.0
 10
126.8801783875384
 20
219.4488516720872
 30
0.0
  0
SPLINE
  5
177
330
1F
100
AcDbEntity
  8
0
  6
Continuous
 62
     7
370
    15
100
AcDbSpline
210
0.0
220
0.0
230
1.0
 70
     8
 71
     3
 72
    12
 73
     8
 74
     0
 42
0.00000001
 43
0.00000001
 12
1.0
 22
0.0
 32
0.0
 13
1.0
 23
0.0
 33
0.0
 40
0.0
 40
0.0
 40
0.0
 40
0.0
 40
0.3037225605806045
 40
0.6074443824473493
 40
0.9111864331355527
 40
0.969528254047662
 40
1.0
 40
1.0
 40
1.0
 40
1.0
 10
126.8801783875384
 20
219.4488516720872
 30
0.0
 10
126.8697467150527
 20
219.4681342287398
 30
0.0
 10
126.8488833954533
 20
219.5066992951459
 30
0.0
 10
126.8387711915203
 20
219.5750137821832
 30
0.0
 10
126.8443147903109
 20
219.6237260418808
 30
0.0
 10
126.8521234394158
 20
219.650264885107
 30
0.0
 10
126.8541724009008
 20
219.656109465766
 30
0.0
 10
126.8548753952298
 20
219.6581147289631
 30
0.0
  0
SPLINE
  5
178
330
1F
100
AcDbEntity
  8
0
  6
Continuous
 62
     7
370
    15
100
AcDbSpline
210
0.0
220
0.0
230
1.0
 70
     8
 71
     3
 72
     9
 73
     5
 74
     0
 42
0.00000001
 43
0.00000001
 12
1.0
 22
0.0
 32
0.0
 13
1.0
 23
0.0
 33
0.0
 40
0.0
 40
0.0
 40
0.0
 40
0.0
 40
0.4684410573252646
 40
1.0
 40
1.0
 40
1.0
 40
1.0
 10
126.8548753952293
 20
219.6581147289619
 30
0.0
 10
126.8844028260335
 20
219.6669976295493
 30
0.0
 10
126.947436222322
 20
219.6859603153526
 30
0.0
 10
126.9777643374562
 20
219.7541225523819
 30
0.0
 10
126.9938855182703
 20
219.7903547990275
 30
0.0
  0
SPLINE
  5
179
330
1F
100
AcDbEntity
  8
0
  6
Continuous
 62
     7
370
    15
100
AcDbSpline
210
0.0
220
0.0
230
1.0
 70
     8
 71
     3
 72
    11
 73
     7
 74
     0
 42
0.00000001
 43
0.00000001
 12
1.0
 22
0.0
 32
0.0
 13
1.0
 23
0.0
 33
0.0
 40
0.0
 40
0.0
 40
0.0
 40
0.0
 40
0.3658281109894455
 40
0.725259143083114
 40
0.9820690181776773
 40
1.0
 40
1.0
 40
1.0
 40
1.0
 10
126.4160911962404
 20
219.9198412085813
 30
0.0
 10
126.4705256465737
 20
219.8666294147934
 30
0.0
 10
126.5784426754105
 20
219.7611363189781
 30
0.0
 10
126.7305532347791
 20
219.6726589523538
 30
0.0
 10
126.818743774172
 20
219.6550995416858
 30
0.0
 10
126.852661736945
 20
219.6579299989637
 30
0.0
 10
126.8548753952293
 20
219.6581147289619
 30
0.0
  0
LINE
  5
17A
330
1F
100
AcDbEntity
  8
0
  6
Continuous
 62
     7
370
    15
100
AcDbLine
 10
126.4160911962
 20
219.9198412086
 30
0.0
 11
129.1549970083
 21
228.3493265363
 31
0.0
  0
SPLINE
  5
17B
330
1F
100
AcDbEntity
  8
0
  6
Continuous
 62
     7
370
    15
100
AcDbSpline
210
0.0
220
0.0
230
1.0
 70
     8
 71
     3
 72
    11
 73
     7
 74
     0
 42
0.00000001
 43
0.00000001
 12
1.0
 22
0.0
 32
0.0
 13
1.0
 23
0.0
 33
0.0
 40
0.0
 40
0.0
 40
0.0
 40
0.0
 40
0.2357948537758996
 40
0.2749019968044713
 40
0.6342531696138297
 40
1.0
 40
1.0
 40
1.0
 40
1.0
 10
129.6627065062489
 20
228.2997303145152
 30
0.0
 10
129.6373354631663
 20
228.3173099947505
 30
0.0
 10
129.6077565716311
 20
228.3378053071905
 30
0.0
 10
129.5154491207188
 20
228.3664152514447
 30
0.0
 10
129.3793859143445
 20
228.3818202082086
 30
0.0
 10
129.2302318433995
 20
228.36022126407
 30
0.0
 10
129.1549970083194
 20
228.3493265362904
 30
0.0
  0
SPLINE
  5
17C
330
1F
100
AcDbEntity
  8
0
  6
Continuous
 62
     7
370
    15
100
AcDbSpline
210
0.0
220
0.0
230
1.0
 70
     8
 71
     3
 72
    10
 73
     6
 74
     0
 42
0.00000001
 43
0.00000001
 12
1.0
 22
0.0
 32
0.0
 13
1.0
 23
0.0
 33
0.0
 40
0.0
 40
0.0
 40
0.0
 40
0.0
 40
0.3554439450437081
 40
0.7142330220662899
 40
1.0
 40
1.0
 40
1.0
 40
1.0
 10
129.1514235828622
 20
228.5926268271492
 30
0.0
 10
129.2482332832816
 20
228.5957824809624
 30
0.0
 10
129.44276377356
 20
228.6021234868817
 30
0.0
 10
129.676837006984
 20
228.5520455863634
 30
0.0
 10
129.7664371687204
 20
228.4841877979146
 30
0.0
 10
129.8061618245435
 20
228.454102726205
 30
0.0
  0
LINE
  5
17D
330
1F
100
AcDbEntity
  8
0
  6
Continuous
 62
     7
370
    15
100
AcDbLine
 10
125.6637498836
 20
228.2592701669
 30
0.0
 11
129.1514235829
 21
228.5926268271
 31
0.0
  0
LINE
  5
17E
330
1F
100
AcDbEntity
  8
0
  6
Continuous
 62
     7
370
    15
100
AcDbLine
 10
125.8762059607
 20
228.9131427378
 30
0.0
 11
125.6637498836
 21
228.2592701669
 31
0.0
  0
LINE
  5
17F
330
1F
100
AcDbEntity
  8
0
  6
Continuous
 62
     7
370
    15
100
AcDbLine
 10
125.8762059607
 20
228.9131427378
 30
0.0
 11
126.1701763844
 21
228.9455329101
 31
0.0
  0
LINE
  5
180
330
1F
100
AcDbEntity
  8
0
  6
Continuous
 62
     7
370
    15
100
AcDbLine
 10
129.9661371654
 20
229.3708370201
 30
0.0
 11
126.1701763844
 21
228.9455329101
 31
0.0
  0
SPLINE
  5
181
330
1F
100
AcDbEntity
  8
0
  6
Continuous
 62
     7
370
    15
100
AcDbSpline
210
0.0
220
0.0
230
1.0
 70
     8
 71
     3
 72
    12
 73
     8
 74
     0
 42
0.00000001
 43
0.00000001
 12
1.0
 22
0.0
 32
0.0
 13
1.0
 23
0.0
 33
0.0
 40
0.0
 40
0.0
 40
0.0
 40
0.0
 40
0.2238925288134517
 40
0.4477848652796264
 40
0.6716820736204705
 40
0.8955819150462253
 40
1.0
 40
1.0
 40
1.0
 40
1.0
 10
130.0126897275034
 20
229.376381766298
 30
0.0
 10
130.0121320780087
 20
229.3762867546649
 30
0.0
 10
130.0110167794983
 20
229.3760967314803
 30
0.0
 10
130.0024313682525
 20
229.3750168872286
 30
0.0
 10
129.9898088432848
 20
229.3735090711424
 30
0.0
 10
129.9768374931661
 20
229.3720209744459
 30
0.0
 10
129.9687191269219
 20
229.3711227052713
 30
0.0
 10
129.9661371653899
 20
229.3708370201489
 30
0.0
  0
ELLIPSE
  5
182
330
1F
100
AcDbEntity
  8
0
  6
Continuous
 62
     7
370
    15
100
AcDbEllipse
 10
130.8568387504
 20
221.6411702482
 30
0.0
 11
-0.8440896751230015
 21
7.735303290482847
 31
0.0
210
0.0
220
0.0
230
1.0
 40
0.0018981666
 41
0.0037678791836542
 42
0.0046684339436749
  0
SPLINE
  5
183
330
1F
100
AcDbEntity
  8
0
  6
Continuous
 62
     7
370
    15
100
AcDbSpline
210
0.0
220
0.0
230
1.0
 70
     8
 71
     3
 72
    12
 73
     8
 74
     0
 42
0.00000001
 43
0.00000001
 12
1.0
 22
0.0
 32
0.0
 13
1.0
 23
0.0
 33
0.0
 40
0.0
 40
0.0
 40
0.0
 40
0.0
 40
0.2238925571849263
 40
0.4477848984199208
 40
0.671682486203089
 40
0.8955821585467412
 40
1.0
 40
1.0
 40
1.0
 40
1.0
 10
129.9663069067242
 20
229.3713594302591
 30
0.0
 10
129.9718456188501
 20
229.3719675434735
 30
0.0
 10
129.9829230377595
 20
229.3731837693158
 30
0.0
 10
129.9972074200292
 20
229.374770752632
 30
0.0
 10
130.0075943672422
 20
229.3759164870458
 30
0.0
 10
130.0122075305226
 20
229.376400657841
 30
0.0
 10
130.0125809740384
 20
229.3764097131064
 30
0.0
 10
130.0126997437177
 20
229.3764125930358
 30
0.0
  0
LINE
  5
184
330
1F
100
AcDbEntity
  8
0
  6
Continuous
 62
     7
370
    15
100
AcDbLine
 10
129.9663069067
 20
229.3713594303
 30
0.0
 11
126.1711367368
 21
228.948488571
 31
0.0
  0
ARC
  5
185
330
1F
100
AcDbEntity
  8
0
  6
Continuous
 62
     7
370
    15
100
AcDbCircle
 10
129.9779742973
 20
228.4830902418
 30
0.0
 40
0.8337771566960736
100
AcDbArc
 50
172.4510060674
 51
189.2319140489
  0
LINE
  5
186
330
1F
100
AcDbEntity
  8
0
  6
Continuous
 62
     7
370
    15
100
AcDbLine
 10
126.270494077
 20
219.7260375152
 30
0.0
 11
123.6464326751
 21
222.0506062048
 31
0.0
  0
SPLINE
  5
187
330
1F
100
AcDbEntity
  8
0
  6
Continuous
 62
     7
370
    15
100
AcDbSpline
210
0.0
220
0.0
230
1.0
 70
     8
 71
     3
 72
    10
 73
     6
 74
     0
 42
0.00000001
 43
0.00000001
 12
1.0
 22
0.0
 32
0.0
 13
1.0
 23
0.0
 33
0.0
 40
0.0
 40
0.0
 40
0.0
 40
0.0
 40
0.2857669779336391
 40
0.6445560549563006
 40
1.0
 40
1.0
 40
1.0
 40
1.0
 10
126.8801783875384
 20
219.4488516720872
 30
0.0
 10
126.830559092412
 20
219.4484841753067
 30
0.0
 10
126.7186412726988
 20
219.447655275212
 30
0.0
 10
126.5003734698654
 20
219.5463772892571
 30
0.0
 10
126.3468809122739
 20
219.6663380531681
 30
0.0
 10
126.2704940769981
 20
219.7260375151891
 30
0.0
  0
ARC
  5
188
330
1F
100
AcDbEntity
  8
0
  6
Continuous
 62
     7
370
    15
100
AcDbCircle
 10
127.010469728
 20
219.3217153613
 30
0.0
 40
0.8432320962619069
100
AcDbArc
 50
134.819954827
 51
151.3478399544
  0
LINE
  5
189
330
1F
100
AcDbEntity
  8
0
  6
Continuous
 62
     7
370
    15
100
AcDbLine
 10
131.3202389755
 20
228.7666062774
 30
0.0
 11
131.2790251148
 21
228.6464420717
 31
0.0
  0
LINE
  5
18A
330
1F
100
AcDbEntity
  8
0
  6
Continuous
 62
     7
370
    15
100
AcDbLine
 10
131.2790251148
 20
228.6464420717
 30
0.0
 11
130.3998650896
 21
228.6321734457
 31
0.0
  0
LINE
  5
18B
330
1F
100
AcDbEntity
  8
0
  6
Continuous
 62
     7
370
    15
100
AcDbLine
 10
130.3998650896
 20
228.6321734457
 30
0.0
 11
130.4271527429
 21
228.7127436958
 31
0.0
  0
LINE
  5
18C
330
1F
100
AcDbEntity
  8
0
  6
Continuous
 62
     7
370
    15
100
AcDbLine
 10
130.4271527429
 20
228.7127436958
 30
0.0
 11
131.1491623816
 21
228.724521953
 31
0.0
  0
LINE
  5
18D
330
1F
100
AcDbEntity
  8
0
  6
Continuous
 62
     7
370
    15
100
AcDbLine
 10
131.1491623816
 20
228.724521953
 30
0.0
 11
131.1792686203
 21
228.8080283558
 31
0.0
  0
LINE
  5
18E
330
1F
100
AcDbEntity
  8
0
  6
Continuous
 62
     7
370
    15
100
AcDbLine
 10
131.1792686203
 20
228.8080283558
 30
0.0
 11
131.3202389755
 21
228.7666062774
 31
0.0
  0
LINE
  5
18F
330
1F
100
AcDbEntity
  8
0
  6
Continuous
 62
     7
370
    15
100
AcDbLine
 10
131.3202389755
 20
228.7666062774
 30
0.0
 11
131.320441063
 21
228.7648245478
 31
0.0
  0
LINE
  5
190
330
1F
100
AcDbEntity
  8
0
  6
Continuous
 62
     7
370
    15
100
AcDbLine
 10
131.2790251148
 20
228.6464420717
 30
0.0
 11
131.2792388206
 21
228.6446960995
 31
0.0
  0
LINE
  5
191
330
1F
100
AcDbEntity
  8
0
  6
Continuous
 62
     7
370
    15
100
AcDbLine
 10
130.3998650896
 20
228.6321734457
 30
0.0
 11
130.4000787547
 21
228.6304273484
 31
0.0
  0
LINE
  5
192
330
1F
100
AcDbEntity
  8
0
  6
Continuous
 62
     7
370
    15
100
AcDbLine
 10
129.1549970083
 20
228.3493265363
 30
0.0
 11
125.6764202379
 21
228.0439673442
 31
0.0
  0
ARC
  5
193
330
1F
100
AcDbEntity
  8
0
  6
Continuous
 62
     7
370
    15
100
AcDbCircle
 10
126.7811834911
 20
228.2170057792
 30
0.0
 40
1.118232599009851
100
AcDbArc
 50
177.8339497937
 51
188.9018793714
  0
LINE
  5
194
330
1F
100
AcDbEntity
  8
0
  6
Continuous
 62
     7
370
    15
100
AcDbLine
 10
123.7829443822
 20
222.2164478748
 30
0.0
 11
126.4160911962
 21
219.9198412086
 31
0.0
  0
LINE
  5
195
330
1F
100
AcDbEntity
  8
0
  6
Continuous
 62
     7
370
    15
100
AcDbLine
 10
125.6764202379
 20
228.0439673442
 30
0.0
 11
123.7829443822
 21
222.2164478748
 31
0.0
  0
ARC
  5
196
330
1F
100
AcDbEntity
  8
0
  6
Continuous
 62
     7
370
    15
100
AcDbCircle
 10
124.5930871455
 20
221.4104777924
 30
0.0
 40
1.142768161404857
100
AcDbArc
 50
135.1479330344
 51
145.9334149419
  0
ARC
  5
197
330
1F
100
AcDbEntity
  8
0
  6
Continuous
 62
     7
370
    15
100
AcDbCircle
 10
125.7047006017
 20
228.2773000147
 30
0.0
 40
0.2350402393299438
100
AcDbArc
 50
211.9296281132
 51
263.089349859
  0
ARC
  5
198
330
1F
100
AcDbEntity
  8
0
  6
Continuous
 62
     7
370
    15
100
AcDbCircle
 10
125.660569715
 20
228.092642296
 30
0.0
 40
0.1666582155808559
100
AcDbArc
 50
88.9066167454
 51
158.7695486474
  0
ARC
  5
199
330
1F
100
AcDbEntity
  8
0
  6
Continuous
 62
     7
370
    15
100
AcDbCircle
 10
123.6664517707
 20
222.0050566645
 30
0.0
 40
0.2413643973994688
100
AcDbArc
 50
61.1418978193
 51
110.7397419026
  0
LINE
  5
19A
330
1F
100
AcDbEntity
  8
0
  6
Continuous
 62
     7
370
    15
100
AcDbLine
 10
123.5809789394
 20
222.2307803174
 30
0.0
 11
125.5052223467
 21
228.1529925736
 31
0.0
  0
ARC
  5
19B
330
1F
100
AcDbEntity
  8
0
  6
Continuous
 62
     7
370
    15
100
AcDbCircle
 10
123.7429788819
 20
222.1876556439
 30
0.0
 40
0.1676416381231889
100
AcDbArc
 50
165.0934532437
 51
234.8367358088
  0
LINE
  5
19C
330
1F
100
AcDbEntity
  8
0
  6
Continuous
 62
     7
370
    15
100
AcDbLine
 10
125.5052223467
 20
228.1529925736
 30
0.0
 11
125.7075206439
 21
228.7756027123
 31
0.0
  0
SPLINE
  5
19D
330
1F
100
AcDbEntity
  8
0
  6
Continuous
 62
     7
370
    15
100
AcDbSpline
210
0.0
220
0.0
230
1.0
 70
     8
 71
     3
 72
    11
 73
     7
 74
     0
 42
0.00000001
 43
0.00000001
 12
1.0
 22
0.0
 32
0.0
 13
1.0
 23
0.0
 33
0.0
 40
0.0
 40
0.0
 40
0.0
 40
0.0
 40
0.2947335968588703
 40
0.589483610822306
 40
0.8837752324726307
 40
1.0
 40
1.0
 40
1.0
 40
1.0
 10
125.7075206438766
 20
228.7756027123044
 30
0.0
 10
125.7166194793555
 20
228.7964332074687
 30
0.0
 10
125.7348176571321
 20
228.8380953580871
 30
0.0
 10
125.7863446037296
 20
228.8844058352678
 30
0.0
 10
125.8363790056778
 20
228.9071141402514
 30
0.0
 10
125.8674181936713
 20
228.9118125353882
 30
0.0
 10
125.8762059607468
 20
228.9131427377794
 30
0.0
  0
LINE
  5
19E
330
1F
100
AcDbEntity
  8
0
  6
Continuous
 62
     7
370
    15
100
AcDbLine
 10
123.3812999399
 20
221.6162315477
 30
0.0
 11
123.5809789394
 21
222.2307803174
 31
0.0
  0
LINE
  5
19F
330
1F
100
AcDbEntity
  8
0
  6
Continuous
 62
     7
370
    15
100
AcDbLine
 10
130.6838004064
 20
223.3801819579
 30
0.0
 11
130.7083066022
 21
223.4556042733
 31
0.0
  0
SPLINE
  5
1A0
330
1F
100
AcDbEntity
  8
0
  6
Continuous
 62
     7
370
    15
100
AcDbSpline
210
0.0
220
0.0
230
1.0
 70
     8
 71
     3
 72
    15
 73
    11
 74
     0
 42
0.00000001
 43
0.00000001
 12
1.0
 22
0.0
 32
0.0
 13
1.0
 23
0.0
 33
0.0
 40
0.0
 40
0.0
 40
0.0
 40
0.0
 40
0.8893550161278779
 40
0.9507463792644473
 40
0.9814798741866854
 40
0.9897495083364997
 40
0.9940450515134298
 40
0.9969090359785767
 40
0.9986946132392455
 40
1.0
 40
1.0
 40
1.0
 40
1.0
 10
130.3278302658787
 20
223.5790457075941
 30
0.0
 10
130.4419205455331
 20
223.541985517867
 30
0.0
 10
130.5638863728165
 20
223.5023670971476
 30
0.0
 10
130.6878087525071
 20
223.4622157600373
 30
0.0
 10
130.7003349166508
 20
223.4581634612269
 30
0.0
 10
130.705421402505
 20
223.4565235711193
 30
0.0
 10
130.707081931749
 20
223.4559902795569
 30
0.0
 10
130.7078846737329
 20
223.4557341950322
 30
0.0
 10
130.7082536093442
 20
223.4556182629851
 30
0.0
 10
130.7082908673154
 20
223.4556084271707
 30
0.0
 10
130.7083066022325
 20
223.455604273275
 30
0.0
  0
LINE
  5
1A1
330
1F
100
AcDbEntity
  8
0
  6
Continuous
 62
     7
370
    15
100
AcDbLine
 10
130.7083066022
 20
223.4556042733
 30
0.0
 11
130.7096205855
 21
223.4596482979
 31
0.0
  0
LINE
  5
1A2
330
1F
100
AcDbEntity
  8
0
  6
Continuous
 62
     7
370
    15
100
AcDbLine
 10
130.329197979
 20
223.5832550956
 30
0.0
 11
130.7096205855
 21
223.4596482979
 31
0.0
  0
LINE
  5
1A3
330
1F
100
AcDbEntity
  8
0
  6
Continuous
 62
     7
370
    15
100
AcDbLine
 10
127.7590020736
 20
217.7454410282
 30
0.0
 11
127.6950691307
 21
217.7623960987
 31
0.0
  0
LINE
  5
1A4
330
1F
100
AcDbEntity
  8
0
  6
Continuous
 62
     7
370
    15
100
AcDbLine
 10
127.6950691307
 20
217.7623960987
 30
0.0
 11
127.470906077
 21
217.9844831775
 31
0.0
  0
SPLINE
  5
1A5
330
1F
100
AcDbEntity
  8
0
  6
Continuous
 62
     7
370
    15
100
AcDbSpline
210
0.0
220
0.0
230
1.0
 70
     8
 71
     3
 72
    13
 73
     9
 74
     0
 42
0.00000001
 43
0.00000001
 12
1.0
 22
0.0
 32
0.0
 13
1.0
 23
0.0
 33
0.0
 40
0.0
 40
0.0
 40
0.0
 40
0.0
 40
0.2492920064556925
 40
0.3712460101651432
 40
0.4999051625367223
 40
0.6259526457658379
 40
0.7504505198791339
 40
1.0
 40
1.0
 40
1.0
 40
1.0
 10
127.4709059941805
 20
217.984483246016
 30
0.0
 10
127.4657301837159
 20
217.9793661133585
 30
0.0
 10
127.4580223594191
 20
217.9717456721353
 30
0.0
 10
127.4259568943799
 20
217.983076295562
 30
0.0
 10
127.3961119018963
 20
217.9980971736875
 30
0.0
 10
127.3610379501613
 20
218.0193108506519
 30
0.0
 10
127.3090754358113
 20
218.0547897924488
 30
0.0
 10
127.2666339795219
 20
218.088605645251
 30
0.0
 10
127.2383187321804
 20
218.11116623388
 30
0.0
  0
SPLINE
  5
1A6
330
1F
100
AcDbEntity
  8
0
  6
Continuous
 62
     7
370
    15
100
AcDbSpline
210
0.0
220
0.0
230
1.0
 70
     8
 71
     3
 72
    11
 73
     7
 74
     0
 42
0.00000001
 43
0.00000001
 12
1.0
 22
0.0
 32
0.0
 13
1.0
 23
0.0
 33
0.0
 40
0.0
 40
0.0
 40
0.0
 40
0.0
 40
0.2499514112833062
 40
0.4999130422260493
 40
0.749905469663298
 40
0.9999999999999999
 40
0.9999999999999999
 40
0.9999999999999999
 40
0.9999999999999999
 10
127.2383187321804
 20
218.11116623388
 30
0.0
 10
127.2102227770131
 20
218.1349652430343
 30
0.0
 10
127.1540297179308
 20
218.1825642344032
 30
0.0
 10
127.0868643925022
 20
218.2518002946026
 30
0.0
 10
127.0407196463782
 20
218.3104513378632
 30
0.0
 10
127.0396935704783
 20
218.3300683835553
 30
0.0
 10
127.0391804277813
 20
218.3398789090103
 30
0.0
  0
SPLINE
  5
1A7
330
1F
100
AcDbEntity
  8
0
  6
Continuous
 62
     7
370
    15
100
AcDbSpline
210
0.0
220
0.0
230
1.0
 70
     8
 71
     3
 72
    12
 73
     8
 74
     0
 42
0.00000001
 43
0.00000001
 12
1.0
 22
0.0
 32
0.0
 13
1.0
 23
0.0
 33
0.0
 40
0.0
 40
0.0
 40
0.0
 40
0.0
 40
0.2497910423931869
 40
0.3739310552595363
 40
0.5006824829797527
 40
0.750555590459539
 40
1.0
 40
1.0
 40
1.0
 40
1.0
 10
127.039180512917
 20
218.3398793418941
 30
0.0
 10
127.0444045515144
 20
218.3454567375431
 30
0.0
 10
127.0522248089852
 20
218.3538059618415
 30
0.0
 10
127.0847455851281
 20
218.3459699858779
 30
0.0
 10
127.1256217758877
 20
218.328980827978
 30
0.0
 10
127.1893643191342
 20
218.294333010531
 30
0.0
 10
127.2464892418168
 20
218.2502102570268
 30
0.0
 10
127.2750271803487
 20
218.2281678214623
 30
0.0
  0
SPLINE
  5
1A8
330
1F
100
AcDbEntity
  8
0
  6
Continuous
 62
     7
370
    15
100
AcDbSpline
210
0.0
220
0.0
230
1.0
 70
     8
 71
     3
 72
     9
 73
     5
 74
     0
 42
0.00000001
 43
0.00000001
 12
1.0
 22
0.0
 32
0.0
 13
1.0
 23
0.0
 33
0.0
 40
0.0
 40
0.0
 40
0.0
 40
0.0
 40
0.4985381338848359
 40
1.0
 40
1.0
 40
1.0
 40
1.0
 10
127.2750271803487
 20
218.2281678214623
 30
0.0
 10
127.3031860474745
 20
218.2034153692625
 30
0.0
 10
127.3596689225283
 20
218.1537653013592
 30
0.0
 10
127.4074112093914
 20
218.1035519920367
 30
0.0
 10
127.4313521456544
 20
218.07837193224
 30
0.0
  0
LINE
  5
1A9
330
1F
100
AcDbEntity
  8
0
  6
Continuous
 62
     7
370
    15
100
AcDbLine
 10
127.4313521457
 20
218.0783719322
 30
0.0
 11
127.7590020104
 21
217.7454410914
 31
0.0
  0
SPLINE
  5
1AA
330
1F
100
AcDbEntity
  8
0
  6
Continuous
 62
     7
370
    15
100
AcDbSpline
210
0.0
220
0.0
230
1.0
 70
     8
 71
     3
 72
    12
 73
     8
 74
     0
 42
0.00000001
 43
0.00000001
 12
1.0
 22
0.0
 32
0.0
 13
1.0
 23
0.0
 33
0.0
 40
0.0
 40
0.0
 40
0.0
 40
0.0
 40
0.2495315323705772
 40
0.4992606675660072
 40
0.7489421743683055
 40
0.8743839782907987
 40
1.0
 40
1.0
 40
1.0
 40
1.0
 10
127.1617369859354
 20
218.240198861733
 30
0.0
 10
127.1620236287941
 20
218.2358937535517
 30
0.0
 10
127.1625971415026
 20
218.2272801279945
 30
0.0
 10
127.1830168965038
 20
218.201027720585
 30
0.0
 10
127.2073961106791
 20
218.1758538739874
 30
0.0
 10
127.2303757411239
 20
218.1552067266131
 30
0.0
 10
127.2423212179732
 20
218.1452476577727
 30
0.0
 10
127.2482981010895
 20
218.1402646678798
 30
0.0
  0
SPLINE
  5
1AB
330
1F
100
AcDbEntity
  8
0
  6
Continuous
 62
     7
370
    15
100
AcDbSpline
210
0.0
220
0.0
230
1.0
 70
     8
 71
     3
 72
    14
 73
    10
 74
     0
 42
0.00000001
 43
0.00000001
 12
1.0
 22
0.0
 32
0.0
 13
1.0
 23
0.0
 33
0.0
 40
0.0
 40
0.0
 40
0.0
 40
0.0
 40
0.2494123621232377
 40
0.3725840262458514
 40
0.4996107682794954
 40
0.625738109330948
 40
0.7497125583656626
 40
0.874763601165674
 40
0.9999999999999999
 40
0.9999999999999999
 40
0.9999999999999999
 40
0.9999999999999999
 10
127.2482981010895
 20
218.1402646678798
 30
0.0
 10
127.2604023255519
 20
218.1306385218233
 30
0.0
 10
127.2784841906464
 20
218.1162585278869
 30
0.0
 10
127.3008717083776
 20
218.1013467800891
 30
0.0
 10
127.3159758417801
 20
218.0924974099484
 30
0.0
 10
127.3290168256629
 20
218.0862160524628
 30
0.0
 10
127.3389422405135
 20
218.0832743299707
 30
0.0
 10
127.3455293211424
 20
218.083636934669
 30
0.0
 10
127.3471695260006
 20
218.0863653904687
 30
0.0
 10
127.3479902357751
 20
218.0877306286784
 30
0.0
  0
SPLINE
  5
1AC
330
1F
100
AcDbEntity
  8
0
  6
Continuous
 62
     7
370
    15
100
AcDbSpline
210
0.0
220
0.0
230
1.0
 70
     8
 71
     3
 72
    13
 73
     9
 74
     0
 42
0.00000001
 43
0.00000001
 12
1.0
 22
0.0
 32
0.0
 13
1.0
 23
0.0
 33
0.0
 40
0.0
 40
0.0
 40
0.0
 40
0.0
 40
0.2492705592378064
 40
0.373602033416322
 40
0.4998775778575531
 40
0.7493296973054162
 40
0.8745825428780853
 40
0.9999999999999999
 40
0.9999999999999999
 40
0.9999999999999999
 40
0.9999999999999999
 10
127.3479902357751
 20
218.0877306286784
 30
0.0
 10
127.3478277044742
 20
218.0919422380712
 30
0.0
 10
127.3475841056124
 20
218.0982545191442
 30
0.0
 10
127.3372334031232
 20
218.1139909621093
 30
0.0
 10
127.3231196041802
 20
218.1318150895403
 30
0.0
 10
127.3036394626622
 20
218.1523529152901
 30
0.0
 10
127.2813248419068
 20
218.1727189123633
 30
0.0
 10
127.2696255029291
 20
218.1824982534773
 30
0.0
 10
127.2637719920473
 20
218.1873911350099
 30
0.0
  0
SPLINE
  5
1AD
330
1F
100
AcDbEntity
  8
0
  6
Continuous
 62
     7
370
    15
100
AcDbSpline
210
0.0
220
0.0
230
1.0
 70
     8
 71
     3
 72
    11
 73
     7
 74
     0
 42
0.00000001
 43
0.00000001
 12
1.0
 22
0.0
 32
0.0
 13
1.0
 23
0.0
 33
0.0
 40
0.0
 40
0.0
 40
0.0
 40
0.0
 40
0.2503591499162008
 40
0.5004092502385478
 40
0.7504596421658749
 40
0.9999999999999999
 40
0.9999999999999999
 40
0.9999999999999999
 40
0.9999999999999999
 10
127.2637719920473
 20
218.1873911350099
 30
0.0
 10
127.2517779158713
 20
218.1968441366612
 30
0.0
 10
127.2278045693069
 20
218.2157384709422
 30
0.0
 10
127.1954867352574
 20
218.2349573975825
 30
0.0
 10
127.1693214487921
 20
218.2462889025416
 30
0.0
 10
127.164263418967
 20
218.2422274932331
 30
0.0
 10
127.1617369859354
 20
218.240198861733
 30
0.0
  0
LINE
  5
1AE
330
1F
100
AcDbEntity
  8
0
  6
Continuous
 62
     7
370
    15
100
AcDbLine
 10
127.4313521457
 20
218.0783719322
 30
0.0
 11
127.4326138732
 21
218.0798514393
 31
0.0
  0
LINE
  5
1AF
330
1F
100
AcDbEntity
  8
0
  6
Continuous
 62
     7
370
    15
100
AcDbLine
 10
127.2750271803
 20
218.2281678215
 30
0.0
 11
127.276287121
 21
218.2296418292
 31
0.0
  0
LINE
  5
1B0
330
1F
100
AcDbEntity
  8
0
  6
Continuous
 62
     7
370
    15
100
AcDbLine
 10
130.5844899165
 20
223.074535698
 30
0.0
 11
130.6838004064
 21
223.3801819579
 31
0.0
  0
LINE
  5
1B1
330
1F
100
AcDbEntity
  8
0
  6
Continuous
 62
     7
370
    15
100
AcDbLine
 10
127.7590020736
 20
217.7454410282
 30
0.0
 11
127.7602688489
 21
217.7469360704
 31
0.0
  0
LINE
  5
1B2
330
1F
100
AcDbEntity
  8
0
  6
Continuous
 62
     7
370
    15
100
AcDbLine
 10
130.5537486903
 20
222.9799239323
 30
0.0
 11
130.5844899165
 21
223.074535698
 31
0.0
  0
LINE
  5
1B3
330
1F
100
AcDbEntity
  8
0
  6
Continuous
 62
     7
370
    15
100
AcDbLine
 10
130.1711685481
 20
223.0968905179
 30
0.0
 11
130.5537486903
 21
222.9799239323
 31
0.0
  0
SPLINE
  5
1B4
330
1F
100
AcDbEntity
  8
0
  6
Continuous
 62
     7
370
    15
100
AcDbSpline
210
0.0
220
0.0
230
1.0
 70
     8
 71
     3
 72
    14
 73
    10
 74
     0
 42
0.00000001
 43
0.00000001
 12
1.0
 22
0.0
 32
0.0
 13
1.0
 23
0.0
 33
0.0
 40
0.0
 40
0.0
 40
0.0
 40
0.0
 40
0.2494475523912021
 40
0.3726301174481307
 40
0.4996610443011728
 40
0.6257849910416895
 40
0.7497486155186118
 40
0.8747829810989154
 40
1.0
 40
1.0
 40
1.0
 40
1.0
 10
127.2495667586553
 20
218.1417655034345
 30
0.0
 10
127.2616707941868
 20
218.1321393904598
 30
0.0
 10
127.2797520627278
 20
218.117759695915
 30
0.0
 10
127.3021395747056
 20
218.102846860135
 30
0.0
 10
127.3172434552023
 20
218.0939965759852
 30
0.0
 10
127.3302841616836
 20
218.0877140552928
 30
0.0
 10
127.3402093360226
 20
218.0847709514871
 30
0.0
 10
127.3467961130004
 20
218.0851321017322
 30
0.0
 10
127.3484360262807
 20
218.0878596028492
 30
0.0
 10
127.3492565813904
 20
218.0892243487811
 30
0.0
  0
SPLINE
  5
1B5
330
1F
100
AcDbEntity
  8
0
  6
Continuous
 62
     7
370
    15
100
AcDbSpline
210
0.0
220
0.0
230
1.0
 70
     8
 71
     3
 72
    12
 73
     8
 74
     0
 42
0.00000001
 43
0.00000001
 12
1.0
 22
0.0
 32
0.0
 13
1.0
 23
0.0
 33
0.0
 40
0.0
 40
0.0
 40
0.0
 40
0.0
 40
0.249494096112509
 40
0.4992096974913757
 40
0.7489071348238248
 40
0.8743654398437615
 40
1.0
 40
1.0
 40
1.0
 40
1.0
 10
127.1630033388625
 20
218.2416926043392
 30
0.0
 10
127.1632904279271
 20
218.2373883355916
 30
0.0
 10
127.1638648609389
 20
218.2287759766906
 30
0.0
 10
127.1842866095668
 20
218.2025249961231
 30
0.0
 10
127.2086655211827
 20
218.1773533844803
 30
0.0
 10
127.231644517671
 20
218.1567073943593
 30
0.0
 10
127.2435898833028
 20
218.1467484639731
 30
0.0
 10
127.2495667586553
 20
218.1417655034345
 30
0.0
  0
LINE
  5
1B6
330
1F
100
AcDbEntity
  8
0
  6
Continuous
 62
     7
370
    15
100
AcDbLine
 10
127.1630033389
 20
218.2416926043
 30
0.0
 11
127.1617369859
 21
218.2401988617
 31
0.0
  0
LINE
  5
1B7
330
1F
100
AcDbEntity
  8
0
  6
Continuous
 62
     7
370
    15
100
AcDbLine
 10
129.9879148118
 20
222.5328935104
 30
0.0
 11
130.3685793681
 21
222.4100313578
 31
0.0
  0
LINE
  5
1B8
330
1F
100
AcDbEntity
  8
0
  6
Continuous
 62
     7
370
    15
100
AcDbLine
 10
130.3685793681
 20
222.4100313578
 30
0.0
 11
130.553971596
 21
222.9806099655
 31
0.0
  0
LINE
  5
1B9
330
1F
100
AcDbEntity
  8
0
  6
Continuous
 62
     7
370
    15
100
AcDbLine
 10
127.2495667587
 20
218.1417655034
 30
0.0
 11
127.2482981011
 21
218.1402646679
 31
0.0
  0
LINE
  5
1BA
330
1F
100
AcDbEntity
  8
0
  6
Continuous
 62
     7
370
    15
100
AcDbLine
 10
130.2624313176
 20
222.0833412501
 30
0.0
 11
130.2991613972
 21
222.1963848113
 31
0.0
  0
LINE
  5
1BB
330
1F
100
AcDbEntity
  8
0
  6
Continuous
 62
     7
370
    15
100
AcDbLine
 10
130.2991613972
 20
222.1963848113
 30
0.0
 11
130.3685793681
 21
222.4100313578
 31
0.0
  0
LINE
  5
1BC
330
1F
100
AcDbEntity
  8
0
  6
Continuous
 62
     7
370
    15
100
AcDbLine
 10
130.1976796069
 20
221.8840559762
 30
0.0
 11
130.2624313176
 21
222.0833412501
 31
0.0
  0
LINE
  5
1BD
330
1F
100
AcDbEntity
  8
0
  6
Continuous
 62
     7
370
    15
100
AcDbLine
 10
130.1924699999
 20
221.8680224543
 30
0.0
 11
130.1976796069
 21
221.8840559762
 31
0.0
  0
SPLINE
  5
1BE
330
1F
100
AcDbEntity
  8
0
  6
Continuous
 62
     7
370
    15
100
AcDbSpline
210
0.0
220
0.0
230
1.0
 70
     8
 71
     3
 72
    16
 73
    12
 74
     0
 42
0.00000001
 43
0.00000001
 12
1.0
 22
0.0
 32
0.0
 13
1.0
 23
0.0
 33
0.0
 40
0.0
 40
0.0
 40
0.0
 40
0.0
 40
0.1224415892196505
 40
0.2448767181071385
 40
0.3672934602050035
 40
0.489700307629764
 40
0.6121077401456828
 40
0.734524722611519
 40
0.8569548386864814
 40
0.9793933630605934
 40
1.0
 40
1.0
 40
1.0
 40
1.0
 10
130.6508092793856
 20
229.4250414531213
 30
0.0
 10
130.6582476997525
 20
229.4246024733851
 30
0.0
 10
130.6731241480163
 20
229.4237245370744
 30
0.0
 10
130.7887972556206
 20
229.4225848869722
 30
0.0
 10
130.9540208353615
 20
229.4256531386908
 30
0.0
 10
131.1505106163508
 20
229.4356367651854
 30
0.0
 10
131.3457884134112
 20
229.4521039456913
 30
0.0
 10
131.5130158989176
 20
229.4713454331825
 30
0.0
 10
131.6181990795828
 20
229.4860619968862
 30
0.0
 10
131.6612021204067
 20
229.4928369211666
 30
0.0
 10
131.6446488066222
 20
229.4908910245123
 30
0.0
 10
131.642264188197
 20
229.4906107047482
 30
0.0
  0
LINE
  5
1BF
330
1F
100
AcDbEntity
  8
0
  6
Continuous
 62
     7
370
    15
100
AcDbLine
 10
125.7084809963
 20
228.7785583733
 30
0.0
 11
125.7075206439
 21
228.7756027123
 31
0.0
  0
LINE
  5
1C0
330
1F
100
AcDbEntity
  8
0
  6
Continuous
 62
     7
370
    15
100
AcDbLine
 10
156.1611444032
 20
65.4509348827
 30
0.0
 11
137.7611444032
 21
65.4509348827
 31
0.0
  0
LINE
  5
1C1
330
1F
100
AcDbEntity
  8
0
  6
Continuous
 62
     7
370
    15
100
AcDbLine
 10
156.1611444032
 20
65.0509348827
 30
0.0
 11
137.7611444032
 21
65.0509348827
 31
0.0
  0
LINE
  5
1C2
330
1F
100
AcDbEntity
  8
0
  6
Continuous
 62
     7
370
    15
100
AcDbLine
 10
273.9611444032
 20
65.4509348827
 30
0.0
 11
255.5611444032
 21
65.4509348827
 31
0.0
  0
LINE
  5
1C3
330
1F
100
AcDbEntity
  8
0
  6
Continuous
 62
     7
370
    15
100
AcDbLine
 10
273.9611444032
 20
65.0509348827
 30
0.0
 11
255.5611444032
 21
65.0509348827
 31
0.0
  0
LINE
  5
1C4
330
1F
100
AcDbEntity
  8
0
  6
Continuous
 62
     7
370
    15
100
AcDbLine
 10
271.7611444032
 20
98.6509348827
 30
0.0
 11
271.7611444032
 21
99.0509348827
 31
0.0
  0
LINE
  5
1C5
330
1F
100
AcDbEntity
  8
0
  6
Continuous
 62
     7
370
    15
100
AcDbLine
 10
257.7611444032
 20
98.6509348827
 30
0.0
 11
257.7611444032
 21
99.0509348827
 31
0.0
  0
LINE
  5
1C6
330
1F
100
AcDbEntity
  8
0
  6
Continuous
 62
     7
370
    15
100
AcDbLine
 10
257.7611444032
 20
99.0509348827
 30
0.0
 11
271.7611444032
 21
99.0509348827
 31
0.0
  0
LINE
  5
1C7
330
1F
100
AcDbEntity
  8
0
  6
Continuous
 62
     7
370
    15
100
AcDbLine
 10
257.7611444032
 20
98.6509348827
 30
0.0
 11
271.7611444032
 21
98.6509348827
 31
0.0
  0
LINE
  5
1C8
330
1F
100
AcDbEntity
  8
0
  6
Continuous
 62
     7
370
    15
100
AcDbLine
 10
270.9530744472
 20
79.8509348827
 30
0.0
 11
258.5692143591
 21
79.8509348827
 31
0.0
  0
LINE
  5
1C9
330
1F
100
AcDbEntity
  8
0
  6
Continuous
 62
     7
370
    15
100
AcDbLine
 10
139.9611444032
 20
99.0509348827
 30
0.0
 11
153.9611444032
 21
99.0509348827
 31
0.0
  0
LINE
  5
1CA
330
1F
100
AcDbEntity
  8
0
  6
Continuous
 62
     7
370
    15
100
AcDbLine
 10
139.9611444032
 20
98.6509348827
 30
0.0
 11
153.9611444032
 21
98.6509348827
 31
0.0
  0
LINE
  5
1CB
330
1F
100
AcDbEntity
  8
0
  6
Continuous
 62
     7
370
    15
100
AcDbLine
 10
139.9611444032
 20
98.6509348827
 30
0.0
 11
139.9611444032
 21
99.0509348827
 31
0.0
  0
LINE
  5
1CC
330
1F
100
AcDbEntity
  8
0
  6
Continuous
 62
     7
370
    15
100
AcDbLine
 10
153.9611444032
 20
98.6509348827
 30
0.0
 11
153.9611444032
 21
99.0509348827
 31
0.0
  0
LINE
  5
1CD
330
1F
100
AcDbEntity
  8
0
  6
Continuous
 62
     7
370
    15
100
AcDbLine
 10
153.1530744472
 20
79.8509348827
 30
0.0
 11
140.7692143591
 21
79.8509348827
 31
0.0
  0
LINE
  5
1CE
330
1F
100
AcDbEntity
  8
0
  6
Continuous
 62
     7
370
    15
100
AcDbLine
 10
283.8811444032
 20
195.6143300032
 30
0.0
 11
282.8011444032
 21
195.6143300032
 31
0.0
  0
LINE
  5
1CF
330
1F
100
AcDbEntity
  8
0
  6
Continuous
 62
     7
370
    15
100
AcDbLine
 10
283.8811444032
 20
195.6143300032
 30
0.0
 11
283.8811444032
 21
191.7091113675
 31
0.0
  0
LINE
  5
1D0
330
1F
100
AcDbEntity
  8
0
  6
Continuous
 62
     7
370
    15
100
AcDbLine
 10
283.8811444032
 20
191.7091113675
 30
0.0
 11
282.8011444032
 21
191.7091113675
 31
0.0
  0
LINE
  5
1D1
330
1F
100
AcDbEntity
  8
0
  6
Continuous
 62
     7
370
    15
100
AcDbLine
 10
282.8011444032
 20
195.6143300032
 30
0.0
 11
282.8011444032
 21
191.7091113675
 31
0.0
  0
LINE
  5
1D2
330
1F
100
AcDbEntity
  8
0
  6
Continuous
 62
     7
370
    15
100
AcDbLine
 10
279.8211444032
 20
195.4684044378
 30
0.0
 11
278.9011444032
 21
195.4684044378
 31
0.0
  0
LINE
  5
1D3
330
1F
100
AcDbEntity
  8
0
  6
Continuous
 62
     7
370
    15
100
AcDbLine
 10
279.8211444032
 20
191.8659491327
 30
0.0
 11
278.9011444032
 21
191.8659491327
 31
0.0
  0
LINE
  5
1D4
330
1F
100
AcDbEntity
  8
0
  6
Continuous
 62
     7
370
    15
100
AcDbLine
 10
279.8211444032
 20
195.4684044378
 30
0.0
 11
279.8211444032
 21
191.8659491327
 31
0.0
  0
LINE
  5
1D5
330
1F
100
AcDbEntity
  8
0
  6
Continuous
 62
     7
370
    15
100
AcDbLine
 10
285.6711444032
 20
196.1359348827
 30
0.0
 11
285.6711444032
 21
191.8859348827
 31
0.0
  0
LINE
  5
1D6
330
1F
100
AcDbEntity
  8
0
  6
Continuous
 62
     7
370
    15
100
AcDbLine
 10
281.4811444032
 20
197.3859348827
 30
0.0
 11
281.4811444032
 21
190.6359348827
 31
0.0
  0
LINE
  5
1D7
330
1F
100
AcDbEntity
  8
0
  6
Continuous
 62
     7
370
    15
100
AcDbLine
 10
280.4111444032
 20
197.1809348827
 30
0.0
 11
280.4111444032
 21
190.8409348827
 31
0.0
  0
LINE
  5
1D8
330
1F
100
AcDbEntity
  8
0
  6
Continuous
 62
     7
370
    15
100
AcDbLine
 10
283.8811444032
 20
197.9161535184
 30
0.0
 11
282.8011444032
 21
197.9161535184
 31
0.0
  0
LINE
  5
1D9
330
1F
100
AcDbEntity
  8
0
  6
Continuous
 62
     7
370
    15
100
AcDbLine
 10
282.8011444032
 20
197.9161535184
 30
0.0
 11
282.8011444032
 21
195.6143300032
 31
0.0
  0
LINE
  5
1DA
330
1F
100
AcDbEntity
  8
0
  6
Continuous
 62
     7
370
    15
100
AcDbLine
 10
283.8811444032
 20
197.9161535184
 30
0.0
 11
283.8811444032
 21
195.6143300032
 31
0.0
  0
LINE
  5
1DB
330
1F
100
AcDbEntity
  8
0
  6
Continuous
 62
     7
370
    15
100
AcDbLine
 10
279.8211444032
 20
195.6404031519
 30
0.0
 11
278.9011444032
 21
195.6404031519
 31
0.0
  0
LINE
  5
1DC
330
1F
100
AcDbEntity
  8
0
  6
Continuous
 62
     7
370
    15
100
AcDbLine
 10
279.8211444032
 20
195.6404031519
 30
0.0
 11
279.8211444032
 21
195.4684044378
 31
0.0
  0
LINE
  5
1DD
330
1F
100
AcDbEntity
  8
0
  6
Continuous
 62
     7
370
    15
100
AcDbLine
 10
279.8211444032
 20
197.7659154643
 30
0.0
 11
278.9011444032
 21
197.7659154643
 31
0.0
  0
LINE
  5
1DE
330
1F
100
AcDbEntity
  8
0
  6
Continuous
 62
     7
370
    15
100
AcDbLine
 10
279.8211444032
 20
197.7659154643
 30
0.0
 11
279.8211444032
 21
195.6404031519
 31
0.0
  0
LINE
  5
1DF
330
1F
100
AcDbEntity
  8
0
  6
Continuous
 62
     7
370
    15
100
AcDbLine
 10
283.8811444032
 20
190.105716247
 30
0.0
 11
282.8011444032
 21
190.105716247
 31
0.0
  0
LINE
  5
1E0
330
1F
100
AcDbEntity
  8
0
  6
Continuous
 62
     7
370
    15
100
AcDbLine
 10
282.8011444032
 20
191.7091113675
 30
0.0
 11
282.8011444032
 21
190.105716247
 31
0.0
  0
LINE
  5
1E1
330
1F
100
AcDbEntity
  8
0
  6
Continuous
 62
     7
370
    15
100
AcDbLine
 10
283.8811444032
 20
191.7091113675
 30
0.0
 11
283.8811444032
 21
190.105716247
 31
0.0
  0
LINE
  5
1E2
330
1F
100
AcDbEntity
  8
0
  6
Continuous
 62
     7
370
    15
100
AcDbLine
 10
279.8211444032
 20
191.7134231727
 30
0.0
 11
278.9011444032
 21
191.7134231727
 31
0.0
  0
LINE
  5
1E3
330
1F
100
AcDbEntity
  8
0
  6
Continuous
 62
     7
370
    15
100
AcDbLine
 10
279.8211444032
 20
191.8659491327
 30
0.0
 11
279.8211444032
 21
191.7134231727
 31
0.0
  0
LINE
  5
1E4
330
1F
100
AcDbEntity
  8
0
  6
Continuous
 62
     7
370
    15
100
AcDbLine
 10
279.8211444032
 20
190.2364791963
 30
0.0
 11
278.9011444032
 21
190.2364791963
 31
0.0
  0
LINE
  5
1E5
330
1F
100
AcDbEntity
  8
0
  6
Continuous
 62
     7
370
    15
100
AcDbLine
 10
279.8211444032
 20
191.7134231727
 30
0.0
 11
279.8211444032
 21
190.2364791963
 31
0.0
  0
LINE
  5
1E6
330
1F
100
AcDbEntity
  8
0
  6
Continuous
 62
     7
370
    15
100
AcDbLine
 10
279.8211444032
 20
197.7853905691
 30
0.0
 11
278.9011444032
 21
197.7853905691
 31
0.0
  0
LINE
  5
1E7
330
1F
100
AcDbEntity
  8
0
  6
Continuous
 62
     7
370
    15
100
AcDbLine
 10
279.8211444032
 20
197.7853905691
 30
0.0
 11
279.8211444032
 21
197.7659154643
 31
0.0
  0
LINE
  5
1E8
330
1F
100
AcDbEntity
  8
0
  6
Continuous
 62
     7
370
    15
100
AcDbLine
 10
268.4611444032
 20
181.9109348827
 30
0.0
 11
268.4611444032
 21
107.3109348827
 31
0.0
  0
LINE
  5
1E9
330
1F
100
AcDbEntity
  8
0
  6
Continuous
 62
     7
370
    15
100
AcDbLine
 10
268.4611444032
 20
181.9109348827
 30
0.0
 11
268.7439871157
 21
181.9109348827
 31
0.0
  0
LINE
  5
1EA
330
1F
100
AcDbEntity
  8
0
  6
Continuous
 62
     7
370
    15
100
AcDbLine
 10
268.7611444032
 20
181.9109348827
 30
0.0
 11
268.7611444032
 21
107.3109348827
 31
0.0
  0
LINE
  5
1EB
330
1F
100
AcDbEntity
  8
0
  6
Continuous
 62
     7
370
    15
100
AcDbLine
 10
261.0611444032
 20
181.9109348827
 30
0.0
 11
261.0611444032
 21
107.3109348827
 31
0.0
  0
LINE
  5
1EC
330
1F
100
AcDbEntity
  8
0
  6
Continuous
 62
     7
370
    15
100
AcDbLine
 10
261.0611444032
 20
181.9109348827
 30
0.0
 11
268.4611444032
 21
181.9109348827
 31
0.0
  0
LINE
  5
1ED
330
1F
100
AcDbEntity
  8
0
  6
Continuous
 62
     7
370
    15
100
AcDbLine
 10
260.7611444032
 20
181.9109348827
 30
0.0
 11
260.7611444032
 21
107.3109348827
 31
0.0
  0
LINE
  5
1EE
330
1F
100
AcDbEntity
  8
0
  6
Continuous
 62
     7
370
    15
100
AcDbLine
 10
260.7783016907
 20
181.9109348827
 30
0.0
 11
261.0611444032
 21
181.9109348827
 31
0.0
  0
LINE
  5
1EF
330
1F
100
AcDbEntity
  8
0
  6
Continuous
 62
     7
370
    15
100
AcDbLine
 10
143.2611444032
 20
181.9109348827
 30
0.0
 11
143.2611444032
 21
107.3109348827
 31
0.0
  0
LINE
  5
1F0
330
1F
100
AcDbEntity
  8
0
  6
Continuous
 62
     7
370
    15
100
AcDbLine
 10
143.2611444032
 20
181.9109348827
 30
0.0
 11
150.6611444032
 21
181.9109348827
 31
0.0
  0
LINE
  5
1F1
330
1F
100
AcDbEntity
  8
0
  6
Continuous
 62
     7
370
    15
100
AcDbLine
 10
150.6611444032
 20
181.9109348827
 30
0.0
 11
150.6611444032
 21
107.3109348827
 31
0.0
  0
LINE
  5
1F2
330
1F
100
AcDbEntity
  8
0
  6
Continuous
 62
     7
370
    15
100
AcDbLine
 10
150.6611444032
 20
181.9109348827
 30
0.0
 11
150.9439871157
 21
181.9109348827
 31
0.0
  0
LINE
  5
1F3
330
1F
100
AcDbEntity
  8
0
  6
Continuous
 62
     7
370
    15
100
AcDbLine
 10
150.9611444032
 20
181.9109348827
 30
0.0
 11
150.9611444032
 21
107.3109348827
 31
0.0
  0
LINE
  5
1F4
330
1F
100
AcDbEntity
  8
0
  6
Continuous
 62
     7
370
    15
100
AcDbLine
 10
142.9611444032
 20
181.9109348827
 30
0.0
 11
142.9611444032
 21
107.3109348827
 31
0.0
  0
LINE
  5
1F5
330
1F
100
AcDbEntity
  8
0
  6
Continuous
 62
     7
370
    15
100
AcDbLine
 10
142.9783016907
 20
181.9109348827
 30
0.0
 11
143.2611444032
 21
181.9109348827
 31
0.0
  0
LINE
  5
1F6
330
1F
100
AcDbEntity
  8
0
  6
Continuous
 62
     7
370
    15
100
AcDbLine
 10
135.4611444032
 20
181.9109348827
 30
0.0
 11
138.6011444032
 21
181.9109348827
 31
0.0
  0
LINE
  5
1F7
330
1F
100
AcDbEntity
  8
0
  6
Continuous
 62
     7
370
    15
100
AcDbLine
 10
154.6211444032
 20
181.9109348827
 30
0.0
 11
154.6211444032
 21
182.2509348827
 31
0.0
  0
LINE
  5
1F8
330
1F
100
AcDbEntity
  8
0
  6
Continuous
 62
     7
370
    15
100
AcDbLine
 10
154.1211444032
 20
181.9109348827
 30
0.0
 11
154.6211444032
 21
181.9109348827
 31
0.0
  0
LINE
  5
1F9
330
1F
100
AcDbEntity
  8
0
  6
Continuous
 62
     7
370
    15
100
AcDbLine
 10
155.3211444032
 20
181.9109348827
 30
0.0
 11
158.4611444032
 21
181.9109348827
 31
0.0
  0
LINE
  5
1FA
330
1F
100
AcDbEntity
  8
0
  6
Continuous
 62
     7
370
    15
100
AcDbLine
 10
139.8011444032
 20
181.9109348827
 30
0.0
 11
142.9783016907
 21
181.9109348827
 31
0.0
  0
LINE
  5
1FB
330
1F
100
AcDbEntity
  8
0
  6
Continuous
 62
     7
370
    15
100
AcDbLine
 10
150.9439871157
 20
181.9109348827
 30
0.0
 11
154.1211444032
 21
181.9109348827
 31
0.0
  0
LINE
  5
1FC
330
1F
100
AcDbEntity
  8
0
  6
Continuous
 62
     7
370
    15
100
AcDbLine
 10
154.8211444032
 20
181.9109348827
 30
0.0
 11
154.8211444032
 21
182.2509348827
 31
0.0
  0
LINE
  5
1FD
330
1F
100
AcDbEntity
  8
0
  6
Continuous
 62
     7
370
    15
100
AcDbLine
 10
154.8211444032
 20
181.9109348827
 30
0.0
 11
155.3211444032
 21
181.9109348827
 31
0.0
  0
LINE
  5
1FE
330
1F
100
AcDbEntity
  8
0
  6
Continuous
 62
     7
370
    15
100
AcDbLine
 10
158.9611444032
 20
181.9109348827
 30
0.0
 11
158.9611444032
 21
182.2509348827
 31
0.0
  0
LINE
  5
1FF
330
1F
100
AcDbEntity
  8
0
  6
Continuous
 62
     7
370
    15
100
AcDbLine
 10
158.4611444032
 20
181.9109348827
 30
0.0
 11
158.9611444032
 21
181.9109348827
 31
0.0
  0
LINE
  5
200
330
1F
100
AcDbEntity
  8
0
  6
Continuous
 62
     7
370
    15
100
AcDbLine
 10
134.9611444032
 20
181.9109348827
 30
0.0
 11
134.9611444032
 21
182.2509348827
 31
0.0
  0
LINE
  5
201
330
1F
100
AcDbEntity
  8
0
  6
Continuous
 62
     7
370
    15
100
AcDbLine
 10
134.9611444032
 20
181.9109348827
 30
0.0
 11
135.4611444032
 21
181.9109348827
 31
0.0
  0
LINE
  5
202
330
1F
100
AcDbEntity
  8
0
  6
Continuous
 62
     7
370
    15
100
AcDbLine
 10
139.3011444032
 20
181.9109348827
 30
0.0
 11
139.3011444032
 21
182.2509348827
 31
0.0
  0
LINE
  5
203
330
1F
100
AcDbEntity
  8
0
  6
Continuous
 62
     7
370
    15
100
AcDbLine
 10
139.3011444032
 20
181.9109348827
 30
0.0
 11
139.8011444032
 21
181.9109348827
 31
0.0
  0
LINE
  5
204
330
1F
100
AcDbEntity
  8
0
  6
Continuous
 62
     7
370
    15
100
AcDbLine
 10
139.1011444032
 20
181.9109348827
 30
0.0
 11
139.1011444032
 21
182.2509348827
 31
0.0
  0
LINE
  5
205
330
1F
100
AcDbEntity
  8
0
  6
Continuous
 62
     7
370
    15
100
AcDbLine
 10
138.6011444032
 20
181.9109348827
 30
0.0
 11
139.1011444032
 21
181.9109348827
 31
0.0
  0
LINE
  5
206
330
1F
100
AcDbEntity
  8
0
  6
Continuous
 62
     7
370
    15
100
AcDbLine
 10
154.6211444032
 20
181.9109348827
 30
0.0
 11
154.8211444032
 21
181.9109348827
 31
0.0
  0
LINE
  5
207
330
1F
100
AcDbEntity
  8
0
  6
Continuous
 62
     7
370
    15
100
AcDbLine
 10
139.1011444032
 20
181.9109348827
 30
0.0
 11
139.3011444032
 21
181.9109348827
 31
0.0
  0
LINE
  5
208
330
1F
100
AcDbEntity
  8
0
  6
Continuous
 62
     7
370
    15
100
AcDbLine
 10
252.7611444032
 20
181.9109348827
 30
0.0
 11
253.2611444032
 21
181.9109348827
 31
0.0
  0
LINE
  5
209
330
1F
100
AcDbEntity
  8
0
  6
Continuous
 62
     7
370
    15
100
AcDbLine
 10
252.7611444032
 20
181.9109348827
 30
0.0
 11
252.7611444032
 21
182.2509348827
 31
0.0
  0
LINE
  5
20A
330
1F
100
AcDbEntity
  8
0
  6
Continuous
 62
     7
370
    15
100
AcDbLine
 10
276.7611444032
 20
181.9109348827
 30
0.0
 11
276.7611444032
 21
182.2509348827
 31
0.0
  0
LINE
  5
20B
330
1F
100
AcDbEntity
  8
0
  6
Continuous
 62
     7
370
    15
100
AcDbLine
 10
276.2611444032
 20
181.9109348827
 30
0.0
 11
276.7611444032
 21
181.9109348827
 31
0.0
  0
LINE
  5
20C
330
1F
100
AcDbEntity
  8
0
  6
Continuous
 62
     7
370
    15
100
AcDbLine
 10
272.6211444032
 20
181.9109348827
 30
0.0
 11
273.1211444032
 21
181.9109348827
 31
0.0
  0
LINE
  5
20D
330
1F
100
AcDbEntity
  8
0
  6
Continuous
 62
     7
370
    15
100
AcDbLine
 10
272.6211444032
 20
181.9109348827
 30
0.0
 11
272.6211444032
 21
182.2509348827
 31
0.0
  0
LINE
  5
20E
330
1F
100
AcDbEntity
  8
0
  6
Continuous
 62
     7
370
    15
100
AcDbLine
 10
257.6011444032
 20
181.9109348827
 30
0.0
 11
260.7783016907
 21
181.9109348827
 31
0.0
  0
LINE
  5
20F
330
1F
100
AcDbEntity
  8
0
  6
Continuous
 62
     7
370
    15
100
AcDbLine
 10
268.7439871157
 20
181.9109348827
 30
0.0
 11
271.9211444032
 21
181.9109348827
 31
0.0
  0
LINE
  5
210
330
1F
100
AcDbEntity
  8
0
  6
Continuous
 62
     7
370
    15
100
AcDbLine
 10
273.1211444032
 20
181.9109348827
 30
0.0
 11
276.2611444032
 21
181.9109348827
 31
0.0
  0
LINE
  5
211
330
1F
100
AcDbEntity
  8
0
  6
Continuous
 62
     7
370
    15
100
AcDbLine
 10
272.4211444032
 20
181.9109348827
 30
0.0
 11
272.4211444032
 21
182.2509348827
 31
0.0
  0
LINE
  5
212
330
1F
100
AcDbEntity
  8
0
  6
Continuous
 62
     7
370
    15
100
AcDbLine
 10
271.9211444032
 20
181.9109348827
 30
0.0
 11
272.4211444032
 21
181.9109348827
 31
0.0
  0
LINE
  5
213
330
1F
100
AcDbEntity
  8
0
  6
Continuous
 62
     7
370
    15
100
AcDbLine
 10
253.2611444032
 20
181.9109348827
 30
0.0
 11
256.4011444032
 21
181.9109348827
 31
0.0
  0
LINE
  5
214
330
1F
100
AcDbEntity
  8
0
  6
Continuous
 62
     7
370
    15
100
AcDbLine
 10
257.1011444032
 20
181.9109348827
 30
0.0
 11
257.1011444032
 21
182.2509348827
 31
0.0
  0
LINE
  5
215
330
1F
100
AcDbEntity
  8
0
  6
Continuous
 62
     7
370
    15
100
AcDbLine
 10
257.1011444032
 20
181.9109348827
 30
0.0
 11
257.6011444032
 21
181.9109348827
 31
0.0
  0
LINE
  5
216
330
1F
100
AcDbEntity
  8
0
  6
Continuous
 62
     7
370
    15
100
AcDbLine
 10
256.9011444032
 20
181.9109348827
 30
0.0
 11
256.9011444032
 21
182.2509348827
 31
0.0
  0
LINE
  5
217
330
1F
100
AcDbEntity
  8
0
  6
Continuous
 62
     7
370
    15
100
AcDbLine
 10
256.4011444032
 20
181.9109348827
 30
0.0
 11
256.9011444032
 21
181.9109348827
 31
0.0
  0
LINE
  5
218
330
1F
100
AcDbEntity
  8
0
  6
Continuous
 62
     7
370
    15
100
AcDbLine
 10
256.9011444032
 20
181.9109348827
 30
0.0
 11
257.1011444032
 21
181.9109348827
 31
0.0
  0
LINE
  5
219
330
1F
100
AcDbEntity
  8
0
  6
Continuous
 62
     7
370
    15
100
AcDbLine
 10
272.4211444032
 20
181.9109348827
 30
0.0
 11
272.6211444032
 21
181.9109348827
 31
0.0
  0
LINE
  5
21A
330
1F
100
AcDbEntity
  8
0
  6
Continuous
 62
     7
370
    15
100
AcDbLine
 10
127.1225586167
 20
106.9009348827
 30
0.0
 11
127.1225586167
 21
100.1109348827
 31
0.0
  0
LINE
  5
21B
330
1F
100
AcDbEntity
  8
0
  6
Continuous
 62
     7
370
    15
100
AcDbLine
 10
127.1225586167
 20
106.9009348827
 30
0.0
 11
278.7997301896
 21
106.9009348827
 31
0.0
  0
LINE
  5
21C
330
1F
100
AcDbEntity
  8
0
  6
Continuous
 62
     7
370
    15
100
AcDbLine
 10
278.7997301896
 20
106.9009348827
 30
0.0
 11
278.7997301896
 21
100.1109348827
 31
0.0
  0
LINE
  5
21D
330
1F
100
AcDbEntity
  8
0
  6
Continuous
 62
     7
370
    15
100
AcDbLine
 10
127.1225586167
 20
100.1109348827
 30
0.0
 11
278.7997301896
 21
100.1109348827
 31
0.0
  0
SPLINE
  5
21E
330
1F
100
AcDbEntity
  8
0
  6
Continuous
 62
     7
370
    15
100
AcDbSpline
210
0.0
220
0.0
230
1.0
 70
     8
 71
     3
 72
    12
 73
     8
 74
     0
 42
0.00000001
 43
0.00000001
 12
1.0
 22
0.0
 32
0.0
 13
1.0
 23
0.0
 33
0.0
 40
0.0
 40
0.0
 40
0.0
 40
0.0
 40
0.2301693782020074
 40
0.4604221642956732
 40
0.6906753391241653
 40
0.9209283614222149
 40
1.0
 40
1.0
 40
1.0
 40
1.0
 10
278.5511444031763
 20
107.3109348826938
 30
0.0
 10
278.5702223161271
 20
107.305719421035
 30
0.0
 10
278.6083850554091
 20
107.2952866077585
 30
0.0
 10
278.6656434039288
 20
107.2143446108167
 30
0.0
 10
278.7228664299359
 20
107.0967390396653
 30
0.0
 10
278.7676893914179
 20
106.9839341104989
 30
0.0
 10
278.7932071655319
 20
106.9178322757752
 30
0.0
 10
278.7997301896139
 20
106.9009348826938
 30
0.0
  0
SPLINE
  5
21F
330
1F
100
AcDbEntity
  8
0
  6
Continuous
 62
     7
370
    15
100
AcDbSpline
210
0.0
220
0.0
230
1.0
 70
     8
 71
     3
 72
    12
 73
     8
 74
     0
 42
0.00000001
 43
0.00000001
 12
1.0
 22
0.0
 32
0.0
 13
1.0
 23
0.0
 33
0.0
 40
0.0
 40
0.0
 40
0.0
 40
0.0
 40
0.2301693782020118
 40
0.4604221642957276
 40
0.6906753391241991
 40
0.9209283614222908
 40
0.9999999999999999
 40
0.9999999999999999
 40
0.9999999999999999
 40
0.9999999999999999
 10
127.1225586167387
 20
106.9009348826938
 30
0.0
 10
127.1416365296894
 20
106.9503506205061
 30
0.0
 10
127.1797992689715
 20
107.049200003215
 30
0.0
 10
127.2370576174912
 20
107.1784254374355
 30
0.0
 10
127.2942806434983
 20
107.271214696673
 30
0.0
 10
127.3391036049803
 20
107.3077766328247
 30
0.0
 10
127.3646213790943
 20
107.3102919105735
 30
0.0
 10
127.3711444031763
 20
107.3109348826938
 30
0.0
  0
LINE
  5
220
330
1F
100
AcDbEntity
  8
0
  6
Continuous
 62
     7
370
    15
100
AcDbLine
 10
127.3711444032
 20
107.3109348827
 30
0.0
 11
278.5511444032
 21
107.3109348827
 31
0.0
  0
SPLINE
  5
221
330
1F
100
AcDbEntity
  8
0
  6
Continuous
 62
     7
370
    15
100
AcDbSpline
210
0.0
220
0.0
230
1.0
 70
     8
 71
     3
 72
    12
 73
     8
 74
     0
 42
0.00000001
 43
0.00000001
 12
1.0
 22
0.0
 32
0.0
 13
1.0
 23
0.0
 33
0.0
 40
0.0
 40
0.0
 40
0.0
 40
0.0
 40
0.2301693782020393
 40
0.4604221642957327
 40
0.6906753391242084
 40
0.9209283614223246
 40
1.0
 40
1.0
 40
1.0
 40
1.0
 10
127.3711444031763
 20
107.3109348826938
 30
0.0
 10
127.3217286653641
 20
107.305719421035
 30
0.0
 10
127.2228792826551
 20
107.2952866077585
 30
0.0
 10
127.0936538484346
 20
107.2143446108166
 30
0.0
 10
127.0008645891971
 20
107.0967390396652
 30
0.0
 10
126.9643026530454
 20
106.9839341104989
 30
0.0
 10
126.9617873752966
 20
106.9178322757752
 30
0.0
 10
126.9611444031763
 20
106.9009348826938
 30
0.0
  0
SPLINE
  5
222
330
1F
100
AcDbEntity
  8
0
  6
Continuous
 62
     7
370
    15
100
AcDbSpline
210
0.0
220
0.0
230
1.0
 70
     8
 71
     3
 72
    10
 73
     6
 74
     0
 42
0.00000001
 43
0.00000001
 12
1.0
 22
0.0
 32
0.0
 13
1.0
 23
0.0
 33
0.0
 40
0.0
 40
0.0
 40
0.0
 40
0.0
 40
0.0100960544488994
 40
0.5229169126793068
 40
1.0
 40
1.0
 40
1.0
 40
1.0
 10
127.1935396007772
 20
107.0763381074115
 30
0.0
 10
127.1930002549763
 20
107.0759722627822
 30
0.0
 10
127.1650652787417
 20
107.0570236383433
 30
0.0
 10
127.1329834264038
 20
106.9941632074583
 30
0.0
 10
127.1249946060926
 20
106.9312539352878
 30
0.0
 10
127.1211444031763
 20
106.9009348826938
 30
0.0
  0
LINE
  5
223
330
1F
100
AcDbEntity
  8
0
  6
Continuous
 62
     7
370
    15
100
AcDbLine
 10
126.9611444032
 20
106.9009348827
 30
0.0
 11
127.1211444032
 21
106.9009348827
 31
0.0
  0
LINE
  5
224
330
1F
100
AcDbEntity
  8
0
  6
Continuous
 62
     7
370
    15
100
AcDbLine
 10
278.9611444032
 20
106.9009348827
 30
0.0
 11
278.8011444032
 21
106.9009348827
 31
0.0
  0
SPLINE
  5
225
330
1F
100
AcDbEntity
  8
0
  6
Continuous
 62
     7
370
    15
100
AcDbSpline
210
0.0
220
0.0
230
1.0
 70
     8
 71
     3
 72
     9
 73
     5
 74
     0
 42
0.00000001
 43
0.00000001
 12
1.0
 22
0.0
 32
0.0
 13
1.0
 23
0.0
 33
0.0
 40
0.0
 40
0.0
 40
0.0
 40
0.0
 40
0.5275152947322092
 40
1.0
 40
1.0
 40
1.0
 40
1.0
 10
278.8011444031763
 20
106.9009348826938
 30
0.0
 10
278.7977720295921
 20
106.9346966216929
 30
0.0
 10
278.7913790896756
 20
106.9986980626677
 30
0.0
 10
278.7505930301365
 20
107.0481748384991
 30
0.0
 10
278.7313222408162
 20
107.0715518583454
 30
0.0
  0
SPLINE
  5
226
330
1F
100
AcDbEntity
  8
0
  6
Continuous
 62
     7
370
    15
100
AcDbSpline
210
0.0
220
0.0
230
1.0
 70
     8
 71
     3
 72
    12
 73
     8
 74
     0
 42
0.00000001
 43
0.00000001
 12
1.0
 22
0.0
 32
0.0
 13
1.0
 23
0.0
 33
0.0
 40
0.0
 40
0.0
 40
0.0
 40
0.0
 40
0.2301693782020394
 40
0.4604221642957212
 40
0.690675339124197
 40
0.9209283614222885
 40
0.9999999999999999
 40
0.9999999999999999
 40
0.9999999999999999
 40
0.9999999999999999
 10
278.9611444031763
 20
106.9009348826938
 30
0.0
 10
278.9559289415175
 20
106.9503506205061
 30
0.0
 10
278.945496128241
 20
107.049200003215
 30
0.0
 10
278.8645541312991
 20
107.1784254374355
 30
0.0
 10
278.7469485601478
 20
107.271214696673
 30
0.0
 10
278.6341436309813
 20
107.3077766328246
 30
0.0
 10
278.5680417962577
 20
107.3102919105735
 30
0.0
 10
278.5511444031763
 20
107.3109348826938
 30
0.0
  0
LINE
  5
227
330
1F
100
AcDbEntity
  8
0
  6
Continuous
 62
     7
370
    15
100
AcDbLine
 10
126.9611444032
 20
106.9009348827
 30
0.0
 11
126.9611444032
 21
100.1109348827
 31
0.0
  0
LINE
  5
228
330
1F
100
AcDbEntity
  8
0
  6
Continuous
 62
     7
370
    15
100
AcDbLine
 10
126.9611444032
 20
100.1109348827
 30
0.0
 11
127.1211444032
 21
100.1109348827
 31
0.0
  0
LINE
  5
229
330
1F
100
AcDbEntity
  8
0
  6
Continuous
 62
     7
370
    15
100
AcDbLine
 10
127.1211444032
 20
106.9009348827
 30
0.0
 11
127.1211444032
 21
100.1109348827
 31
0.0
  0
LINE
  5
22A
330
1F
100
AcDbEntity
  8
0
  6
Continuous
 62
     7
370
    15
100
AcDbLine
 10
278.9611444032
 20
106.9009348827
 30
0.0
 11
278.9611444032
 21
100.1109348827
 31
0.0
  0
LINE
  5
22B
330
1F
100
AcDbEntity
  8
0
  6
Continuous
 62
     7
370
    15
100
AcDbLine
 10
278.8011444032
 20
106.9009348827
 30
0.0
 11
278.8011444032
 21
100.1109348827
 31
0.0
  0
LINE
  5
22C
330
1F
100
AcDbEntity
  8
0
  6
Continuous
 62
     7
370
    15
100
AcDbLine
 10
278.9611444032
 20
100.1109348827
 30
0.0
 11
278.8011444032
 21
100.1109348827
 31
0.0
  0
LINE
  5
22D
330
1F
100
AcDbEntity
  8
0
  6
Continuous
 62
     7
370
    15
100
AcDbLine
 10
274.4597301896
 20
99.7009348827
 30
0.0
 11
274.4597301896
 21
99.1509348827
 31
0.0
  0
LINE
  5
22E
330
1F
100
AcDbEntity
  8
0
  6
Continuous
 62
     7
370
    15
100
AcDbLine
 10
137.2625586167
 20
99.1509348827
 30
0.0
 11
274.4597301896
 21
99.1509348827
 31
0.0
  0
LINE
  5
22F
330
1F
100
AcDbEntity
  8
0
  6
Continuous
 62
     7
370
    15
100
AcDbLine
 10
137.2625586167
 20
99.1509348827
 30
0.0
 11
137.2625586167
 21
99.7009348827
 31
0.0
  0
LINE
  5
230
330
1F
100
AcDbEntity
  8
0
  6
Continuous
 62
     7
370
    15
100
AcDbLine
 10
137.2625586167
 20
99.7009348827
 30
0.0
 11
274.4597301896
 21
99.7009348827
 31
0.0
  0
LINE
  5
231
330
1F
100
AcDbEntity
  8
0
  6
Continuous
 62
     7
370
    15
100
AcDbLine
 10
274.4597301896
 20
100.1109348827
 30
0.0
 11
274.4597301896
 21
99.7009348827
 31
0.0
  0
LINE
  5
232
330
1F
100
AcDbEntity
  8
0
  6
Continuous
 62
     7
370
    15
100
AcDbLine
 10
137.2625586167
 20
100.1109348827
 30
0.0
 11
137.2625586167
 21
99.7009348827
 31
0.0
  0
LINE
  5
233
330
1F
100
AcDbEntity
  8
0
  6
Continuous
 62
     7
370
    15
100
AcDbLine
 10
137.2611444032
 20
99.4509348827
 30
0.0
 11
136.9611444032
 21
99.4509348827
 31
0.0
  0
LINE
  5
234
330
1F
100
AcDbEntity
  8
0
  6
Continuous
 62
     7
370
    15
100
AcDbLine
 10
136.9611444032
 20
99.4509348827
 30
0.0
 11
136.9611444032
 21
100.1109348827
 31
0.0
  0
LINE
  5
235
330
1F
100
AcDbEntity
  8
0
  6
Continuous
 62
     7
370
    15
100
AcDbLine
 10
137.2611444032
 20
100.1109348827
 30
0.0
 11
137.2611444032
 21
99.4509348827
 31
0.0
  0
LINE
  5
236
330
1F
100
AcDbEntity
  8
0
  6
Continuous
 62
     7
370
    15
100
AcDbLine
 10
274.4611444032
 20
99.4509348827
 30
0.0
 11
274.7611444032
 21
99.4509348827
 31
0.0
  0
LINE
  5
237
330
1F
100
AcDbEntity
  8
0
  6
Continuous
 62
     7
370
    15
100
AcDbLine
 10
274.4611444032
 20
100.1109348827
 30
0.0
 11
274.4611444032
 21
99.4509348827
 31
0.0
  0
LINE
  5
238
330
1F
100
AcDbEntity
  8
0
  6
Continuous
 62
     7
370
    15
100
AcDbLine
 10
274.7611444032
 20
100.1109348827
 30
0.0
 11
274.7611444032
 21
99.4509348827
 31
0.0
  0
ARC
  5
239
330
1F
100
AcDbEntity
  8
0
  6
Continuous
 62
     7
370
    15
100
AcDbCircle
 10
137.5111444032
 20
99.7009348827
 30
0.0
 40
0.5500000000000032
100
AcDbArc
 50
207.0356917894
 51
243.1295854597
  0
LINE
  5
23A
330
1F
100
AcDbEntity
  8
0
  6
Continuous
 62
     7
370
    15
100
AcDbLine
 10
137.2611444032
 20
99.7009348827
 30
0.0
 11
137.2625586167
 21
99.6743810359
 31
0.0
  0
ARC
  5
23B
330
1F
100
AcDbEntity
  8
0
  6
Continuous
 62
     7
370
    15
100
AcDbCircle
 10
274.2111444032
 20
99.7009348827
 30
0.0
 40
0.5500000000000405
100
AcDbArc
 50
296.8704145403
 51
332.9643082106
  0
LINE
  5
23C
330
1F
100
AcDbEntity
  8
0
  6
Continuous
 62
     7
370
    15
100
AcDbLine
 10
274.4597301896
 20
99.6743810359
 30
0.0
 11
274.4611444032
 21
99.7009348827
 31
0.0
  0
LINE
  5
23D
330
1F
100
AcDbEntity
  8
0
  6
Continuous
 62
     7
370
    15
100
AcDbLine
 10
134.6652035181
 20
242.3709348827
 30
0.0
 11
268.0611444032
 21
242.3709348827
 31
0.0
  0
LINE
  5
23E
330
1F
100
AcDbEntity
  8
0
  6
Continuous
 62
     7
370
    15
100
AcDbLine
 10
268.2211444032
 20
242.3709348827
 30
0.0
 11
268.2411444032
 21
242.3709348827
 31
0.0
  0
SPLINE
  5
23F
330
1F
100
AcDbEntity
  8
0
  6
Continuous
 62
     7
370
    15
100
AcDbSpline
210
0.0
220
0.0
230
1.0
 70
     8
 71
     3
 72
    12
 73
     8
 74
     0
 42
0.00000001
 43
0.00000001
 12
1.0
 22
0.0
 32
0.0
 13
1.0
 23
0.0
 33
0.0
 40
0.0
 40
0.0
 40
0.0
 40
0.0
 40
0.2286702771456267
 40
0.4574139526360868
 40
0.6861579520288372
 40
0.914901766662677
 40
1.0
 40
1.0
 40
1.0
 40
1.0
 10
278.4711444031777
 20
241.9609348826944
 30
0.0
 10
278.4891279434432
 20
242.0100293666085
 30
0.0
 10
278.525100796312
 20
242.1082340927325
 30
0.0
 10
278.5790726299915
 20
242.2368672330003
 30
0.0
 10
278.6330122490999
 20
242.3297007658157
 30
0.0
 10
278.6757738697264
 20
242.3674567405971
 30
0.0
 10
278.7003409159442
 20
242.3701929577455
 30
0.0
 10
278.7070022675539
 20
242.3709348826943
 30
0.0
  0
LINE
  5
240
330
1F
100
AcDbEntity
  8
0
  6
Continuous
 62
     7
370
    15
100
AcDbLine
 10
278.4711444032
 20
241.9609348827
 30
0.0
 11
134.6652035181
 21
241.9609348827
 31
0.0
  0
LINE
  5
241
330
1F
100
AcDbEntity
  8
0
  6
Continuous
 62
     7
370
    15
100
AcDbLine
 10
134.6652035181
 20
242.3709348827
 30
0.0
 11
134.6652035181
 21
241.9609348827
 31
0.0
  0
LINE
  5
242
330
1F
100
AcDbEntity
  8
0
  6
Continuous
 62
     7
370
    15
100
AcDbLine
 10
278.7070022676
 20
242.2109348827
 30
0.0
 11
278.7070022676
 21
242.3709348827
 31
0.0
  0
SPLINE
  5
243
330
1F
100
AcDbEntity
  8
0
  6
Continuous
 62
     7
370
    15
100
AcDbSpline
210
0.0
220
0.0
230
1.0
 70
     8
 71
     3
 72
    11
 73
     7
 74
     0
 42
0.00000001
 43
0.00000001
 12
1.0
 22
0.0
 32
0.0
 13
1.0
 23
0.0
 33
0.0
 40
0.0
 40
0.0
 40
0.0
 40
0.0
 40
0.2506688637244481
 40
0.5014856490565072
 40
0.7523028878588098
 40
1.0
 40
1.0
 40
1.0
 40
1.0
 10
278.4711444031777
 20
241.9609348826943
 30
0.0
 10
278.490852317884
 20
241.9937823909421
 30
0.0
 10
278.5302797770874
 20
242.0594967910027
 30
0.0
 10
278.5894265975419
 20
242.1423066689744
 30
0.0
 10
278.6483426486046
 20
242.1998187158824
 30
0.0
 10
278.687530818867
 20
242.2072449870634
 30
0.0
 10
278.7070022675539
 20
242.2109348826943
 30
0.0
  0
LWPOLYLINE
  5
244
330
1F
100
AcDbEntity
  8
0
  6
Continuous
 62
     7
370
    15
100
AcDbPolyline
 90
        2
 70
   128
 43
0.0
 10
278.4711444032
 20
241.9609348827
 10
278.4711444032
 20
241.9609348827
  0
SPLINE
  5
245
330
1F
100
AcDbEntity
  8
0
  6
Continuous
 62
     7
370
    15
100
AcDbSpline
210
0.0
220
0.0
230
1.0
 70
     8
 71
     3
 72
    13
 73
     9
 74
     0
 42
0.00000001
 43
0.00000001
 12
1.0
 22
0.0
 32
0.0
 13
1.0
 23
0.0
 33
0.0
 40
0.0
 40
0.0
 40
0.0
 40
0.0
 40
0.1330478401410428
 40
0.2602238743594041
 40
0.3825047709054051
 40
0.5009893838709957
 40
0.7078648130030929
 40
1.0
 40
1.0
 40
1.0
 40
1.0
 10
278.8811444031776
 20
242.1967927470705
 30
0.0
 10
278.8791353258931
 20
242.1950115375396
 30
0.0
 10
278.8752058380161
 20
242.191527728673
 30
0.0
 10
278.845354228758
 20
242.1772347567094
 30
0.0
 10
278.802916494698
 20
242.1563566721044
 30
0.0
 10
278.7371691506146
 20
242.1207525437751
 30
0.0
 10
278.6292850386941
 20
242.0548261692706
 30
0.0
 10
278.5295387521659
 20
241.9956047860837
 30
0.0
 10
278.4711444031777
 20
241.9609348826943
 30
0.0
  0
LINE
  5
246
330
1F
100
AcDbEntity
  8
0
  6
Continuous
 62
     7
370
    15
100
AcDbLine
 10
278.8811444032
 20
242.1967927471
 30
0.0
 11
278.8811444032
 21
235.0250770183
 31
0.0
  0
SPLINE
  5
247
330
1F
100
AcDbEntity
  8
0
  6
Continuous
 62
     7
370
    15
100
AcDbSpline
210
0.0
220
0.0
230
1.0
 70
     8
 71
     3
 72
    12
 73
     8
 74
     0
 42
0.00000001
 43
0.00000001
 12
1.0
 22
0.0
 32
0.0
 13
1.0
 23
0.0
 33
0.0
 40
0.0
 40
0.0
 40
0.0
 40
0.0
 40
0.2912204059397373
 40
0.5021886909891272
 40
0.7234157650035183
 40
0.8546288606970808
 40
1.0
 40
1.0
 40
1.0
 40
1.0
 10
278.4711444031777
 20
235.2609348826942
 30
0.0
 10
278.5289925250469
 20
235.2261012586784
 30
0.0
 10
278.6287474598151
 20
235.1660331738529
 30
0.0
 10
278.7556475777357
 20
235.0892442584209
 30
0.0
 10
278.8333244710904
 20
235.0540147274124
 30
0.0
 10
278.8742280954926
 20
235.0348367119963
 30
0.0
 10
278.8787616120362
 20
235.0284394065602
 30
0.0
 10
278.8811444031776
 20
235.025077018318
 30
0.0
  0
LINE
  5
248
330
1F
100
AcDbEntity
  8
0
  6
Continuous
 62
     7
370
    15
100
AcDbLine
 10
278.4711444032
 20
235.2609348827
 30
0.0
 11
278.4711444032
 21
241.9609348827
 31
0.0
  0
LINE
  5
249
330
1F
100
AcDbEntity
  8
0
  6
Continuous
 62
     7
370
    15
100
AcDbLine
 10
133.6544579628
 20
231.8416647817
 30
0.0
 11
133.5367412525
 21
231.5709348827
 31
0.0
  0
LINE
  5
24A
330
1F
100
AcDbEntity
  8
0
  6
Continuous
 62
     7
370
    15
100
AcDbLine
 10
133.5810931569
 20
231.8735647072
 30
0.0
 11
133.6544579628
 21
231.8416647817
 31
0.0
  0
LINE
  5
24B
330
1F
100
AcDbEntity
  8
0
  6
Continuous
 62
     7
370
    15
100
AcDbLine
 10
133.5491932314
 20
231.8001999013
 30
0.0
 11
133.5810931569
 21
231.8735647072
 31
0.0
  0
LINE
  5
24C
330
1F
100
AcDbEntity
  8
0
  6
Continuous
 62
     7
370
    15
100
AcDbLine
 10
130.8897190157
 20
232.9565722012
 30
0.0
 11
133.5491932314
 21
231.8001999013
 31
0.0
  0
LINE
  5
24D
330
1F
100
AcDbEntity
  8
0
  6
Continuous
 62
     7
370
    15
100
AcDbLine
 10
130.9216189412
 20
233.0299370071
 30
0.0
 11
130.8897190157
 21
232.9565722012
 31
0.0
  0
LINE
  5
24E
330
1F
100
AcDbEntity
  8
0
  6
Continuous
 62
     7
370
    15
100
AcDbLine
 10
130.8482541352
 20
233.0618369326
 30
0.0
 11
130.9216189412
 21
233.0299370071
 31
0.0
  0
LINE
  5
24F
330
1F
100
AcDbEntity
  8
0
  6
Continuous
 62
     7
370
    15
100
AcDbLine
 10
130.7166669425
 20
232.7592071081
 30
0.0
 11
130.8482541352
 21
233.0618369326
 31
0.0
  0
LINE
  5
250
330
1F
100
AcDbEntity
  8
0
  6
Continuous
 62
     7
370
    15
100
AcDbLine
 10
128.5586735185
 20
233.6975293539
 30
0.0
 11
130.7166669425
 21
232.7592071081
 31
0.0
  0
ARC
  5
251
330
1F
100
AcDbEntity
  8
0
  6
Continuous
 62
     7
370
    15
100
AcDbCircle
 10
130.3211444032
 20
237.7509348827
 30
0.0
 40
4.420000000000016
100
AcDbArc
 50
90.0
 51
246.5
  0
LINE
  5
252
330
1F
100
AcDbEntity
  8
0
  6
Continuous
 62
     7
370
    15
100
AcDbLine
 10
134.5851880101
 20
242.1709348827
 30
0.0
 11
130.3211444032
 21
242.1709348827
 31
0.0
  0
LINE
  5
253
330
1F
100
AcDbEntity
  8
0
  6
Continuous
 62
     7
370
    15
100
AcDbLine
 10
134.5851880101
 20
241.9209233612
 30
0.0
 11
134.5851880101
 21
242.1709348827
 31
0.0
  0
LINE
  5
254
330
1F
100
AcDbEntity
  8
0
  6
Continuous
 62
     7
370
    15
100
AcDbLine
 10
134.5852035181
 20
241.9209233612
 30
0.0
 11
134.5851880101
 21
241.9209233612
 31
0.0
  0
LINE
  5
255
330
1F
100
AcDbEntity
  8
0
  6
Continuous
 62
     7
370
    15
100
AcDbLine
 10
134.5852035181
 20
241.8809348827
 30
0.0
 11
134.5852035181
 21
241.9209233612
 31
0.0
  0
LINE
  5
256
330
1F
100
AcDbEntity
  8
0
  6
Continuous
 62
     7
370
    15
100
AcDbLine
 10
134.6652035181
 20
241.8809348827
 30
0.0
 11
134.5852035181
 21
241.8809348827
 31
0.0
  0
LINE
  5
257
330
1F
100
AcDbEntity
  8
0
  6
Continuous
 62
     7
370
    15
100
AcDbLine
 10
134.6652035181
 20
241.9609348827
 30
0.0
 11
134.6652035181
 21
241.8809348827
 31
0.0
  0
LINE
  5
258
330
1F
100
AcDbEntity
  8
0
  6
Continuous
 62
     7
370
    15
100
AcDbLine
 10
137.4628532261
 20
235.2609348827
 30
0.0
 11
278.4711444032
 21
235.2609348827
 31
0.0
  0
LINE
  5
259
330
1F
100
AcDbEntity
  8
0
  6
Continuous
 62
     7
370
    15
100
AcDbLine
 10
137.4628532261
 20
235.3409348827
 30
0.0
 11
137.4628532261
 21
235.2609348827
 31
0.0
  0
LINE
  5
25A
330
1F
100
AcDbEntity
  8
0
  6
Continuous
 62
     7
370
    15
100
AcDbLine
 10
137.3828532261
 20
235.3409348827
 30
0.0
 11
137.4628532261
 21
235.3409348827
 31
0.0
  0
LINE
  5
25B
330
1F
100
AcDbEntity
  8
0
  6
Continuous
 62
     7
370
    15
100
AcDbLine
 10
137.3828532261
 20
233.2509348827
 30
0.0
 11
137.3828532261
 21
235.3409348827
 31
0.0
  0
LINE
  5
25C
330
1F
100
AcDbEntity
  8
0
  6
Continuous
 62
     7
370
    15
100
AcDbLine
 10
137.0428532261
 20
233.2509348827
 30
0.0
 11
137.3828532261
 21
233.2509348827
 31
0.0
  0
LINE
  5
25D
330
1F
100
AcDbEntity
  8
0
  6
Continuous
 62
     7
370
    15
100
AcDbLine
 10
137.0428532261
 20
233.1709348827
 30
0.0
 11
137.0428532261
 21
233.2509348827
 31
0.0
  0
LINE
  5
25E
330
1F
100
AcDbEntity
  8
0
  6
Continuous
 62
     7
370
    15
100
AcDbLine
 10
137.1228532261
 20
233.1709348827
 30
0.0
 11
137.0428532261
 21
233.1709348827
 31
0.0
  0
LINE
  5
25F
330
1F
100
AcDbEntity
  8
0
  6
Continuous
 62
     7
370
    15
100
AcDbLine
 10
137.1228532261
 20
231.5709348827
 30
0.0
 11
137.1228532261
 21
233.1709348827
 31
0.0
  0
LINE
  5
260
330
1F
100
AcDbEntity
  8
0
  6
Continuous
 62
     7
370
    15
100
AcDbLine
 10
133.5367412525
 20
231.5709348827
 30
0.0
 11
133.85331224
 21
231.5709348827
 31
0.0
  0
ARC
  5
261
330
1F
100
AcDbEntity
  8
0
  6
Continuous
 62
     7
370
    15
100
AcDbCircle
 10
132.9191444032
 20
235.8144772502
 30
0.0
 40
0.0480000000000146
100
AcDbArc
 50
80.1349202027
 51
180.0
  0
LINE
  5
262
330
1F
100
AcDbEntity
  8
0
  6
Continuous
 62
     7
370
    15
100
AcDbLine
 10
132.8711444032
 20
235.8144772502
 30
0.0
 11
132.8711444032
 21
235.8104167859
 31
0.0
  0
ARC
  5
263
330
1F
100
AcDbEntity
  8
0
  6
Continuous
 62
     7
370
    15
100
AcDbCircle
 10
132.9191444032
 20
235.8104167859
 30
0.0
 40
0.0480000000000201
100
AcDbArc
 50
180.0
 51
260.0647455693
  0
ARC
  5
264
330
1F
100
AcDbEntity
  8
0
  6
Continuous
 62
     7
370
    15
100
AcDbCircle
 10
132.8211444032
 20
235.2509348827
 30
0.0
 40
0.5200000000000085
100
AcDbArc
 50
279.9352544307
 51
80.0647455693
  0
ARC
  5
265
330
1F
100
AcDbEntity
  8
0
  6
Continuous
 62
     7
370
    15
100
AcDbCircle
 10
132.9191444032
 20
234.6914529795
 30
0.0
 40
0.0480000000000201
100
AcDbArc
 50
99.9352544307
 51
180.0
  0
LINE
  5
266
330
1F
100
AcDbEntity
  8
0
  6
Continuous
 62
     7
370
    15
100
AcDbLine
 10
132.8711444032
 20
234.6914529795
 30
0.0
 11
132.8711444032
 21
234.6873925152
 31
0.0
  0
ARC
  5
267
330
1F
100
AcDbEntity
  8
0
  6
Continuous
 62
     7
370
    15
100
AcDbCircle
 10
132.9191444032
 20
234.6873925152
 30
0.0
 40
0.0480000000000426
100
AcDbArc
 50
180.0
 51
279.8650797973
  0
ARC
  5
268
330
1F
100
AcDbEntity
  8
0
  6
Continuous
 62
     7
370
    15
100
AcDbCircle
 10
132.8211444032
 20
235.2509348827
 30
0.0
 40
0.6200000000000483
100
AcDbArc
 50
279.8650797973
 51
80.1349202027
  0
ARC
  5
269
330
1F
100
AcDbEntity
  8
0
  6
Continuous
 62
     7
370
    15
100
AcDbCircle
 10
132.7231444032
 20
234.6914529795
 30
0.0
 40
0.0480000000000201
100
AcDbArc
 50
0.0
 51
80.0647455693
  0
ARC
  5
26A
330
1F
100
AcDbEntity
  8
0
  6
Continuous
 62
     7
370
    15
100
AcDbCircle
 10
132.8211444032
 20
235.2509348827
 30
0.0
 40
0.5200000000000133
100
AcDbArc
 50
99.9352544307
 51
260.0647455693
  0
ARC
  5
26B
330
1F
100
AcDbEntity
  8
0
  6
Continuous
 62
     7
370
    15
100
AcDbCircle
 10
132.7231444032
 20
235.8104167859
 30
0.0
 40
0.0480000000000201
100
AcDbArc
 50
279.9352544307
 51
0.0
  0
LINE
  5
26C
330
1F
100
AcDbEntity
  8
0
  6
Continuous
 62
     7
370
    15
100
AcDbLine
 10
132.7711444032
 20
235.8104167859
 30
0.0
 11
132.7711444032
 21
235.8144772502
 31
0.0
  0
ARC
  5
26D
330
1F
100
AcDbEntity
  8
0
  6
Continuous
 62
     7
370
    15
100
AcDbCircle
 10
132.7231444032
 20
235.8144772502
 30
0.0
 40
0.0480000000000146
100
AcDbArc
 50
0.0
 51
99.8650797973
  0
ARC
  5
26E
330
1F
100
AcDbEntity
  8
0
  6
Continuous
 62
     7
370
    15
100
AcDbCircle
 10
132.8211444032
 20
235.2509348827
 30
0.0
 40
0.6200000000000532
100
AcDbArc
 50
99.8650797973
 51
260.1349202027
  0
ARC
  5
26F
330
1F
100
AcDbEntity
  8
0
  6
Continuous
 62
     7
370
    15
100
AcDbCircle
 10
132.7231444032
 20
234.6873925152
 30
0.0
 40
0.0480000000000426
100
AcDbArc
 50
260.1349202027
 51
0.0
  0
LINE
  5
270
330
1F
100
AcDbEntity
  8
0
  6
Continuous
 62
     7
370
    15
100
AcDbLine
 10
132.7711444032
 20
234.6873925152
 30
0.0
 11
132.7711444032
 21
234.6914529795
 31
0.0
  0
SPLINE
  5
271
330
1F
100
AcDbEntity
  8
0
  6
Continuous
 62
     7
370
    15
100
AcDbSpline
210
0.0
220
0.0
230
1.0
 70
     8
 71
     3
 72
    13
 73
     9
 74
     0
 42
0.00000001
 43
0.00000001
 12
1.0
 22
0.0
 32
0.0
 13
1.0
 23
0.0
 33
0.0
 40
0.0
 40
0.0
 40
0.0
 40
0.0
 40
0.1204594496068315
 40
0.2374747966600968
 40
0.3532657556911806
 40
0.4701227165281964
 40
0.6853795372238776
 40
1.0
 40
1.0
 40
1.0
 40
1.0
 10
278.7211444031776
 20
242.1967927470705
 30
0.0
 10
278.7199028966621
 20
242.1949988771863
 30
0.0
 10
278.7174553800223
 20
242.1914624266431
 30
0.0
 10
278.6990060045372
 20
242.176990650223
 30
0.0
 10
278.6728477028669
 20
242.1558597883037
 30
0.0
 10
278.632001308004
 20
242.1194765880644
 30
0.0
 10
278.5661571971486
 20
242.0533924448714
 30
0.0
 10
278.506541737678
 20
241.9953802570349
 30
0.0
 10
278.4711444031777
 20
241.9609348826943
 30
0.0
  0
LINE
  5
272
330
1F
100
AcDbEntity
  8
0
  6
Continuous
 62
     7
370
    15
100
AcDbLine
 10
278.8811444032
 20
242.1967927471
 30
0.0
 11
278.7211444032
 21
242.1967927471
 31
0.0
  0
SPLINE
  5
273
330
1F
100
AcDbEntity
  8
0
  6
Continuous
 62
     7
370
    15
100
AcDbSpline
210
0.0
220
0.0
230
1.0
 70
     8
 71
     3
 72
    12
 73
     8
 74
     0
 42
0.00000001
 43
0.00000001
 12
1.0
 22
0.0
 32
0.0
 13
1.0
 23
0.0
 33
0.0
 40
0.0
 40
0.0
 40
0.0
 40
0.0
 40
0.2286697549032175
 40
0.4574134284524202
 40
0.6861574263647175
 40
0.9149012395109815
 40
1.0
 40
1.0
 40
1.0
 40
1.0
 10
278.7070022675539
 20
234.8509348826943
 30
0.0
 10
278.6890187687403
 20
234.8560821123426
 30
0.0
 10
278.6530459578566
 20
234.8663782355072
 30
0.0
 10
278.5990741648033
 20
234.9463006748335
 30
0.0
 10
278.5451345457236
 20
235.0625739416333
 30
0.0
 10
278.5023728838175
 20
235.1756745293307
 30
0.0
 10
278.4778057961373
 20
235.2427478717995
 30
0.0
 10
278.4711444031777
 20
235.2609348826943
 30
0.0
  0
SPLINE
  5
274
330
1F
100
AcDbEntity
  8
0
  6
Continuous
 62
     7
370
    15
100
AcDbSpline
210
0.0
220
0.0
230
1.0
 70
     8
 71
     3
 72
    11
 73
     7
 74
     0
 42
0.00000001
 43
0.00000001
 12
1.0
 22
0.0
 32
0.0
 13
1.0
 23
0.0
 33
0.0
 40
0.0
 40
0.0
 40
0.0
 40
0.0
 40
0.2506719719564377
 40
0.5014887651676776
 40
0.7523060046713395
 40
1.0
 40
1.0
 40
1.0
 40
1.0
 10
278.7070022675539
 20
235.0109348826942
 30
0.0
 10
278.6872941054876
 20
235.0147136331481
 30
0.0
 10
278.6478663953162
 20
235.0222733171615
 30
0.0
 10
278.5887193328613
 20
235.0804210854474
 30
0.0
 10
278.5298035232399
 20
235.1631648193805
 30
0.0
 10
278.4906156038922
 20
235.2284812672184
 30
0.0
 10
278.4711444031777
 20
235.2609348826943
 30
0.0
  0
LINE
  5
275
330
1F
100
AcDbEntity
  8
0
  6
Continuous
 62
     7
370
    15
100
AcDbLine
 10
278.7070022676
 20
235.0109348827
 30
0.0
 11
278.7070022676
 21
234.8509348827
 31
0.0
  0
LINE
  5
276
330
1F
100
AcDbEntity
  8
0
  6
Continuous
 62
     7
370
    15
100
AcDbLine
 10
137.4628532261
 20
234.8509348827
 30
0.0
 11
278.7070022676
 21
234.8509348827
 31
0.0
  0
LINE
  5
277
330
1F
100
AcDbEntity
  8
0
  6
Continuous
 62
     7
370
    15
100
AcDbLine
 10
137.4628532261
 20
235.2609348827
 30
0.0
 11
137.4628532261
 21
234.8509348827
 31
0.0
  0
LINE
  5
278
330
1F
100
AcDbEntity
  8
0
  6
Continuous
 62
     7
370
    15
100
AcDbLine
 10
278.8811444032
 20
235.0250770183
 30
0.0
 11
278.7211444032
 21
235.0250770183
 31
0.0
  0
SPLINE
  5
279
330
1F
100
AcDbEntity
  8
0
  6
Continuous
 62
     7
370
    15
100
AcDbSpline
210
0.0
220
0.0
230
1.0
 70
     8
 71
     3
 72
    13
 73
     9
 74
     0
 42
0.00000001
 43
0.00000001
 12
1.0
 22
0.0
 32
0.0
 13
1.0
 23
0.0
 33
0.0
 40
0.0
 40
0.0
 40
0.0
 40
0.0
 40
0.3143795868283986
 40
0.5331113678151245
 40
0.6355749479033362
 40
0.7465525790643318
 40
0.8676238374966091
 40
1.0
 40
1.0
 40
1.0
 40
1.0
 10
278.4711444031777
 20
235.2609348826942
 30
0.0
 10
278.5061793129336
 20
235.2263484547127
 30
0.0
 10
278.5655900044794
 20
235.1676982792509
 30
0.0
 10
278.6306724759
 20
235.1030289212468
 30
0.0
 10
278.6708317521248
 20
235.0695769368569
 30
0.0
 10
278.6968213735647
 20
235.0503387948068
 30
0.0
 10
278.7168914630743
 20
235.0348754932136
 30
0.0
 10
278.7196852184248
 20
235.0284388773664
 30
0.0
 10
278.7211444031776
 20
235.025077018318
 30
0.0
  0
LINE
  5
27A
330
1F
100
AcDbEntity
  8
0
  6
Continuous
 62
     7
370
    15
100
AcDbLine
 10
137.3828532261
 20
231.5709348827
 30
0.0
 11
137.3828532261
 21
233.1709348827
 31
0.0
  0
LINE
  5
27B
330
1F
100
AcDbEntity
  8
0
  6
Continuous
 62
     7
370
    15
100
AcDbLine
 10
137.1228532261
 20
233.1709348827
 30
0.0
 11
137.3828532261
 21
233.1709348827
 31
0.0
  0
LINE
  5
27C
330
1F
100
AcDbEntity
  8
0
  6
Continuous
 62
     7
370
    15
100
AcDbLine
 10
130.7262318974
 20
232.5805775707
 30
0.0
 11
133.3857061131
 21
231.4242052708
 31
0.0
  0
LINE
  5
27D
330
1F
100
AcDbEntity
  8
0
  6
Continuous
 62
     7
370
    15
100
AcDbLine
 10
130.7262318974
 20
232.5805775707
 30
0.0
 11
130.8897190157
 21
232.9565722012
 31
0.0
  0
LINE
  5
27E
330
1F
100
AcDbEntity
  8
0
  6
Continuous
 62
     7
370
    15
100
AcDbLine
 10
133.5491932314
 20
231.8001999013
 30
0.0
 11
133.3857061131
 21
231.4242052708
 31
0.0
  0
LINE
  5
27F
330
1F
100
AcDbEntity
  8
0
  6
Continuous
 62
     7
370
    15
100
AcDbLine
 10
134.5652035181
 20
242.3709348827
 30
0.0
 11
134.6652035181
 21
242.3709348827
 31
0.0
  0
LINE
  5
280
330
1F
100
AcDbEntity
  8
0
  6
Continuous
 62
     7
370
    15
100
AcDbLine
 10
134.5652035181
 20
242.2109348827
 30
0.0
 11
134.6652035181
 21
242.2109348827
 31
0.0
  0
LINE
  5
281
330
1F
100
AcDbEntity
  8
0
  6
Continuous
 62
     7
370
    15
100
AcDbLine
 10
134.5652035181
 20
242.1709348827
 30
0.0
 11
134.5652035181
 21
242.3709348827
 31
0.0
  0
LINE
  5
282
330
1F
100
AcDbEntity
  8
0
  6
Continuous
 62
     7
370
    15
100
AcDbLine
 10
130.3118418175
 20
242.3709348827
 30
0.0
 11
134.5652035181
 21
242.3709348827
 31
0.0
  0
LINE
  5
283
330
1F
100
AcDbEntity
  8
0
  6
Continuous
 62
     7
370
    15
100
AcDbLine
 10
128.5493709328
 20
233.6575293539
 30
0.0
 11
128.4536711563
 21
233.4374349361
 31
0.0
  0
LINE
  5
284
330
1F
100
AcDbEntity
  8
0
  6
Continuous
 62
     7
370
    15
100
AcDbLine
 10
130.3367114837
 20
232.6186656991
 30
0.0
 11
128.4536711563
 21
233.4374349361
 31
0.0
  0
LINE
  5
285
330
1F
100
AcDbEntity
  8
0
  6
Continuous
 62
     7
370
    15
100
AcDbLine
 10
130.4324112603
 20
232.838760117
 30
0.0
 11
130.3367114837
 21
232.6186656991
 31
0.0
  0
LINE
  5
286
330
1F
100
AcDbEntity
  8
0
  6
Continuous
 62
     7
370
    15
100
AcDbLine
 10
130.4324112603
 20
232.838760117
 30
0.0
 11
128.5493709328
 21
233.6575293539
 31
0.0
  0
ARC
  5
287
330
1F
100
AcDbEntity
  8
0
  6
Continuous
 62
     7
370
    15
100
AcDbCircle
 10
130.3118418175
 20
237.7109348827
 30
0.0
 40
4.659999999999997
100
AcDbArc
 50
90.0
 51
246.5
  0
ARC
  5
288
330
1F
100
AcDbEntity
  8
0
  6
Continuous
 62
     7
370
    15
100
AcDbCircle
 10
130.3118418175
 20
237.7109348827
 30
0.0
 40
4.420000000000035
100
AcDbArc
 50
166.6418348628
 51
246.5
  0
LWPOLYLINE
  5
289
330
1F
100
AcDbEntity
  8
0
  6
Continuous
 62
     7
370
    15
100
AcDbPolyline
 90
        3
 70
   128
 43
0.0
 10
268.0611444032
 20
242.3876968069
 10
268.0199169837
 20
242.3757385626
 10
267.9711444032
 20
242.3709348827
  0
LINE
  5
28A
330
1F
100
AcDbEntity
  8
0
  6
Continuous
 62
     7
370
    15
100
AcDbLine
 10
268.2211444032
 20
244.6109348827
 30
0.0
 11
268.2411444032
 21
244.6109348827
 31
0.0
  0
LINE
  5
28B
330
1F
100
AcDbEntity
  8
0
  6
Continuous
 62
     7
370
    15
100
AcDbLine
 10
268.2411444032
 20
245.7542999428
 30
0.0
 11
268.2411444032
 21
242.3670994088
 31
0.0
  0
ARC
  5
28C
330
1F
100
AcDbEntity
  8
0
  6
Continuous
 62
     7
370
    15
100
AcDbCircle
 10
273.2211444032
 20
245.7542999428
 30
0.0
 40
4.980000000000018
100
AcDbArc
 50
105.0
 51
180.0
  0
LINE
  5
28D
330
1F
100
AcDbEntity
  8
0
  6
Continuous
 62
     7
370
    15
100
AcDbLine
 10
278.5664396419
 20
252.3422428638
 30
0.0
 11
271.9322255586
 21
250.5646105577
 31
0.0
  0
LINE
  5
28E
330
1F
100
AcDbEntity
  8
0
  6
Continuous
 62
     7
370
    15
100
AcDbLine
 10
278.5664396419
 20
252.1268259146
 30
0.0
 11
278.5664396419
 21
252.3422428638
 31
0.0
  0
LINE
  5
28F
330
1F
100
AcDbEntity
  8
0
  6
Continuous
 62
     7
370
    15
100
AcDbLine
 10
278.6511444032
 20
252.1268259146
 30
0.0
 11
278.5664396419
 21
252.1268259146
 31
0.0
  0
LINE
  5
290
330
1F
100
AcDbEntity
  8
0
  6
Continuous
 62
     7
370
    15
100
AcDbLine
 10
278.6511444032
 20
242.3670994088
 30
0.0
 11
278.6511444032
 21
252.1268259146
 31
0.0
  0
LINE
  5
291
330
1F
100
AcDbEntity
  8
0
  6
Continuous
 62
     7
370
    15
100
AcDbLine
 10
268.2411444032
 20
242.3670994088
 30
0.0
 11
278.6511444032
 21
242.3670994088
 31
0.0
  0
LINE
  5
292
330
1F
100
AcDbEntity
  8
0
  6
Continuous
 62
     7
370
    15
100
AcDbLine
 10
279.0611444032
 20
242.3670994088
 30
0.0
 11
278.6511444032
 21
242.3670994088
 31
0.0
  0
LINE
  5
293
330
1F
100
AcDbEntity
  8
0
  6
Continuous
 62
     7
370
    15
100
AcDbLine
 10
278.6511444032
 20
252.1268259146
 30
0.0
 11
278.9761059394
 21
252.1268259146
 31
0.0
  0
LINE
  5
294
330
1F
100
AcDbEntity
  8
0
  6
Continuous
 62
     7
370
    15
100
AcDbLine
 10
279.0611444032
 20
252.1268259146
 30
0.0
 11
279.0611444032
 21
242.3670994088
 31
0.0
  0
LINE
  5
295
330
1F
100
AcDbEntity
  8
0
  6
Continuous
 62
     7
370
    15
100
AcDbLine
 10
278.9011444032
 20
242.2870994088
 30
0.0
 11
279.0611444032
 21
242.2870994088
 31
0.0
  0
LINE
  5
296
330
1F
100
AcDbEntity
  8
0
  6
Continuous
 62
     7
370
    15
100
AcDbLine
 10
279.0611444032
 20
236.7126322579
 30
0.0
 11
279.0611444032
 21
242.2870994088
 31
0.0
  0
LINE
  5
297
330
1F
100
AcDbEntity
  8
0
  6
Continuous
 62
     7
370
    15
100
AcDbLine
 10
278.9011444032
 20
236.7126322579
 30
0.0
 11
279.0611444032
 21
236.7126322579
 31
0.0
  0
LINE
  5
298
330
1F
100
AcDbEntity
  8
0
  6
Continuous
 62
     7
370
    15
100
AcDbLine
 10
278.9011444032
 20
236.7126322579
 30
0.0
 11
278.9011444032
 21
242.2870994088
 31
0.0
  0
ARC
  5
299
330
1F
100
AcDbEntity
  8
0
  6
Continuous
 62
     7
370
    15
100
AcDbCircle
 10
273.2211444032
 20
245.7542999428
 30
0.0
 40
5.160000000000025
100
AcDbArc
 50
105.0
 51
180.0
  0
LINE
  5
29A
330
1F
100
AcDbEntity
  8
0
  6
Continuous
 62
     7
370
    15
100
AcDbLine
 10
271.8856381304
 20
250.7384772065
 30
0.0
 11
271.9270491777
 21
250.5839290742
 31
0.0
  0
ARC
  5
29B
330
1F
100
AcDbEntity
  8
0
  6
Continuous
 62
     7
370
    15
100
AcDbCircle
 10
273.2211444032
 20
245.7542999428
 30
0.0
 40
5.000000000000028
100
AcDbArc
 50
105.0
 51
180.0
  0
LINE
  5
29C
330
1F
100
AcDbEntity
  8
0
  6
Continuous
 62
     7
370
    15
100
AcDbLine
 10
268.2211444032
 20
245.7542999428
 30
0.0
 11
268.0611444032
 21
245.7542999428
 31
0.0
  0
ARC
  5
29D
330
1F
100
AcDbEntity
  8
0
  6
Continuous
 62
     7
370
    15
100
AcDbCircle
 10
278.6511444032
 20
252.1268259146
 30
0.0
 40
0.4100000000000488
100
AcDbArc
 50
0.0
 51
105.0
  0
LINE
  5
29E
330
1F
100
AcDbEntity
  8
0
  6
Continuous
 62
     7
370
    15
100
AcDbLine
 10
278.5864396419
 20
252.3683073712
 30
0.0
 11
278.5450285947
 21
252.5228555034
 31
0.0
  0
LINE
  5
29F
330
1F
100
AcDbEntity
  8
0
  6
Continuous
 62
     7
370
    15
100
AcDbLine
 10
279.0611444032
 20
252.1268259146
 30
0.0
 11
278.9761059394
 21
252.1268259146
 31
0.0
  0
ARC
  5
2A0
330
1F
100
AcDbEntity
  8
0
  6
Continuous
 62
     7
370
    15
100
AcDbCircle
 10
278.6511444032
 20
252.1268259146
 30
0.0
 40
0.250000000000015
100
AcDbArc
 50
0.0
 51
105.0
  0
LINE
  5
2A1
330
1F
100
AcDbEntity
  8
0
  6
Continuous
 62
     7
370
    15
100
AcDbLine
 10
278.5450285947
 20
252.5228555034
 30
0.0
 11
271.8856381304
 21
250.7384772065
 31
0.0
  0
LINE
  5
2A2
330
1F
100
AcDbEntity
  8
0
  6
Continuous
 62
     7
370
    15
100
AcDbLine
 10
278.5864396419
 20
252.3683073712
 30
0.0
 11
271.9270491777
 21
250.5839290742
 31
0.0
  0
LINE
  5
2A3
330
1F
100
AcDbEntity
  8
0
  6
Continuous
 62
     7
370
    15
100
AcDbLine
 10
279.0611444032
 20
235.7126322579
 30
0.0
 11
278.9011444032
 21
235.7126322579
 31
0.0
  0
LINE
  5
2A4
330
1F
100
AcDbEntity
  8
0
  6
Continuous
 62
     7
370
    15
100
AcDbLine
 10
279.0611444032
 20
236.7126322579
 30
0.0
 11
279.0611444032
 21
235.7126322579
 31
0.0
  0
LINE
  5
2A5
330
1F
100
AcDbEntity
  8
0
  6
Continuous
 62
     7
370
    15
100
AcDbLine
 10
278.9011444032
 20
235.7126322579
 30
0.0
 11
278.9011444032
 21
236.7126322579
 31
0.0
  0
LINE
  5
2A6
330
1F
100
AcDbEntity
  8
0
  6
Continuous
 62
     7
370
    15
100
AcDbLine
 10
268.0611444032
 20
245.7542999428
 30
0.0
 11
268.0611444032
 21
242.3709348827
 31
0.0
  0
LINE
  5
2A7
330
1F
100
AcDbEntity
  8
0
  6
Continuous
 62
     7
370
    15
100
AcDbLine
 10
268.2211444032
 20
242.3709348827
 30
0.0
 11
268.0611444032
 21
242.3709348827
 31
0.0
  0
LINE
  5
2A8
330
1F
100
AcDbEntity
  8
0
  6
Continuous
 62
     7
370
    15
100
AcDbLine
 10
268.2211444032
 20
245.7542999428
 30
0.0
 11
268.2211444032
 21
242.3709348827
 31
0.0
  0
LINE
  5
2A9
330
1F
100
AcDbEntity
  8
0
  6
Continuous
 62
     7
370
    15
100
AcDbLine
 10
279.0611444032
 20
242.2870994088
 30
0.0
 11
279.0611444032
 21
242.3670994088
 31
0.0
  0
LINE
  5
2AA
330
1F
100
AcDbEntity
  8
0
  6
Continuous
 62
     7
370
    15
100
AcDbLine
 10
278.9011444032
 20
242.3670994088
 30
0.0
 11
278.9011444032
 21
242.2870994088
 31
0.0
  0
SPLINE
  5
2AB
330
1F
100
AcDbEntity
  8
0
  6
Continuous
 62
     7
370
    15
100
AcDbSpline
210
0.0
220
0.0
230
1.0
 70
     8
 71
     3
 72
     9
 73
     5
 74
     0
 42
0.00000001
 43
0.00000001
 12
1.0
 22
0.0
 32
0.0
 13
1.0
 23
0.0
 33
0.0
 40
0.0
 40
0.0
 40
0.0
 40
0.0
 40
0.5350969381941706
 40
1.0
 40
1.0
 40
1.0
 40
1.0
 10
137.0911444031765
 20
206.8409348826943
 30
0.0
 10
137.1118598853797
 20
206.8953652292596
 30
0.0
 10
137.150573398249
 20
206.997085763765
 30
0.0
 10
137.1892869111184
 20
207.0764863852342
 30
0.0
 10
137.2072849417846
 20
207.1133999772645
 30
0.0
  0
LINE
  5
2AC
330
1F
100
AcDbEntity
  8
0
  6
Continuous
 62
     7
370
    15
100
AcDbLine
 10
126.1511444032
 20
206.8409348827
 30
0.0
 11
137.0911444032
 21
206.8409348827
 31
0.0
  0
SPLINE
  5
2AD
330
1F
100
AcDbEntity
  8
0
  6
Continuous
 62
     7
370
    15
100
AcDbSpline
210
0.0
220
0.0
230
1.0
 70
     8
 71
     3
 72
     9
 73
     5
 74
     0
 42
0.00000001
 43
0.00000001
 12
1.0
 22
0.0
 32
0.0
 13
1.0
 23
0.0
 33
0.0
 40
0.0
 40
0.0
 40
0.0
 40
0.0
 40
0.4649030618059089
 40
1.0
 40
1.0
 40
1.0
 40
1.0
 10
126.1577516805613
 20
207.1133999772645
 30
0.0
 10
126.1567277660658
 20
207.0764863852342
 30
0.0
 10
126.1545253402709
 20
206.997085763765
 30
0.0
 10
126.152322914476
 20
206.8953652292596
 30
0.0
 10
126.1511444031765
 20
206.8409348826943
 30
0.0
  0
SPLINE
  5
2AE
330
1F
100
AcDbEntity
  8
0
  6
Continuous
 62
     7
370
    15
100
AcDbSpline
210
0.0
220
0.0
230
1.0
 70
     8
 71
     3
 72
    12
 73
     8
 74
     0
 42
0.00000001
 43
0.00000001
 12
1.0
 22
0.0
 32
0.0
 13
1.0
 23
0.0
 33
0.0
 40
0.0
 40
0.0
 40
0.0
 40
0.0
 40
0.230169378201986
 40
0.4604221642956765
 40
0.6906753391241612
 40
0.9209283614222593
 40
0.9999999999999999
 40
0.9999999999999999
 40
0.9999999999999999
 40
0.9999999999999999
 10
137.3397301896142
 20
182.2509348826943
 30
0.0
 10
137.3206522766635
 20
182.2561503443531
 30
0.0
 10
137.2824895373814
 20
182.2665831576296
 30
0.0
 10
137.2252311888618
 20
182.3475251545714
 30
0.0
 10
137.1680081628546
 20
182.4651307257228
 30
0.0
 10
137.1231852013727
 20
182.5779356548892
 30
0.0
 10
137.0976674272586
 20
182.6440374896129
 30
0.0
 10
137.0911444031766
 20
182.6609348826943
 30
0.0
  0
LINE
  5
2AF
330
1F
100
AcDbEntity
  8
0
  6
Continuous
 62
     7
370
    15
100
AcDbLine
 10
137.3397301896
 20
182.2509348827
 30
0.0
 11
126.1794286744
 21
182.2509348827
 31
0.0
  0
SPLINE
  5
2B0
330
1F
100
AcDbEntity
  8
0
  6
Continuous
 62
     7
370
    15
100
AcDbSpline
210
0.0
220
0.0
230
1.0
 70
     8
 71
     3
 72
    11
 73
     7
 74
     0
 42
0.00000001
 43
0.00000001
 12
1.0
 22
0.0
 32
0.0
 13
1.0
 23
0.0
 33
0.0
 40
0.0
 40
0.0
 40
0.0
 40
0.0
 40
0.2500000000000002
 40
0.4999999999999973
 40
0.7499999999999986
 40
1.0
 40
1.0
 40
1.0
 40
1.0
 10
126.1511444031766
 20
182.6609348826937
 30
0.0
 10
126.1535014257806
 20
182.6072096947332
 30
0.0
 10
126.1582154709884
 20
182.4997593188122
 30
0.0
 10
126.1652865388003
 20
182.3642358946026
 30
0.0
 10
126.1723576066122
 20
182.2694237172226
 30
0.0
 10
126.1770716518201
 20
182.257097827537
 30
0.0
 10
126.179428674424
 20
182.2509348826942
 30
0.0
  0
LINE
  5
2B1
330
1F
100
AcDbEntity
  8
0
  6
Continuous
 62
     7
370
    15
100
AcDbLine
 10
126.1511444032
 20
182.6609348827
 30
0.0
 11
137.0911444032
 21
182.6609348827
 31
0.0
  0
LINE
  5
2B2
330
1F
100
AcDbEntity
  8
0
  6
Continuous
 62
     7
370
    15
100
AcDbLine
 10
125.7411444032
 20
206.8409348827
 30
0.0
 11
126.1511444032
 21
206.8409348827
 31
0.0
  0
LINE
  5
2B3
330
1F
100
AcDbEntity
  8
0
  6
Continuous
 62
     7
370
    15
100
AcDbLine
 10
126.1511444032
 20
182.6609348827
 30
0.0
 11
126.1511444032
 21
206.8409348827
 31
0.0
  0
LINE
  5
2B4
330
1F
100
AcDbEntity
  8
0
  6
Continuous
 62
     7
370
    15
100
AcDbLine
 10
126.1511444032
 20
182.6609348827
 30
0.0
 11
125.7411444032
 21
182.6609348827
 31
0.0
  0
LINE
  5
2B5
330
1F
100
AcDbEntity
  8
0
  6
Continuous
 62
     7
370
    15
100
AcDbLine
 10
125.7411444032
 20
182.6609348827
 30
0.0
 11
125.7411444032
 21
206.8409348827
 31
0.0
  0
LINE
  5
2B6
330
1F
100
AcDbEntity
  8
0
  6
Continuous
 62
     7
370
    15
100
AcDbLine
 10
137.0911444032
 20
182.6609348827
 30
0.0
 11
137.0911444032
 21
206.8409348827
 31
0.0
  0
SPLINE
  5
2B7
330
1F
100
AcDbEntity
  8
0
  6
Continuous
 62
     7
370
    15
100
AcDbSpline
210
0.0
220
0.0
230
1.0
 70
     8
 71
     3
 72
    12
 73
     8
 74
     0
 42
0.00000001
 43
0.00000001
 12
1.0
 22
0.0
 32
0.0
 13
1.0
 23
0.0
 33
0.0
 40
0.0
 40
0.0
 40
0.0
 40
0.0
 40
0.1888373427060245
 40
0.3778465298716444
 40
0.5698166436236866
 40
0.7755805608955971
 40
1.0
 40
1.0
 40
1.0
 40
1.0
 10
137.5011444031765
 20
207.089520669132
 30
0.0
 10
137.4970242562035
 20
207.0851863010987
 30
0.0
 10
137.4887802128698
 20
207.0765136207004
 30
0.0
 10
137.4256790299044
 20
207.0437739588897
 30
0.0
 10
137.3357112892761
 20
206.9899145969139
 30
0.0
 10
137.2217520196556
 20
206.919409355496
 30
0.0
 10
137.1359210039417
 20
206.867838521499
 30
0.0
 10
137.0911444031765
 20
206.8409348826943
 30
0.0
  0
LINE
  5
2B8
330
1F
100
AcDbEntity
  8
0
  6
Continuous
 62
     7
370
    15
100
AcDbLine
 10
137.5011444032
 20
182.4123490963
 30
0.0
 11
137.5011444032
 21
207.0895206691
 31
0.0
  0
SPLINE
  5
2B9
330
1F
100
AcDbEntity
  8
0
  6
Continuous
 62
     7
370
    15
100
AcDbSpline
210
0.0
220
0.0
230
1.0
 70
     8
 71
     3
 72
    12
 73
     8
 74
     0
 42
0.00000001
 43
0.00000001
 12
1.0
 22
0.0
 32
0.0
 13
1.0
 23
0.0
 33
0.0
 40
0.0
 40
0.0
 40
0.0
 40
0.0
 40
0.2905041101631437
 40
0.5021702270981449
 40
0.7241756290586726
 40
0.8552195785745934
 40
1.0
 40
1.0
 40
1.0
 40
1.0
 10
137.0911444031766
 20
182.6609348826943
 30
0.0
 10
137.1489753883428
 20
182.6257323402278
 30
0.0
 10
137.2489429892759
 20
182.5648806409699
 30
0.0
 10
137.3758105762788
 20
182.4860473692581
 30
0.0
 10
137.4534001450786
 20
182.4474230222265
 30
0.0
 10
137.49425198495
 20
182.4250161622406
 30
0.0
 10
137.4987718975999
 20
182.4167093488849
 30
0.0
 10
137.5011444031766
 20
182.4123490962566
 30
0.0
  0
LINE
  5
2BA
330
1F
100
AcDbEntity
  8
0
  6
Continuous
 62
     7
370
    15
100
AcDbLine
 10
137.5011444032
 20
182.4123490963
 30
0.0
 11
137.3411444032
 21
182.4123490963
 31
0.0
  0
SPLINE
  5
2BB
330
1F
100
AcDbEntity
  8
0
  6
Continuous
 62
     7
370
    15
100
AcDbSpline
210
0.0
220
0.0
230
1.0
 70
     8
 71
     3
 72
    13
 73
     9
 74
     0
 42
0.00000001
 43
0.00000001
 12
1.0
 22
0.0
 32
0.0
 13
1.0
 23
0.0
 33
0.0
 40
0.0
 40
0.0
 40
0.0
 40
0.0
 40
0.3126721809824924
 40
0.5321565698861708
 40
0.635487100451312
 40
0.7470194757090605
 40
0.8681597698630263
 40
1.0
 40
1.0
 40
1.0
 40
1.0
 10
137.0911444031766
 20
182.6609348826943
 30
0.0
 10
137.1261900098449
 20
182.625955349347
 30
0.0
 10
137.1858363454273
 20
182.5664214681304
 30
0.0
 10
137.2508527885249
 20
182.5001743081287
 30
0.0
 10
137.2909238866015
 20
182.4644636763341
 30
0.0
 10
137.3168787400039
 20
182.443097453314
 30
0.0
 10
137.3368929286777
 20
182.4250868652679
 30
0.0
 10
137.3396878409463
 20
182.4167130770933
 30
0.0
 10
137.3411444031766
 20
182.4123490962566
 30
0.0
  0
SPLINE
  5
2BC
330
1F
100
AcDbEntity
  8
0
  6
Continuous
 62
     7
370
    15
100
AcDbSpline
210
0.0
220
0.0
230
1.0
 70
     8
 71
     3
 72
    11
 73
     7
 74
     0
 42
0.00000001
 43
0.00000001
 12
1.0
 22
0.0
 32
0.0
 13
1.0
 23
0.0
 33
0.0
 40
0.0
 40
0.0
 40
0.0
 40
0.0
 40
0.2543030279684553
 40
0.5087793961833368
 40
0.7632567853905141
 40
1.0
 40
1.0
 40
1.0
 40
1.0
 10
137.3397301896142
 20
182.4109348826943
 30
0.0
 10
137.3186548239061
 20
182.4148266170123
 30
0.0
 10
137.2764897269153
 20
182.4226127383662
 30
0.0
 10
137.2132386797769
 20
182.4824070049717
 30
0.0
 10
137.1514252318959
 20
182.5656012627005
 30
0.0
 10
137.110748505481
 20
182.629931160962
 30
0.0
 10
137.0911444031766
 20
182.6609348826943
 30
0.0
  0
LINE
  5
2BD
330
1F
100
AcDbEntity
  8
0
  6
Continuous
 62
     7
370
    15
100
AcDbLine
 10
137.3397301896
 20
182.4109348827
 30
0.0
 11
137.3397301896
 21
182.2509348827
 31
0.0
  0
SPLINE
  5
2BE
330
1F
100
AcDbEntity
  8
0
  6
Continuous
 62
     7
370
    15
100
AcDbSpline
210
0.0
220
0.0
230
1.0
 70
     8
 71
     3
 72
    11
 73
     7
 74
     0
 42
0.00000001
 43
0.00000001
 12
1.0
 22
0.0
 32
0.0
 13
1.0
 23
0.0
 33
0.0
 40
0.0
 40
0.0
 40
0.0
 40
0.0
 40
0.2499999999999967
 40
0.4999999999999963
 40
0.7500000000000275
 40
1.0
 40
1.0
 40
1.0
 40
1.0
 10
137.0911444031765
 20
206.8409348826943
 30
0.0
 10
137.1118598853797
 20
206.8736941436459
 30
0.0
 10
137.1532908497859
 20
206.939212665549
 30
0.0
 10
137.2154372963954
 20
207.0218488998232
 30
0.0
 10
137.2775837430047
 20
207.0796612031038
 30
0.0
 10
137.319014707411
 20
207.0871769894975
 30
0.0
 10
137.3397301896142
 20
207.0909348826943
 30
0.0
  0
LWPOLYLINE
  5
2BF
330
1F
100
AcDbEntity
  8
0
  6
Continuous
 62
     7
370
    15
100
AcDbPolyline
 90
        2
 70
   128
 43
0.0
 10
137.0911444032
 20
206.8409348827
 10
137.0911444032
 20
206.8409348827
  0
SPLINE
  5
2C0
330
1F
100
AcDbEntity
  8
0
  6
Continuous
 62
     7
370
    15
100
AcDbSpline
210
0.0
220
0.0
230
1.0
 70
     8
 71
     3
 72
    12
 73
     8
 74
     0
 42
0.00000001
 43
0.00000001
 12
1.0
 22
0.0
 32
0.0
 13
1.0
 23
0.0
 33
0.0
 40
0.0
 40
0.0
 40
0.0
 40
0.0
 40
0.1759421700617535
 40
0.3356055874136497
 40
0.5051407185154615
 40
0.7914119720677328
 40
1.0
 40
1.0
 40
1.0
 40
1.0
 10
137.3411444031765
 20
207.089520669132
 30
0.0
 10
137.3384334399959
 20
207.0849885415809
 30
0.0
 10
137.3332623409331
 20
207.076343613941
 30
0.0
 10
137.2970575633499
 20
207.0452317432397
 30
0.0
 10
137.240975411047
 20
206.9911312598933
 30
0.0
 10
137.1702571926957
 20
206.9189240934811
 30
0.0
 10
137.1146031335307
 20
206.8640604465571
 30
0.0
 10
137.0911444031765
 20
206.8409348826943
 30
0.0
  0
LINE
  5
2C1
330
1F
100
AcDbEntity
  8
0
  6
Continuous
 62
     7
370
    15
100
AcDbLine
 10
126.1511444032
 20
207.0909348827
 30
0.0
 11
126.1511444032
 21
207.1133999773
 31
0.0
  0
ARC
  5
2C2
330
1F
100
AcDbEntity
  8
0
  6
Continuous
 62
     7
370
    15
100
AcDbCircle
 10
126.1511444032
 20
206.8409348827
 30
0.0
 40
0.250000000000469
100
AcDbArc
 50
90.0
 51
180.0
  0
ARC
  5
2C3
330
1F
100
AcDbEntity
  8
0
  6
Continuous
 62
     7
370
    15
100
AcDbCircle
 10
126.1511444032
 20
206.8409348827
 30
0.0
 40
0.4099999999999966
100
AcDbArc
 50
138.3522639434
 51
180.0
  0
LINE
  5
2C4
330
1F
100
AcDbEntity
  8
0
  6
Continuous
 62
     7
370
    15
100
AcDbLine
 10
126.1511444032
 20
182.4109348827
 30
0.0
 11
126.1511444032
 21
182.2509348827
 31
0.0
  0
ARC
  5
2C5
330
1F
100
AcDbEntity
  8
0
  6
Continuous
 62
     7
370
    15
100
AcDbCircle
 10
126.1511444032
 20
182.6609348827
 30
0.0
 40
0.4099999999999966
100
AcDbArc
 50
180.0000000001
 51
270.0
  0
ARC
  5
2C6
330
1F
100
AcDbEntity
  8
0
  6
Continuous
 62
     7
370
    15
100
AcDbCircle
 10
126.1511444032
 20
182.6609348827
 30
0.0
 40
0.25
100
AcDbArc
 50
180.0000000001
 51
270.0
  0
LINE
  5
2C7
330
1F
100
AcDbEntity
  8
0
  6
Continuous
 62
     7
370
    15
100
AcDbLine
 10
126.1794286744
 20
182.2509348827
 30
0.0
 11
126.1511444032
 21
182.2509348827
 31
0.0
  0
LINE
  5
2C8
330
1F
100
AcDbEntity
  8
0
  6
Continuous
 62
     7
370
    15
100
AcDbLine
 10
127.4352061546
 20
214.9035429174
 30
0.0
 11
127.4523071618
 21
214.8565582863
 31
0.0
  0
LINE
  5
2C9
330
1F
100
AcDbEntity
  8
0
  6
Continuous
 62
     7
370
    15
100
AcDbLine
 10
127.4523071618
 20
214.8565582863
 30
0.0
 11
123.5622286097
 21
213.4406854844
 31
0.0
  0
LINE
  5
2CA
330
1F
100
AcDbEntity
  8
0
  6
Continuous
 62
     7
370
    15
100
AcDbLine
 10
123.5451276025
 20
213.4876701155
 30
0.0
 11
123.5622286097
 21
213.4406854844
 31
0.0
  0
ARC
  5
2CB
330
1F
100
AcDbEntity
  8
0
  6
Continuous
 62
     7
370
    15
100
AcDbCircle
 10
124.2291678892
 20
211.6082848739
 30
0.0
 40
1.95000000000001
100
AcDbArc
 50
110.0
 51
220.0
  0
LINE
  5
2CC
330
1F
100
AcDbEntity
  8
0
  6
Continuous
 62
     7
370
    15
100
AcDbLine
 10
122.6970790029
 20
210.3227096545
 30
0.0
 11
122.7353812251
 21
210.354849035
 31
0.0
  0
ARC
  5
2CD
330
1F
100
AcDbEntity
  8
0
  6
Continuous
 62
     7
370
    15
100
AcDbCircle
 10
133.8169851136
 20
231.2109348827
 30
0.0
 40
0.1500000000000341
100
AcDbArc
 50
90.0
 51
162.0
  0
LINE
  5
2CE
330
1F
100
AcDbEntity
  8
0
  6
Continuous
 62
     7
370
    15
100
AcDbLine
 10
137.3011444032
 20
231.3609348827
 30
0.0
 11
133.8169851136
 21
231.3609348827
 31
0.0
  0
ARC
  5
2CF
330
1F
100
AcDbEntity
  8
0
  6
Continuous
 62
     7
370
    15
100
AcDbCircle
 10
137.3011444032
 20
231.2109348827
 30
0.0
 40
0.1500000000000341
100
AcDbArc
 50
0.0
 51
90.0
  0
LINE
  5
2D0
330
1F
100
AcDbEntity
  8
0
  6
Continuous
 62
     7
370
    15
100
AcDbLine
 10
137.4511444032
 20
207.4733999773
 30
0.0
 11
137.4511444032
 21
231.2109348827
 31
0.0
  0
ARC
  5
2D1
330
1F
100
AcDbEntity
  8
0
  6
Continuous
 62
     7
370
    15
100
AcDbCircle
 10
137.3011444032
 20
207.4733999773
 30
0.0
 40
0.1500000000000341
100
AcDbArc
 50
270.0
 51
0.0
  0
LINE
  5
2D2
330
1F
100
AcDbEntity
  8
0
  6
Continuous
 62
     7
370
    15
100
AcDbLine
 10
125.372330543
 20
207.3233999773
 30
0.0
 11
137.3011444032
 21
207.3233999773
 31
0.0
  0
ARC
  5
2D3
330
1F
100
AcDbEntity
  8
0
  6
Continuous
 62
     7
370
    15
100
AcDbCircle
 10
125.372330543
 20
207.5233999773
 30
0.0
 40
0.2000000000000022
100
AcDbArc
 50
220.0
 51
270.0
  0
LINE
  5
2D4
330
1F
100
AcDbEntity
  8
0
  6
Continuous
 62
     7
370
    15
100
AcDbLine
 10
122.7353812251
 20
210.354849035
 30
0.0
 11
125.2191216544
 21
207.3948424553
 31
0.0
  0
ARC
  5
2D5
330
1F
100
AcDbEntity
  8
0
  6
Continuous
 62
     7
370
    15
100
AcDbCircle
 10
126.696442645
 20
216.9332789783
 30
0.0
 40
2.209999999999988
100
AcDbArc
 50
290.0
 51
342.0
  0
LINE
  5
2D6
330
1F
100
AcDbEntity
  8
0
  6
Continuous
 62
     7
370
    15
100
AcDbLine
 10
133.6743266362
 20
231.2572874318
 30
0.0
 11
128.798277546
 21
216.2503514207
 31
0.0
  0
LINE
  5
2D7
330
1F
100
AcDbEntity
  8
0
  6
Continuous
 62
     7
370
    15
100
AcDbLine
 10
137.3011444032
 20
207.3233999773
 30
0.0
 11
137.3011444032
 21
207.2733999773
 31
0.0
  0
LINE
  5
2D8
330
1F
100
AcDbEntity
  8
0
  6
Continuous
 62
     7
370
    15
100
AcDbLine
 10
125.372330543
 20
207.2733999773
 30
0.0
 11
125.372330543
 21
207.3233999773
 31
0.0
  0
LINE
  5
2D9
330
1F
100
AcDbEntity
  8
0
  6
Continuous
 62
     7
370
    15
100
AcDbLine
 10
137.3011444032
 20
231.3609348827
 30
0.0
 11
137.3011444032
 21
231.4109348827
 31
0.0
  0
LINE
  5
2DA
330
1F
100
AcDbEntity
  8
0
  6
Continuous
 62
     7
370
    15
100
AcDbLine
 10
125.1808194322
 20
207.3627030748
 30
0.0
 11
125.2191216544
 21
207.3948424553
 31
0.0
  0
LINE
  5
2DB
330
1F
100
AcDbEntity
  8
0
  6
Continuous
 62
     7
370
    15
100
AcDbLine
 10
128.7507247202
 20
216.2658022704
 30
0.0
 11
128.798277546
 21
216.2503514207
 31
0.0
  0
ARC
  5
2DC
330
1F
100
AcDbEntity
  8
0
  6
Continuous
 62
     7
370
    15
100
AcDbCircle
 10
137.3011444032
 20
231.2109348827
 30
0.0
 40
0.2000000000000455
100
AcDbArc
 50
0.0
 51
90.0
  0
LINE
  5
2DD
330
1F
100
AcDbEntity
  8
0
  6
Continuous
 62
     7
370
    15
100
AcDbLine
 10
137.4511444032
 20
231.2109348827
 30
0.0
 11
137.5011444032
 21
231.2109348827
 31
0.0
  0
LINE
  5
2DE
330
1F
100
AcDbEntity
  8
0
  6
Continuous
 62
     7
370
    15
100
AcDbLine
 10
137.5011444032
 20
231.2109348827
 30
0.0
 11
137.5011444032
 21
207.4733999773
 31
0.0
  0
LINE
  5
2DF
330
1F
100
AcDbEntity
  8
0
  6
Continuous
 62
     7
370
    15
100
AcDbLine
 10
137.4511444032
 20
207.4733999773
 30
0.0
 11
137.5011444032
 21
207.4733999773
 31
0.0
  0
ARC
  5
2E0
330
1F
100
AcDbEntity
  8
0
  6
Continuous
 62
     7
370
    15
100
AcDbCircle
 10
137.3011444032
 20
207.4733999773
 30
0.0
 40
0.2000000000000171
100
AcDbArc
 50
270.0
 51
0.0
  0
ARC
  5
2E1
330
1F
100
AcDbEntity
  8
0
  6
Continuous
 62
     7
370
    15
100
AcDbCircle
 10
126.696442645
 20
216.9332789783
 30
0.0
 40
2.160000000000014
100
AcDbArc
 50
290.0
 51
342.0
  0
LINE
  5
2E2
330
1F
100
AcDbEntity
  8
0
  6
Continuous
 62
     7
370
    15
100
AcDbLine
 10
127.4352061546
 20
214.9035429174
 30
0.0
 11
127.3804829317
 21
215.0538937367
 31
0.0
  0
ARC
  5
2E3
330
1F
100
AcDbEntity
  8
0
  6
Continuous
 62
     7
370
    15
100
AcDbCircle
 10
126.696442645
 20
216.9332789783
 30
0.0
 40
2.000000000000006
100
AcDbArc
 50
290.0
 51
342.0
  0
LINE
  5
2E4
330
1F
100
AcDbEntity
  8
0
  6
Continuous
 62
     7
370
    15
100
AcDbLine
 10
128.5985556776
 20
216.3152449895
 30
0.0
 11
128.7507247202
 21
216.2658022704
 31
0.0
  0
ARC
  5
2E5
330
1F
100
AcDbEntity
  8
0
  6
Continuous
 62
     7
370
    15
100
AcDbCircle
 10
124.2291678892
 20
211.6082848739
 30
0.0
 40
2.000000000000016
100
AcDbArc
 50
110.0
 51
220.0
  0
LINE
  5
2E6
330
1F
100
AcDbEntity
  8
0
  6
Continuous
 62
     7
370
    15
100
AcDbLine
 10
122.6970790029
 20
210.3227096545
 30
0.0
 11
122.574511892
 21
210.219863637
 31
0.0
  0
ARC
  5
2E7
330
1F
100
AcDbEntity
  8
0
  6
Continuous
 62
     7
370
    15
100
AcDbCircle
 10
124.2291678892
 20
211.6082848739
 30
0.0
 40
2.160000000000005
100
AcDbArc
 50
110.0
 51
220.0
  0
LINE
  5
2E8
330
1F
100
AcDbEntity
  8
0
  6
Continuous
 62
     7
370
    15
100
AcDbLine
 10
123.4904043796
 20
213.6380209348
 30
0.0
 11
123.5451276025
 21
213.4876701155
 31
0.0
  0
LINE
  5
2E9
330
1F
100
AcDbEntity
  8
0
  6
Continuous
 62
     7
370
    15
100
AcDbLine
 10
128.5985556776
 20
216.3152449895
 30
0.0
 11
133.4633790683
 21
231.2876318504
 31
0.0
  0
LINE
  5
2EA
330
1F
100
AcDbEntity
  8
0
  6
Continuous
 62
     7
370
    15
100
AcDbLine
 10
133.6155481109
 20
231.2381891313
 30
0.0
 11
133.4633790683
 21
231.2876318504
 31
0.0
  0
LINE
  5
2EB
330
1F
100
AcDbEntity
  8
0
  6
Continuous
 62
     7
370
    15
100
AcDbLine
 10
128.7507247202
 20
216.2658022704
 30
0.0
 11
133.6155481109
 21
231.2381891313
 31
0.0
  0
ARC
  5
2EC
330
1F
100
AcDbEntity
  8
0
  6
Continuous
 62
     7
370
    15
100
AcDbCircle
 10
125.372330543
 20
207.5233999773
 30
0.0
 40
0.25
100
AcDbArc
 50
220.0
 51
270.0
  0
LINE
  5
2ED
330
1F
100
AcDbEntity
  8
0
  6
Continuous
 62
     7
370
    15
100
AcDbLine
 10
125.372330543
 20
207.2733999773
 30
0.0
 11
125.372330543
 21
207.1133999773
 31
0.0
  0
ARC
  5
2EE
330
1F
100
AcDbEntity
  8
0
  6
Continuous
 62
     7
370
    15
100
AcDbCircle
 10
125.372330543
 20
207.5233999773
 30
0.0
 40
0.410000000000025
100
AcDbArc
 50
220.0
 51
270.0
  0
LINE
  5
2EF
330
1F
100
AcDbEntity
  8
0
  6
Continuous
 62
     7
370
    15
100
AcDbLine
 10
125.0582523213
 20
207.2598570573
 30
0.0
 11
125.1808194322
 21
207.3627030748
 31
0.0
  0
LINE
  5
2F0
330
1F
100
AcDbEntity
  8
0
  6
Continuous
 62
     7
370
    15
100
AcDbLine
 10
123.5451276025
 20
213.4876701155
 30
0.0
 11
127.4352061546
 21
214.9035429174
 31
0.0
  0
LINE
  5
2F1
330
1F
100
AcDbEntity
  8
0
  6
Continuous
 62
     7
370
    15
100
AcDbLine
 10
123.4904043796
 20
213.6380209348
 30
0.0
 11
127.3804829317
 21
215.0538937367
 31
0.0
  0
LINE
  5
2F2
330
1F
100
AcDbEntity
  8
0
  6
Continuous
 62
     7
370
    15
100
AcDbLine
 10
137.5011444032
 20
207.2733999773
 30
0.0
 11
125.372330543
 21
207.2733999773
 31
0.0
  0
LINE
  5
2F3
330
1F
100
AcDbEntity
  8
0
  6
Continuous
 62
     7
370
    15
100
AcDbLine
 10
137.5011444032
 20
207.1133999773
 30
0.0
 11
125.372330543
 21
207.1133999773
 31
0.0
  0
LINE
  5
2F4
330
1F
100
AcDbEntity
  8
0
  6
Continuous
 62
     7
370
    15
100
AcDbLine
 10
137.5011444032
 20
207.2733999773
 30
0.0
 11
137.5011444032
 21
207.1133999773
 31
0.0
  0
LINE
  5
2F5
330
1F
100
AcDbEntity
  8
0
  6
Continuous
 62
     7
370
    15
100
AcDbLine
 10
125.1808194322
 20
207.3627030748
 30
0.0
 11
122.6970790029
 21
210.3227096545
 31
0.0
  0
LINE
  5
2F6
330
1F
100
AcDbEntity
  8
0
  6
Continuous
 62
     7
370
    15
100
AcDbLine
 10
125.0582523213
 20
207.2598570573
 30
0.0
 11
122.574511892
 21
210.219863637
 31
0.0
  0
LINE
  5
2F7
330
1F
100
AcDbEntity
  8
0
  6
Continuous
 62
     7
370
    15
100
AcDbLine
 10
137.5011444032
 20
231.5709348827
 30
0.0
 11
137.5011444032
 21
231.4109348827
 31
0.0
  0
LINE
  5
2F8
330
1F
100
AcDbEntity
  8
0
  6
Continuous
 62
     7
370
    15
100
AcDbLine
 10
133.85331224
 20
231.4109348827
 30
0.0
 11
133.85331224
 21
231.5709348827
 31
0.0
  0
LINE
  5
2F9
330
1F
100
AcDbEntity
  8
0
  6
Continuous
 62
     7
370
    15
100
AcDbLine
 10
137.5011444032
 20
231.5709348827
 30
0.0
 11
133.85331224
 21
231.5709348827
 31
0.0
  0
LINE
  5
2FA
330
1F
100
AcDbEntity
  8
0
  6
Continuous
 62
     7
370
    15
100
AcDbLine
 10
137.5011444032
 20
231.4109348827
 30
0.0
 11
133.85331224
 21
231.4109348827
 31
0.0
  0
ARC
  5
2FB
330
1F
100
AcDbEntity
  8
0
  6
Continuous
 62
     7
370
    15
100
AcDbCircle
 10
133.85331224
 20
231.1609348827
 30
0.0
 40
0.4099999999999966
100
AcDbArc
 50
90.0
 51
162.0
  0
ARC
  5
2FC
330
1F
100
AcDbEntity
  8
0
  6
Continuous
 62
     7
370
    15
100
AcDbCircle
 10
133.85331224
 20
231.1609348827
 30
0.0
 40
0.2499999999999716
100
AcDbArc
 50
90.0
 51
162.0
  0
LINE
  5
2FD
330
1F
100
AcDbEntity
  8
0
  6
Continuous
 62
     7
370
    15
100
AcDbLine
 10
131.5392587055
 20
232.124313249
 30
0.0
 11
133.2520641603
 21
231.3617231281
 31
0.0
  0
ARC
  5
2FE
330
1F
100
AcDbEntity
  8
0
  6
Continuous
 62
     7
370
    15
100
AcDbCircle
 10
133.1503799996
 20
231.1333367637
 30
0.0
 40
0.4100000000000251
100
AcDbArc
 50
33.1673245879
 51
52.4082874385
  0
ARC
  5
2FF
330
1F
100
AcDbEntity
  8
0
  6
Continuous
 62
     7
370
    15
100
AcDbCircle
 10
133.1503799996
 20
231.1333367637
 30
0.0
 40
0.2500000000000006
100
AcDbArc
 50
342.0
 51
66.0
  0
LINE
  5
300
330
1F
100
AcDbEntity
  8
0
  6
Continuous
 62
     7
370
    15
100
AcDbLine
 10
130.6907911107
 20
232.6772171653
 30
0.0
 11
130.6257132478
 21
232.5310498921
 31
0.0
  0
LINE
  5
301
330
1F
100
AcDbEntity
  8
0
  6
Continuous
 62
     7
370
    15
100
AcDbLine
 10
130.6907911107
 20
232.6772171653
 30
0.0
 11
130.7556884517
 21
232.6483230075
 31
0.0
  0
LINE
  5
302
330
1F
100
AcDbEntity
  8
0
  6
Continuous
 62
     7
370
    15
100
AcDbLine
 10
130.6257132478
 20
232.5310498921
 30
0.0
 11
131.5392587055
 21
232.124313249
 31
0.0
  0
LINE
  5
303
330
1F
100
AcDbEntity
  8
0
  6
Continuous
 62
     7
370
    15
100
AcDbLine
 10
133.4558001325
 20
231.5854104789
 30
0.0
 11
133.4724953099
 21
231.5526443484
 31
0.0
  0
LINE
  5
304
330
1F
100
AcDbEntity
  8
0
  6
Continuous
 62
     7
370
    15
100
AcDbLine
 10
133.5384826343
 20
231.7755672145
 30
0.0
 11
133.585551171
 21
231.68319001
 31
0.0
  0
LWPOLYLINE
  5
305
330
1F
100
AcDbEntity
  8
0
  6
Continuous
 62
     7
370
    15
100
AcDbPolyline
 90
        3
 70
   128
 43
0.0
 10
133.6520613293
 20
231.5181436102
 10
133.6443503258
 20
231.5504373079
 10
133.6379857181
 20
231.5709348827
  0
ARC
  5
306
330
1F
100
AcDbEntity
  8
0
  6
Continuous
 62
     7
370
    15
100
AcDbCircle
 10
133.2497436788
 20
231.4391467235
 30
0.0
 40
0.2500000000000512
100
AcDbArc
 50
342.0
 51
27.0
  0
LINE
  5
307
330
1F
100
AcDbEntity
  8
0
  6
Continuous
 62
     7
370
    15
100
AcDbLine
 10
285.8590751301
 20
175.6667299858
 30
0.0
 11
285.972212215
 21
175.7798670708
 31
0.0
  0
LINE
  5
308
330
1F
100
AcDbEntity
  8
0
  6
Continuous
 62
     7
370
    15
100
AcDbLine
 10
285.8590751301
 20
175.6667299858
 30
0.0
 11
285.1519683489
 21
176.373836767
 31
0.0
  0
LINE
  5
309
330
1F
100
AcDbEntity
  8
0
  6
Continuous
 62
     7
370
    15
100
AcDbLine
 10
285.1519683489
 20
176.373836767
 30
0.0
 11
285.2651054339
 21
176.486973852
 31
0.0
  0
LINE
  5
30A
330
1F
100
AcDbEntity
  8
0
  6
Continuous
 62
     7
370
    15
100
AcDbLine
 10
285.972212215
 20
175.7798670708
 30
0.0
 11
285.2651054339
 21
176.486973852
 31
0.0
  0
LINE
  5
30B
330
1F
100
AcDbEntity
  8
0
  6
Continuous
 62
     7
370
    15
100
AcDbLine
 10
285.1519683489
 20
176.373836767
 30
0.0
 11
278.9011444032
 21
182.6246607127
 31
0.0
  0
LINE
  5
30C
330
1F
100
AcDbEntity
  8
0
  6
Continuous
 62
     7
370
    15
100
AcDbLine
 10
285.2651054339
 20
176.486973852
 30
0.0
 11
278.9743677079
 21
182.777711578
 31
0.0
  0
ARC
  5
30D
330
1F
100
AcDbEntity
  8
0
  6
Continuous
 62
     7
370
    15
100
AcDbCircle
 10
279.1511444032
 20
182.9544882733
 30
0.0
 40
0.2499999999999618
100
AcDbArc
 50
180.0
 51
225.0
  0
LINE
  5
30E
330
1F
100
AcDbEntity
  8
0
  6
Continuous
 62
     7
370
    15
100
AcDbLine
 10
287.9011444032
 20
226.9309348827
 30
0.0
 11
279.1511444032
 21
226.9309348827
 31
0.0
  0
LINE
  5
30F
330
1F
100
AcDbEntity
  8
0
  6
Continuous
 62
     7
370
    15
100
AcDbLine
 10
288.9011444032
 20
207.3309348827
 30
0.0
 11
288.9011444032
 21
225.9309348827
 31
0.0
  0
ARC
  5
310
330
1F
100
AcDbEntity
  8
0
  6
Continuous
 62
     7
370
    15
100
AcDbCircle
 10
287.9011444032
 20
207.3309348827
 30
0.0
 40
1.0
100
AcDbArc
 50
270.0
 51
0.0
  0
LINE
  5
311
330
1F
100
AcDbEntity
  8
0
  6
Continuous
 62
     7
370
    15
100
AcDbLine
 10
279.1511444032
 20
206.3309348827
 30
0.0
 11
287.9011444032
 21
206.3309348827
 31
0.0
  0
LINE
  5
312
330
1F
100
AcDbEntity
  8
0
  6
Continuous
 62
     7
370
    15
100
AcDbLine
 10
279.1511444032
 20
206.3309348827
 30
0.0
 11
279.1511444032
 21
226.9309348827
 31
0.0
  0
ARC
  5
313
330
1F
100
AcDbEntity
  8
0
  6
Continuous
 62
     7
370
    15
100
AcDbCircle
 10
287.9011444032
 20
225.9309348827
 30
0.0
 40
1.0
100
AcDbArc
 50
0.0
 51
90.0
  0
LINE
  5
314
330
1F
100
AcDbEntity
  8
0
  6
Continuous
 62
     7
370
    15
100
AcDbLine
 10
278.9011444032
 20
226.9309348827
 30
0.0
 11
279.1511444032
 21
226.9309348827
 31
0.0
  0
LINE
  5
315
330
1F
100
AcDbEntity
  8
0
  6
Continuous
 62
     7
370
    15
100
AcDbLine
 10
279.1511444032
 20
206.3309348827
 30
0.0
 11
278.9011444032
 21
206.3309348827
 31
0.0
  0
LINE
  5
316
330
1F
100
AcDbEntity
  8
0
  6
Continuous
 62
     7
370
    15
100
AcDbLine
 10
278.9011444032
 20
234.6909348827
 30
0.0
 11
278.9011444032
 21
235.7126322579
 31
0.0
  0
LINE
  5
317
330
1F
100
AcDbEntity
  8
0
  6
Continuous
 62
     7
370
    15
100
AcDbLine
 10
278.8811444032
 20
239.6309348827
 30
0.0
 11
278.9011444032
 21
239.6309348827
 31
0.0
  0
LINE
  5
318
330
1F
100
AcDbEntity
  8
0
  6
Continuous
 62
     7
370
    15
100
AcDbLine
 10
137.9111444032
 20
182.6609348827
 30
0.0
 11
137.5011444032
 21
182.6609348827
 31
0.0
  0
LINE
  5
319
330
1F
100
AcDbEntity
  8
0
  6
Continuous
 62
     7
370
    15
100
AcDbLine
 10
137.5011444032
 20
234.4409348827
 30
0.0
 11
137.5011444032
 21
231.5709348827
 31
0.0
  0
LINE
  5
31A
330
1F
100
AcDbEntity
  8
0
  6
Continuous
 62
     7
370
    15
100
AcDbLine
 10
137.5011444032
 20
231.4109348827
 30
0.0
 11
137.5011444032
 21
231.2109348827
 31
0.0
  0
LINE
  5
31B
330
1F
100
AcDbEntity
  8
0
  6
Continuous
 62
     7
370
    15
100
AcDbLine
 10
137.5011444032
 20
207.4733999773
 30
0.0
 11
137.5011444032
 21
207.2733999773
 31
0.0
  0
LINE
  5
31C
330
1F
100
AcDbEntity
  8
0
  6
Continuous
 62
     7
370
    15
100
AcDbLine
 10
137.5011444032
 20
207.1133999773
 30
0.0
 11
137.5011444032
 21
207.0895206691
 31
0.0
  0
LINE
  5
31D
330
1F
100
AcDbEntity
  8
0
  6
Continuous
 62
     7
370
    15
100
AcDbLine
 10
137.9111444032
 20
234.4409348827
 30
0.0
 11
137.9111444032
 21
182.6609348827
 31
0.0
  0
LINE
  5
31E
330
1F
100
AcDbEntity
  8
0
  6
Continuous
 62
     7
370
    15
100
AcDbLine
 10
137.5011444032
 20
234.4409348827
 30
0.0
 11
137.9111444032
 21
234.4409348827
 31
0.0
  0
LINE
  5
31F
330
1F
100
AcDbEntity
  8
0
  6
Continuous
 62
     7
370
    15
100
AcDbLine
 10
278.4911444032
 20
182.6609348827
 30
0.0
 11
278.4911444032
 21
182.2509348827
 31
0.0
  0
LINE
  5
320
330
1F
100
AcDbEntity
  8
0
  6
Continuous
 62
     7
370
    15
100
AcDbLine
 10
278.4911444032
 20
182.2509348827
 30
0.0
 11
137.9111444032
 21
182.2509348827
 31
0.0
  0
LINE
  5
321
330
1F
100
AcDbEntity
  8
0
  6
Continuous
 62
     7
370
    15
100
AcDbLine
 10
137.9111444032
 20
182.6609348827
 30
0.0
 11
278.4911444032
 21
182.6609348827
 31
0.0
  0
LINE
  5
322
330
1F
100
AcDbEntity
  8
0
  6
Continuous
 62
     7
370
    15
100
AcDbLine
 10
137.9111444032
 20
182.6609348827
 30
0.0
 11
137.9111444032
 21
182.2509348827
 31
0.0
  0
LINE
  5
323
330
1F
100
AcDbEntity
  8
0
  6
Continuous
 62
     7
370
    15
100
AcDbLine
 10
278.4911444032
 20
234.8509348827
 30
0.0
 11
278.4911444032
 21
234.4409348827
 31
0.0
  0
LINE
  5
324
330
1F
100
AcDbEntity
  8
0
  6
Continuous
 62
     7
370
    15
100
AcDbLine
 10
278.4911444032
 20
234.4409348827
 30
0.0
 11
137.9111444032
 21
234.4409348827
 31
0.0
  0
LINE
  5
325
330
1F
100
AcDbEntity
  8
0
  6
Continuous
 62
     7
370
    15
100
AcDbLine
 10
137.9111444032
 20
234.8509348827
 30
0.0
 11
137.9111444032
 21
234.4409348827
 31
0.0
  0
LINE
  5
326
330
1F
100
AcDbEntity
  8
0
  6
Continuous
 62
     7
370
    15
100
AcDbLine
 10
278.4911444032
 20
182.6609348827
 30
0.0
 11
278.4911444032
 21
234.4409348827
 31
0.0
  0
LINE
  5
327
330
1F
100
AcDbEntity
  8
0
  6
Continuous
 62
     7
370
    15
100
AcDbLine
 10
278.9011444032
 20
182.6609348827
 30
0.0
 11
278.9011444032
 21
234.4409348827
 31
0.0
  0
LINE
  5
328
330
1F
100
AcDbEntity
  8
0
  6
Continuous
 62
     7
370
    15
100
AcDbLine
 10
278.9011444032
 20
234.4409348827
 30
0.0
 11
278.4911444032
 21
234.4409348827
 31
0.0
  0
LINE
  5
329
330
1F
100
AcDbEntity
  8
0
  6
Continuous
 62
     7
370
    15
100
AcDbLine
 10
278.4911444032
 20
182.6609348827
 30
0.0
 11
278.9011444032
 21
182.6609348827
 31
0.0
  0
LINE
  5
32A
330
1F
100
AcDbEntity
  8
0
  6
Continuous
 62
     7
370
    15
100
AcDbLine
 10
137.6611444032
 20
234.6909348827
 30
0.0
 11
137.9111444032
 21
234.6909348827
 31
0.0
  0
LINE
  5
32B
330
1F
100
AcDbEntity
  8
0
  6
Continuous
 62
     7
370
    15
100
AcDbLine
 10
137.6611444032
 20
234.6909348827
 30
0.0
 11
137.6611444032
 21
234.8509348827
 31
0.0
  0
LINE
  5
32C
330
1F
100
AcDbEntity
  8
0
  6
Continuous
 62
     7
370
    15
100
AcDbLine
 10
137.9111444032
 20
182.2509348827
 30
0.0
 11
137.6611444032
 21
182.2509348827
 31
0.0
  0
LINE
  5
32D
330
1F
100
AcDbEntity
  8
0
  6
Continuous
 62
     7
370
    15
100
AcDbLine
 10
137.6611444032
 20
182.4109348827
 30
0.0
 11
137.6611444032
 21
182.2509348827
 31
0.0
  0
LINE
  5
32E
330
1F
100
AcDbEntity
  8
0
  6
Continuous
 62
     7
370
    15
100
AcDbLine
 10
137.9111444032
 20
182.4109348827
 30
0.0
 11
137.6611444032
 21
182.4109348827
 31
0.0
  0
LINE
  5
32F
330
1F
100
AcDbEntity
  8
0
  6
Continuous
 62
     7
370
    15
100
AcDbLine
 10
278.9011444032
 20
234.6909348827
 30
0.0
 11
278.9011444032
 21
234.4409348827
 31
0.0
  0
LINE
  5
330
330
1F
100
AcDbEntity
  8
0
  6
Continuous
 62
     7
370
    15
100
AcDbLine
 10
278.7411444032
 20
234.6909348827
 30
0.0
 11
278.7411444032
 21
234.4409348827
 31
0.0
  0
LINE
  5
331
330
1F
100
AcDbEntity
  8
0
  6
Continuous
 62
     7
370
    15
100
AcDbLine
 10
278.7411444032
 20
234.6909348827
 30
0.0
 11
278.9011444032
 21
234.6909348827
 31
0.0
  0
LINE
  5
332
330
1F
100
AcDbEntity
  8
0
  6
Continuous
 62
     7
370
    15
100
AcDbLine
 10
278.7411444032
 20
182.6609348827
 30
0.0
 11
278.7411444032
 21
182.4109348827
 31
0.0
  0
LINE
  5
333
330
1F
100
AcDbEntity
  8
0
  6
Continuous
 62
     7
370
    15
100
AcDbLine
 10
278.9011444032
 20
182.4109348827
 30
0.0
 11
278.9011444032
 21
182.6609348827
 31
0.0
  0
LINE
  5
334
330
1F
100
AcDbEntity
  8
0
  6
Continuous
 62
     7
370
    15
100
AcDbLine
 10
278.7411444032
 20
182.4109348827
 30
0.0
 11
278.9011444032
 21
182.4109348827
 31
0.0
  0
LINE
  5
335
330
1F
100
AcDbEntity
  8
0
  6
Continuous
 62
     7
370
    15
100
AcDbLine
 10
137.5011444032
 20
234.4409348827
 30
0.0
 11
137.3828532261
 21
234.4409348827
 31
0.0
  0
LINE
  5
336
330
1F
100
AcDbEntity
  8
0
  6
Continuous
 62
     7
370
    15
100
AcDbLine
 10
181.1411444032
 20
182.0009348827
 30
0.0
 11
181.1411444032
 21
182.2509348827
 31
0.0
  0
LINE
  5
337
330
1F
100
AcDbEntity
  8
0
  6
Continuous
 62
     7
370
    15
100
AcDbLine
 10
181.1411444032
 20
182.0009348827
 30
0.0
 11
181.1411444032
 21
180.5009348827
 31
0.0
  0
LINE
  5
338
330
1F
100
AcDbEntity
  8
0
  6
Continuous
 62
     7
370
    15
100
AcDbLine
 10
141.1411444032
 20
180.5009348827
 30
0.0
 11
141.1411444032
 21
181.9109348827
 31
0.0
  0
LINE
  5
339
330
1F
100
AcDbEntity
  8
0
  6
Continuous
 62
     7
370
    15
100
AcDbLine
 10
181.1411444032
 20
180.5009348827
 30
0.0
 11
181.1411444032
 21
180.0909348827
 31
0.0
  0
LINE
  5
33A
330
1F
100
AcDbEntity
  8
0
  6
Continuous
 62
     7
370
    15
100
AcDbLine
 10
141.1411444032
 20
180.0909348827
 30
0.0
 11
142.9611444032
 21
180.0909348827
 31
0.0
  0
LINE
  5
33B
330
1F
100
AcDbEntity
  8
0
  6
Continuous
 62
     7
370
    15
100
AcDbLine
 10
150.9611444032
 20
180.0909348827
 30
0.0
 11
181.1411444032
 21
180.0909348827
 31
0.0
  0
LINE
  5
33C
330
1F
100
AcDbEntity
  8
0
  6
Continuous
 62
     7
370
    15
100
AcDbLine
 10
141.1411444032
 20
180.0909348827
 30
0.0
 11
141.1411444032
 21
180.5009348827
 31
0.0
  0
LINE
  5
33D
330
1F
100
AcDbEntity
  8
0
  6
Continuous
 62
     7
370
    15
100
AcDbLine
 10
137.5361178217
 20
182.4109348827
 30
0.0
 11
137.6611444032
 21
182.4109348827
 31
0.0
  0
LWPOLYLINE
  5
33E
330
1F
100
AcDbEntity
  8
0
  6
Continuous
 62
     7
370
    15
100
AcDbPolyline
 90
        3
 70
   128
 43
0.0
 10
126.1049541384
 20
182.6609348827
 10
126.1461696563
 20
182.6159601359
 10
126.1533039344
 20
182.6089272363
  0
LWPOLYLINE
  5
33F
330
1F
100
AcDbEntity
  8
0
  6
Continuous
 62
     7
370
    15
100
AcDbPolyline
 90
        3
 70
   128
 43
0.0
 10
278.4911444032
 20
182.574744618
 10
278.53611915
 20
182.6159601359
 10
278.5773346679
 20
182.6609348827
  0
LINE
  5
340
330
1F
100
AcDbEntity
  8
0
  6
Continuous
 62
     7
370
    15
100
AcDbLine
 10
278.7411444032
 20
234.6909348827
 30
0.0
 11
278.7411444032
 21
235.0272047926
 31
0.0
  0
LINE
  5
341
330
1F
100
AcDbEntity
  8
0
  6
Continuous
 62
     7
370
    15
100
AcDbLine
 10
130.8649460448
 20
233.0545790838
 30
0.0
 11
130.8418752843
 21
233.0002277783
 31
0.0
  0
LINE
  5
342
330
1F
100
AcDbEntity
  8
0
  6
Continuous
 62
     7
370
    15
100
AcDbLine
 10
130.8418752843
 20
233.0002277783
 30
0.0
 11
130.8982889123
 21
232.976281614
 31
0.0
  0
LINE
  5
343
330
1F
100
AcDbEntity
  8
0
  6
Continuous
 62
     7
370
    15
100
AcDbLine
 10
133.5678546362
 20
231.843118194
 30
0.0
 11
133.6414978285
 21
231.8118585134
 31
0.0
  0
LINE
  5
344
330
1F
100
AcDbEntity
  8
0
  6
Continuous
 62
     8
370
    15
100
AcDbLine
 10
141.1411444032
 20
181.5809348827
 30
0.0
 11
131.4911444032
 21
181.5809348827
 31
0.0
  0
LINE
  5
345
330
1F
100
AcDbEntity
  8
0
  6
Continuous
 62
     8
370
    15
100
AcDbLine
 10
131.4911444032
 20
180.6809348827
 30
0.0
 11
141.1411444032
 21
180.6809348827
 31
0.0
  0
LINE
  5
346
330
1F
100
AcDbEntity
  8
0
  6
Continuous
 62
     8
370
    15
100
AcDbLine
 10
123.6464326751
 20
222.0506062048
 30
0.0
 11
123.4370953945
 21
221.4063323027
 31
0.0
  0
LINE
  5
347
330
1F
100
AcDbEntity
  8
0
  6
Continuous
 62
     8
370
    15
100
AcDbLine
 10
130.3038243067
 20
223.5051629622
 30
0.0
 11
130.6838004064
 21
223.3801819579
 31
0.0
  0
LINE
  5
348
330
1F
100
AcDbEntity
  8
0
  6
Continuous
 62
     8
370
    15
100
AcDbLine
 10
130.2040561347
 20
223.1981081016
 30
0.0
 11
130.5844899165
 21
223.074535698
 31
0.0
  0
LINE
  5
349
330
1F
100
AcDbEntity
  8
0
  6
Continuous
 62
     8
370
    15
100
AcDbLine
 10
129.9198078804
 20
222.323281929
 30
0.0
 11
130.2991613972
 21
222.1963848113
 31
0.0
  0
LINE
  5
34A
330
1F
100
AcDbEntity
  8
0
  6
Continuous
 62
     8
370
    15
100
AcDbLine
 10
129.8805132971
 20
222.2023456369
 30
0.0
 11
130.2624313176
 21
222.0833412501
 31
0.0
  0
LINE
  5
34B
330
1F
100
AcDbEntity
  8
0
  6
Continuous
 62
     8
370
    15
100
AcDbLine
 10
129.8154631718
 20
222.0021419373
 30
0.0
 11
130.1976796069
 21
221.8840559762
 31
0.0
  0
LINE
  5
34C
330
1F
100
AcDbEntity
  8
0
  6
Continuous
 62
     8
370
    15
100
AcDbLine
 10
271.1411444032
 20
98.3509348827
 30
0.0
 11
258.3811444032
 21
98.3509348827
 31
0.0
  0
LINE
  5
34D
330
1F
100
AcDbEntity
  8
0
  6
Continuous
 62
     8
370
    15
100
AcDbLine
 10
271.1411444032
 20
81.0574480718
 30
0.0
 11
258.3811444032
 21
81.0574480718
 31
0.0
  0
LINE
  5
34E
330
1F
100
AcDbEntity
  8
0
  6
Continuous
 62
     8
370
    15
100
AcDbLine
 10
271.1283617578
 20
80.9029554269
 30
0.0
 11
258.3939270486
 21
80.9029554269
 31
0.0
  0
LINE
  5
34F
330
1F
100
AcDbEntity
  8
0
  6
Continuous
 62
     8
370
    15
100
AcDbLine
 10
153.3411444032
 20
98.3509348827
 30
0.0
 11
140.5811444032
 21
98.3509348827
 31
0.0
  0
LINE
  5
350
330
1F
100
AcDbEntity
  8
0
  6
Continuous
 62
     8
370
    15
100
AcDbLine
 10
153.3411444032
 20
81.0574480718
 30
0.0
 11
140.5811444032
 21
81.0574480718
 31
0.0
  0
LINE
  5
351
330
1F
100
AcDbEntity
  8
0
  6
Continuous
 62
     8
370
    15
100
AcDbLine
 10
153.3283617578
 20
80.9029554269
 30
0.0
 11
140.5939270486
 21
80.9029554269
 31
0.0
  0
LINE
  5
352
330
1F
100
AcDbEntity
  8
0
  6
Continuous
 62
     8
370
    15
100
AcDbLine
 10
284.1098949036
 20
190.6359348827
 30
0.0
 11
284.1098949036
 21
197.3859348827
 31
0.0
  0
LINE
  5
353
330
1F
100
AcDbEntity
  8
0
  6
Continuous
 62
     8
370
    15
100
AcDbLine
 10
138.6011444032
 20
181.9109348827
 30
0.0
 11
138.6011444032
 21
182.2509348827
 31
0.0
  0
LINE
  5
354
330
1F
100
AcDbEntity
  8
0
  6
Continuous
 62
     8
370
    15
100
AcDbLine
 10
135.4611444032
 20
181.9109348827
 30
0.0
 11
135.4611444032
 21
182.2509348827
 31
0.0
  0
LINE
  5
355
330
1F
100
AcDbEntity
  8
0
  6
Continuous
 62
     8
370
    15
100
AcDbLine
 10
154.1211444032
 20
181.9109348827
 30
0.0
 11
154.1211444032
 21
182.2509348827
 31
0.0
  0
LINE
  5
356
330
1F
100
AcDbEntity
  8
0
  6
Continuous
 62
     8
370
    15
100
AcDbLine
 10
158.4611444032
 20
181.9109348827
 30
0.0
 11
158.4611444032
 21
182.2509348827
 31
0.0
  0
LINE
  5
357
330
1F
100
AcDbEntity
  8
0
  6
Continuous
 62
     8
370
    15
100
AcDbLine
 10
155.3211444032
 20
181.9109348827
 30
0.0
 11
155.3211444032
 21
182.2509348827
 31
0.0
  0
LINE
  5
358
330
1F
100
AcDbEntity
  8
0
  6
Continuous
 62
     8
370
    15
100
AcDbLine
 10
139.8011444032
 20
181.9109348827
 30
0.0
 11
139.8011444032
 21
182.2509348827
 31
0.0
  0
LINE
  5
359
330
1F
100
AcDbEntity
  8
0
  6
Continuous
 62
     8
370
    15
100
AcDbLine
 10
253.2611444032
 20
181.9109348827
 30
0.0
 11
253.2611444032
 21
182.2509348827
 31
0.0
  0
LINE
  5
35A
330
1F
100
AcDbEntity
  8
0
  6
Continuous
 62
     8
370
    15
100
AcDbLine
 10
276.2611444032
 20
181.9109348827
 30
0.0
 11
276.2611444032
 21
182.2509348827
 31
0.0
  0
LINE
  5
35B
330
1F
100
AcDbEntity
  8
0
  6
Continuous
 62
     8
370
    15
100
AcDbLine
 10
273.1211444032
 20
181.9109348827
 30
0.0
 11
273.1211444032
 21
182.2509348827
 31
0.0
  0
LINE
  5
35C
330
1F
100
AcDbEntity
  8
0
  6
Continuous
 62
     8
370
    15
100
AcDbLine
 10
271.9211444032
 20
181.9109348827
 30
0.0
 11
271.9211444032
 21
182.2509348827
 31
0.0
  0
LINE
  5
35D
330
1F
100
AcDbEntity
  8
0
  6
Continuous
 62
     8
370
    15
100
AcDbLine
 10
257.6011444032
 20
181.9109348827
 30
0.0
 11
257.6011444032
 21
182.2509348827
 31
0.0
  0
LINE
  5
35E
330
1F
100
AcDbEntity
  8
0
  6
Continuous
 62
     8
370
    15
100
AcDbLine
 10
256.4011444032
 20
181.9109348827
 30
0.0
 11
256.4011444032
 21
182.2509348827
 31
0.0
  0
LINE
  5
35F
330
1F
100
AcDbEntity
  8
0
  6
Continuous
 62
     8
370
    15
100
AcDbLine
 10
134.5851880101
 20
241.9609348827
 30
0.0
 11
134.6652035181
 21
241.9609348827
 31
0.0
  0
LINE
  5
360
330
1F
100
AcDbEntity
  8
0
  6
Continuous
 62
     8
370
    15
100
AcDbLine
 10
130.3118418175
 20
242.3709348827
 30
0.0
 11
130.3118418175
 21
242.1709250933
 31
0.0
  0
LINE
  5
361
330
1F
100
AcDbEntity
  8
0
  6
Continuous
 62
     8
370
    15
100
AcDbLine
 10
268.2211444032
 20
242.6209348827
 30
0.0
 11
268.2411444032
 21
242.6209348827
 31
0.0
  0
LINE
  5
362
330
1F
100
AcDbEntity
  8
0
  6
Continuous
 62
     8
370
    15
100
AcDbLine
 10
133.6743266362
 20
231.2572874318
 30
0.0
 11
133.6292973449
 21
231.2719183355
 31
0.0
  0
LINE
  5
363
330
1F
100
AcDbEntity
  8
0
  6
Continuous
 62
     8
370
    15
100
AcDbLine
 10
133.8169851136
 20
231.3609348827
 30
0.0
 11
133.8169851136
 21
231.4082814814
 31
0.0
  0
LINE
  5
364
330
1F
100
AcDbEntity
  8
0
  6
Continuous
 62
     8
370
    15
100
AcDbLine
 10
131.57758619
 20
232.2103981888
 30
0.0
 11
131.5392587055
 21
232.124313249
 31
0.0
  0
LINE
  5
365
330
1F
100
AcDbEntity
  8
0
  6
Continuous
 62
     8
370
    15
100
AcDbLine
 10
133.2520641603
 20
231.3617231281
 30
0.0
 11
133.2970466681
 21
231.4627554947
 31
0.0
  0
LINE
  5
366
330
1F
100
AcDbEntity
  8
0
  6
Continuous
 62
     8
370
    15
100
AcDbLine
 10
133.4724953099
 20
231.5526443484
 30
0.0
 11
133.5448093252
 21
231.5894901796
 31
0.0
  0
LINE
  5
367
330
1F
100
AcDbEntity
  8
0
  6
Continuous
 62
     8
370
    15
100
AcDbLine
 10
133.4916695908
 20
231.3605402296
 30
0.0
 11
133.4946443782
 21
231.3595736626
 31
0.0
  0
LINE
  5
368
330
1F
100
AcDbEntity
  8
0
  6
Continuous
 62
     8
370
    15
100
AcDbLine
 10
278.9743677079
 20
182.777711578
 30
0.0
 11
278.9011444032
 21
182.7044882733
 31
0.0
  0
LINE
  5
369
330
1F
100
AcDbEntity
  8
0
  6
Continuous
 62
     8
370
    15
100
AcDbLine
 10
278.8811444032
 20
238.6309348827
 30
0.0
 11
278.9011444032
 21
238.6309348827
 31
0.0
  0
LINE
  5
36A
330
1F
100
AcDbEntity
  8
0
  6
Continuous
 62
     8
370
    15
100
AcDbLine
 10
137.2511444032
 20
233.2509348827
 30
0.0
 11
137.2511444032
 21
233.1709348827
 31
0.0
  0
LINE
  5
36B
330
1F
100
AcDbEntity
  8
0
  6
Continuous
 62
     8
370
    15
100
AcDbLine
 10
137.2511444032
 20
207.0488490291
 30
0.0
 11
137.2511444032
 21
207.0005593844
 31
0.0
  0
LINE
  5
36C
330
1F
100
AcDbEntity
  8
0
  6
Continuous
 62
     8
370
    15
100
AcDbLine
 10
158.9611444032
 20
182.0009348827
 30
0.0
 11
181.1411444032
 21
182.0009348827
 31
0.0
  0
LINE
  5
36D
330
1F
100
AcDbEntity
  8
0
  6
Continuous
 62
     8
370
    15
100
AcDbLine
 10
141.1411444032
 20
180.5009348827
 30
0.0
 11
142.9611444032
 21
180.5009348827
 31
0.0
  0
LINE
  5
36E
330
1F
100
AcDbEntity
  8
0
  6
Continuous
 62
     8
370
    15
100
AcDbLine
 10
150.9611444032
 20
180.5009348827
 30
0.0
 11
181.1411444032
 21
180.5009348827
 31
0.0
  0
ENDSEC
  0
SECTION
  2
OBJECTS
  0
DICTIONARY
  5
C
330
0
100
AcDbDictionary
281
     1
  3
ACAD_GROUP
350
D
  3
ACAD_LAYOUT
350
1A
  3
ACAD_MLINESTYLE
350
17
  3
ACAD_PLOTSETTINGS
350
19
  3
ACAD_PLOTSTYLENAME
350
E
  0
DICTIONARY
  5
D
102
{ACAD_REACTORS
330
C
102
}
330
C
100
AcDbDictionary
281
     1
  0
DICTIONARY
  5
1A
102
{ACAD_REACTORS
330
C
102
}
330
C
100
AcDbDictionary
281
     1
  3
Layout1
350
1E
  3
Layout2
350
26
  3
Model
350
22
  0
DICTIONARY
  5
17
102
{ACAD_REACTORS
330
C
102
}
330
C
100
AcDbDictionary
281
     1
  3
Standard
350
18
  0
DICTIONARY
  5
19
102
{ACAD_REACTORS
330
C
102
}
330
C
100
AcDbDictionary
281
     1
  0
ACDBDICTIONARYWDFLT
  5
E
102
{ACAD_REACTORS
330
C
102
}
330
C
100
AcDbDictionary
281
     1
  3
Normal
350
F
100
AcDbDictionaryWithDefault
340
F
  0
LAYOUT
  5
1E
102
{ACAD_REACTORS
330
1A
102
}
330
1A
100
AcDbPlotSettings
  1

  2
none_device
  4

  6

 40
0.0
 41
0.0
 42
0.0
 43
0.0
 44
0.0
 45
0.0
 46
0.0
 47
0.0
 48
0.0
 49
0.0
140
0.0
141
0.0
142
1.0
143
1.0
 70
   688
 72
     0
 73
     0
 74
     5
  7

 75
    16
147
1.0
148
0.0
149
0.0
100
AcDbLayout
  1
Layout1
 70
     1
 71
     1
 10
0.0
 20
0.0
 11
420.0
 21
297.0
 12
0.0
 22
0.0
 32
0.0
 14
1.0000000000E+20
 24
1.0000000000E+20
 34
1.0000000000E+20
 15
-1.0000000000E+20
 25
-1.0000000000E+20
 35
-1.0000000000E+20
146
0.0
 13
0.0
 23
0.0
 33
0.0
 16
1.0
 26
0.0
 36
0.0
 17
0.0
 27
1.0
 37
0.0
 76
     0
330
1B
  0
LAYOUT
  5
26
102
{ACAD_REACTORS
330
1A
102
}
330
1A
100
AcDbPlotSettings
  1

  2
none_device
  4

  6

 40
0.0
 41
0.0
 42
0.0
 43
0.0
 44
0.0
 45
0.0
 46
0.0
 47
0.0
 48
0.0
 49
0.0
140
0.0
141
0.0
142
1.0
143
1.0
 70
   688
 72
     0
 73
     0
 74
     5
  7

 75
    16
147
1.0
148
0.0
149
0.0
100
AcDbLayout
  1
Layout2
 70
     1
 71
     2
 10
0.0
 20
0.0
 11
0.0
 21
0.0
 12
0.0
 22
0.0
 32
0.0
 14
0.0
 24
0.0
 34
0.0
 15
0.0
 25
0.0
 35
0.0
146
0.0
 13
0.0
 23
0.0
 33
0.0
 16
1.0
 26
0.0
 36
0.0
 17
0.0
 27
1.0
 37
0.0
 76
     0
330
23
  0
LAYOUT
  5
22
102
{ACAD_REACTORS
330
1A
102
}
330
1A
100
AcDbPlotSettings
  1

  2
none_device
  4

  6

 40
0.0
 41
0.0
 42
0.0
 43
0.0
 44
0.0
 45
0.0
 46
0.0
 47
0.0
 48
0.0
 49
0.0
140
0.0
141
0.0
142
1.0
143
1.0
 70
  1712
 72
     0
 73
     0
 74
     0
  7

 75
     0
147
1.0
148
0.0
149
0.0
100
AcDbLayout
  1
Model
 70
     1
 71
     0
 10
0.0
 20
0.0
 11
431.8
 21
279.4
 12
0.0
 22
0.0
 32
0.0
 14
0.0
 24
0.0
 34
0.0
 15
431.8
 25
279.4
 35
0.0
146
0.0
 13
0.0
 23
0.0
 33
0.0
 16
1.0
 26
0.0
 36
0.0
 17
0.0
 27
1.0
 37
0.0
 76
     0
330
1F
331
29
  0
MLINESTYLE
  5
18
102
{ACAD_REACTORS
330
17
102
}
330
17
100
AcDbMlineStyle
  2
Standard
 70
     0
  3

 62
   256
 51
90.0
 52
90.0
 71
     2
 49
0.5
 62
   256
  6
BYLAYER
 49
-0.5
 62
   256
  6
BYLAYER
  0
ACDBPLACEHOLDER
  5
F
102
{ACAD_REACTORS
330
E
102
}
330
E
  0
ENDSEC
  0
EOF
