  0
SECTION
  2
HEADER
  9
$ACADVER
  1
AC1015
  9
$ACADMAINTVER
 70
     6
  9
$DWGCODEPAGE
  3
ANSI_1252
  9
$INSBASE
 10
0.0
 20
0.0
 30
0.0
  9
$EXTMIN
 10
0.0
 20
0.0
 30
0.0
  9
$EXTMAX
 10
420.0
 20
297.0
 30
0.0
  9
$LIMMIN
 10
0.0
 20
0.0
  9
$LIMMAX
 10
420.0
 20
297.0
  9
$ORTHOMODE
 70
     0
  9
$REGENMODE
 70
     1
  9
$FILLMODE
 70
     1
  9
$QTEXTMODE
 70
     0
  9
$MIRRTEXT
 70
     1
  9
$LTSCALE
 40
1.0
  9
$ATTMODE
 70
     1
  9
$TEXTSIZE
 40
3.5
  9
$TRACEWID
 40
1.0
  9
$TEXTSTYLE
  7
Standard
  9
$CLAYER
  8
0
  9
$CELTYPE
  6
ByLayer
  9
$CECOLOR
 62
   256
  9
$CELTSCALE
 40
1.0
  9
$DISPSILH
 70
     0
  9
$DIMSCALE
 40
1.0
  9
$DIMASZ
 40
3.302
  9
$DIMEXO
 40
1.0
  9
$DIMDLI
 40
3.75
  9
$DIMRND
 40
0.0
  9
$DIMDLE
 40
0.0
  9
$DIMEXE
 40
1.0
  9
$DIMTP
 40
0.0
  9
$DIMTM
 40
0.0
  9
$DIMTXT
 40
3.5
  9
$DIMCEN
 40
2.5
  9
$DIMTSZ
 40
0.0
  9
$DIMTOL
 70
     0
  9
$DIMLIM
 70
     0
  9
$DIMTIH
 70
     1
  9
$DIMTOH
 70
     1
  9
$DIMSE1
 70
     0
  9
$DIMSE2
 70
     0
  9
$DIMTAD
 70
     1
  9
$DIMZIN
 70
     0
  9
$DIMBLK
  1

  9
$DIMASO
 70
     1
  9
$DIMSHO
 70
     1
  9
$DIMPOST
  1

  9
$DIMAPOST
  1

  9
$DIMALT
 70
     0
  9
$DIMALTD
 70
     3
  9
$DIMALTF
 40
0.0393700787
  9
$DIMLFAC
 40
10.0
  9
$DIMTOFL
 70
     1
  9
$DIMTVP
 40
0.0
  9
$DIMTIX
 70
     0
  9
$DIMSOXD
 70
     0
  9
$DIMSAH
 70
     0
  9
$DIMBLK1
  1

  9
$DIMBLK2
  1

  9
$DIMSTYLE
  2
ISO-25
  9
$DIMCLRD
 70
     0
  9
$DIMCLRE
 70
     0
  9
$DIMCLRT
 70
     0
  9
$DIMTFAC
 40
1.0
  9
$DIMGAP
 40
1.524
  9
$DIMJUST
 70
     0
  9
$DIMSD1
 70
     0
  9
$DIMSD2
 70
     0
  9
$DIMTOLJ
 70
     0
  9
$DIMTZIN
 70
     0
  9
$DIMALTZ
 70
     0
  9
$DIMALTTZ
 70
     0
  9
$DIMUPT
 70
     0
  9
$DIMDEC
 70
     1
  9
$DIMTDEC
 70
     1
  9
$DIMALTU
 70
     2
  9
$DIMALTTD
 70
     3
  9
$DIMTXSTY
  7
Standard
  9
$DIMAUNIT
 70
     0
  9
$DIMADEC
 70
     1
  9
$DIMALTRND
 40
0.0
  9
$DIMAZIN
 70
     0
  9
$DIMDSEP
 70
    44
  9
$DIMATFIT
 70
     3
  9
$DIMFRAC
 70
     0
  9
$DIMLDRBLK
  1

  9
$DIMLUNIT
 70
     2
  9
$DIMLWD
 70
    -2
  9
$DIMLWE
 70
    -2
  9
$DIMTMOVE
 70
     0
  9
$LUNITS
 70
     2
  9
$LUPREC
 70
     1
  9
$SKETCHINC
 40
1.0
  9
$FILLETRAD
 40
10.0
  9
$AUNITS
 70
     0
  9
$AUPREC
 70
     1
  9
$MENU
  1
.
  9
$ELEVATION
 40
0.0
  9
$PELEVATION
 40
0.0
  9
$THICKNESS
 40
0.0
  9
$LIMCHECK
 70
     0
  9
$CHAMFERA
 40
10.0
  9
$CHAMFERB
 40
10.0
  9
$CHAMFERC
 40
20.0
  9
$CHAMFERD
 40
0.0
  9
$SKPOLY
 70
     0
  9
$TDCREATE
 40
2455729.610379653
  9
$TDUCREATE
 40
2455729.568712986
  9
$TDUPDATE
 40
2455729.610379664
  9
$TDUUPDATE
 40
2455729.568712998
  9
$TDINDWG
 40
0.0000000116
  9
$TDUSRTIMER
 40
0.0000000116
  9
$USRTIMER
 70
     1
  9
$ANGBASE
 50
0.0
  9
$ANGDIR
 70
     0
  9
$PDMODE
 70
     0
  9
$PDSIZE
 40
-1.0
  9
$PLINEWID
 40
0.0
  9
$SPLFRAME
 70
     0
  9
$SPLINETYPE
 70
     6
  9
$SPLINESEGS
 70
     8
  9
$HANDSEED
  5
39A
  9
$SURFTAB1
 70
     6
  9
$SURFTAB2
 70
     6
  9
$SURFTYPE
 70
     6
  9
$SURFU
 70
     6
  9
$SURFV
 70
     6
  9
$UCSBASE
  2

  9
$UCSNAME
  2

  9
$UCSORG
 10
0.0
 20
0.0
 30
0.0
  9
$UCSXDIR
 10
1.0
 20
0.0
 30
0.0
  9
$UCSYDIR
 10
0.0
 20
1.0
 30
0.0
  9
$UCSORTHOREF
  2

  9
$UCSORTHOVIEW
 70
     0
  9
$UCSORGTOP
 10
0.0
 20
0.0
 30
0.0
  9
$UCSORGBOTTOM
 10
0.0
 20
0.0
 30
0.0
  9
$UCSORGLEFT
 10
0.0
 20
0.0
 30
0.0
  9
$UCSORGRIGHT
 10
0.0
 20
0.0
 30
0.0
  9
$UCSORGFRONT
 10
0.0
 20
0.0
 30
0.0
  9
$UCSORGBACK
 10
0.0
 20
0.0
 30
0.0
  9
$PUCSBASE
  2

  9
$PUCSNAME
  2

  9
$PUCSORG
 10
0.0
 20
0.0
 30
0.0
  9
$PUCSXDIR
 10
1.0
 20
0.0
 30
0.0
  9
$PUCSYDIR
 10
0.0
 20
1.0
 30
0.0
  9
$PUCSORTHOREF
  2

  9
$PUCSORTHOVIEW
 70
     0
  9
$PUCSORGTOP
 10
0.0
 20
0.0
 30
0.0
  9
$PUCSORGBOTTOM
 10
0.0
 20
0.0
 30
0.0
  9
$PUCSORGLEFT
 10
0.0
 20
0.0
 30
0.0
  9
$PUCSORGRIGHT
 10
0.0
 20
0.0
 30
0.0
  9
$PUCSORGFRONT
 10
0.0
 20
0.0
 30
0.0
  9
$PUCSORGBACK
 10
0.0
 20
0.0
 30
0.0
  9
$USERI1
 70
     0
  9
$USERI2
 70
     0
  9
$USERI3
 70
     0
  9
$USERI4
 70
     0
  9
$USERI5
 70
     0
  9
$USERR1
 40
0.0
  9
$USERR2
 40
0.0
  9
$USERR3
 40
0.0
  9
$USERR4
 40
0.0
  9
$USERR5
 40
0.0
  9
$WORLDVIEW
 70
     1
  9
$SHADEDGE
 70
     3
  9
$SHADEDIF
 70
    70
  9
$TILEMODE
 70
     1
  9
$MAXACTVP
 70
    64
  9
$PINSBASE
 10
0.0
 20
0.0
 30
0.0
  9
$PLIMCHECK
 70
     0
  9
$PEXTMIN
 10
1.0000000000E+20
 20
1.0000000000E+20
 30
1.0000000000E+20
  9
$PEXTMAX
 10
-1.0000000000E+20
 20
-1.0000000000E+20
 30
-1.0000000000E+20
  9
$PLIMMIN
 10
0.0
 20
0.0
  9
$PLIMMAX
 10
420.0
 20
297.0
  9
$UNITMODE
 70
     0
  9
$VISRETAIN
 70
     1
  9
$PLINEGEN
 70
     0
  9
$PSLTSCALE
 70
     1
  9
$TREEDEPTH
 70
  3020
  9
$CMLSTYLE
  2
Standard
  9
$CMLJUST
 70
     0
  9
$CMLSCALE
 40
20.0
  9
$PROXYGRAPHICS
 70
     1
  9
$MEASUREMENT
 70
     1
  9
$CELWEIGHT
370
    -1
  9
$ENDCAPS
280
     0
  9
$JOINSTYLE
280
     0
  9
$LWDISPLAY
290
     1
  9
$INSUNITS
 70
     4
  9
$HYPERLINKBASE
  1

  9
$STYLESHEET
  1

  9
$XEDIT
290
     1
  9
$CEPSNTYPE
380
     0
  9
$PSTYLEMODE
290
     1
  9
$FINGERPRINTGUID
  2
{E986F5A2-5A55-431C-BA91-037DDA6B2239}
  9
$VERSIONGUID
  2
{FAEB1C32-E019-11D5-929B-00C0DF256EC4}
  9
$EXTNAMES
290
     1
  9
$PSVPSCALE
 40
0.0
  9
$OLESTARTUP
290
     0
  0
ENDSEC
  0
SECTION
  2
CLASSES
  0
CLASS
  1
ACDBDICTIONARYWDFLT
  2
AcDbDictionaryWithDefault
  3
ObjectDBX Classes
 90
        0
280
     0
281
     0
  0
CLASS
  1
VISUALSTYLE
  2
AcDbVisualStyle
  3
ObjectDBX Classes
 90
     4095
280
     0
281
     0
  0
CLASS
  1
MATERIAL
  2
AcDbMaterial
  3
ObjectDBX Classes
 90
     1153
280
     0
281
     0
  0
CLASS
  1
ACDBPLACEHOLDER
  2
AcDbPlaceHolder
  3
ObjectDBX Classes
 90
        0
280
     0
281
     0
  0
CLASS
  1
LAYOUT
  2
AcDbLayout
  3
ObjectDBX Classes
 90
        0
280
     0
281
     0
  0
ENDSEC
  0
SECTION
  2
TABLES
  0
TABLE
  2
VPORT
  5
8
330
0
100
AcDbSymbolTable
 70
     1
  0
VPORT
  5
29
330
8
100
AcDbSymbolTableRecord
100
AcDbViewportTableRecord
  2
*Active
 70
     0
 10
0.0
 20
0.0
 11
1.0
 21
1.0
 12
210.0
 22
148.5
 13
0.0
 23
0.0
 14
10.0
 24
10.0
 15
10.0
 25
10.0
 16
0.0
 26
0.0
 36
1.0
 17
0.0
 27
0.0
 37
0.0
 40
297.0
 41
1.4141414141
 42
50.0
 43
0.0
 44
0.0
 50
0.0
 51
0.0
 71
     0
 72
  2000
 73
     1
 74
     3
 75
     0
 76
     0
 77
     0
 78
     0
281
     0
 65
     1
110
0.0
120
0.0
130
0.0
111
1.0
121
0.0
131
0.0
112
0.0
122
1.0
132
0.0
 79
     0
146
0.0
  0
ENDTAB
  0
TABLE
  2
LTYPE
  5
5
330
0
100
AcDbSymbolTable
 70
     6
  0
LTYPE
  5
14
330
5
100
AcDbSymbolTableRecord
100
AcDbLinetypeTableRecord
  2
ByBlock
 70
     0
  3

 72
    65
 73
     0
 40
0.0
  0
LTYPE
  5
15
330
5
100
AcDbSymbolTableRecord
100
AcDbLinetypeTableRecord
  2
ByLayer
 70
     0
  3

 72
    65
 73
     0
 40
0.0
  0
LTYPE
  5
16
330
5
100
AcDbSymbolTableRecord
100
AcDbLinetypeTableRecord
  2
Continuous
 70
     0
  3
Solid line
 72
    65
 73
     0
 40
0.0
  0
LTYPE
  5
3F
330
5
100
AcDbSymbolTableRecord
100
AcDbLinetypeTableRecord
  2
HIDDEN
 70
     0
  3
Hidden __ __ __ __ __ __ __ __ __ __ __ __ __ __
 72
    65
 73
     2
 40
1.905
 49
1.27
 74
     0
 49
-0.635
 74
     0
  0
LTYPE
  5
40
330
5
100
AcDbSymbolTableRecord
100
AcDbLinetypeTableRecord
  2
PHANTOM
 70
     0
  3
Phantom ______  __  __  ______  __  __  ______
 72
    65
 73
     6
 40
12.7
 49
6.35
 74
     0
 49
-1.27
 74
     0
 49
1.27
 74
     0
 49
-1.27
 74
     0
 49
1.27
 74
     0
 49
-1.27
 74
     0
  0
LTYPE
  5
41
330
5
100
AcDbSymbolTableRecord
100
AcDbLinetypeTableRecord
  2
CENTER
 70
     0
  3
Center ____ _ ____ _ ____ _ ____ _ ____ _ ____
 72
    65
 73
     4
 40
10.16
 49
6.35
 74
     0
 49
-1.27
 74
     0
 49
1.27
 74
     0
 49
-1.27
 74
     0
  0
LTYPE
  5
42
330
5
100
AcDbSymbolTableRecord
100
AcDbLinetypeTableRecord
  2
CENTERX2
 70
     0
  3
Center (2x) ________  __  ________  __  _____
 72
    65
 73
     4
 40
20.32
 49
12.7
 74
     0
 49
-2.54
 74
     0
 49
2.54
 74
     0
 49
-2.54
 74
     0
  0
LTYPE
  5
43
330
5
100
AcDbSymbolTableRecord
100
AcDbLinetypeTableRecord
  2
DOT2
 70
     0
  3
Dot (.5x) ........................................
 72
    65
 73
     2
 40
0.635
 49
0.0
 74
     0
 49
-0.635
 74
     0
  0
ENDTAB
  0
TABLE
  2
LAYER
  5
2
330
0
100
AcDbSymbolTable
 70
     4
  0
LAYER
  5
10
330
2
100
AcDbSymbolTableRecord
100
AcDbLayerTableRecord
  2
0
 70
     0
 62
     7
  6
Continuous
370
    -3
390
F
  0
LAYER
  5
44
330
2
100
AcDbSymbolTableRecord
100
AcDbLayerTableRecord
  2
FORMAT
 70
     0
 62
     7
  6
Continuous
370
    -3
390
F
  0
LAYER
  5
45
330
2
100
AcDbSymbolTableRecord
100
AcDbLayerTableRecord
  2
SLD-0
 70
     0
 62
     1
  6
Continuous
370
    -3
390
F
  0
LAYER
  5
46
330
2
100
AcDbSymbolTableRecord
100
AcDbLayerTableRecord
  2
WATERMARK
 70
     0
 62
    20
  6
Continuous
370
    -3
390
F
  0
ENDTAB
  0
TABLE
  2
STYLE
  5
3
330
0
100
AcDbSymbolTable
 70
     1
  0
STYLE
  5
11
330
3
100
AcDbSymbolTableRecord
100
AcDbTextStyleTableRecord
  2
Standard
 70
     0
 40
0.0
 41
1.0
 50
0.0
 71
     0
 42
2.5
  3
txt
  4

  0
ENDTAB
  0
TABLE
  2
VIEW
  5
6
330
0
100
AcDbSymbolTable
 70
     0
  0
ENDTAB
  0
TABLE
  2
UCS
  5
7
330
0
100
AcDbSymbolTable
 70
     0
  0
ENDTAB
  0
TABLE
  2
APPID
  5
9
330
0
100
AcDbSymbolTable
 70
     1
  0
APPID
  5
12
330
9
100
AcDbSymbolTableRecord
100
AcDbRegAppTableRecord
  2
ACAD
 70
     0
  0
ENDTAB
  0
TABLE
  2
DIMSTYLE
  5
A
330
0
100
AcDbSymbolTable
 70
     1
100
AcDbDimStyleTable
  0
DIMSTYLE
105
27
330
A
100
AcDbSymbolTableRecord
100
AcDbDimStyleTableRecord
  2
ISO-25
 70
     0
 41
2.5
 42
0.625
 43
3.75
 44
1.25
 73
     0
 74
     0
 77
     1
 78
     8
140
2.5
141
2.5
143
0.0393700787
147
0.625
171
     3
172
     1
271
     2
272
     2
274
     3
278
    44
283
     0
284
     8
340
11
  0
ENDTAB
  0
TABLE
  2
BLOCK_RECORD
  5
1
330
0
100
AcDbSymbolTable
 70
     1
  0
BLOCK_RECORD
  5
1F
330
1
100
AcDbSymbolTableRecord
100
AcDbBlockTableRecord
  2
*Model_Space
340
22
  0
BLOCK_RECORD
  5
1B
330
1
100
AcDbSymbolTableRecord
100
AcDbBlockTableRecord
  2
*Paper_Space
340
1E
  0
BLOCK_RECORD
  5
23
330
1
100
AcDbSymbolTableRecord
100
AcDbBlockTableRecord
  2
*Paper_Space0
340
26
  0
ENDTAB
  0
ENDSEC
  0
SECTION
  2
BLOCKS
  0
BLOCK
  5
20
330
1F
100
AcDbEntity
  8
0
100
AcDbBlockBegin
  2
*Model_Space
 70
     0
 10
0.0
 20
0.0
 30
0.0
  3
*Model_Space
  1

  0
ENDBLK
  5
21
330
1F
100
AcDbEntity
  8
0
100
AcDbBlockEnd
  0
BLOCK
  5
1C
330
1B
100
AcDbEntity
 67
     1
  8
0
100
AcDbBlockBegin
  2
*Paper_Space
 70
     0
 10
0.0
 20
0.0
 30
0.0
  3
*Paper_Space
  1

  0
ENDBLK
  5
1D
330
1B
100
AcDbEntity
 67
     1
  8
0
100
AcDbBlockEnd
  0
BLOCK
  5
24
330
23
100
AcDbEntity
  8
0
100
AcDbBlockBegin
  2
*Paper_Space0
 70
     0
 10
0.0
 20
0.0
 30
0.0
  3
*Paper_Space0
  1

  0
ENDBLK
  5
25
330
23
100
AcDbEntity
  8
0
100
AcDbBlockEnd
  0
ENDSEC
  0
SECTION
  2
ENTITIES
  0
SPLINE
  5
47
330
1F
100
AcDbEntity
  8
0
  6
Continuous
 62
     7
370
    15
100
AcDbSpline
210
0.0
220
0.0
230
1.0
 70
     8
 71
     3
 72
    11
 73
     7
 74
     0
 42
0.00000001
 43
0.00000001
 40
0.0
 40
0.0
 40
0.0
 40
0.0
 40
0.12128981446941
 40
0.5680270318089456
 40
0.8439924637064958
 40
1.0
 40
1.0
 40
1.0
 40
1.0
 10
204.0257641804753
 20
112.8033257144342
 30
0.0
 10
204.1656156905329
 20
112.8030299213263
 30
0.0
 10
204.820571248834
 20
112.801644656769
 30
0.0
 10
205.7945581308153
 20
112.813365795305
 30
0.0
 10
206.8067608446936
 20
112.8107750379496
 30
0.0
 10
207.3034697765062
 20
112.7899849686426
 30
0.0
 10
207.4828567808171
 20
112.7824766111045
 30
0.0
  0
SPLINE
  5
48
330
1F
100
AcDbEntity
  8
0
  6
Continuous
 62
     7
370
    15
100
AcDbSpline
210
0.0
220
0.0
230
1.0
 70
     8
 71
     3
 72
    11
 73
     7
 74
     0
 42
0.00000001
 43
0.00000001
 40
0.0
 40
0.0
 40
0.0
 40
0.0
 40
0.1807913589092839
 40
0.4499685951267316
 40
0.7680346093456334
 40
1.0
 40
1.0
 40
1.0
 40
1.0
 10
207.4848441730564
 20
115.7287035952915
 30
0.0
 10
207.2769374764743
 20
115.7215766826024
 30
0.0
 10
206.759481970067
 20
115.7038386285844
 30
0.0
 10
205.8737740978065
 20
115.7038859111673
 30
0.0
 10
204.9281268587343
 20
115.7160752167809
 30
0.0
 10
204.2933546270009
 20
115.716657458538
 30
0.0
 10
204.0256513878658
 20
115.7169030080383
 30
0.0
  0
SPLINE
  5
49
330
1F
100
AcDbEntity
  8
0
  6
Continuous
 62
     7
370
    15
100
AcDbSpline
210
0.0
220
0.0
230
1.0
 70
     8
 71
     3
 72
     9
 73
     5
 74
     0
 42
0.00000001
 43
0.00000001
 40
0.0
 40
0.0
 40
0.0
 40
0.0
 40
0.3392060610652518
 40
1.0
 40
1.0
 40
1.0
 40
1.0
 10
207.6053146333161
 20
112.7960825651796
 30
0.0
 10
207.6044949235316
 20
112.7960846526775
 30
0.0
 10
207.6020783694702
 20
112.7960908067475
 30
0.0
 10
207.6073659512916
 20
112.7957619325813
 30
0.0
 10
207.6108599533108
 20
112.7955446145255
 30
0.0
  0
SPLINE
  5
4A
330
1F
100
AcDbEntity
  8
0
  6
Continuous
 62
     7
370
    15
100
AcDbSpline
210
0.0
220
0.0
230
1.0
 70
     8
 71
     3
 72
    27
 73
    23
 74
     0
 42
0.00000001
 43
0.00000001
 40
0.0
 40
0.0
 40
0.0
 40
0.0
 40
0.0015929029002614
 40
0.0170269638058066
 40
0.0335432286711185
 40
0.0399479580050123
 40
0.0465795748191436
 40
0.0529447242859244
 40
0.2407259773131367
 40
0.4216311247967934
 40
0.5975203985782281
 40
0.7709850302814598
 40
0.8570617432292895
 40
0.899955117201452
 40
0.9190545706455747
 40
0.9427890347828485
 40
0.9528907707088647
 40
0.9634998822026916
 40
0.9732844360935938
 40
0.9832371372439903
 40
0.9949202939174496
 40
1.0
 40
1.0
 40
1.0
 40
1.0
 10
209.0263473229199
 20
115.6131260045658
 30
0.0
 10
209.0267669910829
 20
115.6130523836758
 30
0.0
 10
209.0312529359699
 20
115.6122654303534
 30
0.0
 10
209.011396947377
 20
115.616026574152
 30
0.0
 10
208.9809849737695
 20
115.622013688928
 30
0.0
 10
208.9325000397143
 20
115.627977583723
 30
0.0
 10
208.9227429735002
 20
115.628807290234
 30
0.0
 10
208.8646199468625
 20
115.6347982920639
 30
0.0
 10
208.7223351664408
 20
115.6469918201245
 30
0.0
 10
208.4995625415507
 20
115.6632390594166
 30
0.0
 10
208.2462406415812
 20
115.6790587906804
 30
0.0
 10
208.0110257815363
 20
115.6919578570716
 30
0.0
 10
207.8364723825341
 20
115.7007112504155
 30
0.0
 10
207.7437381522419
 20
115.7052129211989
 30
0.0
 10
207.6952202288576
 20
115.7074587333382
 30
0.0
 10
207.6489456990276
 20
115.7097745272483
 30
0.0
 10
207.6187389131421
 20
115.7104056802291
 30
0.0
 10
207.6309256264538
 20
115.7104998174055
 30
0.0
 10
207.6790589087161
 20
115.7049361041822
 30
0.0
 10
207.7225229415918
 20
115.6951521047554
 30
0.0
 10
207.7405186942434
 20
115.6890413682009
 30
0.0
 10
207.7365814738254
 20
115.6904482894711
 30
0.0
 10
207.7353883648203
 20
115.6908746335054
 30
0.0
  0
SPLINE
  5
4B
330
1F
100
AcDbEntity
  8
0
  6
Continuous
 62
     7
370
    15
100
AcDbSpline
210
0.0
220
0.0
230
1.0
 70
     8
 71
     3
 72
    10
 73
     6
 74
     0
 42
0.00000001
 43
0.00000001
 40
0.0
 40
0.0
 40
0.0
 40
0.0
 40
0.4825083110431228
 40
0.8351039101517496
 40
1.0
 40
1.0
 40
1.0
 40
1.0
 10
204.0256412085615
 20
112.6953059706935
 30
0.0
 10
204.8162863876234
 20
112.6947679565332
 30
0.0
 10
206.1846998749472
 20
112.6938367855696
 30
0.0
 10
207.8249954176679
 20
112.7089396935798
 30
0.0
 10
208.6709073586716
 20
112.6911928170133
 30
0.0
 10
208.9404528883952
 20
112.6855378652232
 30
0.0
  0
SPLINE
  5
4C
330
1F
100
AcDbEntity
  8
0
  6
Continuous
 62
     7
370
    15
100
AcDbSpline
210
0.0
220
0.0
230
1.0
 70
     8
 71
     3
 72
    11
 73
     7
 74
     0
 42
0.00000001
 43
0.00000001
 40
0.0
 40
0.0
 40
0.0
 40
0.0
 40
0.2464135773863731
 40
0.4969269295497188
 40
0.7482848166638798
 40
1.0
 40
1.0
 40
1.0
 40
1.0
 10
208.9308652298911
 20
112.6868885860829
 30
0.0
 10
209.0085962045393
 20
112.6900579186464
 30
0.0
 10
209.1653514246557
 20
112.6964493144298
 30
0.0
 10
209.3840731227111
 20
112.8086310220719
 30
0.0
 10
209.5640990183508
 20
112.9866953558744
 30
0.0
 10
209.6165962657172
 20
113.1463791636085
 30
0.0
 10
209.6428635318892
 20
113.2262777733743
 30
0.0
  0
SPLINE
  5
4D
330
1F
100
AcDbEntity
  8
0
  6
Continuous
 62
     7
370
    15
100
AcDbSpline
210
0.0
220
0.0
230
1.0
 70
     8
 71
     3
 72
     9
 73
     5
 74
     0
 42
0.00000001
 43
0.00000001
 40
0.0
 40
0.0
 40
0.0
 40
0.0
 40
0.1624012428965891
 40
1.0
 40
1.0
 40
1.0
 40
1.0
 10
208.937964927258
 20
115.6360674222007
 30
0.0
 10
208.9337640838638
 20
115.6359113715709
 30
0.0
 10
208.9078970195528
 20
115.6349504760319
 30
0.0
 10
208.8820600119877
 20
115.634630211854
 30
0.0
 10
208.8604189665639
 20
115.6343619589767
 30
0.0
  0
SPLINE
  5
4E
330
1F
100
AcDbEntity
  8
0
  6
Continuous
 62
     7
370
    15
100
AcDbSpline
210
0.0
220
0.0
230
1.0
 70
     8
 71
     3
 72
    11
 73
     7
 74
     0
 42
0.00000001
 43
0.00000001
 40
0.0
 40
0.0
 40
0.0
 40
0.0
 40
0.2517299035317799
 40
0.5030875841465188
 40
0.7535956356251844
 40
1.0
 40
1.0
 40
1.0
 40
1.0
 10
209.642965217931
 20
115.093904956325
 30
0.0
 10
209.6166941092355
 20
115.1738188020831
 30
0.0
 10
209.5641907378796
 20
115.333528328199
 30
0.0
 10
209.3841326875778
 20
115.5120637028841
 30
0.0
 10
209.1653662339287
 20
115.6249050222096
 30
0.0
 10
209.0086006885571
 20
115.6318903847541
 30
0.0
 10
208.9308652298911
 20
115.6353542221685
 30
0.0
  0
SPLINE
  5
4F
330
1F
100
AcDbEntity
  8
0
  6
Continuous
 62
     7
370
    15
100
AcDbSpline
210
0.0
220
0.0
230
1.0
 70
     8
 71
     3
 72
    13
 73
     9
 74
     0
 42
0.00000001
 43
0.00000001
 40
0.0
 40
0.0
 40
0.0
 40
0.0
 40
0.088361848131933
 40
0.30042893587812
 40
0.5093336024502426
 40
0.715290010849128
 40
0.9184599112791288
 40
1.0
 40
1.0
 40
1.0
 40
1.0
 10
209.6478151766482
 20
113.2399095847491
 30
0.0
 10
209.6597026801926
 20
113.2932508776435
 30
0.0
 10
209.7001200109253
 20
113.4746104598778
 30
0.0
 10
209.7338073830407
 20
113.788497286328
 30
0.0
 10
209.7505914356188
 20
114.1760348423239
 30
0.0
 10
209.7314798787585
 20
114.5579668857288
 30
0.0
 10
209.6974258592444
 20
114.8600969619082
 30
0.0
 10
209.6593133637352
 20
115.0320009355651
 30
0.0
 10
209.6483980590967
 20
115.0812337190908
 30
0.0
  0
SPLINE
  5
50
330
1F
100
AcDbEntity
  8
0
  6
Continuous
 62
     7
370
    15
100
AcDbSpline
210
0.0
220
0.0
230
1.0
 70
     8
 71
     3
 72
    11
 73
     7
 74
     0
 42
0.00000001
 43
0.00000001
 40
0.0
 40
0.0
 40
0.0
 40
0.0
 40
0.2464085926611636
 40
0.4969192661688728
 40
0.7482773245288976
 40
1.0
 40
1.0
 40
1.0
 40
1.0
 10
208.9308652299245
 20
112.6836355523585
 30
0.0
 10
209.0085985016289
 20
112.6869561391626
 30
0.0
 10
209.1653591077225
 20
112.6936525921561
 30
0.0
 10
209.3841040491383
 20
112.8061752118525
 30
0.0
 10
209.5641468838465
 20
112.9844842837014
 30
0.0
 10
209.6166474424179
 20
113.1441842047023
 30
0.0
 10
209.6429167470813
 20
113.2240920379455
 30
0.0
  0
ARC
  5
51
330
1F
100
AcDbEntity
  8
0
  6
Continuous
 62
     7
370
    15
100
AcDbCircle
 10
196.0056497463
 20
49.4079744359
 30
0.0
 40
0.2000000000000171
100
AcDbArc
 50
270.0
 51
0.0
  0
ARC
  5
52
330
1F
100
AcDbEntity
  8
0
  6
Continuous
 62
     7
370
    15
100
AcDbCircle
 10
190.7056497463
 20
49.4079744359
 30
0.0
 40
0.1999999999999957
100
AcDbArc
 50
180.0
 51
270.0
  0
LINE
  5
53
330
1F
100
AcDbEntity
  8
0
  6
Continuous
 62
     7
370
    15
100
AcDbLine
 10
196.2056497463
 20
49.4079744359
 30
0.0
 11
196.2056497463
 21
49.8079744359
 31
0.0
  0
LINE
  5
54
330
1F
100
AcDbEntity
  8
0
  6
Continuous
 62
     7
370
    15
100
AcDbLine
 10
190.5056497463
 20
49.8079744359
 30
0.0
 11
190.5056497463
 21
49.4079744359
 31
0.0
  0
LINE
  5
55
330
1F
100
AcDbEntity
  8
0
  6
Continuous
 62
     7
370
    15
100
AcDbLine
 10
137.3056497463
 20
49.4079744359
 30
0.0
 11
137.3056497463
 21
49.8079744359
 31
0.0
  0
LINE
  5
56
330
1F
100
AcDbEntity
  8
0
  6
Continuous
 62
     7
370
    15
100
AcDbLine
 10
131.6056497463
 20
49.8079744359
 30
0.0
 11
131.6056497463
 21
49.4079744359
 31
0.0
  0
ARC
  5
57
330
1F
100
AcDbEntity
  8
0
  6
Continuous
 62
     7
370
    15
100
AcDbCircle
 10
137.1056497463
 20
49.4079744359
 30
0.0
 40
0.1999999999999957
100
AcDbArc
 50
270.0
 51
0.0
  0
ARC
  5
58
330
1F
100
AcDbEntity
  8
0
  6
Continuous
 62
     7
370
    15
100
AcDbCircle
 10
131.8056497463
 20
49.4079744359
 30
0.0
 40
0.2000000000000171
100
AcDbArc
 50
180.0
 51
270.0
  0
LINE
  5
59
330
1F
100
AcDbEntity
  8
0
  6
Continuous
 62
     7
370
    15
100
AcDbLine
 10
196.1856497463
 20
49.8079744359
 30
0.0
 11
196.1856497463
 21
56.6079744359
 31
0.0
  0
LINE
  5
5A
330
1F
100
AcDbEntity
  8
0
  6
Continuous
 62
     7
370
    15
100
AcDbLine
 10
190.5256497463
 20
56.6079744359
 30
0.0
 11
190.5256497463
 21
49.8079744359
 31
0.0
  0
LINE
  5
5B
330
1F
100
AcDbEntity
  8
0
  6
Continuous
 62
     7
370
    15
100
AcDbLine
 10
137.2856497463
 20
49.8079744359
 30
0.0
 11
137.2856497463
 21
56.6079744359
 31
0.0
  0
LINE
  5
5C
330
1F
100
AcDbEntity
  8
0
  6
Continuous
 62
     7
370
    15
100
AcDbLine
 10
131.6256497463
 20
56.6079744359
 30
0.0
 11
131.6256497463
 21
49.8079744359
 31
0.0
  0
ARC
  5
5D
330
1F
100
AcDbEntity
  8
0
  6
Continuous
 62
     7
370
    15
100
AcDbCircle
 10
196.6956497463
 20
65.8579744359
 30
0.0
 40
0.1500000000000199
100
AcDbArc
 50
90.0
 51
180.0
  0
ARC
  5
5E
330
1F
100
AcDbEntity
  8
0
  6
Continuous
 62
     7
370
    15
100
AcDbCircle
 10
190.0156497463
 20
65.8579744359
 30
0.0
 40
0.1500000000000199
100
AcDbArc
 50
0.0
 51
90.0
  0
LINE
  5
5F
330
1F
100
AcDbEntity
  8
0
  6
Continuous
 62
     7
370
    15
100
AcDbLine
 10
196.5456497463
 20
57.2112310305
 30
0.0
 11
196.5456497463
 21
65.8579744359
 31
0.0
  0
LINE
  5
60
330
1F
100
AcDbEntity
  8
0
  6
Continuous
 62
     7
370
    15
100
AcDbLine
 10
190.1656497463
 20
65.8579744359
 30
0.0
 11
190.1656497463
 21
57.2112310305
 31
0.0
  0
ARC
  5
61
330
1F
100
AcDbEntity
  8
0
  6
Continuous
 62
     7
370
    15
100
AcDbCircle
 10
196.0756497463
 20
57.2112310305
 30
0.0
 40
0.4700000000000013
100
AcDbArc
 50
350.5402980318
 51
0.0
  0
ARC
  5
62
330
1F
100
AcDbEntity
  8
0
  6
Continuous
 62
     7
370
    15
100
AcDbCircle
 10
190.6356497463
 20
57.2112310305
 30
0.0
 40
0.4700000000000013
100
AcDbArc
 50
180.0
 51
189.4597019682
  0
LINE
  5
63
330
1F
100
AcDbEntity
  8
0
  6
Continuous
 62
     7
370
    15
100
AcDbLine
 10
190.172041069
 20
57.133984708
 30
0.0
 11
190.2596847243
 21
56.6079744359
 31
0.0
  0
LINE
  5
64
330
1F
100
AcDbEntity
  8
0
  6
Continuous
 62
     7
370
    15
100
AcDbLine
 10
196.4516147684
 20
56.6079744359
 30
0.0
 11
196.5392584236
 21
57.133984708
 31
0.0
  0
ARC
  5
65
330
1F
100
AcDbEntity
  8
0
  6
Continuous
 62
     7
370
    15
100
AcDbCircle
 10
137.7956497463
 20
65.8579744359
 30
0.0
 40
0.1500000000000199
100
AcDbArc
 50
90.0
 51
180.0
  0
ARC
  5
66
330
1F
100
AcDbEntity
  8
0
  6
Continuous
 62
     7
370
    15
100
AcDbCircle
 10
131.1156497463
 20
65.8579744359
 30
0.0
 40
0.1500000000000199
100
AcDbArc
 50
0.0
 51
90.0
  0
LINE
  5
67
330
1F
100
AcDbEntity
  8
0
  6
Continuous
 62
     7
370
    15
100
AcDbLine
 10
137.6456497463
 20
57.2112310305
 30
0.0
 11
137.6456497463
 21
65.8579744359
 31
0.0
  0
LINE
  5
68
330
1F
100
AcDbEntity
  8
0
  6
Continuous
 62
     7
370
    15
100
AcDbLine
 10
131.2656497463
 20
65.8579744359
 30
0.0
 11
131.2656497463
 21
57.2112310305
 31
0.0
  0
ARC
  5
69
330
1F
100
AcDbEntity
  8
0
  6
Continuous
 62
     7
370
    15
100
AcDbCircle
 10
137.1756497463
 20
57.2112310305
 30
0.0
 40
0.4700000000000013
100
AcDbArc
 50
350.5402980318
 51
0.0
  0
ARC
  5
6A
330
1F
100
AcDbEntity
  8
0
  6
Continuous
 62
     7
370
    15
100
AcDbCircle
 10
131.7356497463
 20
57.2112310305
 30
0.0
 40
0.4700000000000013
100
AcDbArc
 50
180.0
 51
189.4597019682
  0
LINE
  5
6B
330
1F
100
AcDbEntity
  8
0
  6
Continuous
 62
     7
370
    15
100
AcDbLine
 10
131.272041069
 20
57.133984708
 30
0.0
 11
131.3596847243
 21
56.6079744359
 31
0.0
  0
LINE
  5
6C
330
1F
100
AcDbEntity
  8
0
  6
Continuous
 62
     7
370
    15
100
AcDbLine
 10
137.5516147684
 20
56.6079744359
 30
0.0
 11
137.6392584236
 21
57.133984708
 31
0.0
  0
LINE
  5
6D
330
1F
100
AcDbEntity
  8
0
  6
Continuous
 62
     7
370
    15
100
AcDbLine
 10
127.0423305967
 20
142.425085932
 30
0.0
 11
127.0323305967
 21
142.425085932
 31
0.0
  0
LINE
  5
6E
330
1F
100
AcDbEntity
  8
0
  6
Continuous
 62
     7
370
    15
100
AcDbLine
 10
200.3258433878
 20
131.6343153064
 30
0.0
 11
200.3163328227
 21
131.6312251364
 31
0.0
  0
LINE
  5
6F
330
1F
100
AcDbEntity
  8
0
  6
Continuous
 62
     7
370
    15
100
AcDbLine
 10
201.0855715866
 20
129.5549977745
 30
0.0
 11
200.990465935
 21
129.5240960751
 31
0.0
  0
LINE
  5
70
330
1F
100
AcDbEntity
  8
0
  6
Continuous
 62
     7
370
    15
100
AcDbLine
 10
201.6084999237
 20
127.6219830425
 30
0.0
 11
201.7036055754
 21
127.6528847419
 31
0.0
  0
LINE
  5
71
330
1F
100
AcDbEntity
  8
0
  6
Continuous
 62
     7
370
    15
100
AcDbLine
 10
200.6964318348
 20
131.6755352167
 30
0.0
 11
200.6395375899
 21
131.679315534
 31
0.0
  0
LINE
  5
72
330
1F
100
AcDbEntity
  8
0
  6
Continuous
 62
     7
370
    15
100
AcDbLine
 10
202.3988938127
 20
125.5130075802
 30
0.0
 11
203.2263435313
 21
126.2024471811
 31
0.0
  0
LINE
  5
73
330
1F
100
AcDbEntity
  8
0
  6
Continuous
 62
     7
370
    15
100
AcDbLine
 10
200.6966428587
 20
131.6745189902
 30
0.0
 11
200.3902833493
 21
131.6948749362
 31
0.0
  0
LINE
  5
74
330
1F
100
AcDbEntity
  8
0
  6
Continuous
 62
     7
370
    15
100
AcDbLine
 10
201.4649466633
 20
131.623469324
 30
0.0
 11
201.1955274731
 21
131.6413707839
 31
0.0
  0
LINE
  5
75
330
1F
100
AcDbEntity
  8
0
  6
Continuous
 62
     7
370
    15
100
AcDbLine
 10
203.2263435313
 20
126.2024471811
 30
0.0
 11
204.8024629474
 21
127.6329763578
 31
0.0
  0
LINE
  5
76
330
1F
100
AcDbEntity
  8
0
  6
Continuous
 62
     7
370
    15
100
AcDbLine
 10
201.5146515908
 20
131.6180452861
 30
0.0
 11
201.4649466633
 21
131.623469324
 31
0.0
  0
ARC
  5
77
330
1F
100
AcDbEntity
  8
0
  6
Continuous
 62
     7
370
    15
100
AcDbCircle
 10
204.7352550231
 20
127.7070242809
 30
0.0
 40
0.1000000000000032
100
AcDbArc
 50
312.227745318
 51
18.0
  0
LINE
  5
78
330
1F
100
AcDbEntity
  8
0
  6
Continuous
 62
     7
370
    15
100
AcDbLine
 10
201.5197893287
 20
127.8950061803
 30
0.0
 11
201.6154343715
 21
127.9242478044
 31
0.0
  0
LINE
  5
79
330
1F
100
AcDbEntity
  8
0
  6
Continuous
 62
     7
370
    15
100
AcDbLine
 10
201.1958765934
 20
131.6423497917
 30
0.0
 11
200.6964318348
 21
131.6755352167
 31
0.0
  0
LINE
  5
7A
330
1F
100
AcDbEntity
  8
0
  6
Continuous
 62
     7
370
    15
100
AcDbLine
 10
201.9181170564
 20
126.7499811898
 30
0.0
 11
201.9020660684
 21
126.718479352
 31
0.0
  0
LINE
  5
7B
330
1F
100
AcDbEntity
  8
0
  6
Continuous
 62
     7
370
    15
100
AcDbLine
 10
202.2419847622
 20
125.6723171841
 30
0.0
 11
202.2734866
 21
125.656266196
 31
0.0
  0
LINE
  5
7C
330
1F
100
AcDbEntity
  8
0
  6
Continuous
 62
     7
370
    15
100
AcDbLine
 10
202.2734866
 20
125.656266196
 30
0.0
 11
202.3685922516
 21
125.6871678954
 31
0.0
  0
LINE
  5
7D
330
1F
100
AcDbEntity
  8
0
  6
Continuous
 62
     7
370
    15
100
AcDbLine
 10
202.0132227081
 20
126.7808828892
 30
0.0
 11
201.9181170564
 21
126.7499811898
 31
0.0
  0
LINE
  5
7E
330
1F
100
AcDbEntity
  8
0
  6
Continuous
 62
     7
370
    15
100
AcDbLine
 10
202.3685922516
 20
125.6871678954
 30
0.0
 11
202.3846432397
 21
125.7186697332
 31
0.0
  0
LINE
  5
7F
330
1F
100
AcDbEntity
  8
0
  6
Continuous
 62
     7
370
    15
100
AcDbLine
 10
202.0447245458
 20
126.7648319011
 30
0.0
 11
202.0132227081
 21
126.7808828892
 31
0.0
  0
ARC
  5
80
330
1F
100
AcDbEntity
  8
0
  6
Continuous
 62
     7
370
    15
100
AcDbCircle
 10
198.3706497463
 20
72.6878351357
 30
0.0
 40
0.4749999999999943
100
AcDbArc
 50
219.7876882771
 51
0.0
  0
LINE
  5
81
330
1F
100
AcDbEntity
  8
0
  6
Continuous
 62
     7
370
    15
100
AcDbLine
 10
195.9856497463
 20
134.4579744359
 30
0.0
 11
195.9856497463
 21
134.511691708
 31
0.0
  0
LINE
  5
82
330
1F
100
AcDbEntity
  8
0
  6
Continuous
 62
     7
370
    15
100
AcDbLine
 10
195.9828976596
 20
134.4579744359
 30
0.0
 11
195.9828976596
 21
134.511691708
 31
0.0
  0
LINE
  5
83
330
1F
100
AcDbEntity
  8
0
  6
Continuous
 62
     7
370
    15
100
AcDbLine
 10
169.5431747262
 20
134.4579744359
 30
0.0
 11
169.5431747262
 21
134.511691708
 31
0.0
  0
LINE
  5
84
330
1F
100
AcDbEntity
  8
0
  6
Continuous
 62
     7
370
    15
100
AcDbLine
 10
195.9857905473
 20
134.4579744359
 30
0.0
 11
195.9857905473
 21
134.511691708
 31
0.0
  0
LINE
  5
85
330
1F
100
AcDbEntity
  8
0
  6
Continuous
 62
     7
370
    15
100
AcDbLine
 10
163.685649746
 20
134.4579744359
 30
0.0
 11
163.685649746
 21
134.511691708
 31
0.0
  0
LINE
  5
86
330
1F
100
AcDbEntity
  8
0
  6
Continuous
 62
     7
370
    15
100
AcDbLine
 10
163.685508945
 20
134.4579744359
 30
0.0
 11
163.685508945
 21
134.511691708
 31
0.0
  0
LINE
  5
87
330
1F
100
AcDbEntity
  8
0
  6
Continuous
 62
     7
370
    15
100
AcDbLine
 10
137.1856497463
 20
134.4579744359
 30
0.0
 11
137.1856497463
 21
134.511691708
 31
0.0
  0
LINE
  5
88
330
1F
100
AcDbEntity
  8
0
  6
Continuous
 62
     7
370
    15
100
AcDbLine
 10
137.1855089454
 20
134.4579744359
 30
0.0
 11
137.1855089454
 21
134.511691708
 31
0.0
  0
LINE
  5
89
330
1F
100
AcDbEntity
  8
0
  6
Continuous
 62
     7
370
    15
100
AcDbLine
 10
193.4405094057
 20
134.448754845
 30
0.0
 11
193.4405094057
 21
134.4379744359
 31
0.0
  0
LINE
  5
8A
330
1F
100
AcDbEntity
  8
0
  6
Continuous
 62
     7
370
    15
100
AcDbLine
 10
194.2405094057
 20
134.4579744359
 30
0.0
 11
194.2405094057
 21
134.511691708
 31
0.0
  0
LINE
  5
8B
330
1F
100
AcDbEntity
  8
0
  6
Continuous
 62
     7
370
    15
100
AcDbLine
 10
166.9980343855
 20
134.448754845
 30
0.0
 11
166.9980343855
 21
134.4379744359
 31
0.0
  0
LINE
  5
8C
330
1F
100
AcDbEntity
  8
0
  6
Continuous
 62
     7
370
    15
100
AcDbLine
 10
167.7980343855
 20
134.4579744359
 30
0.0
 11
167.7980343855
 21
134.511691708
 31
0.0
  0
SPLINE
  5
8D
330
1F
100
AcDbEntity
  8
0
  6
Continuous
 62
     7
370
    15
100
AcDbSpline
210
0.0
220
0.0
230
1.0
 70
     8
 71
     3
 72
    10
 73
     6
 74
     0
 42
0.00000001
 43
0.00000001
 40
0.0
 40
0.0
 40
0.0
 40
0.0
 40
0.1593657456785953
 40
0.5550946410400137
 40
1.0
 40
1.0
 40
1.0
 40
1.0
 10
195.1688253187126
 20
134.5570810466735
 30
0.0
 10
195.148587371234
 20
134.5551343421766
 30
0.0
 10
195.078095584287
 20
134.5483536803142
 30
0.0
 10
194.9909547149257
 20
134.5362871491067
 30
0.0
 10
194.9668339443963
 20
134.5256199048832
 30
0.0
 10
194.9540680357795
 20
134.5199742699404
 30
0.0
  0
SPLINE
  5
8E
330
1F
100
AcDbEntity
  8
0
  6
Continuous
 62
     7
370
    15
100
AcDbSpline
210
0.0
220
0.0
230
1.0
 70
     8
 71
     3
 72
    12
 73
     8
 74
     0
 42
0.00000001
 43
0.00000001
 40
0.0
 40
0.0
 40
0.0
 40
0.0
 40
0.1481895738249609
 40
0.28983117857803
 40
0.548991035010395
 40
0.7828967345066286
 40
1.0
 40
1.0
 40
1.0
 40
1.0
 10
194.9809460478604
 20
134.5285302652308
 30
0.0
 10
194.9746543666955
 20
134.5276926980661
 30
0.0
 10
194.9623490113308
 20
134.5260545728443
 30
0.0
 10
194.9424719907271
 20
134.5158867655839
 30
0.0
 10
194.9264939989756
 20
134.4992444497211
 30
0.0
 10
194.9183461762913
 20
134.480315965218
 30
0.0
 10
194.9176541649828
 20
134.4707787866026
 30
0.0
 10
194.9173210498422
 20
134.4661878520942
 30
0.0
  0
SPLINE
  5
8F
330
1F
100
AcDbEntity
  8
0
  6
Continuous
 62
     7
370
    15
100
AcDbSpline
210
0.0
220
0.0
230
1.0
 70
     8
 71
     3
 72
    14
 73
    10
 74
     0
 42
0.00000001
 43
0.00000001
 40
0.0
 40
0.0
 40
0.0
 40
0.0
 40
0.0696012352021278
 40
0.2625906331864586
 40
0.4563540910464872
 40
0.6533684195154902
 40
0.7680745291896022
 40
0.9060770455030098
 40
1.0
 40
1.0
 40
1.0
 40
1.0
 10
195.2884772791795
 20
134.4579744358886
 30
0.0
 10
195.3083049756626
 20
134.4597531524556
 30
0.0
 10
195.3831106505763
 20
134.4664638711409
 30
0.0
 10
195.5506637343485
 20
134.4778957639529
 30
0.0
 10
195.7605087807502
 20
134.4933354230668
 30
0.0
 10
195.9278235427628
 20
134.5057872678787
 30
0.0
 10
196.0580601290179
 20
134.5184247134086
 30
0.0
 10
196.1539885784954
 20
134.534805692205
 30
0.0
 10
196.1907423950568
 20
134.5506603708572
 30
0.0
 10
196.2056266034554
 20
134.5570810466735
 30
0.0
  0
SPLINE
  5
90
330
1F
100
AcDbEntity
  8
0
  6
Continuous
 62
     7
370
    15
100
AcDbSpline
210
0.0
220
0.0
230
1.0
 70
     8
 71
     3
 72
    10
 73
     6
 74
     0
 42
0.00000001
 43
0.00000001
 40
0.0
 40
0.0
 40
0.0
 40
0.0
 40
0.1593657456761441
 40
0.5550946410387186
 40
1.0
 40
1.0
 40
1.0
 40
1.0
 10
166.9839620446354
 20
134.5570810466735
 30
0.0
 10
166.9637240971572
 20
134.5551343421767
 30
0.0
 10
166.8932323102105
 20
134.5483536803143
 30
0.0
 10
166.8060914408496
 20
134.5362871491069
 30
0.0
 10
166.7819706703201
 20
134.5256199048834
 30
0.0
 10
166.7692047617034
 20
134.5199742699405
 30
0.0
  0
SPLINE
  5
91
330
1F
100
AcDbEntity
  8
0
  6
Continuous
 62
     7
370
    15
100
AcDbSpline
210
0.0
220
0.0
230
1.0
 70
     8
 71
     3
 72
    12
 73
     8
 74
     0
 42
0.00000001
 43
0.00000001
 40
0.0
 40
0.0
 40
0.0
 40
0.0
 40
0.1481895738249616
 40
0.2898311785780314
 40
0.5489910350103976
 40
0.7828967345066276
 40
1.0
 40
1.0
 40
1.0
 40
1.0
 10
166.7960827737842
 20
134.5285302652309
 30
0.0
 10
166.7897910926193
 20
134.5276926980662
 30
0.0
 10
166.7774857372546
 20
134.5260545728444
 30
0.0
 10
166.7576087166509
 20
134.515886765584
 30
0.0
 10
166.7416307248994
 20
134.4992444497212
 30
0.0
 10
166.7334829022151
 20
134.4803159652181
 30
0.0
 10
166.7327908909067
 20
134.4707787866028
 30
0.0
 10
166.732457775766
 20
134.4661878520943
 30
0.0
  0
LINE
  5
92
330
1F
100
AcDbEntity
  8
0
  6
Continuous
 62
     7
370
    15
100
AcDbLine
 10
166.7324577657
 20
134.4661861436
 30
0.0
 11
166.7426167956
 21
134.4379744359
 31
0.0
  0
SPLINE
  5
93
330
1F
100
AcDbEntity
  8
0
  6
Continuous
 62
     7
370
    15
100
AcDbSpline
210
0.0
220
0.0
230
1.0
 70
     8
 71
     3
 72
    16
 73
    12
 74
     0
 42
0.00000001
 43
0.00000001
 40
0.0
 40
0.0
 40
0.0
 40
0.0
 40
0.0226666399985693
 40
0.109069303618851
 40
0.2736834020583057
 40
0.4243407419928985
 40
0.575602352436856
 40
0.7294017578246589
 40
0.8189471812429457
 40
0.9266789645906807
 40
1.0
 40
1.0
 40
1.0
 40
1.0
 10
166.8939053812305
 20
134.4379744358966
 30
0.0
 10
166.8976821389697
 20
134.4383411652449
 30
0.0
 10
166.9158554693166
 20
134.4401058253197
 30
0.0
 10
167.0032337569638
 20
134.4502292829006
 30
0.0
 10
167.1522689635482
 20
134.4627444012006
 30
0.0
 10
167.364274278902
 20
134.477942591803
 30
0.0
 10
167.5760698910507
 20
134.4933224016736
 30
0.0
 10
167.7428979818467
 20
134.505789179027
 30
0.0
 10
167.8732127564682
 20
134.518424225502
 30
0.0
 10
167.9691225706283
 20
134.534805776086
 30
0.0
 10
168.0058783329891
 20
134.5506603950352
 30
0.0
 10
168.0207633293789
 20
134.5570810466735
 30
0.0
  0
SPLINE
  5
94
330
1F
100
AcDbEntity
  8
0
  6
Continuous
 62
     7
370
    15
100
AcDbSpline
210
0.0
220
0.0
230
1.0
 70
     8
 71
     3
 72
    10
 73
     6
 74
     0
 42
0.00000001
 43
0.00000001
 40
0.0
 40
0.0
 40
0.0
 40
0.0
 40
0.1593657456760102
 40
0.5550946410386467
 40
1.0
 40
1.0
 40
1.0
 40
1.0
 10
136.3714366044721
 20
134.5570810466735
 30
0.0
 10
136.3511986569938
 20
134.5551343421767
 30
0.0
 10
136.2807068700472
 20
134.5483536803143
 30
0.0
 10
136.1935660006863
 20
134.5362871491069
 30
0.0
 10
136.1694452301569
 20
134.5256199048834
 30
0.0
 10
136.1566793215401
 20
134.5199742699405
 30
0.0
  0
SPLINE
  5
95
330
1F
100
AcDbEntity
  8
0
  6
Continuous
 62
     7
370
    15
100
AcDbSpline
210
0.0
220
0.0
230
1.0
 70
     8
 71
     3
 72
    12
 73
     8
 74
     0
 42
0.00000001
 43
0.00000001
 40
0.0
 40
0.0
 40
0.0
 40
0.0
 40
0.148189573824962
 40
0.2898311785780321
 40
0.5489910350103989
 40
0.7828967345066246
 40
1.0
 40
1.0
 40
1.0
 40
1.0
 10
136.183557333621
 20
134.5285302652309
 30
0.0
 10
136.177265652456
 20
134.5276926980662
 30
0.0
 10
136.1649602970913
 20
134.5260545728444
 30
0.0
 10
136.1450832764876
 20
134.515886765584
 30
0.0
 10
136.1291052847361
 20
134.4992444497212
 30
0.0
 10
136.1209574620518
 20
134.4803159652181
 30
0.0
 10
136.1202654507434
 20
134.4707787866028
 30
0.0
 10
136.1199323356027
 20
134.4661878520943
 30
0.0
  0
SPLINE
  5
96
330
1F
100
AcDbEntity
  8
0
  6
Continuous
 62
     7
370
    15
100
AcDbSpline
210
0.0
220
0.0
230
1.0
 70
     8
 71
     3
 72
    14
 73
    10
 74
     0
 42
0.00000001
 43
0.00000001
 40
0.0
 40
0.0
 40
0.0
 40
0.0
 40
0.0696012352198873
 40
0.2625906332006547
 40
0.4563540910571056
 40
0.6533684195224695
 40
0.7680745291944674
 40
0.9060770455053226
 40
1.0
 40
1.0
 40
1.0
 40
1.0
 10
136.4910885649234
 20
134.4579744358873
 30
0.0
 10
136.5109162614118
 20
134.4597531524548
 30
0.0
 10
136.5857219363305
 20
134.4664638711405
 30
0.0
 10
136.7532750201088
 20
134.4778957639531
 30
0.0
 10
136.9631200665109
 20
134.4933354230669
 30
0.0
 10
137.1304348285234
 20
134.5057872678788
 30
0.0
 10
137.2606714147785
 20
134.5184247134088
 30
0.0
 10
137.3565998642558
 20
134.5348056922051
 30
0.0
 10
137.3933536808171
 20
134.5506603708573
 30
0.0
 10
137.4082378892156
 20
134.5570810466735
 30
0.0
  0
SPLINE
  5
97
330
1F
100
AcDbEntity
  8
0
  6
Continuous
 62
     7
370
    15
100
AcDbSpline
210
0.0
220
0.0
230
1.0
 70
     8
 71
     3
 72
    10
 73
     6
 74
     0
 42
0.00000001
 43
0.00000001
 40
0.0
 40
0.0
 40
0.0
 40
0.0
 40
0.1593657456763071
 40
0.5550946410388026
 40
1.0
 40
1.0
 40
1.0
 40
1.0
 10
193.4264370647877
 20
134.5570810466735
 30
0.0
 10
193.4061991173094
 20
134.5551343421767
 30
0.0
 10
193.3357073303628
 20
134.5483536803143
 30
0.0
 10
193.2485664610018
 20
134.5362871491068
 30
0.0
 10
193.2244456904724
 20
134.5256199048833
 30
0.0
 10
193.2116797818556
 20
134.5199742699405
 30
0.0
  0
SPLINE
  5
98
330
1F
100
AcDbEntity
  8
0
  6
Continuous
 62
     7
370
    15
100
AcDbSpline
210
0.0
220
0.0
230
1.0
 70
     8
 71
     3
 72
    12
 73
     8
 74
     0
 42
0.00000001
 43
0.00000001
 40
0.0
 40
0.0
 40
0.0
 40
0.0
 40
0.1481895738249609
 40
0.28983117857803
 40
0.548991035010395
 40
0.7828967345066286
 40
1.0
 40
1.0
 40
1.0
 40
1.0
 10
193.2385577939365
 20
134.5285302652309
 30
0.0
 10
193.2322661127716
 20
134.5276926980661
 30
0.0
 10
193.2199607574069
 20
134.5260545728444
 30
0.0
 10
193.2000837368032
 20
134.515886765584
 30
0.0
 10
193.1841057450516
 20
134.4992444497212
 30
0.0
 10
193.1759579223674
 20
134.4803159652181
 30
0.0
 10
193.1752659110589
 20
134.4707787866028
 30
0.0
 10
193.1749327959183
 20
134.4661878520943
 30
0.0
  0
LINE
  5
99
330
1F
100
AcDbEntity
  8
0
  6
Continuous
 62
     7
370
    15
100
AcDbLine
 10
193.1749327859
 20
134.4661861436
 30
0.0
 11
193.1850918157
 21
134.4379744359
 31
0.0
  0
SPLINE
  5
9A
330
1F
100
AcDbEntity
  8
0
  6
Continuous
 62
     7
370
    15
100
AcDbSpline
210
0.0
220
0.0
230
1.0
 70
     8
 71
     3
 72
    16
 73
    12
 74
     0
 42
0.00000001
 43
0.00000001
 40
0.0
 40
0.0
 40
0.0
 40
0.0
 40
0.0226666399983636
 40
0.1090693036186602
 40
0.2736834020581465
 40
0.4243407419927661
 40
0.5756023524367543
 40
0.7294017578245834
 40
0.818947181242887
 40
0.9266789645906434
 40
0.9999999999999999
 40
0.9999999999999999
 40
0.9999999999999999
 40
0.9999999999999999
 10
193.3363804013829
 20
134.4379744358966
 30
0.0
 10
193.340157159122
 20
134.4383411652449
 30
0.0
 10
193.3583304894689
 20
134.4401058253197
 30
0.0
 10
193.4457087771161
 20
134.4502292829005
 30
0.0
 10
193.5947439837004
 20
134.4627444012006
 30
0.0
 10
193.8067492990542
 20
134.477942591803
 30
0.0
 10
194.018544911203
 20
134.4933224016736
 30
0.0
 10
194.185373001999
 20
134.505789179027
 30
0.0
 10
194.3156877766204
 20
134.5184242255019
 30
0.0
 10
194.4115975907806
 20
134.534805776086
 30
0.0
 10
194.4483533531414
 20
134.5506603950352
 30
0.0
 10
194.4632383495312
 20
134.5570810466735
 30
0.0
  0
SPLINE
  5
9B
330
1F
100
AcDbEntity
  8
0
  6
Continuous
 62
     7
370
    15
100
AcDbSpline
210
0.0
220
0.0
230
1.0
 70
     8
 71
     3
 72
    12
 73
     8
 74
     0
 42
0.00000001
 43
0.00000001
 40
0.0
 40
0.0
 40
0.0
 40
0.0
 40
0.1481895738248871
 40
0.2898311785781233
 40
0.5489910350104467
 40
0.7828967345065788
 40
0.9999999999999999
 40
0.9999999999999999
 40
0.9999999999999999
 40
0.9999999999999999
 10
168.4836981349777
 20
134.528530265231
 30
0.0
 10
168.4774064538128
 20
134.5276926980663
 30
0.0
 10
168.4651010984481
 20
134.5260545728445
 30
0.0
 10
168.4452240778444
 20
134.5158867655841
 30
0.0
 10
168.4292460860929
 20
134.4992444497213
 30
0.0
 10
168.4210982634086
 20
134.4803159652182
 30
0.0
 10
168.4204062521002
 20
134.4707787866028
 30
0.0
 10
168.4200731369595
 20
134.4661878520944
 30
0.0
  0
SPLINE
  5
9C
330
1F
100
AcDbEntity
  8
0
  6
Continuous
 62
     7
370
    15
100
AcDbSpline
210
0.0
220
0.0
230
1.0
 70
     8
 71
     3
 72
    10
 73
     6
 74
     0
 42
0.00000001
 43
0.00000001
 40
0.0
 40
0.0
 40
0.0
 40
0.0
 40
0.1593657456774398
 40
0.5550946410393902
 40
1.0
 40
1.0
 40
1.0
 40
1.0
 10
162.8714366040984
 20
134.5570810466735
 30
0.0
 10
162.85119865662
 20
134.5551343421767
 30
0.0
 10
162.7807068696732
 20
134.5483536803142
 30
0.0
 10
162.693566000312
 20
134.5362871491068
 30
0.0
 10
162.6694452297826
 20
134.5256199048833
 30
0.0
 10
162.6566793211659
 20
134.5199742699404
 30
0.0
  0
SPLINE
  5
9D
330
1F
100
AcDbEntity
  8
0
  6
Continuous
 62
     7
370
    15
100
AcDbSpline
210
0.0
220
0.0
230
1.0
 70
     8
 71
     3
 72
    12
 73
     8
 74
     0
 42
0.00000001
 43
0.00000001
 40
0.0
 40
0.0
 40
0.0
 40
0.0
 40
0.1481895738248871
 40
0.2898311785781233
 40
0.5489910350104467
 40
0.7828967345065788
 40
0.9999999999999999
 40
0.9999999999999999
 40
0.9999999999999999
 40
0.9999999999999999
 10
162.6835573332467
 20
134.5285302652308
 30
0.0
 10
162.6772656520818
 20
134.5276926980661
 30
0.0
 10
162.6649602967171
 20
134.5260545728443
 30
0.0
 10
162.6450832761134
 20
134.515886765584
 30
0.0
 10
162.6291052843618
 20
134.4992444497212
 30
0.0
 10
162.6209574616776
 20
134.480315965218
 30
0.0
 10
162.6202654503692
 20
134.4707787866027
 30
0.0
 10
162.6199323352285
 20
134.4661878520942
 30
0.0
  0
SPLINE
  5
9E
330
1F
100
AcDbEntity
  8
0
  6
Continuous
 62
     7
370
    15
100
AcDbSpline
210
0.0
220
0.0
230
1.0
 70
     8
 71
     3
 72
    14
 73
    10
 74
     0
 42
0.00000001
 43
0.00000001
 40
0.0
 40
0.0
 40
0.0
 40
0.0
 40
0.0696012352122736
 40
0.2625906331945603
 40
0.4563540910525318
 40
0.6533684195194512
 40
0.7680745291923448
 40
0.9060770455042964
 40
1.0
 40
1.0
 40
1.0
 40
1.0
 10
162.9910885645563
 20
134.4579744358878
 30
0.0
 10
163.0109162610424
 20
134.4597531524551
 30
0.0
 10
163.0857219359589
 20
134.4664638711407
 30
0.0
 10
163.2532750197347
 20
134.4778957639529
 30
0.0
 10
163.4631200661366
 20
134.4933354230668
 30
0.0
 10
163.6304348281491
 20
134.5057872678787
 30
0.0
 10
163.7606714144042
 20
134.5184247134087
 30
0.0
 10
163.8565998638816
 20
134.534805692205
 30
0.0
 10
163.8933536804429
 20
134.5506603708573
 30
0.0
 10
163.9082378888415
 20
134.5570810466735
 30
0.0
  0
SPLINE
  5
9F
330
1F
100
AcDbEntity
  8
0
  6
Continuous
 62
     7
370
    15
100
AcDbSpline
210
0.0
220
0.0
230
1.0
 70
     8
 71
     3
 72
    10
 73
     6
 74
     0
 42
0.00000001
 43
0.00000001
 40
0.0
 40
0.0
 40
0.0
 40
0.0
 40
0.1593657456730805
 40
0.5550946410370973
 40
1.0
 40
1.0
 40
1.0
 40
1.0
 10
168.7291023853012
 20
134.5570810466735
 30
0.0
 10
168.7088644378234
 20
134.5551343421768
 30
0.0
 10
168.6383726508773
 20
134.5483536803144
 30
0.0
 10
168.5512317815167
 20
134.536287149107
 30
0.0
 10
168.5271110109873
 20
134.5256199048835
 30
0.0
 10
168.5143451023705
 20
134.5199742699406
 30
0.0
  0
SPLINE
  5
A0
330
1F
100
AcDbEntity
  8
0
  6
Continuous
 62
     7
370
    15
100
AcDbSpline
210
0.0
220
0.0
230
1.0
 70
     8
 71
     3
 72
    12
 73
     8
 74
     0
 42
0.00000001
 43
0.00000001
 40
0.0
 40
0.0
 40
0.0
 40
0.0
 40
0.1481895738249616
 40
0.2898311785780314
 40
0.5489910350103976
 40
0.7828967345066276
 40
1.0
 40
1.0
 40
1.0
 40
1.0
 10
168.5412231144514
 20
134.528530265231
 30
0.0
 10
168.5349314332865
 20
134.5276926980663
 30
0.0
 10
168.5226260779218
 20
134.5260545728445
 30
0.0
 10
168.5027490573181
 20
134.5158867655841
 30
0.0
 10
168.4867710655665
 20
134.4992444497213
 30
0.0
 10
168.4786232428823
 20
134.4803159652182
 30
0.0
 10
168.4779312315738
 20
134.4707787866029
 30
0.0
 10
168.4775981164332
 20
134.4661878520944
 30
0.0
  0
SPLINE
  5
A1
330
1F
100
AcDbEntity
  8
0
  6
Continuous
 62
     7
370
    15
100
AcDbSpline
210
0.0
220
0.0
230
1.0
 70
     8
 71
     3
 72
    14
 73
    10
 74
     0
 42
0.00000001
 43
0.00000001
 40
0.0
 40
0.0
 40
0.0
 40
0.0
 40
0.0696012352123291
 40
0.2625906331948016
 40
0.4563540910529593
 40
0.6533684195200653
 40
0.7680745291930714
 40
0.9060770455051465
 40
1.0
 40
1.0
 40
1.0
 40
1.0
 10
168.848754345761
 20
134.457974435888
 30
0.0
 10
168.8685820422471
 20
134.4597531524553
 30
0.0
 10
168.9433877171636
 20
134.4664638711409
 30
0.0
 10
169.1109408009393
 20
134.4778957639531
 30
0.0
 10
169.3207858473413
 20
134.493335423067
 30
0.0
 10
169.4881006093538
 20
134.5057872678789
 30
0.0
 10
169.6183371956089
 20
134.5184247134089
 30
0.0
 10
169.714265645086
 20
134.5348056922052
 30
0.0
 10
169.7510194616473
 20
134.5506603708573
 30
0.0
 10
169.7659036700457
 20
134.5570810466735
 30
0.0
  0
ARC
  5
A2
330
1F
100
AcDbEntity
  8
0
  6
Continuous
 62
     7
370
    15
100
AcDbCircle
 10
126.1812744961
 20
69.4704744359
 30
0.0
 40
0.800000000000009
100
AcDbArc
 50
192.635625093
 51
270.0
  0
ARC
  5
A3
330
1F
100
AcDbEntity
  8
0
  6
Continuous
 62
     7
370
    15
100
AcDbCircle
 10
126.1812744961
 20
71.2454744359
 30
0.0
 40
0.8000000000000121
100
AcDbArc
 50
90.0
 51
167.364374907
  0
LINE
  5
A4
330
1F
100
AcDbEntity
  8
0
  6
Continuous
 62
     7
370
    15
100
AcDbLine
 10
126.2956497463
 20
72.0454744359
 30
0.0
 11
126.1812744961
 21
72.0454744359
 31
0.0
  0
LINE
  5
A5
330
1F
100
AcDbEntity
  8
0
  6
Continuous
 62
     7
370
    15
100
AcDbLine
 10
126.1812744961
 20
68.6704744359
 30
0.0
 11
126.2956497463
 21
68.6704744359
 31
0.0
  0
LINE
  5
A6
330
1F
100
AcDbEntity
  8
0
  6
Continuous
 62
     7
370
    15
100
AcDbLine
 10
127.2456497463
 20
72.0454744359
 30
0.0
 11
126.8356497463
 21
72.0454744359
 31
0.0
  0
LINE
  5
A7
330
1F
100
AcDbEntity
  8
0
  6
Continuous
 62
     7
370
    15
100
AcDbLine
 10
126.8356497463
 20
68.6704744359
 30
0.0
 11
127.2456497463
 21
68.6704744359
 31
0.0
  0
LINE
  5
A8
330
1F
100
AcDbEntity
  8
0
  6
Continuous
 62
     7
370
    15
100
AcDbLine
 10
202.1756497464
 20
66.5579744359
 30
0.0
 11
202.2256497464
 21
66.5079744359
 31
0.0
  0
LINE
  5
A9
330
1F
100
AcDbEntity
  8
0
  6
Continuous
 62
     7
370
    15
100
AcDbLine
 10
203.8256497464
 20
66.5079744359
 30
0.0
 11
203.8756497464
 21
66.5579744359
 31
0.0
  0
LINE
  5
AA
330
1F
100
AcDbEntity
  8
0
  6
Continuous
 62
     7
370
    15
100
AcDbLine
 10
202.1756497464
 20
66.7079744359
 30
0.0
 11
202.1756497464
 21
66.5579744359
 31
0.0
  0
LINE
  5
AB
330
1F
100
AcDbEntity
  8
0
  6
Continuous
 62
     7
370
    15
100
AcDbLine
 10
203.8756497464
 20
66.5579744359
 30
0.0
 11
203.8756497464
 21
66.7079744359
 31
0.0
  0
LINE
  5
AC
330
1F
100
AcDbEntity
  8
0
  6
Continuous
 62
     7
370
    15
100
AcDbLine
 10
203.8756497464
 20
66.7079744359
 30
0.0
 11
203.8256497464
 21
66.7579744359
 31
0.0
  0
LINE
  5
AD
330
1F
100
AcDbEntity
  8
0
  6
Continuous
 62
     7
370
    15
100
AcDbLine
 10
202.2256497464
 20
66.7579744359
 30
0.0
 11
202.1756497464
 21
66.7079744359
 31
0.0
  0
LINE
  5
AE
330
1F
100
AcDbEntity
  8
0
  6
Continuous
 62
     7
370
    15
100
AcDbLine
 10
202.3756497464
 20
66.8450455038
 30
0.0
 11
202.3756497464
 21
66.8379744359
 31
0.0
  0
LINE
  5
AF
330
1F
100
AcDbEntity
  8
0
  6
Continuous
 62
     7
370
    15
100
AcDbLine
 10
203.6756497464
 20
66.8379744359
 30
0.0
 11
203.6756497464
 21
66.8450455038
 31
0.0
  0
LINE
  5
B0
330
1F
100
AcDbEntity
  8
0
  6
Continuous
 62
     7
370
    15
100
AcDbLine
 10
203.8756497464
 20
119.3579744359
 30
0.0
 11
203.8256497464
 21
119.4079744359
 31
0.0
  0
LINE
  5
B1
330
1F
100
AcDbEntity
  8
0
  6
Continuous
 62
     7
370
    15
100
AcDbLine
 10
202.2256497464
 20
119.4079744359
 30
0.0
 11
202.1756497464
 21
119.3579744359
 31
0.0
  0
LINE
  5
B2
330
1F
100
AcDbEntity
  8
0
  6
Continuous
 62
     7
370
    15
100
AcDbLine
 10
202.1756497464
 20
119.2079744359
 30
0.0
 11
202.2256497464
 21
119.1579744359
 31
0.0
  0
LINE
  5
B3
330
1F
100
AcDbEntity
  8
0
  6
Continuous
 62
     7
370
    15
100
AcDbLine
 10
203.8256497464
 20
119.1579744359
 30
0.0
 11
203.8756497464
 21
119.2079744359
 31
0.0
  0
LINE
  5
B4
330
1F
100
AcDbEntity
  8
0
  6
Continuous
 62
     7
370
    15
100
AcDbLine
 10
203.8756497464
 20
119.2079744359
 30
0.0
 11
203.8756497464
 21
119.3579744359
 31
0.0
  0
LINE
  5
B5
330
1F
100
AcDbEntity
  8
0
  6
Continuous
 62
     7
370
    15
100
AcDbLine
 10
202.1756497464
 20
119.3579744359
 30
0.0
 11
202.1756497464
 21
119.2079744359
 31
0.0
  0
LINE
  5
B6
330
1F
100
AcDbEntity
  8
0
  6
Continuous
 62
     7
370
    15
100
AcDbLine
 10
203.6756497464
 20
119.0709033681
 30
0.0
 11
203.6756497464
 21
119.0779744359
 31
0.0
  0
LINE
  5
B7
330
1F
100
AcDbEntity
  8
0
  6
Continuous
 62
     7
370
    15
100
AcDbLine
 10
202.3756497464
 20
119.0779744359
 30
0.0
 11
202.3756497464
 21
119.0709033681
 31
0.0
  0
ARC
  5
B8
330
1F
100
AcDbEntity
  8
0
  6
Continuous
 62
     7
370
    15
100
AcDbCircle
 10
201.0483526788
 20
119.0079744359
 30
0.0
 40
0.0700000000000074
100
AcDbArc
 50
64.0249358151
 51
90.0
  0
ARC
  5
B9
330
1F
100
AcDbEntity
  8
0
  6
Continuous
 62
     7
370
    15
100
AcDbCircle
 10
201.802946814
 20
119.0079744359
 30
0.0
 40
0.0700000000000074
100
AcDbArc
 50
90.0
 51
115.975064185
  0
LINE
  5
BA
330
1F
100
AcDbEntity
  8
0
  6
Continuous
 62
     7
370
    15
100
AcDbLine
 10
203.8256497463
 20
119.4698482961
 30
0.0
 11
203.8256497463
 21
119.7198482961
 31
0.0
  0
LINE
  5
BB
330
1F
100
AcDbEntity
  8
0
  6
Continuous
 62
     7
370
    15
100
AcDbLine
 10
202.5256497463
 20
119.4698482961
 30
0.0
 11
202.5256497463
 21
119.4079744359
 31
0.0
  0
LINE
  5
BC
330
1F
100
AcDbEntity
  8
0
  6
Continuous
 62
     7
370
    15
100
AcDbLine
 10
203.5256497463
 20
119.4079744359
 30
0.0
 11
203.5256497463
 21
119.4698482961
 31
0.0
  0
LINE
  5
BD
330
1F
100
AcDbEntity
  8
0
  6
Continuous
 62
     7
370
    15
100
AcDbLine
 10
202.6356497463
 20
119.7698482961
 30
0.0
 11
202.6356497463
 21
119.7198482961
 31
0.0
  0
LINE
  5
BE
330
1F
100
AcDbEntity
  8
0
  6
Continuous
 62
     7
370
    15
100
AcDbLine
 10
203.4156497463
 20
119.7198482961
 30
0.0
 11
203.4156497463
 21
119.7698482961
 31
0.0
  0
LINE
  5
BF
330
1F
100
AcDbEntity
  8
0
  6
Continuous
 62
     7
370
    15
100
AcDbLine
 10
203.8256497463
 20
66.2079744359
 30
0.0
 11
203.8256497463
 21
66.5079744359
 31
0.0
  0
LINE
  5
C0
330
1F
100
AcDbEntity
  8
0
  6
Continuous
 62
     7
370
    15
100
AcDbLine
 10
127.2996829773
 20
143.1959199519
 30
0.0
 11
127.2996829773
 21
143.3036284264
 31
0.0
  0
LINE
  5
C1
330
1F
100
AcDbEntity
  8
0
  6
Continuous
 62
     7
370
    15
100
AcDbLine
 10
127.2996829773
 20
143.3036284264
 30
0.0
 11
130.616790019
 21
142.4148122734
 31
0.0
  0
ARC
  5
C2
330
1F
100
AcDbEntity
  8
0
  6
Continuous
 62
     7
370
    15
100
AcDbCircle
 10
129.9723305967
 20
140.0096569659
 30
0.0
 40
2.490000000000009
100
AcDbArc
 50
0.0
 51
75.0
  0
LINE
  5
C3
330
1F
100
AcDbEntity
  8
0
  6
Continuous
 62
     7
370
    15
100
AcDbLine
 10
132.4623305967
 20
140.0096569659
 30
0.0
 11
132.4623305967
 21
138.316056699
 31
0.0
  0
LINE
  5
C4
330
1F
100
AcDbEntity
  8
0
  6
Continuous
 62
     7
370
    15
100
AcDbLine
 10
132.4623305967
 20
138.316056699
 30
0.0
 11
127.2573305967
 21
138.316056699
 31
0.0
  0
LINE
  5
C5
330
1F
100
AcDbEntity
  8
0
  6
Continuous
 62
     7
370
    15
100
AcDbLine
 10
127.2573305967
 20
143.1959199519
 30
0.0
 11
127.2573305967
 21
138.316056699
 31
0.0
  0
LINE
  5
C6
330
1F
100
AcDbEntity
  8
0
  6
Continuous
 62
     7
370
    15
100
AcDbLine
 10
127.2573305967
 20
143.1959199519
 30
0.0
 11
127.2996829773
 21
143.1959199519
 31
0.0
  0
LINE
  5
C7
330
1F
100
AcDbEntity
  8
0
  6
Continuous
 62
     7
370
    15
100
AcDbLine
 10
127.0948498286
 20
143.1959199519
 30
0.0
 11
127.2573305967
 21
143.1959199519
 31
0.0
  0
LINE
  5
C8
330
1F
100
AcDbEntity
  8
0
  6
Continuous
 62
     7
370
    15
100
AcDbLine
 10
127.2573305967
 20
138.316056699
 30
0.0
 11
127.0523305967
 21
138.316056699
 31
0.0
  0
LINE
  5
C9
330
1F
100
AcDbEntity
  8
0
  6
Continuous
 62
     7
370
    15
100
AcDbLine
 10
127.0523305967
 20
138.316056699
 30
0.0
 11
127.0523305967
 21
143.1959199519
 31
0.0
  0
LINE
  5
CA
330
1F
100
AcDbEntity
  8
0
  6
Continuous
 62
     7
370
    15
100
AcDbLine
 10
127.0948498286
 20
143.1959199519
 30
0.0
 11
127.0523305967
 21
143.1959199519
 31
0.0
  0
ARC
  5
CB
330
1F
100
AcDbEntity
  8
0
  6
Continuous
 62
     7
370
    15
100
AcDbCircle
 10
127.2573305967
 20
143.1959199519
 30
0.0
 40
0.2050000000000281
100
AcDbArc
 50
75.0
 51
180.0
  0
LINE
  5
CC
330
1F
100
AcDbEntity
  8
0
  6
Continuous
 62
     7
370
    15
100
AcDbLine
 10
127.3103885009
 20
143.3939347463
 30
0.0
 11
127.2896829773
 21
143.3166606802
 31
0.0
  0
ARC
  5
CD
330
1F
100
AcDbEntity
  8
0
  6
Continuous
 62
     7
370
    15
100
AcDbCircle
 10
127.2573305967
 20
143.1959199519
 30
0.0
 40
0.1250000000000112
100
AcDbArc
 50
75.0
 51
180.0
  0
LINE
  5
CE
330
1F
100
AcDbEntity
  8
0
  6
Continuous
 62
     7
370
    15
100
AcDbLine
 10
127.0523305967
 20
135.4888231235
 30
0.0
 11
127.1323305967
 21
135.4888231235
 31
0.0
  0
LINE
  5
CF
330
1F
100
AcDbEntity
  8
0
  6
Continuous
 62
     7
370
    15
100
AcDbLine
 10
127.0523305967
 20
135.4888231235
 30
0.0
 11
127.0523305967
 21
138.276056699
 31
0.0
  0
LINE
  5
D0
330
1F
100
AcDbEntity
  8
0
  6
Continuous
 62
     7
370
    15
100
AcDbLine
 10
127.1323305967
 20
135.4888231235
 30
0.0
 11
127.1323305967
 21
138.276056699
 31
0.0
  0
LINE
  5
D1
330
1F
100
AcDbEntity
  8
0
  6
Continuous
 62
     7
370
    15
100
AcDbLine
 10
127.1323305967
 20
138.276056699
 30
0.0
 11
127.0523305967
 21
138.276056699
 31
0.0
  0
LINE
  5
D2
330
1F
100
AcDbEntity
  8
0
  6
Continuous
 62
     7
370
    15
100
AcDbLine
 10
130.6193782094
 20
142.4244715317
 30
0.0
 11
130.640083733
 21
142.5017455978
 31
0.0
  0
LINE
  5
D3
330
1F
100
AcDbEntity
  8
0
  6
Continuous
 62
     7
370
    15
100
AcDbLine
 10
127.2896829773
 20
143.3166606802
 30
0.0
 11
130.6193782094
 21
142.4244715317
 31
0.0
  0
LINE
  5
D4
330
1F
100
AcDbEntity
  8
0
  6
Continuous
 62
     7
370
    15
100
AcDbLine
 10
127.3103885009
 20
143.3939347463
 30
0.0
 11
130.640083733
 21
142.5017455978
 31
0.0
  0
LINE
  5
D5
330
1F
100
AcDbEntity
  8
0
  6
Continuous
 62
     7
370
    15
100
AcDbLine
 10
127.1323305967
 20
134.9888231235
 30
0.0
 11
127.0523305967
 21
134.9888231235
 31
0.0
  0
LINE
  5
D6
330
1F
100
AcDbEntity
  8
0
  6
Continuous
 62
     7
370
    15
100
AcDbLine
 10
127.0523305967
 20
134.9888231235
 30
0.0
 11
127.0523305967
 21
135.4888231235
 31
0.0
  0
LINE
  5
D7
330
1F
100
AcDbEntity
  8
0
  6
Continuous
 62
     7
370
    15
100
AcDbLine
 10
127.1323305967
 20
135.4888231235
 30
0.0
 11
127.1323305967
 21
134.9888231235
 31
0.0
  0
LINE
  5
D8
330
1F
100
AcDbEntity
  8
0
  6
Continuous
 62
     7
370
    15
100
AcDbLine
 10
132.4723305967
 20
140.0096569659
 30
0.0
 11
132.4723305967
 21
138.3179744359
 31
0.0
  0
LINE
  5
D9
330
1F
100
AcDbEntity
  8
0
  6
Continuous
 62
     7
370
    15
100
AcDbLine
 10
132.5523305967
 20
140.0096569659
 30
0.0
 11
132.4723305967
 21
140.0096569659
 31
0.0
  0
LINE
  5
DA
330
1F
100
AcDbEntity
  8
0
  6
Continuous
 62
     7
370
    15
100
AcDbLine
 10
132.5523305967
 20
140.0096569659
 30
0.0
 11
132.5523305967
 21
138.3179744359
 31
0.0
  0
LINE
  5
DB
330
1F
100
AcDbEntity
  8
0
  6
Continuous
 62
     7
370
    15
100
AcDbLine
 10
132.4723305967
 20
138.3179744359
 30
0.0
 11
132.5523305967
 21
138.3179744359
 31
0.0
  0
ARC
  5
DC
330
1F
100
AcDbEntity
  8
0
  6
Continuous
 62
     7
370
    15
100
AcDbCircle
 10
129.9723305967
 20
140.0096569659
 30
0.0
 40
2.580000000000013
100
AcDbArc
 50
0.0
 51
75.0
  0
ARC
  5
DD
330
1F
100
AcDbEntity
  8
0
  6
Continuous
 62
     7
370
    15
100
AcDbCircle
 10
129.9723305967
 20
140.0096569659
 30
0.0
 40
2.500000000000014
100
AcDbArc
 50
0.0
 51
75.0
  0
LINE
  5
DE
330
1F
100
AcDbEntity
  8
0
  6
Continuous
 62
     7
370
    15
100
AcDbLine
 10
127.0523305967
 20
138.316056699
 30
0.0
 11
127.0523305967
 21
138.276056699
 31
0.0
  0
LINE
  5
DF
330
1F
100
AcDbEntity
  8
0
  6
Continuous
 62
     7
370
    15
100
AcDbLine
 10
127.1323305967
 20
138.276056699
 30
0.0
 11
127.1323305967
 21
138.316056699
 31
0.0
  0
SPLINE
  5
E0
330
1F
100
AcDbEntity
  8
0
  6
Continuous
 62
     7
370
    15
100
AcDbSpline
210
0.0
220
0.0
230
1.0
 70
     8
 71
     3
 72
    10
 73
     6
 74
     0
 42
0.00000001
 43
0.00000001
 40
0.0
 40
0.0
 40
0.0
 40
0.0
 40
0.2499025906788112
 40
0.499902797166341
 40
1.0
 40
1.0
 40
1.0
 40
1.0
 10
207.7094597837113
 20
115.1719605183465
 30
0.0
 10
207.4030012002834
 20
115.1631829727171
 30
0.0
 10
206.7899643259755
 20
115.1456244528135
 30
0.0
 10
205.5610059274435
 20
115.1604881029873
 30
0.0
 10
204.6398159922018
 20
115.1587614183618
 30
0.0
 10
204.0256497463673
 20
115.1576102210097
 30
0.0
  0
ARC
  5
E1
330
1F
100
AcDbEntity
  8
0
  6
Continuous
 62
     7
370
    15
100
AcDbCircle
 10
186.2547765982
 20
114.2600994779
 30
0.0
 40
21.47405227585448
100
AcDbArc
 50
357.5662952536
 51
2.4337047464
  0
SPLINE
  5
E2
330
1F
100
AcDbEntity
  8
0
  6
Continuous
 62
     7
370
    15
100
AcDbSpline
210
0.0
220
0.0
230
1.0
 70
     8
 71
     3
 72
    10
 73
     6
 74
     0
 42
0.00000001
 43
0.00000001
 40
0.0
 40
0.0
 40
0.0
 40
0.0
 40
0.4999665748855089
 40
0.7500321166248471
 40
1.0
 40
1.0
 40
1.0
 40
1.0
 10
204.0256497463673
 20
113.3717069152621
 30
0.0
 10
204.6396555672666
 20
113.3690387151814
 30
0.0
 10
205.5607653146022
 20
113.3650359760891
 30
0.0
 10
206.7897238957724
 20
113.376908570117
 30
0.0
 10
207.4029210742852
 20
113.3577939039369
 30
0.0
 10
207.7094597837113
 20
113.3482384374291
 30
0.0
  0
SPLINE
  5
E3
330
1F
100
AcDbEntity
  8
0
  6
Continuous
 62
     7
370
    15
100
AcDbSpline
210
0.0
220
0.0
230
1.0
 70
     8
 71
     3
 72
    11
 73
     7
 74
     0
 42
0.00000001
 43
0.00000001
 40
0.0
 40
0.0
 40
0.0
 40
0.0
 40
0.2501497584822461
 40
0.5000574776475839
 40
0.7500050895211813
 40
1.0
 40
1.0
 40
1.0
 40
1.0
 10
207.7094597837113
 20
113.3482384374291
 30
0.0
 10
207.6991669729845
 20
113.2679392151469
 30
0.0
 10
207.6785913106247
 20
113.1074184663156
 30
0.0
 10
207.619788154627
 20
112.9209491254017
 30
0.0
 10
207.548730683099
 20
112.7984152092405
 30
0.0
 10
207.4987009404073
 20
112.7903800453454
 30
0.0
 10
207.4736837024523
 20
112.786362083302
 30
0.0
  0
LINE
  5
E4
330
1F
100
AcDbEntity
  8
0
  6
Continuous
 62
     7
370
    15
100
AcDbLine
 10
207.4848606737
 20
115.72184493
 30
0.0
 11
207.4736837025
 21
115.7260225903
 31
0.0
  0
SPLINE
  5
E5
330
1F
100
AcDbEntity
  8
0
  6
Continuous
 62
     7
370
    15
100
AcDbSpline
210
0.0
220
0.0
230
1.0
 70
     8
 71
     3
 72
    14
 73
    10
 74
     0
 42
0.00000001
 43
0.00000001
 40
0.0
 40
0.0
 40
0.0
 40
0.0
 40
0.0159612466291066
 40
0.0823209655043699
 40
0.2150280145851829
 40
0.4803569690629187
 40
0.7081201706714424
 40
0.9359396075084263
 40
1.0
 40
1.0
 40
1.0
 40
1.0
 10
208.8602930846102
 20
112.7097615373737
 30
0.0
 10
208.8562140221769
 20
112.7102148558532
 30
0.0
 10
208.8351760440247
 20
112.7125528696552
 30
0.0
 10
208.7766897972045
 20
112.7186624948717
 30
0.0
 10
208.6347062828977
 20
112.7318677313867
 30
0.0
 10
208.4002999996699
 20
112.7496757593324
 30
0.0
 10
208.0673317524037
 20
112.7701897897352
 30
0.0
 10
207.7901396950373
 20
112.7849751768103
 30
0.0
 10
207.6146277362649
 20
112.7932827406985
 30
0.0
 10
207.5761072088554
 20
112.7951060451884
 30
0.0
  0
SPLINE
  5
E6
330
1F
100
AcDbEntity
  8
0
  6
Continuous
 62
     7
370
    15
100
AcDbSpline
210
0.0
220
0.0
230
1.0
 70
     8
 71
     3
 72
    10
 73
     6
 74
     0
 42
0.00000001
 43
0.00000001
 40
0.0
 40
0.0
 40
0.0
 40
0.0
 40
0.6682715976028099
 40
0.9999905907736085
 40
1.0
 40
1.0
 40
1.0
 40
1.0
 10
208.9308652298911
 20
112.6868885860829
 30
0.0
 10
208.9172810078468
 20
112.6933866973342
 30
0.0
 10
208.8969538021478
 20
112.7031103637784
 30
0.0
 10
208.8717953351755
 20
112.7085183129083
 30
0.0
 10
208.8620952838277
 20
112.709562077465
 30
0.0
 10
208.8620950086931
 20
112.7095621070706
 30
0.0
  0
SPLINE
  5
E7
330
1F
100
AcDbEntity
  8
0
  6
Continuous
 62
     7
370
    15
100
AcDbSpline
210
0.0
220
0.0
230
1.0
 70
     8
 71
     3
 72
     9
 73
     5
 74
     0
 42
0.00000001
 43
0.00000001
 40
0.0
 40
0.0
 40
0.0
 40
0.0
 40
0.0000096579320745
 40
1.0
 40
1.0
 40
1.0
 40
1.0
 10
208.3170679450364
 20
112.7047490659885
 30
0.0
 10
208.317069929675
 20
112.7047490491904
 30
0.0
 10
208.5225630490446
 20
112.7030097418699
 30
0.0
 10
208.7267151253113
 20
112.694949125052
 30
0.0
 10
208.9308652298911
 20
112.6868885860829
 30
0.0
  0
LINE
  5
E8
330
1F
100
AcDbEntity
  8
0
  6
Continuous
 62
     7
370
    15
100
AcDbLine
 10
204.0256497464
 20
112.6994752128
 30
0.0
 11
208.317067945
 21
112.704749066
 31
0.0
  0
SPLINE
  5
E9
330
1F
100
AcDbEntity
  8
0
  6
Continuous
 62
     7
370
    15
100
AcDbSpline
210
0.0
220
0.0
230
1.0
 70
     8
 71
     3
 72
    11
 73
     7
 74
     0
 42
0.00000001
 43
0.00000001
 40
0.0
 40
0.0
 40
0.0
 40
0.0
 40
0.2541276920872975
 40
0.5000015343144224
 40
0.7458792902502962
 40
0.9999999999999999
 40
0.9999999999999999
 40
0.9999999999999999
 40
0.9999999999999999
 10
208.1841778942648
 20
115.1689734338805
 30
0.0
 10
208.1692719938019
 20
115.1768055422844
 30
0.0
 10
208.139944323761
 20
115.192215378917
 30
0.0
 10
208.0312793422483
 20
115.199132734517
 30
0.0
 10
207.8871804293607
 20
115.1938061763613
 30
0.0
 10
207.7693475283553
 20
115.1793219995294
 30
0.0
 10
207.7094597837113
 20
115.1719605183465
 30
0.0
  0
ARC
  5
EA
330
1F
100
AcDbEntity
  8
0
  6
Continuous
 62
     7
370
    15
100
AcDbCircle
 10
203.6139849783
 20
114.2571650272
 30
0.0
 40
4.660263711411415
100
AcDbArc
 50
348.7169540544
 51
11.2830459456
  0
SPLINE
  5
EB
330
1F
100
AcDbEntity
  8
0
  6
Continuous
 62
     7
370
    15
100
AcDbSpline
210
0.0
220
0.0
230
1.0
 70
     8
 71
     3
 72
    11
 73
     7
 74
     0
 42
0.00000001
 43
0.00000001
 40
0.0
 40
0.0
 40
0.0
 40
0.0
 40
0.2541188333882504
 40
0.5000014423109932
 40
0.7458704312417317
 40
1.0
 40
1.0
 40
1.0
 40
1.0
 10
207.7094597837113
 20
113.3482384374291
 30
0.0
 10
207.7693471011218
 20
113.3406470169539
 30
0.0
 10
207.8871807330576
 20
113.325710220904
 30
0.0
 10
208.0312792498798
 20
113.3190039692183
 30
0.0
 10
208.1399442408105
 20
113.3241757057049
 30
0.0
 10
208.1692718340309
 20
113.3382189783384
 30
0.0
 10
208.1841778942648
 20
113.3453566205645
 30
0.0
  0
LINE
  5
EC
330
1F
100
AcDbEntity
  8
0
  6
Continuous
 62
     7
370
    15
100
AcDbLine
 10
207.4736837025
 20
112.7863620833
 30
0.0
 11
207.6777503076
 21
112.8110966328
 31
0.0
  0
SPLINE
  5
ED
330
1F
100
AcDbEntity
  8
0
  6
Continuous
 62
     7
370
    15
100
AcDbSpline
210
0.0
220
0.0
230
1.0
 70
     8
 71
     3
 72
     9
 73
     5
 74
     0
 42
0.00000001
 43
0.00000001
 40
0.0
 40
0.0
 40
0.0
 40
0.0
 40
0.1019472900434888
 40
1.0
 40
1.0
 40
1.0
 40
1.0
 10
207.7402487302159
 20
115.6844232742524
 30
0.0
 10
207.7321152841346
 20
115.688873721076
 30
0.0
 10
207.652334388754
 20
115.7325281117088
 30
0.0
 10
207.5582112459327
 20
115.7291006402898
 30
0.0
 10
207.4736837024523
 20
115.7260225902937
 30
0.0
  0
SPLINE
  5
EE
330
1F
100
AcDbEntity
  8
0
  6
Continuous
 62
     7
370
    15
100
AcDbSpline
210
0.0
220
0.0
230
1.0
 70
     8
 71
     3
 72
    17
 73
    13
 74
     0
 42
0.00000001
 43
0.00000001
 40
0.0
 40
0.0
 40
0.0
 40
0.0
 40
0.025228673340312
 40
0.0756854938842345
 40
0.1261523896240826
 40
0.3279622722488181
 40
0.5297721540906679
 40
0.7648334274087492
 40
0.8824012547777171
 40
0.9411904200053857
 40
0.9705859839624024
 40
1.0
 40
1.0
 40
1.0
 40
1.0
 10
209.6521611576582
 20
115.0776792227512
 30
0.0
 10
209.6466181460071
 20
115.0719639198407
 30
0.0
 10
209.6299892266518
 20
115.0548181303
 30
0.0
 10
209.5935158142504
 20
115.0571028975878
 30
0.0
 10
209.4964552555754
 20
115.078720458812
 30
0.0
 10
209.3306076508572
 20
115.0843198097852
 30
0.0
 10
209.0373082612552
 20
115.1077846562771
 30
0.0
 10
208.7295148544576
 20
115.1259802291873
 30
0.0
 10
208.46971249524
 20
115.1366260153316
 30
0.0
 10
208.3307681957325
 20
115.1468062824279
 30
0.0
 10
208.2507276236522
 20
115.1446781950118
 30
0.0
 10
208.2063657770483
 20
115.1608733271306
 30
0.0
 10
208.1841778942648
 20
115.1689734338805
 30
0.0
  0
ARC
  5
EF
330
1F
100
AcDbEntity
  8
0
  6
Continuous
 62
     7
370
    15
100
AcDbCircle
 10
205.1140052198
 20
114.1607862742
 30
0.0
 40
4.629854424823578
100
AcDbArc
 50
348.5776762824
 51
11.4223237176
  0
SPLINE
  5
F0
330
1F
100
AcDbEntity
  8
0
  6
Continuous
 62
     7
370
    15
100
AcDbSpline
210
0.0
220
0.0
230
1.0
 70
     8
 71
     3
 72
    16
 73
    12
 74
     0
 42
0.00000001
 43
0.00000001
 40
0.0
 40
0.0
 40
0.0
 40
0.0
 40
0.0252287448533307
 40
0.1261343556387057
 40
0.3279445742849084
 40
0.5297547923572286
 40
0.7648210893121142
 40
0.8823918684009472
 40
0.9411827286181057
 40
0.9705798156749009
 40
1.0
 40
1.0
 40
1.0
 40
1.0
 10
208.1841778942648
 20
113.3453566205645
 30
0.0
 10
208.2031652234485
 20
113.3504394972469
 30
0.0
 10
208.2980948184721
 20
113.3758519931462
 30
0.0
 10
208.5135912960129
 20
113.3332357494241
 30
0.0
 10
208.825509482778
 20
113.3362788791834
 30
0.0
 10
209.157146930764
 20
113.3093387766919
 30
0.0
 10
209.3928595470503
 20
113.2928554932029
 30
0.0
 10
209.5355926633788
 20
113.280124869684
 30
0.0
 10
209.598588420937
 20
113.272453074562
 30
0.0
 10
209.6328982690568
 20
113.2703879699798
 30
0.0
 10
209.6457385140229
 20
113.252727185478
 30
0.0
 10
209.6521611576582
 20
113.2438933255732
 30
0.0
  0
SPLINE
  5
F1
330
1F
100
AcDbEntity
  8
0
  6
Continuous
 62
     7
370
    15
100
AcDbSpline
210
0.0
220
0.0
230
1.0
 70
     8
 71
     3
 72
    11
 73
     7
 74
     0
 42
0.00000001
 43
0.00000001
 40
0.0
 40
0.0
 40
0.0
 40
0.0
 40
0.2500023459646177
 40
0.4999652669163208
 40
0.7498956881625127
 40
1.0
 40
1.0
 40
1.0
 40
1.0
 10
208.9308652298911
 20
112.6868885860829
 30
0.0
 10
209.0140045102282
 20
112.6912192036441
 30
0.0
 10
209.1802699599567
 20
112.6998797558345
 30
0.0
 10
209.402755170347
 20
112.8212746256425
 30
0.0
 10
209.577005184808
 20
113.0055678192027
 30
0.0
 10
209.6271033593774
 20
113.1644330746135
 30
0.0
 10
209.6521611576582
 20
113.2438933255732
 30
0.0
  0
SPLINE
  5
F2
330
1F
100
AcDbEntity
  8
0
  6
Continuous
 62
     7
370
    15
100
AcDbSpline
210
0.0
220
0.0
230
1.0
 70
     8
 71
     3
 72
    11
 73
     7
 74
     0
 42
0.00000001
 43
0.00000001
 40
0.0
 40
0.0
 40
0.0
 40
0.0
 40
0.2501043118374902
 40
0.5000347330836855
 40
0.7499976540353903
 40
1.0
 40
1.0
 40
1.0
 40
1.0
 10
209.6521611576582
 20
115.0776792227512
 30
0.0
 10
209.6271033593774
 20
115.1571862577681
 30
0.0
 10
209.577005184808
 20
115.3161450487656
 30
0.0
 10
209.402755170347
 20
115.5006196054273
 30
0.0
 10
209.1802699599567
 20
115.6222015093916
 30
0.0
 10
209.0140045102282
 20
115.6309697541014
 30
0.0
 10
208.9308652298911
 20
115.6353542221685
 30
0.0
  0
LINE
  5
F3
330
1F
100
AcDbEntity
  8
0
  6
Continuous
 62
     7
370
    15
100
AcDbLine
 10
209.6521611577
 20
113.2438933256
 30
0.0
 11
209.6342163959
 21
113.2282385117
 31
0.0
  0
LINE
  5
F4
330
1F
100
AcDbEntity
  8
0
  6
Continuous
 62
     7
370
    15
100
AcDbLine
 10
209.6343071514
 20
115.0919516358
 30
0.0
 11
209.6521611577
 21
115.0776792228
 31
0.0
  0
SPLINE
  5
F5
330
1F
100
AcDbEntity
  8
0
  6
Continuous
 62
     7
370
    15
100
AcDbSpline
210
0.0
220
0.0
230
1.0
 70
     8
 71
     3
 72
    15
 73
    11
 74
     0
 42
0.00000001
 43
0.00000001
 40
0.0
 40
0.0
 40
0.0
 40
0.0
 40
0.0000004003079483
 40
0.0275165130855596
 40
0.0946559410488287
 40
0.228922821642407
 40
0.4973716656527808
 40
0.727817874947842
 40
0.9583209855388012
 40
1.0
 40
1.0
 40
1.0
 40
1.0
 10
207.5061059246275
 20
112.7005846202821
 30
0.0
 10
207.5061061676197
 20
112.7005846204966
 30
0.0
 10
207.5228090498498
 20
112.7005993658533
 30
0.0
 10
207.5798269685118
 20
112.7006504706406
 30
0.0
 10
207.7140739436275
 20
112.7007772131806
 30
0.0
 10
207.9735875470065
 20
112.7010509935764
 30
0.0
 10
208.2806838689798
 20
112.7014467187288
 30
0.0
 10
208.5711333974007
 20
112.7019339466469
 30
0.0
 10
208.7364531467728
 20
112.702287445484
 30
0.0
 10
208.8081282689614
 20
112.7024957580184
 30
0.0
 10
208.81910381871
 20
112.7025276567375
 30
0.0
  0
SPLINE
  5
F6
330
1F
100
AcDbEntity
  8
0
  6
Continuous
 62
     7
370
    15
100
AcDbSpline
210
0.0
220
0.0
230
1.0
 70
     8
 71
     3
 72
    10
 73
     6
 74
     0
 42
0.00000001
 43
0.00000001
 40
0.0
 40
0.0
 40
0.0
 40
0.0
 40
0.8369622133531117
 40
0.9999882585655928
 40
1.0
 40
1.0
 40
1.0
 40
1.0
 10
207.4736837024857
 20
112.6855441843804
 30
0.0
 10
207.4838712091851
 20
112.6912887577276
 30
0.0
 10
207.4960430694207
 20
112.6981522765411
 30
0.0
 10
207.5047946473278
 20
112.7003618364399
 30
0.0
 10
207.5061058302005
 20
112.7005846042391
 30
0.0
 10
207.5061059246275
 20
112.7005846202821
 30
0.0
  0
LINE
  5
F7
330
1F
100
AcDbEntity
  8
0
  6
Continuous
 62
     7
370
    15
100
AcDbLine
 10
207.4841442305
 20
112.6896368109
 30
0.0
 11
207.4736837025
 21
112.6855441844
 31
0.0
  0
LINE
  5
F8
330
1F
100
AcDbEntity
  8
0
  6
Continuous
 62
     7
370
    15
100
AcDbLine
 10
198.3133998461
 20
66.6579744363
 30
0.0
 11
202.1756497464
 21
66.6579744363
 31
0.0
  0
LINE
  5
F9
330
1F
100
AcDbEntity
  8
0
  6
Continuous
 62
     7
370
    15
100
AcDbLine
 10
198.2256497463
 20
69.1579744363
 30
0.0
 11
198.7156497464
 21
69.1579744363
 31
0.0
  0
LINE
  5
FA
330
1F
100
AcDbEntity
  8
0
  6
Continuous
 62
     7
370
    15
100
AcDbLine
 10
203.9206497463
 20
66.7847766541
 30
0.0
 11
203.9206497463
 21
66.7629744363
 31
0.0
  0
LINE
  5
FB
330
1F
100
AcDbEntity
  8
0
  6
Continuous
 62
     7
370
    15
100
AcDbLine
 10
203.8406497463
 20
66.8419147373
 30
0.0
 11
203.8406497463
 21
66.8473149642
 31
0.0
  0
ARC
  5
FC
330
1F
100
AcDbEntity
  8
0
  6
Continuous
 62
     7
370
    15
100
AcDbCircle
 10
203.8156497463
 20
66.7629744363
 30
0.0
 40
0.1050000000000118
100
AcDbArc
 50
304.8499045998
 51
0.0
  0
LWPOLYLINE
  5
FD
330
1F
100
AcDbEntity
  8
0
  6
Continuous
 62
     7
370
    15
100
AcDbPolyline
 90
        3
 70
   128
 43
0.0
 10
203.8356497462
 20
66.7479744361
 10
203.8387467346
 20
66.7534073505
 10
203.8406497463
 20
66.7629744363
  0
LINE
  5
FE
330
1F
100
AcDbEntity
  8
0
  6
Continuous
 62
     7
370
    15
100
AcDbLine
 10
196.0056497393
 20
49.2079744359
 30
0.0
 11
190.7056497463
 21
49.2079744359
 31
0.0
  0
LINE
  5
FF
330
1F
100
AcDbEntity
  8
0
  6
Continuous
 62
     7
370
    15
100
AcDbLine
 10
196.2056497463
 20
49.8079744359
 30
0.0
 11
190.5056497463
 21
49.8079744359
 31
0.0
  0
LINE
  5
100
330
1F
100
AcDbEntity
  8
0
  6
Continuous
 62
     7
370
    15
100
AcDbLine
 10
137.3056497463
 20
49.8079744359
 30
0.0
 11
131.6056497463
 21
49.8079744359
 31
0.0
  0
LINE
  5
101
330
1F
100
AcDbEntity
  8
0
  6
Continuous
 62
     7
370
    15
100
AcDbLine
 10
137.1056497393
 20
49.2079744359
 30
0.0
 11
131.8056497463
 21
49.2079744359
 31
0.0
  0
LINE
  5
102
330
1F
100
AcDbEntity
  8
0
  6
Continuous
 62
     7
370
    15
100
AcDbLine
 10
189.8556497463
 20
66.0079744359
 30
0.0
 11
189.8556497463
 21
66.1279744359
 31
0.0
  0
LINE
  5
103
330
1F
100
AcDbEntity
  8
0
  6
Continuous
 62
     7
370
    15
100
AcDbLine
 10
189.8556497463
 20
66.0079744359
 30
0.0
 11
196.8556497463
 21
66.0079744359
 31
0.0
  0
LINE
  5
104
330
1F
100
AcDbEntity
  8
0
  6
Continuous
 62
     7
370
    15
100
AcDbLine
 10
196.8556497463
 20
66.0079744359
 30
0.0
 11
196.8556497463
 21
66.1279744359
 31
0.0
  0
LINE
  5
105
330
1F
100
AcDbEntity
  8
0
  6
Continuous
 62
     7
370
    15
100
AcDbLine
 10
196.4516147684
 20
56.6079744359
 30
0.0
 11
190.2596847243
 21
56.6079744359
 31
0.0
  0
LINE
  5
106
330
1F
100
AcDbEntity
  8
0
  6
Continuous
 62
     7
370
    15
100
AcDbLine
 10
130.9556497463
 20
66.0079744359
 30
0.0
 11
137.9556497463
 21
66.0079744359
 31
0.0
  0
LINE
  5
107
330
1F
100
AcDbEntity
  8
0
  6
Continuous
 62
     7
370
    15
100
AcDbLine
 10
130.9556497463
 20
66.0079744359
 30
0.0
 11
130.9556497463
 21
66.1279744359
 31
0.0
  0
LINE
  5
108
330
1F
100
AcDbEntity
  8
0
  6
Continuous
 62
     7
370
    15
100
AcDbLine
 10
137.9556497463
 20
66.0079744359
 30
0.0
 11
137.9556497463
 21
66.1279744359
 31
0.0
  0
LINE
  5
109
330
1F
100
AcDbEntity
  8
0
  6
Continuous
 62
     7
370
    15
100
AcDbLine
 10
137.5516147684
 20
56.6079744359
 30
0.0
 11
131.3596847243
 21
56.6079744359
 31
0.0
  0
LINE
  5
10A
330
1F
100
AcDbEntity
  8
0
  6
Continuous
 62
     7
370
    15
100
AcDbLine
 10
127.0423305967
 20
140.275085932
 30
0.0
 11
127.0523305967
 21
140.275085932
 31
0.0
  0
LINE
  5
10B
330
1F
100
AcDbEntity
  8
0
  6
Continuous
 62
     7
370
    15
100
AcDbLine
 10
127.0423305967
 20
142.575085932
 30
0.0
 11
127.0523305967
 21
142.575085932
 31
0.0
  0
LINE
  5
10C
330
1F
100
AcDbEntity
  8
0
  6
Continuous
 62
     7
370
    15
100
AcDbLine
 10
127.0423305967
 20
140.275085932
 30
0.0
 11
127.0423305967
 21
142.575085932
 31
0.0
  0
LINE
  5
10D
330
1F
100
AcDbEntity
  8
0
  6
Continuous
 62
     7
370
    15
100
AcDbLine
 10
200.2699802735
 20
131.7738836139
 30
0.0
 11
200.2604697084
 21
131.7707934439
 31
0.0
  0
LINE
  5
10E
330
1F
100
AcDbEntity
  8
0
  6
Continuous
 62
     7
370
    15
100
AcDbLine
 10
200.9807193606
 20
129.5864536264
 30
0.0
 11
200.9712087954
 21
129.5833634565
 31
0.0
  0
LINE
  5
10F
330
1F
100
AcDbEntity
  8
0
  6
Continuous
 62
     7
370
    15
100
AcDbLine
 10
200.2699802735
 20
131.7738836139
 30
0.0
 11
200.9807193606
 21
129.5864536264
 31
0.0
  0
LINE
  5
110
330
1F
100
AcDbEntity
  8
0
  6
Continuous
 62
     7
370
    15
100
AcDbLine
 10
127.0323305967
 20
140.425085932
 30
0.0
 11
127.0423305967
 21
140.425085932
 31
0.0
  0
LINE
  5
111
330
1F
100
AcDbEntity
  8
0
  6
Continuous
 62
     7
370
    15
100
AcDbLine
 10
127.0323305967
 20
140.543631178
 30
0.0
 11
127.0423305967
 21
140.543631178
 31
0.0
  0
LINE
  5
112
330
1F
100
AcDbEntity
  8
0
  6
Continuous
 62
     7
370
    15
100
AcDbLine
 10
127.0323305967
 20
140.543631178
 30
0.0
 11
127.0323305967
 21
140.425085932
 31
0.0
  0
LINE
  5
113
330
1F
100
AcDbEntity
  8
0
  6
Continuous
 62
     7
370
    15
100
AcDbLine
 10
127.0323305967
 20
142.383631178
 30
0.0
 11
127.0423305967
 21
142.383631178
 31
0.0
  0
LINE
  5
114
330
1F
100
AcDbEntity
  8
0
  6
Continuous
 62
     7
370
    15
100
AcDbLine
 10
127.0323305967
 20
140.543631178
 30
0.0
 11
127.0323305967
 21
142.383631178
 31
0.0
  0
LINE
  5
115
330
1F
100
AcDbEntity
  8
0
  6
Continuous
 62
     7
370
    15
100
AcDbLine
 10
127.0323305967
 20
142.383631178
 30
0.0
 11
127.0323305967
 21
142.425085932
 31
0.0
  0
LINE
  5
116
330
1F
100
AcDbEntity
  8
0
  6
Continuous
 62
     7
370
    15
100
AcDbLine
 10
200.907244881
 20
129.8449455024
 30
0.0
 11
200.8977343158
 21
129.8418553325
 31
0.0
  0
LINE
  5
117
330
1F
100
AcDbEntity
  8
0
  6
Continuous
 62
     7
370
    15
100
AcDbLine
 10
200.907244881
 20
129.8449455024
 30
0.0
 11
200.9438773766
 21
129.7322022738
 31
0.0
  0
LINE
  5
118
330
1F
100
AcDbEntity
  8
0
  6
Continuous
 62
     7
370
    15
100
AcDbLine
 10
200.9438773766
 20
129.7322022738
 30
0.0
 11
200.9343668114
 21
129.7291121039
 31
0.0
  0
LINE
  5
119
330
1F
100
AcDbEntity
  8
0
  6
Continuous
 62
     7
370
    15
100
AcDbLine
 10
200.3386536114
 20
131.5948894924
 30
0.0
 11
200.3291430462
 21
131.5917993224
 31
0.0
  0
LINE
  5
11A
330
1F
100
AcDbEntity
  8
0
  6
Continuous
 62
     7
370
    15
100
AcDbLine
 10
200.907244881
 20
129.8449455024
 30
0.0
 11
200.3386536114
 21
131.5948894924
 31
0.0
  0
LINE
  5
11B
330
1F
100
AcDbEntity
  8
0
  6
Continuous
 62
     7
370
    15
100
AcDbLine
 10
200.3386536114
 20
131.5948894924
 30
0.0
 11
200.3258433878
 21
131.6343153064
 31
0.0
  0
SPLINE
  5
11C
330
1F
100
AcDbEntity
  8
0
  6
Continuous
 62
     7
370
    15
100
AcDbSpline
210
0.0
220
0.0
230
1.0
 70
     8
 71
     3
 72
    10
 73
     6
 74
     0
 42
0.00000001
 43
0.00000001
 40
0.0
 40
0.0
 40
0.0
 40
0.0
 40
0.4933091286820053
 40
0.9866743033234776
 40
1.0
 40
1.0
 40
1.0
 40
1.0
 10
202.6536361088061
 20
125.7242677146208
 30
0.0
 10
202.6599948444982
 20
125.7296553041882
 30
0.0
 10
202.6727130383128
 20
125.7404310954192
 30
0.0
 10
202.6828540350743
 20
125.7492297633629
 30
0.0
 10
202.6840557097228
 20
125.7505977553939
 30
0.0
 10
202.6840873131181
 20
125.7506337328466
 30
0.0
  0
LINE
  5
11D
330
1F
100
AcDbEntity
  8
0
  6
Continuous
 62
     7
370
    15
100
AcDbLine
 10
201.6132816711
 20
131.1669411127
 30
0.0
 11
201.4649466633
 21
131.623469324
 31
0.0
  0
SPLINE
  5
11E
330
1F
100
AcDbEntity
  8
0
  6
Continuous
 62
     7
370
    15
100
AcDbSpline
210
0.0
220
0.0
230
1.0
 70
     8
 71
     3
 72
     9
 73
     5
 74
     0
 42
0.00000001
 43
0.00000001
 40
0.0
 40
0.0
 40
0.0
 40
0.0
 40
0.520974465233538
 40
1.0
 40
1.0
 40
1.0
 40
1.0
 10
201.5876348378069
 20
131.0424516989421
 30
0.0
 10
201.5827738668636
 20
131.0665030012033
 30
0.0
 10
201.573443330978
 20
131.1126689917964
 30
0.0
 10
201.6003788633035
 20
131.1493635042208
 30
0.0
 10
201.6132816710799
 20
131.166941112658
 30
0.0
  0
LINE
  5
11F
330
1F
100
AcDbEntity
  8
0
  6
Continuous
 62
     7
370
    15
100
AcDbLine
 10
202.9840867581
 20
126.7446146134
 30
0.0
 11
201.5876348378
 21
131.0424516989
 31
0.0
  0
SPLINE
  5
120
330
1F
100
AcDbEntity
  8
0
  6
Continuous
 62
     7
370
    15
100
AcDbSpline
210
0.0
220
0.0
230
1.0
 70
     8
 71
     3
 72
     9
 73
     5
 74
     0
 42
0.00000001
 43
0.00000001
 40
0.0
 40
0.0
 40
0.0
 40
0.0
 40
0.479025534766489
 40
1.0
 40
1.0
 40
1.0
 40
1.0
 10
203.0780085235059
 20
126.6589753924881
 30
0.0
 10
203.0572380737297
 20
126.6656118963101
 30
0.0
 10
203.0138782770827
 20
126.6794660717982
 30
0.0
 10
202.9942911507527
 20
126.7222994941397
 30
0.0
 10
202.9840867580874
 20
126.7446146134381
 30
0.0
  0
LINE
  5
121
330
1F
100
AcDbEntity
  8
0
  6
Continuous
 62
     7
370
    15
100
AcDbLine
 10
203.2263435313
 20
126.2024471811
 30
0.0
 11
203.0780085235
 21
126.6589753925
 31
0.0
  0
LINE
  5
122
330
1F
100
AcDbEntity
  8
0
  6
Continuous
 62
     7
370
    15
100
AcDbLine
 10
200.8408146613
 20
131.3654000105
 30
0.0
 11
200.8240413795
 21
131.416975948
 31
0.0
  0
LINE
  5
123
330
1F
100
AcDbEntity
  8
0
  6
Continuous
 62
     7
370
    15
100
AcDbLine
 10
200.926392566
 20
131.3415864365
 30
0.0
 11
200.8408146613
 21
131.3654000105
 31
0.0
  0
LINE
  5
124
330
1F
100
AcDbEntity
  8
0
  6
Continuous
 62
     7
370
    15
100
AcDbLine
 10
201.2785382417
 20
131.3683452536
 30
0.0
 11
200.9145579817
 21
131.3805691369
 31
0.0
  0
SPLINE
  5
125
330
1F
100
AcDbEntity
  8
0
  6
Continuous
 62
     7
370
    15
100
AcDbSpline
210
0.0
220
0.0
230
1.0
 70
     8
 71
     3
 72
    13
 73
     9
 74
     0
 42
0.00000001
 43
0.00000001
 40
0.0
 40
0.0
 40
0.0
 40
0.0
 40
0.1668687810414072
 40
0.3335139733827426
 40
0.5001418443471662
 40
0.6667240192325835
 40
0.8323715538357839
 40
1.0
 40
1.0
 40
1.0
 40
1.0
 10
201.302843434056
 20
130.3363909056673
 30
0.0
 10
201.2991276947243
 20
130.3358375081767
 30
0.0
 10
201.2917011948074
 20
130.334731454697
 30
0.0
 10
201.2816685081762
 20
130.3308949043702
 30
0.0
 10
201.2730934741644
 20
130.3253821057448
 30
0.0
 10
201.26655911233
 20
130.3182449717593
 30
0.0
 10
201.2619983212444
 20
130.3099249705203
 30
0.0
 10
201.2609774576657
 20
130.303714287143
 30
0.0
 10
201.2604639919936
 20
130.3005904880568
 30
0.0
  0
SPLINE
  5
126
330
1F
100
AcDbEntity
  8
0
  6
Continuous
 62
     7
370
    15
100
AcDbSpline
210
0.0
220
0.0
230
1.0
 70
     8
 71
     3
 72
    10
 73
     6
 74
     0
 42
0.00000001
 43
0.00000001
 40
0.0
 40
0.0
 40
0.0
 40
0.0
 40
0.500843094348802
 40
0.7508790136583712
 40
1.0
 40
1.0
 40
1.0
 40
1.0
 10
201.4539435597328
 20
130.2834030202236
 30
0.0
 10
201.4304207078876
 20
130.2966943455862
 30
0.0
 10
201.3951545417146
 20
130.3166210998753
 30
0.0
 10
201.3429329538258
 20
130.3353496152115
 30
0.0
 10
201.316190267918
 20
130.3360442332503
 30
0.0
 10
201.302843434056
 20
130.3363909056673
 30
0.0
  0
LINE
  5
127
330
1F
100
AcDbEntity
  8
0
  6
Continuous
 62
     7
370
    15
100
AcDbLine
 10
201.6218673462
 20
130.1841908285
 30
0.0
 11
201.4539435597
 21
130.2834030202
 31
0.0
  0
LINE
  5
128
330
1F
100
AcDbEntity
  8
0
  6
Continuous
 62
     7
370
    15
100
AcDbLine
 10
201.6601778017
 20
130.1882718999
 30
0.0
 11
201.6218673462
 21
130.1841908285
 31
0.0
  0
LINE
  5
129
330
1F
100
AcDbEntity
  8
0
  6
Continuous
 62
     7
370
    15
100
AcDbLine
 10
201.5476563164
 20
130.3035761975
 30
0.0
 11
201.5052131312
 21
130.4296380108
 31
0.0
  0
SPLINE
  5
12A
330
1F
100
AcDbEntity
  8
0
  6
Continuous
 62
     7
370
    15
100
AcDbSpline
210
0.0
220
0.0
230
1.0
 70
     8
 71
     3
 72
     9
 73
     5
 74
     0
 42
0.00000001
 43
0.00000001
 40
0.0
 40
0.0
 40
0.0
 40
0.0
 40
0.6943904332270889
 40
1.0
 40
1.0
 40
1.0
 40
1.0
 10
201.1866888471848
 20
130.2777857793193
 30
0.0
 10
201.183047556937
 20
130.2924131526491
 30
0.0
 10
201.1778036911324
 20
130.3134782086032
 30
0.0
 10
201.1831397083118
 20
130.3327394953008
 30
0.0
 10
201.1847704462103
 20
130.3386259287839
 30
0.0
  0
SPLINE
  5
12B
330
1F
100
AcDbEntity
  8
0
  6
Continuous
 62
     7
370
    15
100
AcDbSpline
210
0.0
220
0.0
230
1.0
 70
     8
 71
     3
 72
    13
 73
     9
 74
     0
 42
0.00000001
 43
0.00000001
 40
0.0
 40
0.0
 40
0.0
 40
0.0
 40
0.2498957672614575
 40
0.3750954217622179
 40
0.5002463091099071
 40
0.6260891681293244
 40
0.7505767696293768
 40
1.0
 40
1.0
 40
1.0
 40
1.0
 10
201.372252547955
 20
130.1680399004741
 30
0.0
 10
201.3525281396732
 20
130.1678765088279
 30
0.0
 10
201.3229216548395
 20
130.1676312567409
 30
0.0
 10
201.2836355969475
 20
130.1787307197056
 30
0.0
 10
201.2559286426165
 20
130.191757169023
 30
0.0
 10
201.2314302475433
 20
130.2091455518318
 30
0.0
 10
201.2040137208975
 20
130.2369425669502
 30
0.0
 10
201.1936212871539
 20
130.2614426230811
 30
0.0
 10
201.1866888471848
 20
130.2777857793193
 30
0.0
  0
SPLINE
  5
12C
330
1F
100
AcDbEntity
  8
0
  6
Continuous
 62
     7
370
    15
100
AcDbSpline
210
0.0
220
0.0
230
1.0
 70
     8
 71
     3
 72
    13
 73
     9
 74
     0
 42
0.00000001
 43
0.00000001
 40
0.0
 40
0.0
 40
0.0
 40
0.0
 40
0.2505547133554838
 40
0.5000895114310159
 40
0.6251715279108544
 40
0.7501838345785584
 40
0.8751021895206536
 40
1.0
 40
1.0
 40
1.0
 40
1.0
 10
201.8892761898755
 20
128.645334652383
 30
0.0
 10
201.8857888171925
 20
128.6534686862744
 30
0.0
 10
201.878828267627
 20
128.6697036434232
 30
0.0
 10
201.8662262642554
 20
128.688278810887
 30
0.0
 10
201.852295766624
 20
128.6986711258656
 30
0.0
 10
201.8405663701
 20
128.7037434115084
 30
0.0
 10
201.8279826463413
 20
128.7057473426765
 30
0.0
 10
201.8199165704344
 20
128.7038723040917
 30
0.0
 10
201.8158838641512
 20
128.7029348618993
 30
0.0
  0
SPLINE
  5
12D
330
1F
100
AcDbEntity
  8
0
  6
Continuous
 62
     7
370
    15
100
AcDbSpline
210
0.0
220
0.0
230
1.0
 70
     8
 71
     3
 72
    13
 73
     9
 74
     0
 42
0.00000001
 43
0.00000001
 40
0.0
 40
0.0
 40
0.0
 40
0.0
 40
0.2497025552937109
 40
0.3749249067604085
 40
0.5002270304516384
 40
0.6262186152892238
 40
0.7507599282806793
 40
1.0
 40
1.0
 40
1.0
 40
1.0
 10
202.0662719133992
 20
128.7408328879679
 30
0.0
 10
202.0628390876357
 20
128.7491269564006
 30
0.0
 10
202.057684747594
 20
128.7615803845608
 30
0.0
 10
202.0455893515656
 20
128.7745420457289
 30
0.0
 10
202.0349194333695
 20
128.7820851785789
 30
0.0
 10
202.023257750198
 20
128.7875028638535
 30
0.0
 10
202.0066679630985
 20
128.7914734729214
 30
0.0
 10
201.9944132376389
 20
128.7887691264056
 30
0.0
 10
201.9862417000039
 20
128.7869658490164
 30
0.0
  0
SPLINE
  5
12E
330
1F
100
AcDbEntity
  8
0
  6
Continuous
 62
     7
370
    15
100
AcDbSpline
210
0.0
220
0.0
230
1.0
 70
     8
 71
     3
 72
    12
 73
     8
 74
     0
 42
0.00000001
 43
0.00000001
 40
0.0
 40
0.0
 40
0.0
 40
0.0
 40
0.2504797821880594
 40
0.4998422172392615
 40
0.6240491896051771
 40
0.7503609880627742
 40
1.0
 40
1.0
 40
1.0
 40
1.0
 10
202.0276733917592
 20
128.6520707471171
 30
0.0
 10
202.035048195798
 20
128.656480824175
 30
0.0
 10
202.0497649061458
 20
128.6652813056972
 30
0.0
 10
202.0636189235461
 20
128.68309455658
 30
0.0
 10
202.0693917829185
 20
128.7001302034265
 30
0.0
 10
202.0717732492052
 20
128.7183273439955
 30
0.0
 10
202.06846719853
 20
128.7318521444203
 30
0.0
 10
202.0662719133992
 20
128.7408328879679
 30
0.0
  0
LINE
  5
12F
330
1F
100
AcDbEntity
  8
0
  6
Continuous
 62
     7
370
    15
100
AcDbLine
 10
202.0527249737
 20
128.5713764452
 30
0.0
 11
202.0276733918
 21
128.6520707471
 31
0.0
  0
SPLINE
  5
130
330
1F
100
AcDbEntity
  8
0
  6
Continuous
 62
     7
370
    15
100
AcDbSpline
210
0.0
220
0.0
230
1.0
 70
     8
 71
     3
 72
    11
 73
     7
 74
     0
 42
0.00000001
 43
0.00000001
 40
0.0
 40
0.0
 40
0.0
 40
0.0
 40
0.2502399880622893
 40
0.5001008475454151
 40
0.749939236539085
 40
0.9999999999999999
 40
0.9999999999999999
 40
0.9999999999999999
 40
0.9999999999999999
 10
201.886808708273
 20
128.7506357634702
 30
0.0
 10
201.8869244240548
 20
128.7635127319977
 30
0.0
 10
201.8871556803022
 20
128.7892471596737
 30
0.0
 10
201.9017195272851
 20
128.8244648683384
 30
0.0
 10
201.9261741001521
 20
128.8526268051455
 30
0.0
 10
201.9482994098882
 20
128.8621624303804
 30
0.0
 10
201.9593669858528
 20
128.8669323639051
 30
0.0
  0
SPLINE
  5
131
330
1F
100
AcDbEntity
  8
0
  6
Continuous
 62
     7
370
    15
100
AcDbSpline
210
0.0
220
0.0
230
1.0
 70
     8
 71
     3
 72
    12
 73
     8
 74
     0
 42
0.00000001
 43
0.00000001
 40
0.0
 40
0.0
 40
0.0
 40
0.0
 40
0.2500035867177947
 40
0.4996446644012375
 40
0.7492461600948052
 40
0.8746035298916071
 40
1.0
 40
1.0
 40
1.0
 40
1.0
 10
201.7198479720037
 20
128.6243365369392
 30
0.0
 10
201.7159239783747
 20
128.640316465477
 30
0.0
 10
201.7080816809677
 20
128.6722531514114
 30
0.0
 10
201.7178057731536
 20
128.7207298447697
 30
0.0
 10
201.738077701623
 20
128.7548414408003
 30
0.0
 10
201.7618269787901
 20
128.7745311735423
 30
0.0
 10
201.7759099910859
 20
128.7802527654016
 30
0.0
 10
201.7829525952232
 20
128.7831140074181
 30
0.0
  0
SPLINE
  5
132
330
1F
100
AcDbEntity
  8
0
  6
Continuous
 62
     7
370
    15
100
AcDbSpline
210
0.0
220
0.0
230
1.0
 70
     8
 71
     3
 72
     9
 73
     5
 74
     0
 42
0.00000001
 43
0.00000001
 40
0.0
 40
0.0
 40
0.0
 40
0.0
 40
0.499721329903479
 40
1.0
 40
1.0
 40
1.0
 40
1.0
 10
201.7881529914848
 20
128.5389118523109
 30
0.0
 10
201.7727312630261
 20
128.5494169959078
 30
0.0
 10
201.7418706062241
 20
128.5704389995093
 30
0.0
 10
201.7271915771481
 20
128.6063640169772
 30
0.0
 10
201.7198479720037
 20
128.6243365369392
 30
0.0
  0
SPLINE
  5
133
330
1F
100
AcDbEntity
  8
0
  6
Continuous
 62
     7
370
    15
100
AcDbSpline
210
0.0
220
0.0
230
1.0
 70
     8
 71
     3
 72
     9
 73
     5
 74
     0
 42
0.00000001
 43
0.00000001
 40
0.0
 40
0.0
 40
0.0
 40
0.0
 40
0.5006304763340212
 40
1.0
 40
1.0
 40
1.0
 40
1.0
 10
201.8692156587373
 20
128.5285568243062
 30
0.0
 10
201.8553731703432
 20
128.5266723241462
 30
0.0
 10
201.8277230590365
 20
128.5229080703722
 30
0.0
 10
201.8013319213435
 20
128.533581744664
 30
0.0
 10
201.7881529914848
 20
128.5389118523109
 30
0.0
  0
LINE
  5
134
330
1F
100
AcDbEntity
  8
0
  6
Continuous
 62
     7
370
    15
100
AcDbLine
 10
202.2531801657
 20
127.0045351452
 30
0.0
 11
202.2309541226
 21
127.0707549939
 31
0.0
  0
LINE
  5
135
330
1F
100
AcDbEntity
  8
0
  6
Continuous
 62
     7
370
    15
100
AcDbLine
 10
202.5286234242
 20
127.2501132155
 30
0.0
 11
202.6031279898
 21
127.2950183854
 31
0.0
  0
LINE
  5
136
330
1F
100
AcDbEntity
  8
0
  6
Continuous
 62
     7
370
    15
100
AcDbLine
 10
202.4539404395
 20
127.24291314
 30
0.0
 11
202.5178281742
 21
127.2814113849
 31
0.0
  0
LINE
  5
137
330
1F
100
AcDbEntity
  8
0
  6
Continuous
 62
     7
370
    15
100
AcDbLine
 10
202.4647276746
 20
127.2116207127
 30
0.0
 11
202.4539404395
 21
127.24291314
 31
0.0
  0
LINE
  5
138
330
1F
100
AcDbEntity
  8
0
  6
Continuous
 62
     7
370
    15
100
AcDbLine
 10
202.2309541226
 20
127.0707549939
 30
0.0
 11
202.4647276746
 21
127.2116207127
 31
0.0
  0
LINE
  5
139
330
1F
100
AcDbEntity
  8
0
  6
Continuous
 62
     7
370
    15
100
AcDbLine
 10
202.61390152
 20
125.9161997778
 30
0.0
 11
202.5885990654
 21
125.9893530415
 31
0.0
  0
SPLINE
  5
13A
330
1F
100
AcDbEntity
  8
0
  6
Continuous
 62
     7
370
    15
100
AcDbSpline
210
0.0
220
0.0
230
1.0
 70
     8
 71
     3
 72
    10
 73
     6
 74
     0
 42
0.00000001
 43
0.00000001
 40
0.0
 40
0.0
 40
0.0
 40
0.0
 40
0.249996630403854
 40
0.5002514141206227
 40
1.0
 40
1.0
 40
1.0
 40
1.0
 10
202.7898519391875
 20
126.0854504244972
 30
0.0
 10
202.790774947858
 20
126.0839279808458
 30
0.0
 10
202.7926219183229
 20
126.0808815214262
 30
0.0
 10
202.8015407734315
 20
126.079749754264
 30
0.0
 10
202.8111676340714
 20
126.0826573099975
 30
0.0
 10
202.81758228524
 20
126.0845946971149
 30
0.0
  0
SPLINE
  5
13B
330
1F
100
AcDbEntity
  8
0
  6
Continuous
 62
     7
370
    15
100
AcDbSpline
210
0.0
220
0.0
230
1.0
 70
     8
 71
     3
 72
    11
 73
     7
 74
     0
 42
0.00000001
 43
0.00000001
 40
0.0
 40
0.0
 40
0.0
 40
0.0
 40
0.2503307229579829
 40
0.5003304167014857
 40
0.7501387009226537
 40
1.0
 40
1.0
 40
1.0
 40
1.0
 10
202.8758921874999
 20
126.1247965629818
 30
0.0
 10
202.8801959379004
 20
126.129580216138
 30
0.0
 10
202.8887977475615
 20
126.1391411967028
 30
0.0
 10
202.8979032855664
 20
126.1527634374895
 30
0.0
 10
202.903131088687
 20
126.1647141793478
 30
0.0
 10
202.9024352681772
 20
126.1700068368215
 30
0.0
 10
202.902087321009
 20
126.1726534463334
 30
0.0
  0
LINE
  5
13C
330
1F
100
AcDbEntity
  8
0
  6
Continuous
 62
     7
370
    15
100
AcDbLine
 10
202.8841031088
 20
126.0964631433
 30
0.0
 11
202.8758921875
 21
126.124796563
 31
0.0
  0
SPLINE
  5
13D
330
1F
100
AcDbEntity
  8
0
  6
Continuous
 62
     7
370
    15
100
AcDbSpline
210
0.0
220
0.0
230
1.0
 70
     8
 71
     3
 72
    11
 73
     7
 74
     0
 42
0.00000001
 43
0.00000001
 40
0.0
 40
0.0
 40
0.0
 40
0.0
 40
0.2762133740195499
 40
0.5521801340618366
 40
0.8281001877900679
 40
1.0
 40
1.0
 40
1.0
 40
1.0
 10
202.8235592381303
 20
126.1795504038474
 30
0.0
 10
202.8396714607377
 20
126.1914534278868
 30
0.0
 10
202.8718815203376
 20
126.2152488484857
 30
0.0
 10
202.9162528572124
 20
126.2333817200287
 30
0.0
 10
202.9481983467296
 20
126.2384075433717
 30
0.0
 10
202.9551319998247
 20
126.229543494517
 30
0.0
 10
202.9577935469234
 20
126.226140947088
 30
0.0
  0
SPLINE
  5
13E
330
1F
100
AcDbEntity
  8
0
  6
Continuous
 62
     7
370
    15
100
AcDbSpline
210
0.0
220
0.0
230
1.0
 70
     8
 71
     3
 72
    13
 73
     9
 74
     0
 42
0.00000001
 43
0.00000001
 40
0.0
 40
0.0
 40
0.0
 40
0.0
 40
0.2493178862009331
 40
0.3731116597960457
 40
0.4997957686014991
 40
0.6255125568598121
 40
0.75027327721964
 40
1.0
 40
1.0
 40
1.0
 40
1.0
 10
202.7269388823356
 20
126.0374487228297
 30
0.0
 10
202.7260424621983
 20
126.0451930686412
 30
0.0
 10
202.7247009427011
 20
126.0567827133465
 30
0.0
 10
202.7351181269686
 20
126.0805709210017
 30
0.0
 10
202.7468848253781
 20
126.1001295953064
 30
0.0
 10
202.7622735842917
 20
126.1207658057486
 30
0.0
 10
202.7868376975515
 20
126.1484724033868
 30
0.0
 10
202.8088682066144
 20
126.1671171595711
 30
0.0
 10
202.8235592381303
 20
126.1795504038474
 30
0.0
  0
LINE
  5
13F
330
1F
100
AcDbEntity
  8
0
  6
Continuous
 62
     7
370
    15
100
AcDbLine
 10
202.7334830448
 20
126.030264835
 30
0.0
 11
202.7269388823
 21
126.0374487228
 31
0.0
  0
LINE
  5
140
330
1F
100
AcDbEntity
  8
0
  6
Continuous
 62
     7
370
    15
100
AcDbLine
 10
202.6681038773
 20
125.9859827761
 30
0.0
 11
202.7334830448
 21
126.030264835
 31
0.0
  0
LINE
  5
141
330
1F
100
AcDbEntity
  8
0
  6
Continuous
 62
     7
370
    15
100
AcDbLine
 10
202.5885990654
 20
125.9893530415
 30
0.0
 11
202.6495889971
 21
126.0379655167
 31
0.0
  0
SPLINE
  5
142
330
1F
100
AcDbEntity
  8
0
  6
Continuous
 62
     7
370
    15
100
AcDbSpline
210
0.0
220
0.0
230
1.0
 70
     8
 71
     3
 72
    16
 73
    12
 74
     0
 42
0.00000001
 43
0.00000001
 40
0.0
 40
0.0
 40
0.0
 40
0.0
 40
0.0000534172825636
 40
0.1251138998333415
 40
0.2500827924761421
 40
0.3750495766408097
 40
0.5000146463094102
 40
0.6249778640816768
 40
0.7499409060839561
 40
0.8749031870085406
 40
1.0
 40
1.0
 40
1.0
 40
1.0
 10
200.6966428202111
 20
131.6745184110296
 30
0.0
 10
200.6966401274127
 20
131.6745187838679
 30
0.0
 10
200.6903330579907
 20
131.6753920454713
 30
0.0
 10
200.712505770903
 20
131.6722516936342
 30
0.0
 10
200.7640587745423
 20
131.6654318799547
 30
0.0
 10
200.8478313537538
 20
131.6560545896172
 30
0.0
 10
200.9453264015042
 20
131.6479332741983
 30
0.0
 10
201.043551879816
 20
131.6428484065413
 30
0.0
 10
201.1262306023048
 20
131.6410371250903
 30
0.0
 10
201.1841410632812
 20
131.6412010124278
 30
0.0
 10
201.191730642071
 20
131.6413141731135
 30
0.0
 10
201.1955274730666
 20
131.6413707838966
 30
0.0
  0
LINE
  5
143
330
1F
100
AcDbEntity
  8
0
  6
Continuous
 62
     7
370
    15
100
AcDbLine
 10
202.3988938127
 20
125.5130075802
 30
0.0
 11
202.3448158387
 21
125.6794424706
 31
0.0
  0
LINE
  5
144
330
1F
100
AcDbEntity
  8
0
  6
Continuous
 62
     7
370
    15
100
AcDbLine
 10
201.9894462952
 20
126.7731574643
 30
0.0
 11
200.3902833493
 21
131.6948749362
 31
0.0
  0
LINE
  5
145
330
1F
100
AcDbEntity
  8
0
  6
Continuous
 62
     7
370
    15
100
AcDbLine
 10
201.7833011147
 20
128.7832432204
 30
0.0
 11
201.7829525952
 21
128.7831140074
 31
0.0
  0
SPLINE
  5
146
330
1F
100
AcDbEntity
  8
0
  6
Continuous
 62
     7
370
    15
100
AcDbSpline
210
0.0
220
0.0
230
1.0
 70
     8
 71
     3
 72
    12
 73
     8
 74
     0
 42
0.00000001
 43
0.00000001
 40
0.0
 40
0.0
 40
0.0
 40
0.0
 40
0.2500356429272496
 40
0.4996919190955599
 40
0.749281842437524
 40
0.8746232850112274
 40
1.0
 40
1.0
 40
1.0
 40
1.0
 10
201.7202086357936
 20
128.6244283734053
 30
0.0
 10
201.7162831115686
 20
128.6404127319919
 30
0.0
 10
201.7084380191231
 20
128.6723571968855
 30
0.0
 10
201.7181570118475
 20
128.7208452234781
 30
0.0
 10
201.7384263904487
 20
128.7549657836946
 30
0.0
 10
201.7621753472971
 20
128.7746597178773
 30
0.0
 10
201.776258531769
 20
128.7803817845386
 30
0.0
 10
201.783301114655
 20
128.7832432203752
 30
0.0
  0
LINE
  5
147
330
1F
100
AcDbEntity
  8
0
  6
Continuous
 62
     7
370
    15
100
AcDbLine
 10
201.7202086358
 20
128.6244283734
 30
0.0
 11
201.719847972
 21
128.6243365369
 31
0.0
  0
LINE
  5
148
330
1F
100
AcDbEntity
  8
0
  6
Continuous
 62
     7
370
    15
100
AcDbLine
 10
201.8450490907
 20
128.6069277928
 30
0.0
 11
201.8695892219
 21
128.5286089607
 31
0.0
  0
SPLINE
  5
149
330
1F
100
AcDbEntity
  8
0
  6
Continuous
 62
     7
370
    15
100
AcDbSpline
210
0.0
220
0.0
230
1.0
 70
     8
 71
     3
 72
     9
 73
     5
 74
     0
 42
0.00000001
 43
0.00000001
 40
0.0
 40
0.0
 40
0.0
 40
0.0
 40
0.5006165645729448
 40
1.0
 40
1.0
 40
1.0
 40
1.0
 10
201.8695892218701
 20
128.5286089606773
 30
0.0
 10
201.855746226616
 20
128.5267254049066
 30
0.0
 10
201.828094334462
 20
128.5229629329791
 30
0.0
 10
201.8017031400294
 20
128.5336414692612
 30
0.0
 10
201.7885238146887
 20
128.5389741533951
 30
0.0
  0
SPLINE
  5
14A
330
1F
100
AcDbEntity
  8
0
  6
Continuous
 62
     7
370
    15
100
AcDbSpline
210
0.0
220
0.0
230
1.0
 70
     8
 71
     3
 72
     9
 73
     5
 74
     0
 42
0.00000001
 43
0.00000001
 40
0.0
 40
0.0
 40
0.0
 40
0.0
 40
0.4997008530855458
 40
1.0
 40
1.0
 40
1.0
 40
1.0
 10
201.7885231398289
 20
128.5389744983209
 30
0.0
 10
201.7730999060836
 20
128.5494842904572
 30
0.0
 10
201.7422349722935
 20
128.570516458146
 30
0.0
 10
201.7275536758699
 20
128.6064505686001
 30
0.0
 10
201.7202086357936
 20
128.6244283734053
 30
0.0
  0
SPLINE
  5
14B
330
1F
100
AcDbEntity
  8
0
  6
Continuous
 62
     7
370
    15
100
AcDbSpline
210
0.0
220
0.0
230
1.0
 70
     8
 71
     3
 72
    11
 73
     7
 74
     0
 42
0.00000001
 43
0.00000001
 40
0.0
 40
0.0
 40
0.0
 40
0.0
 40
0.2497918759814606
 40
0.4996164650705016
 40
0.7496500228683095
 40
1.0
 40
1.0
 40
1.0
 40
1.0
 10
201.7833011146551
 20
128.7832432203752
 30
0.0
 10
201.7924468553147
 20
128.7854390041905
 30
0.0
 10
201.8107395343734
 20
128.7898308593841
 30
0.0
 10
201.8393669937648
 20
128.7845391125323
 30
0.0
 10
201.8657506994146
 20
128.7714621825486
 30
0.0
 10
201.8800225969456
 20
128.7576549238541
 30
0.0
 10
201.887163058154
 20
128.7507469289719
 30
0.0
  0
SPLINE
  5
14C
330
1F
100
AcDbEntity
  8
0
  6
Continuous
 62
     7
370
    15
100
AcDbSpline
210
0.0
220
0.0
230
1.0
 70
     8
 71
     3
 72
    11
 73
     7
 74
     0
 42
0.00000001
 43
0.00000001
 40
0.0
 40
0.0
 40
0.0
 40
0.0
 40
0.2502722655242147
 40
0.500144145656209
 40
0.7499686563293326
 40
1.0
 40
1.0
 40
1.0
 40
1.0
 10
201.8871631065194
 20
128.7507469286137
 30
0.0
 10
201.8872776003931
 20
128.7636272138341
 30
0.0
 10
201.8875064049733
 20
128.7893671784037
 30
0.0
 10
201.9020666614452
 20
128.8245934161677
 30
0.0
 10
201.9265194633015
 20
128.8527621229333
 30
0.0
 10
201.9486454200421
 20
128.8622989661498
 30
0.0
 10
201.9597129761102
 20
128.8670693608609
 30
0.0
  0
SPLINE
  5
14D
330
1F
100
AcDbEntity
  8
0
  6
Continuous
 62
     7
370
    15
100
AcDbSpline
210
0.0
220
0.0
230
1.0
 70
     8
 71
     3
 72
    12
 73
     8
 74
     0
 42
0.00000001
 43
0.00000001
 40
0.0
 40
0.0
 40
0.0
 40
0.0
 40
0.2493224862309055
 40
0.374676078143181
 40
0.5001494989181349
 40
0.7497768430247691
 40
1.0
 40
1.0
 40
1.0
 40
1.0
 10
201.9597129761102
 20
128.8670693608609
 30
0.0
 10
201.9780615939817
 20
128.870962892077
 30
0.0
 10
202.0056354734476
 20
128.876814000929
 30
0.0
 10
202.0427114377617
 20
128.8666353111723
 30
0.0
 10
202.0770590080195
 20
128.8496020790748
 30
0.0
 10
202.1145412586927
 20
128.8154085674666
 30
0.0
 10
202.1296450294427
 20
128.7782961379417
 30
0.0
 10
202.1372059165302
 20
128.7597178045027
 30
0.0
  0
SPLINE
  5
14E
330
1F
100
AcDbEntity
  8
0
  6
Continuous
 62
     7
370
    15
100
AcDbSpline
210
0.0
220
0.0
230
1.0
 70
     8
 71
     3
 72
    13
 73
     9
 74
     0
 42
0.00000001
 43
0.00000001
 40
0.0
 40
0.0
 40
0.0
 40
0.0
 40
0.2496106696938395
 40
0.3750348042037019
 40
0.4999515380920982
 40
0.6248925914988217
 40
0.7502737772135715
 40
1.0
 40
1.0
 40
1.0
 40
1.0
 10
202.1372059165302
 20
128.7597178045027
 30
0.0
 10
202.1419440176014
 20
128.740427365693
 30
0.0
 10
202.1490629152418
 20
128.7114438853358
 30
0.0
 10
202.1441701117244
 20
128.6722448013165
 30
0.0
 10
202.1348711528655
 20
128.6446225535761
 30
0.0
 10
202.1202740868129
 20
128.619843906097
 30
0.0
 10
202.0946183218376
 20
128.5919099070307
 30
0.0
 10
202.0696939025899
 20
128.5796105579325
 30
0.0
 10
202.0531005724321
 20
128.5714223165823
 30
0.0
  0
LINE
  5
14F
330
1F
100
AcDbEntity
  8
0
  6
Continuous
 62
     7
370
    15
100
AcDbLine
 10
202.0531005724
 20
128.5714223166
 30
0.0
 11
202.0280409223
 21
128.6521414498
 31
0.0
  0
SPLINE
  5
150
330
1F
100
AcDbEntity
  8
0
  6
Continuous
 62
     7
370
    15
100
AcDbSpline
210
0.0
220
0.0
230
1.0
 70
     8
 71
     3
 72
    12
 73
     8
 74
     0
 42
0.00000001
 43
0.00000001
 40
0.0
 40
0.0
 40
0.0
 40
0.0
 40
0.2504472301547949
 40
0.4997947000098375
 40
0.6239894148296912
 40
0.7503305927505542
 40
1.0
 40
1.0
 40
1.0
 40
1.0
 10
202.0280409223317
 20
128.6521414497996
 30
0.0
 10
202.0354156411446
 20
128.6565521124892
 30
0.0
 10
202.0501326950104
 20
128.6653540698294
 30
0.0
 10
202.0639848274022
 20
128.6831709237196
 30
0.0
 10
202.0697562260027
 20
128.700210099799
 30
0.0
 10
202.0721362209867
 20
128.7184120086259
 30
0.0
 10
202.0688288845405
 20
128.7319407996881
 30
0.0
 10
202.066632827401
 20
128.7409238586193
 30
0.0
  0
SPLINE
  5
151
330
1F
100
AcDbEntity
  8
0
  6
Continuous
 62
     7
370
    15
100
AcDbSpline
210
0.0
220
0.0
230
1.0
 70
     8
 71
     3
 72
    14
 73
    10
 74
     0
 42
0.00000001
 43
0.00000001
 40
0.0
 40
0.0
 40
0.0
 40
0.0
 40
0.2494054174660031
 40
0.374472212131862
 40
0.4996112340057289
 40
0.6254136977740276
 40
0.749795838863713
 40
0.8748051731655185
 40
1.0
 40
1.0
 40
1.0
 40
1.0
 10
202.0666325822274
 20
128.7409247089278
 30
0.0
 10
202.0631991983681
 20
128.7492205928661
 30
0.0
 10
202.0580441104716
 20
128.7616765292347
 30
0.0
 10
202.0459456112075
 20
128.7746483964373
 30
0.0
 10
202.0352800878013
 20
128.7821780089891
 30
0.0
 10
202.0235992797977
 20
128.7876600432253
 30
0.0
 10
202.0111946793858
 20
128.7904194862911
 30
0.0
 10
201.9985889409381
 20
128.7904495250415
 30
0.0
 10
201.9905954563903
 20
128.7882024218849
 30
0.0
 10
201.9865957510728
 20
128.7870780373452
 30
0.0
  0
SPLINE
  5
152
330
1F
100
AcDbEntity
  8
0
  6
Continuous
 62
     7
370
    15
100
AcDbSpline
210
0.0
220
0.0
230
1.0
 70
     8
 71
     3
 72
    13
 73
     9
 74
     0
 42
0.00000001
 43
0.00000001
 40
0.0
 40
0.0
 40
0.0
 40
0.0
 40
0.1246152090046113
 40
0.2499209492476132
 40
0.3736239356559189
 40
0.5000686572356866
 40
0.7496112235218055
 40
1.0
 40
1.0
 40
1.0
 40
1.0
 10
201.9865957510728
 20
128.7870780373452
 30
0.0
 10
201.9815480871044
 20
128.7849291678409
 30
0.0
 10
201.9714247885076
 20
128.7806195212847
 30
0.0
 10
201.9596443178417
 20
128.7684379247525
 30
0.0
 10
201.9513547361866
 20
128.7534975505754
 30
0.0
 10
201.9447490729044
 20
128.7313036777094
 30
0.0
 10
201.94504286686
 20
128.7012793410021
 30
0.0
 10
201.9511350509947
 20
128.6785323167636
 30
0.0
 10
201.9541862990382
 20
128.6671395532371
 30
0.0
  0
LINE
  5
153
330
1F
100
AcDbEntity
  8
0
  6
Continuous
 62
     7
370
    15
100
AcDbLine
 10
201.954186299
 20
128.6671395532
 30
0.0
 11
201.8896401044
 21
128.645416646
 31
0.0
  0
SPLINE
  5
154
330
1F
100
AcDbEntity
  8
0
  6
Continuous
 62
     7
370
    15
100
AcDbSpline
210
0.0
220
0.0
230
1.0
 70
     8
 71
     3
 72
    14
 73
    10
 74
     0
 42
0.00000001
 43
0.00000001
 40
0.0
 40
0.0
 40
0.0
 40
0.0
 40
0.2504935846868404
 40
0.4999601479605309
 40
0.624998415047903
 40
0.7499581672631283
 40
0.8748152766615546
 40
0.9373873475845842
 40
1.0
 40
1.0
 40
1.0
 40
1.0
 10
201.8896400569685
 20
128.645416630096
 30
0.0
 10
201.8861520909657
 20
128.6535522433459
 30
0.0
 10
201.8791904595891
 20
128.6697901139057
 30
0.0
 10
201.8665839760539
 20
128.688383007488
 30
0.0
 10
201.8526580422926
 20
128.6987553691397
 30
0.0
 10
201.8409093300485
 20
128.7039048107959
 30
0.0
 10
201.8304742348631
 20
128.7053439178177
 30
0.0
 10
201.8221977074731
 20
128.7047452448703
 30
0.0
 10
201.8182266233196
 20
128.7036080626315
 30
0.0
 10
201.816240437584
 20
128.7030392871903
 30
0.0
  0
SPLINE
  5
155
330
1F
100
AcDbEntity
  8
0
  6
Continuous
 62
     7
370
    15
100
AcDbSpline
210
0.0
220
0.0
230
1.0
 70
     8
 71
     3
 72
    14
 73
    10
 74
     0
 42
0.00000001
 43
0.00000001
 40
0.0
 40
0.0
 40
0.0
 40
0.0
 40
0.2488961579032658
 40
0.3739774511839512
 40
0.4991302821849113
 40
0.6242583448165967
 40
0.7494501112119106
 40
0.8746564537558311
 40
0.9999999999999999
 40
0.9999999999999999
 40
0.9999999999999999
 40
0.9999999999999999
 10
201.816240437584
 20
128.7030392871903
 30
0.0
 10
201.8112422194405
 20
128.7006971569979
 30
0.0
 10
201.8037321763063
 20
128.6971780031184
 30
0.0
 10
201.7965499090865
 20
128.6884291830918
 30
0.0
 10
201.792807910344
 20
128.6807310545407
 30
0.0
 10
201.7904231565364
 20
128.6723596975326
 30
0.0
 10
201.7899739972358
 20
128.6635564579531
 30
0.0
 10
201.7908705655658
 20
128.6547430584607
 30
0.0
 10
201.792476226621
 20
128.6490694703877
 30
0.0
 10
201.7932794967869
 20
128.6462311228936
 30
0.0
  0
SPLINE
  5
156
330
1F
100
AcDbEntity
  8
0
  6
Continuous
 62
     7
370
    15
100
AcDbSpline
210
0.0
220
0.0
230
1.0
 70
     8
 71
     3
 72
    12
 73
     8
 74
     0
 42
0.00000001
 43
0.00000001
 40
0.0
 40
0.0
 40
0.0
 40
0.0
 40
0.2498073254944112
 40
0.4995419295727634
 40
0.749393361613025
 40
0.8746510216451978
 40
1.0
 40
1.0
 40
1.0
 40
1.0
 10
201.7932797115905
 20
128.6462305421727
 30
0.0
 10
201.7956063535758
 20
128.6406916594695
 30
0.0
 10
201.8002589602374
 20
128.6296155064874
 30
0.0
 10
201.8130797964628
 20
128.6170607472892
 30
0.0
 10
201.8257557433067
 20
128.6102128269347
 30
0.0
 10
201.8366783755272
 20
128.6072325981748
 30
0.0
 10
201.8422581745545
 20
128.6070294192502
 30
0.0
 10
201.845049090677
 20
128.6069277927699
 30
0.0
  0
LINE
  5
157
330
1F
100
AcDbEntity
  8
0
  6
Continuous
 62
     7
370
    15
100
AcDbLine
 10
201.7885231398
 20
128.5389744983
 30
0.0
 11
201.7881529915
 21
128.5389118523
 31
0.0
  0
LINE
  5
158
330
1F
100
AcDbEntity
  8
0
  6
Continuous
 62
     7
370
    15
100
AcDbLine
 10
201.889640057
 20
128.6454166301
 30
0.0
 11
201.8892761899
 21
128.6453346524
 31
0.0
  0
LINE
  5
159
330
1F
100
AcDbEntity
  8
0
  6
Continuous
 62
     7
370
    15
100
AcDbLine
 10
201.8162404376
 20
128.7030392872
 30
0.0
 11
201.8158838642
 21
128.7029348619
 31
0.0
  0
LINE
  5
15A
330
1F
100
AcDbEntity
  8
0
  6
Continuous
 62
     7
370
    15
100
AcDbLine
 10
202.0666325822
 20
128.7409247089
 30
0.0
 11
202.0662719134
 21
128.740832888
 31
0.0
  0
LINE
  5
15B
330
1F
100
AcDbEntity
  8
0
  6
Continuous
 62
     7
370
    15
100
AcDbLine
 10
201.9865957511
 20
128.7870780373
 30
0.0
 11
201.9862417
 21
128.786965849
 31
0.0
  0
LINE
  5
15C
330
1F
100
AcDbEntity
  8
0
  6
Continuous
 62
     7
370
    15
100
AcDbLine
 10
202.0280409223
 20
128.6521414498
 30
0.0
 11
202.0276733918
 21
128.6520707471
 31
0.0
  0
LINE
  5
15D
330
1F
100
AcDbEntity
  8
0
  6
Continuous
 62
     7
370
    15
100
AcDbLine
 10
202.0531005724
 20
128.5714223166
 30
0.0
 11
202.0527249737
 21
128.5713764452
 31
0.0
  0
LINE
  5
15E
330
1F
100
AcDbEntity
  8
0
  6
Continuous
 62
     7
370
    15
100
AcDbLine
 10
201.6699671015
 20
130.9924812966
 30
0.0
 11
203.0213230931
 21
126.8334352086
 31
0.0
  0
ARC
  5
15F
330
1F
100
AcDbEntity
  8
0
  6
Continuous
 62
     7
370
    15
100
AcDbCircle
 10
202.9421439477
 20
126.8144139422
 30
0.0
 40
0.0814318465381433
100
AcDbArc
 50
301.0018952571
 51
13.5082342229
  0
ARC
  5
160
330
1F
100
AcDbEntity
  8
0
  6
Continuous
 62
     7
370
    15
100
AcDbCircle
 10
201.5947294075
 20
130.9613294904
 30
0.0
 40
0.0814318465380802
100
AcDbArc
 50
22.491765777
 51
94.998104743
  0
LINE
  5
161
330
1F
100
AcDbEntity
  8
0
  6
Continuous
 62
     7
370
    15
100
AcDbLine
 10
201.3512560773
 20
130.2368320953
 30
0.0
 11
201.3724658734
 21
130.1685851976
 31
0.0
  0
SPLINE
  5
162
330
1F
100
AcDbEntity
  8
0
  6
Continuous
 62
     7
370
    15
100
AcDbSpline
210
0.0
220
0.0
230
1.0
 70
     8
 71
     3
 72
    13
 73
     9
 74
     0
 42
0.00000001
 43
0.00000001
 40
0.0
 40
0.0
 40
0.0
 40
0.0
 40
0.2498615142147709
 40
0.3750499752460424
 40
0.5001966880795595
 40
0.6260356875122763
 40
0.7505418622215001
 40
1.0
 40
1.0
 40
1.0
 40
1.0
 10
201.3724658734342
 20
130.1685851976336
 30
0.0
 10
201.3527410017981
 20
130.1684225240468
 30
0.0
 10
201.3231333503674
 20
130.1681783458872
 30
0.0
 10
201.2838460820914
 20
130.1792825308822
 30
0.0
 10
201.2561381461728
 20
130.1923135974147
 30
0.0
 10
201.231637935477
 20
130.209707749114
 30
0.0
 10
201.2042182935931
 20
130.2375138921092
 30
0.0
 10
201.193823715652
 20
130.2620210842337
 30
0.0
 10
201.1868898667001
 20
130.2783689503412
 30
0.0
  0
SPLINE
  5
163
330
1F
100
AcDbEntity
  8
0
  6
Continuous
 62
     7
370
    15
100
AcDbSpline
210
0.0
220
0.0
230
1.0
 70
     8
 71
     3
 72
    12
 73
     8
 74
     0
 42
0.00000001
 43
0.00000001
 40
0.0
 40
0.0
 40
0.0
 40
0.0
 40
0.2500632674070504
 40
0.3767833398202192
 40
0.5008646479455356
 40
0.7506161014967415
 40
1.0
 40
1.0
 40
1.0
 40
1.0
 10
201.1868898667001
 20
130.2783689503412
 30
0.0
 10
201.1835141668767
 20
130.2929068446784
 30
0.0
 10
201.1784278242608
 20
130.3148118467169
 30
0.0
 10
201.1846452716295
 20
130.3421537437901
 30
0.0
 10
201.1977278718489
 20
130.3665865059014
 30
0.0
 10
201.2258083743933
 20
130.3914853965772
 30
0.0
 10
201.2579861714336
 20
130.3989084984915
 30
0.0
 10
201.274063222354
 20
130.4026173163237
 30
0.0
  0
SPLINE
  5
164
330
1F
100
AcDbEntity
  8
0
  6
Continuous
 62
     7
370
    15
100
AcDbSpline
210
0.0
220
0.0
230
1.0
 70
     8
 71
     3
 72
    10
 73
     6
 74
     0
 42
0.00000001
 43
0.00000001
 40
0.0
 40
0.0
 40
0.0
 40
0.0
 40
0.2495242873690488
 40
0.499600084887017
 40
0.9999999999999999
 40
0.9999999999999999
 40
0.9999999999999999
 40
0.9999999999999999
 10
201.274063222354
 20
130.4026173163237
 30
0.0
 10
201.2923348857481
 20
130.4027766569388
 30
0.0
 10
201.3289185974141
 20
130.4030956903512
 30
0.0
 10
201.4024553709736
 20
130.3826313341836
 30
0.0
 10
201.4519436190413
 20
130.3564739874461
 30
0.0
 10
201.4849412427023
 20
130.3390328712757
 30
0.0
  0
LINE
  5
165
330
1F
100
AcDbEntity
  8
0
  6
Continuous
 62
     7
370
    15
100
AcDbLine
 10
201.4849412427
 20
130.3390328713
 30
0.0
 11
201.5478585373
 21
130.3041556712
 31
0.0
  0
LINE
  5
166
330
1F
100
AcDbEntity
  8
0
  6
Continuous
 62
     7
370
    15
100
AcDbLine
 10
201.5478585373
 20
130.3041556712
 30
0.0
 11
201.5054025842
 21
130.4302567797
 31
0.0
  0
LINE
  5
167
330
1F
100
AcDbEntity
  8
0
  6
Continuous
 62
     7
370
    15
100
AcDbLine
 10
201.5054025842
 20
130.4302567797
 30
0.0
 11
201.5793677545
 21
130.4380990628
 31
0.0
  0
LINE
  5
168
330
1F
100
AcDbEntity
  8
0
  6
Continuous
 62
     7
370
    15
100
AcDbLine
 10
201.5793678054
 20
130.4380990682
 30
0.0
 11
201.6603925951
 21
130.1888126793
 31
0.0
  0
LINE
  5
169
330
1F
100
AcDbEntity
  8
0
  6
Continuous
 62
     7
370
    15
100
AcDbLine
 10
201.6603925951
 20
130.1888126793
 30
0.0
 11
201.6220820736
 21
130.184731811
 31
0.0
  0
LINE
  5
16A
330
1F
100
AcDbEntity
  8
0
  6
Continuous
 62
     7
370
    15
100
AcDbLine
 10
201.6220820736
 20
130.184731811
 30
0.0
 11
201.4541467593
 21
130.2839794819
 31
0.0
  0
SPLINE
  5
16B
330
1F
100
AcDbEntity
  8
0
  6
Continuous
 62
     7
370
    15
100
AcDbSpline
210
0.0
220
0.0
230
1.0
 70
     8
 71
     3
 72
    10
 73
     6
 74
     0
 42
0.00000001
 43
0.00000001
 40
0.0
 40
0.0
 40
0.0
 40
0.0
 40
0.500865400046705
 40
0.7508974515439404
 40
1.0
 40
1.0
 40
1.0
 40
1.0
 10
201.4541467592578
 20
130.2839794818658
 30
0.0
 10
201.4306227965352
 20
130.2972752981416
 30
0.0
 10
201.3953556695646
 20
130.3172083870648
 30
0.0
 10
201.3431313390587
 20
130.3359446602472
 30
0.0
 10
201.316387212097
 20
130.3366404040015
 30
0.0
 10
201.3030400504636
 20
130.3369876280614
 30
0.0
  0
SPLINE
  5
16C
330
1F
100
AcDbEntity
  8
0
  6
Continuous
 62
     7
370
    15
100
AcDbSpline
210
0.0
220
0.0
230
1.0
 70
     8
 71
     3
 72
    14
 73
    10
 74
     0
 42
0.00000001
 43
0.00000001
 40
0.0
 40
0.0
 40
0.0
 40
0.0
 40
0.2492125570064771
 40
0.374262345743436
 40
0.4993439306191735
 40
0.6236829845127174
 40
0.7495543507298055
 40
0.8746949963608909
 40
1.0
 40
1.0
 40
1.0
 40
1.0
 10
201.3030400504636
 20
130.3369876280614
 30
0.0
 10
201.2956849711261
 20
130.3355854058209
 30
0.0
 10
201.2846392626794
 20
130.3334795770004
 30
0.0
 10
201.2733093380385
 20
130.3259446391982
 30
0.0
 10
201.2667274866996
 20
130.3188518309306
 30
0.0
 10
201.2622995304787
 20
130.3104929520691
 30
0.0
 10
201.2602828331855
 20
130.3012730206001
 30
0.0
 10
201.2605544617383
 20
130.291569989731
 30
0.0
 10
201.2623629909245
 20
130.2851034410504
 30
0.0
 10
201.2632678489523
 20
130.2818680448344
 30
0.0
  0
SPLINE
  5
16D
330
1F
100
AcDbEntity
  8
0
  6
Continuous
 62
     7
370
    15
100
AcDbSpline
210
0.0
220
0.0
230
1.0
 70
     8
 71
     3
 72
    13
 73
     9
 74
     0
 42
0.00000001
 43
0.00000001
 40
0.0
 40
0.0
 40
0.0
 40
0.0
 40
0.1251920359841398
 40
0.2502609561232043
 40
0.3726017186723025
 40
0.5006143358112429
 40
0.7498741992884964
 40
1.0
 40
1.0
 40
1.0
 40
1.0
 10
201.2632680996139
 20
130.2818673304853
 30
0.0
 10
201.2647202121062
 20
130.2781570453742
 30
0.0
 10
201.2676230090601
 20
130.2707401239057
 30
0.0
 10
201.2754332869511
 20
130.2605508162721
 30
0.0
 10
201.2857194406335
 20
130.251869843989
 30
0.0
 10
201.3015860044171
 20
130.2426389819001
 30
0.0
 10
201.324513191539
 20
130.2361293875379
 30
0.0
 10
201.342331483066
 20
130.2365975887785
 30
0.0
 10
201.3512560773327
 20
130.2368320953305
 30
0.0
  0
LINE
  5
16E
330
1F
100
AcDbEntity
  8
0
  6
Continuous
 62
     7
370
    15
100
AcDbLine
 10
201.1868898667
 20
130.2783689503
 30
0.0
 11
201.1866888472
 21
130.2777857793
 31
0.0
  0
LINE
  5
16F
330
1F
100
AcDbEntity
  8
0
  6
Continuous
 62
     7
370
    15
100
AcDbLine
 10
201.3724658734
 20
130.1685851976
 30
0.0
 11
201.372252548
 21
130.1680399005
 31
0.0
  0
LINE
  5
170
330
1F
100
AcDbEntity
  8
0
  6
Continuous
 62
     7
370
    15
100
AcDbLine
 10
201.4541467593
 20
130.2839794819
 30
0.0
 11
201.4539435597
 21
130.2834030202
 31
0.0
  0
LINE
  5
171
330
1F
100
AcDbEntity
  8
0
  6
Continuous
 62
     7
370
    15
100
AcDbLine
 10
201.6220820736
 20
130.184731811
 30
0.0
 11
201.6218673462
 21
130.1841908285
 31
0.0
  0
LINE
  5
172
330
1F
100
AcDbEntity
  8
0
  6
Continuous
 62
     7
370
    15
100
AcDbLine
 10
201.3030400505
 20
130.3369876281
 30
0.0
 11
201.3028434341
 21
130.3363909057
 31
0.0
  0
LINE
  5
173
330
1F
100
AcDbEntity
  8
0
  6
Continuous
 62
     7
370
    15
100
AcDbLine
 10
202.4652383697
 20
127.2112508002
 30
0.0
 11
202.4647276746
 21
127.2116207127
 31
0.0
  0
LINE
  5
174
330
1F
100
AcDbEntity
  8
0
  6
Continuous
 62
     7
370
    15
100
AcDbLine
 10
202.2314651266
 20
127.0703841306
 30
0.0
 11
202.4652383697
 21
127.2112508002
 31
0.0
  0
LINE
  5
175
330
1F
100
AcDbEntity
  8
0
  6
Continuous
 62
     7
370
    15
100
AcDbLine
 10
202.2314651266
 20
127.0703841306
 30
0.0
 11
202.2309541226
 21
127.0707549939
 31
0.0
  0
LINE
  5
176
330
1F
100
AcDbEntity
  8
0
  6
Continuous
 62
     7
370
    15
100
AcDbLine
 10
202.2536976043
 20
127.0041444783
 30
0.0
 11
202.2314651266
 21
127.0703841306
 31
0.0
  0
LINE
  5
177
330
1F
100
AcDbEntity
  8
0
  6
Continuous
 62
     7
370
    15
100
AcDbLine
 10
202.4652383697
 20
127.2112508002
 30
0.0
 11
202.4544479732
 21
127.2425529574
 31
0.0
  0
LINE
  5
178
330
1F
100
AcDbEntity
  8
0
  6
Continuous
 62
     7
370
    15
100
AcDbLine
 10
202.4544479732
 20
127.2425529574
 30
0.0
 11
202.5183355888
 21
127.2810515689
 31
0.0
  0
LINE
  5
179
330
1F
100
AcDbEntity
  8
0
  6
Continuous
 62
     7
370
    15
100
AcDbLine
 10
202.5183355888
 20
127.2810515689
 30
0.0
 11
202.5291340318
 21
127.2497435723
 31
0.0
  0
LINE
  5
17A
330
1F
100
AcDbEntity
  8
0
  6
Continuous
 62
     7
370
    15
100
AcDbLine
 10
202.5291340318
 20
127.2497435723
 30
0.0
 11
202.6036384914
 21
127.2946490685
 31
0.0
  0
LINE
  5
17B
330
1F
100
AcDbEntity
  8
0
  6
Continuous
 62
     7
370
    15
100
AcDbLine
 10
202.6036384914
 20
127.2946490685
 30
0.0
 11
202.6255071729
 21
127.2297820901
 31
0.0
  0
LINE
  5
17C
330
1F
100
AcDbEntity
  8
0
  6
Continuous
 62
     7
370
    15
100
AcDbLine
 10
202.6255071729
 20
127.2297820901
 30
0.0
 11
202.5509914807
 21
127.1848850421
 31
0.0
  0
LINE
  5
17D
330
1F
100
AcDbEntity
  8
0
  6
Continuous
 62
     7
370
    15
100
AcDbLine
 10
202.5509914807
 20
127.1848850421
 30
0.0
 11
202.5977517693
 21
127.0360520886
 31
0.0
  0
LINE
  5
17E
330
1F
100
AcDbEntity
  8
0
  6
Continuous
 62
     7
370
    15
100
AcDbLine
 10
202.5977517693
 20
127.0360520886
 30
0.0
 11
202.53386736
 21
126.9975501461
 31
0.0
  0
LINE
  5
17F
330
1F
100
AcDbEntity
  8
0
  6
Continuous
 62
     7
370
    15
100
AcDbLine
 10
202.53386736
 20
126.9975501461
 30
0.0
 11
202.2536976575
 21
127.0041444767
 31
0.0
  0
LINE
  5
180
330
1F
100
AcDbEntity
  8
0
  6
Continuous
 62
     7
370
    15
100
AcDbLine
 10
202.5123294664
 20
127.0679076723
 30
0.0
 11
202.4870866379
 21
127.146399181
 31
0.0
  0
LINE
  5
181
330
1F
100
AcDbEntity
  8
0
  6
Continuous
 62
     7
370
    15
100
AcDbLine
 10
202.4870866379
 20
127.146399181
 30
0.0
 11
202.3653691352
 21
127.0730822219
 31
0.0
  0
LINE
  5
182
330
1F
100
AcDbEntity
  8
0
  6
Continuous
 62
     7
370
    15
100
AcDbLine
 10
202.3653691352
 20
127.0730822219
 30
0.0
 11
202.5123294664
 21
127.0679076723
 31
0.0
  0
LINE
  5
183
330
1F
100
AcDbEntity
  8
0
  6
Continuous
 62
     7
370
    15
100
AcDbLine
 10
202.2536976043
 20
127.0041444783
 30
0.0
 11
202.2531801657
 21
127.0045351452
 31
0.0
  0
LINE
  5
184
330
1F
100
AcDbEntity
  8
0
  6
Continuous
 62
     7
370
    15
100
AcDbLine
 10
201.6603925951
 20
130.1888126793
 30
0.0
 11
201.6601778017
 21
130.1882718999
 31
0.0
  0
LINE
  5
185
330
1F
100
AcDbEntity
  8
0
  6
Continuous
 62
     7
370
    15
100
AcDbLine
 10
202.5183355888
 20
127.2810515689
 30
0.0
 11
202.5178281742
 21
127.2814113849
 31
0.0
  0
LINE
  5
186
330
1F
100
AcDbEntity
  8
0
  6
Continuous
 62
     7
370
    15
100
AcDbLine
 10
202.4544479732
 20
127.2425529574
 30
0.0
 11
202.4539404395
 21
127.24291314
 31
0.0
  0
LINE
  5
187
330
1F
100
AcDbEntity
  8
0
  6
Continuous
 62
     7
370
    15
100
AcDbLine
 10
201.5054025842
 20
130.4302567797
 30
0.0
 11
201.5052131312
 21
130.4296380108
 31
0.0
  0
LINE
  5
188
330
1F
100
AcDbEntity
  8
0
  6
Continuous
 62
     7
370
    15
100
AcDbLine
 10
202.3648518705
 20
127.0734723534
 30
0.0
 11
202.5118044065
 21
127.0683217952
 31
0.0
  0
LINE
  5
189
330
1F
100
AcDbEntity
  8
0
  6
Continuous
 62
     7
370
    15
100
AcDbLine
 10
202.5118044065
 20
127.0683217952
 30
0.0
 11
202.5123294664
 21
127.0679076723
 31
0.0
  0
LINE
  5
18A
330
1F
100
AcDbEntity
  8
0
  6
Continuous
 62
     7
370
    15
100
AcDbLine
 10
202.5118044065
 20
127.0683217952
 30
0.0
 11
202.4865694168
 21
127.1467891783
 31
0.0
  0
LINE
  5
18B
330
1F
100
AcDbEntity
  8
0
  6
Continuous
 62
     7
370
    15
100
AcDbLine
 10
202.6036384914
 20
127.2946490685
 30
0.0
 11
202.6031279898
 21
127.2950183854
 31
0.0
  0
SPLINE
  5
18C
330
1F
100
AcDbEntity
  8
0
  6
Continuous
 62
     7
370
    15
100
AcDbSpline
210
0.0
220
0.0
230
1.0
 70
     8
 71
     3
 72
     9
 73
     5
 74
     0
 42
0.00000001
 43
0.00000001
 40
0.0
 40
0.0
 40
0.0
 40
0.0
 40
0.5315589426747981
 40
1.0
 40
1.0
 40
1.0
 40
1.0
 10
203.0213230930575
 20
126.8334352085769
 30
0.0
 10
203.0294213063069
 20
126.8152032940515
 30
0.0
 10
203.0446561421816
 20
126.7809043423049
 30
0.0
 10
203.0762487464726
 20
126.7711893843048
 30
0.0
 10
203.0910480194304
 20
126.7666384991074
 30
0.0
  0
SPLINE
  5
18D
330
1F
100
AcDbEntity
  8
0
  6
Continuous
 62
     7
370
    15
100
AcDbSpline
210
0.0
220
0.0
230
1.0
 70
     8
 71
     3
 72
    12
 73
     8
 74
     0
 42
0.00000001
 43
0.00000001
 40
0.0
 40
0.0
 40
0.0
 40
0.0
 40
0.0304717459459637
 40
0.088813566858623
 40
0.3925556175487917
 40
0.6962774394174153
 40
1.0
 40
1.0
 40
1.0
 40
1.0
 10
203.0910480194304
 20
126.7666384991074
 30
0.0
 10
203.0913989300355
 20
126.7656376727531
 30
0.0
 10
203.0924217011804
 20
126.7627206440246
 30
0.0
 10
203.0963191321092
 20
126.7494724388014
 30
0.0
 10
203.0990833880244
 20
126.7251395253991
 30
0.0
 10
203.0940271065363
 20
126.6909828343902
 30
0.0
 10
203.0836041575504
 20
126.671673492059
 30
0.0
 10
203.0783926767198
 20
126.6620188091523
 30
0.0
  0
SPLINE
  5
18E
330
1F
100
AcDbEntity
  8
0
  6
Continuous
 62
     7
370
    15
100
AcDbSpline
210
0.0
220
0.0
230
1.0
 70
     8
 71
     3
 72
    10
 73
     6
 74
     0
 42
0.00000001
 43
0.00000001
 40
0.0
 40
0.0
 40
0.0
 40
0.0
 40
0.2117958997110311
 40
0.4880069094703322
 40
1.0
 40
1.0
 40
1.0
 40
1.0
 10
203.0783926767198
 20
126.6620188091523
 30
0.0
 10
203.0782486125736
 20
126.6617604182743
 30
0.0
 10
203.0779166689483
 20
126.6611650501201
 30
0.0
 10
203.0777404860218
 20
126.6600616409572
 30
0.0
 10
203.0779029754084
 20
126.6594031366139
 30
0.0
 10
203.0780085235058
 20
126.6589753924881
 30
0.0
  0
SPLINE
  5
18F
330
1F
100
AcDbEntity
  8
0
  6
Continuous
 62
     7
370
    15
100
AcDbSpline
210
0.0
220
0.0
230
1.0
 70
     8
 71
     3
 72
    12
 73
     8
 74
     0
 42
0.00000001
 43
0.00000001
 40
0.0
 40
0.0
 40
0.0
 40
0.0
 40
0.0304717459516598
 40
0.0888135668586542
 40
0.3925556175487556
 40
0.6962774394174469
 40
1.0
 40
1.0
 40
1.0
 40
1.0
 10
201.6871136311677
 20
131.0875042531375
 30
0.0
 10
201.6868092528395
 20
131.0885201987452
 30
0.0
 10
201.6859221056098
 20
131.0914812943549
 30
0.0
 10
201.6812880938167
 20
131.104490169948
 30
0.0
 10
201.6692218961851
 20
131.1258006992726
 30
0.0
 10
201.645054479291
 20
131.1504620350807
 30
0.0
 10
201.6252723897761
 20
131.1599571654775
 30
0.0
 10
201.6153813329902
 20
131.1647047364494
 30
0.0
  0
SPLINE
  5
190
330
1F
100
AcDbEntity
  8
0
  6
Continuous
 62
     7
370
    15
100
AcDbSpline
210
0.0
220
0.0
230
1.0
 70
     8
 71
     3
 72
     9
 73
     5
 74
     0
 42
0.00000001
 43
0.00000001
 40
0.0
 40
0.0
 40
0.0
 40
0.0
 40
0.4684410573251745
 40
1.0
 40
1.0
 40
1.0
 40
1.0
 10
201.6871136311677
 20
131.0875042531375
 30
0.0
 10
201.6778157110444
 20
131.0751237152841
 30
0.0
 10
201.6579670663154
 20
131.0486944822787
 30
0.0
 10
201.6658022431921
 20
131.0119912355781
 30
0.0
 10
201.6699671015283
 20
130.9924812965692
 30
0.0
  0
SPLINE
  5
191
330
1F
100
AcDbEntity
  8
0
  6
Continuous
 62
     7
370
    15
100
AcDbSpline
210
0.0
220
0.0
230
1.0
 70
     8
 71
     3
 72
    11
 73
     7
 74
     0
 42
0.00000001
 43
0.00000001
 40
0.0
 40
0.0
 40
0.0
 40
0.0
 40
0.3704320937868141
 40
0.7442498469294103
 40
0.9442480537692468
 40
1.0
 40
1.0
 40
1.0
 40
1.0
 10
201.6132816710799
 20
131.166941112658
 30
0.0
 10
201.6133955516353
 20
131.1666463304922
 30
0.0
 10
201.6136243535867
 20
131.1660540719232
 30
0.0
 10
201.6142639792605
 20
131.1653003136075
 30
0.0
 10
201.6149690620607
 20
131.1648696863035
 30
0.0
 10
201.615307545665
 20
131.1647342588039
 30
0.0
 10
201.6153813329902
 20
131.1647047364494
 30
0.0
  0
SPLINE
  5
192
330
1F
100
AcDbEntity
  8
0
  6
Continuous
 62
     7
370
    15
100
AcDbSpline
210
0.0
220
0.0
230
1.0
 70
     8
 71
     3
 72
    11
 73
     7
 74
     0
 42
0.00000001
 43
0.00000001
 40
0.0
 40
0.0
 40
0.0
 40
0.0
 40
0.3658281109894349
 40
0.7252591430831191
 40
0.9820690181776788
 40
1.0
 40
1.0
 40
1.0
 40
1.0
 10
201.9412469464738
 20
131.1114450249824
 30
0.0
 10
201.9036063412861
 20
131.1169189931807
 30
0.0
 10
201.8289833359909
 20
131.1277712086489
 30
0.0
 10
201.7415525191885
 20
131.1185428286516
 30
0.0
 10
201.7008021037903
 20
131.0994687203095
 30
0.0
 10
201.6879522760979
 20
131.0882372742724
 30
0.0
 10
201.6871136311677
 20
131.0875042531375
 30
0.0
  0
LINE
  5
193
330
1F
100
AcDbEntity
  8
0
  6
Continuous
 62
     7
370
    15
100
AcDbLine
 10
201.9412469465
 20
131.111445025
 30
0.0
 11
203.310718223
 21
126.8966458227
 31
0.0
  0
SPLINE
  5
194
330
1F
100
AcDbEntity
  8
0
  6
Continuous
 62
     7
370
    15
100
AcDbSpline
210
0.0
220
0.0
230
1.0
 70
     8
 71
     3
 72
    11
 73
     7
 74
     0
 42
0.00000001
 43
0.00000001
 40
0.0
 40
0.0
 40
0.0
 40
0.0
 40
0.2357948537758684
 40
0.2749019968044759
 40
0.6342531696138464
 40
1.0
 40
1.0
 40
1.0
 40
1.0
 10
203.0910480194304
 20
126.7666384991074
 30
0.0
 10
203.1064448876195
 20
126.7670836722833
 30
0.0
 10
203.124395363391
 20
126.7676026785
 30
0.0
 10
203.1700661429034
 20
126.7833940054079
 30
0.0
 10
203.2295519995358
 20
126.8173975872739
 30
0.0
 10
203.2835041884506
 20
126.8700748659119
 30
0.0
 10
203.3107182229687
 20
126.8966458226796
 30
0.0
  0
SPLINE
  5
195
330
1F
100
AcDbEntity
  8
0
  6
Continuous
 62
     7
370
    15
100
AcDbSpline
210
0.0
220
0.0
230
1.0
 70
     8
 71
     3
 72
    10
 73
     6
 74
     0
 42
0.00000001
 43
0.00000001
 40
0.0
 40
0.0
 40
0.0
 40
0.0
 40
0.3554439450437146
 40
0.7142330220663362
 40
1.0
 40
1.0
 40
1.0
 40
1.0
 10
203.3835928002638
 20
126.79951001764
 30
0.0
 10
203.3453796984135
 20
126.7697208684059
 30
0.0
 10
203.2685938659421
 20
126.7098622201467
 30
0.0
 10
203.1593258994493
 20
126.6609138230017
 30
0.0
 10
203.1032529044645
 20
126.6616793909699
 30
0.0
 10
203.0783926767198
 20
126.6620188091523
 30
0.0
  0
ARC
  5
196
330
1F
100
AcDbEntity
  8
0
  6
Continuous
 62
     7
370
    15
100
AcDbCircle
 10
203.0153454628
 20
126.5991427614
 30
0.0
 40
0.4192292200790237
100
AcDbArc
 50
28.5510775205
 51
45.205872348
  0
LINE
  5
197
330
1F
100
AcDbEntity
  8
0
  6
Continuous
 62
     7
370
    15
100
AcDbLine
 10
204.6960165457
 20
127.9605846958
 30
0.0
 11
203.3835928003
 21
126.7995100176
 31
0.0
  0
SPLINE
  5
198
330
1F
100
AcDbEntity
  8
0
  6
Continuous
 62
     7
370
    15
100
AcDbSpline
210
0.0
220
0.0
230
1.0
 70
     8
 71
     3
 72
    10
 73
     6
 74
     0
 42
0.00000001
 43
0.00000001
 40
0.0
 40
0.0
 40
0.0
 40
0.0
 40
0.2857669779336446
 40
0.6445560549562732
 40
1.0
 40
1.0
 40
1.0
 40
1.0
 10
201.6153813329902
 20
131.1647047364494
 30
0.0
 10
201.6352941747177
 20
131.1795918067642
 30
0.0
 10
201.6802081910246
 20
131.2131700437647
 30
0.0
 10
201.7973789788232
 20
131.2377960578794
 30
0.0
 10
201.8946840528887
 20
131.2345029740891
 30
0.0
 10
201.9431087242915
 20
131.2328641438228
 30
0.0
  0
ARC
  5
199
330
1F
100
AcDbEntity
  8
0
  6
Continuous
 62
     7
370
    15
100
AcDbCircle
 10
201.5274174518
 20
131.1785143051
 30
0.0
 40
0.4192292200767336
100
AcDbArc
 50
350.794127652
 51
7.4489224795
  0
SPLINE
  5
19A
330
1F
100
AcDbEntity
  8
0
  6
Continuous
 62
     7
370
    15
100
AcDbSpline
210
0.0
220
0.0
230
1.0
 70
     8
 71
     3
 72
    12
 73
     8
 74
     0
 42
0.00000001
 43
0.00000001
 40
0.0
 40
0.0
 40
0.0
 40
0.0
 40
0.2238925571851053
 40
0.4477848984197455
 40
0.6716824862032632
 40
0.8955821585469985
 40
1.0
 40
1.0
 40
1.0
 40
1.0
 10
201.5378879379769
 20
131.6153952930551
 30
0.0
 10
201.5351178454301
 20
131.6157016163268
 30
0.0
 10
201.5295776630081
 20
131.6163142625749
 30
0.0
 10
201.5224278016438
 20
131.6171313607719
 30
0.0
 10
201.5172236016984
 20
131.6177372402555
 30
0.0
 10
201.5149063132169
 20
131.6180122779221
 30
0.0
 10
201.5147130221328
 20
131.618037023862
 30
0.0
 10
201.5146515479899
 20
131.618044894041
 30
0.0
  0
LINE
  5
19B
330
1F
100
AcDbEntity
  8
0
  6
Continuous
 62
     7
370
    15
100
AcDbLine
 10
201.537887938
 20
131.6153952931
 30
0.0
 11
203.4356739427
 21
131.4033414961
 31
0.0
  0
LINE
  5
19C
330
1F
100
AcDbEntity
  8
0
  6
Continuous
 62
     7
370
    15
100
AcDbLine
 10
203.4356739427
 20
131.4033414961
 30
0.0
 11
203.5826594066
 21
131.3871456339
 31
0.0
  0
LINE
  5
19D
330
1F
100
AcDbEntity
  8
0
  6
Continuous
 62
     7
370
    15
100
AcDbLine
 10
203.6873444109
 20
131.0649583198
 30
0.0
 11
203.5826594066
 21
131.3871456339
 31
0.0
  0
LINE
  5
19E
330
1F
100
AcDbEntity
  8
0
  6
Continuous
 62
     7
370
    15
100
AcDbLine
 10
201.9431087243
 20
131.2328641438
 30
0.0
 11
203.6873444109
 21
131.0649583198
 31
0.0
  0
LINE
  5
19F
330
1F
100
AcDbEntity
  8
0
  6
Continuous
 62
     7
370
    15
100
AcDbLine
 10
200.8409105684
 20
131.3663066843
 30
0.0
 11
200.8241322985
 21
131.4178979734
 31
0.0
  0
LINE
  5
1A0
330
1F
100
AcDbEntity
  8
0
  6
Continuous
 62
     7
370
    15
100
AcDbLine
 10
200.8241322985
 20
131.4178979734
 30
0.0
 11
201.2674124661
 21
131.4029866075
 31
0.0
  0
LINE
  5
1A1
330
1F
100
AcDbEntity
  8
0
  6
Continuous
 62
     7
370
    15
100
AcDbLine
 10
201.2674124661
 20
131.4029866075
 30
0.0
 11
201.2786324773
 21
131.3692570715
 31
0.0
  0
LINE
  5
1A2
330
1F
100
AcDbEntity
  8
0
  6
Continuous
 62
     7
370
    15
100
AcDbLine
 10
201.2786324773
 20
131.3692570715
 30
0.0
 11
200.9146521726
 21
131.3814810925
 31
0.0
  0
LINE
  5
1A3
330
1F
100
AcDbEntity
  8
0
  6
Continuous
 62
     7
370
    15
100
AcDbLine
 10
200.9146521726
 20
131.3814810925
 30
0.0
 11
200.9264905658
 21
131.3424866694
 31
0.0
  0
LINE
  5
1A4
330
1F
100
AcDbEntity
  8
0
  6
Continuous
 62
     7
370
    15
100
AcDbLine
 10
200.9264905658
 20
131.3424866694
 30
0.0
 11
200.8409105684
 21
131.3663066843
 31
0.0
  0
LINE
  5
1A5
330
1F
100
AcDbEntity
  8
0
  6
Continuous
 62
     7
370
    15
100
AcDbLine
 10
200.8409105684
 20
131.3663066843
 30
0.0
 11
200.8408146613
 21
131.3654000105
 31
0.0
  0
LINE
  5
1A6
330
1F
100
AcDbEntity
  8
0
  6
Continuous
 62
     7
370
    15
100
AcDbLine
 10
200.9264905658
 20
131.3424866694
 30
0.0
 11
200.926392566
 21
131.3415864365
 31
0.0
  0
LINE
  5
1A7
330
1F
100
AcDbEntity
  8
0
  6
Continuous
 62
     7
370
    15
100
AcDbLine
 10
203.6809369868
 20
130.9575292615
 30
0.0
 11
201.9412469465
 21
131.111445025
 31
0.0
  0
ARC
  5
1A8
330
1F
100
AcDbEntity
  8
0
  6
Continuous
 62
     7
370
    15
100
AcDbCircle
 10
203.1225581941
 20
131.0447384269
 30
0.0
 40
0.5651480467550795
100
AcDbArc
 50
351.1230991873
 51
2.0503686318
  0
LINE
  5
1A9
330
1F
100
AcDbEntity
  8
0
  6
Continuous
 62
     7
370
    15
100
AcDbLine
 10
203.310718223
 20
126.8966458227
 30
0.0
 11
204.6276876147
 21
128.0437304403
 31
0.0
  0
ARC
  5
1AA
330
1F
100
AcDbEntity
  8
0
  6
Continuous
 62
     7
370
    15
100
AcDbCircle
 10
204.2272099433
 20
127.6449699238
 30
0.0
 40
0.5651480467590404
100
AcDbArc
 50
33.9496313683
 51
44.8769008127
  0
LINE
  5
1AB
330
1F
100
AcDbEntity
  8
0
  6
Continuous
 62
     7
370
    15
100
AcDbLine
 10
204.6276876147
 20
128.0437304403
 30
0.0
 11
203.6809369868
 21
130.9575292615
 31
0.0
  0
LINE
  5
1AC
330
1F
100
AcDbEntity
  8
0
  6
Continuous
 62
     7
370
    15
100
AcDbLine
 10
200.8241322985
 20
131.4178979734
 30
0.0
 11
200.8240413795
 21
131.416975948
 31
0.0
  0
LINE
  5
1AD
330
1F
100
AcDbEntity
  8
0
  6
Continuous
 62
     7
370
    15
100
AcDbLine
 10
201.2786324773
 20
131.3692570715
 30
0.0
 11
201.2785382417
 21
131.3683452536
 31
0.0
  0
LINE
  5
1AE
330
1F
100
AcDbEntity
  8
0
  6
Continuous
 62
     7
370
    15
100
AcDbLine
 10
202.6145245915
 20
125.9154840062
 30
0.0
 11
202.5892149671
 21
125.9886593363
 31
0.0
  0
LINE
  5
1AF
330
1F
100
AcDbEntity
  8
0
  6
Continuous
 62
     7
370
    15
100
AcDbLine
 10
202.5892149671
 20
125.9886593363
 30
0.0
 11
202.6502048392
 21
126.037271995
 31
0.0
  0
LINE
  5
1B0
330
1F
100
AcDbEntity
  8
0
  6
Continuous
 62
     7
370
    15
100
AcDbLine
 10
202.6502048392
 20
126.037271995
 30
0.0
 11
202.6687248951
 21
125.9852733251
 31
0.0
  0
LINE
  5
1B1
330
1F
100
AcDbEntity
  8
0
  6
Continuous
 62
     7
370
    15
100
AcDbLine
 10
202.6687248951
 20
125.9852733251
 30
0.0
 11
202.7341046184
 21
126.0295535017
 31
0.0
  0
LINE
  5
1B2
330
1F
100
AcDbEntity
  8
0
  6
Continuous
 62
     7
370
    15
100
AcDbLine
 10
202.734104656
 20
126.0295535372
 30
0.0
 11
202.7275595311
 21
126.0367404077
 31
0.0
  0
SPLINE
  5
1B3
330
1F
100
AcDbEntity
  8
0
  6
Continuous
 62
     7
370
    15
100
AcDbSpline
210
0.0
220
0.0
230
1.0
 70
     8
 71
     3
 72
    13
 73
     9
 74
     0
 42
0.00000001
 43
0.00000001
 40
0.0
 40
0.0
 40
0.0
 40
0.0
 40
0.2493537827004931
 40
0.3731502119277
 40
0.4998460068457389
 40
0.6255465645953083
 40
0.7503082828075593
 40
1.0
 40
1.0
 40
1.0
 40
1.0
 10
202.7275595311234
 20
126.0367404077479
 30
0.0
 10
202.7266623625752
 20
126.0444866029137
 30
0.0
 10
202.7253197776332
 20
126.0560785440362
 30
0.0
 10
202.7357353897173
 20
126.079870475407
 30
0.0
 10
202.74750061866
 20
126.0994309489612
 30
0.0
 10
202.7628889808449
 20
126.1200696216602
 30
0.0
 10
202.7874517076784
 20
126.1477781787621
 30
0.0
 10
202.8094835049721
 20
126.1664244820186
 30
0.0
 10
202.8241746702251
 20
126.1788581440957
 30
0.0
  0
SPLINE
  5
1B4
330
1F
100
AcDbEntity
  8
0
  6
Continuous
 62
     7
370
    15
100
AcDbSpline
210
0.0
220
0.0
230
1.0
 70
     8
 71
     3
 72
    11
 73
     7
 74
     0
 42
0.00000001
 43
0.00000001
 40
0.0
 40
0.0
 40
0.0
 40
0.0
 40
0.2501171894885543
 40
0.5000589672841184
 40
0.750001486189978
 40
1.0
 40
1.0
 40
1.0
 40
1.0
 10
202.8241746702251
 20
126.1788581440957
 30
0.0
 10
202.8402640514927
 20
126.190739827566
 30
0.0
 10
202.8724315302547
 20
126.2144948616677
 30
0.0
 10
202.9171344550222
 20
126.2329306711294
 30
0.0
 10
202.95242851405
 20
126.2375085508922
 30
0.0
 10
202.9604056665957
 20
126.2260489761646
 30
0.0
 10
202.9643946896011
 20
126.2203185470474
 30
0.0
  0
SPLINE
  5
1B5
330
1F
100
AcDbEntity
  8
0
  6
Continuous
 62
     7
370
    15
100
AcDbSpline
210
0.0
220
0.0
230
1.0
 70
     8
 71
     3
 72
    11
 73
     7
 74
     0
 42
0.00000001
 43
0.00000001
 40
0.0
 40
0.0
 40
0.0
 40
0.0
 40
0.2502460433366581
 40
0.5000742790981004
 40
0.7498688737994449
 40
0.9999999999999999
 40
0.9999999999999999
 40
0.9999999999999999
 40
0.9999999999999999
 10
202.9643946896011
 20
126.2203185470474
 30
0.0
 10
202.965290187812
 20
126.2135079277206
 30
0.0
 10
202.9670796891216
 20
126.1998980599895
 30
0.0
 10
202.9511246520316
 20
126.1683311684398
 30
0.0
 10
202.92299536866
 20
126.1320582032975
 30
0.0
 10
202.8974901969313
 20
126.107850574405
 30
0.0
 10
202.884729026498
 20
126.0957386121186
 30
0.0
  0
LINE
  5
1B6
330
1F
100
AcDbEntity
  8
0
  6
Continuous
 62
     7
370
    15
100
AcDbLine
 10
202.8847290265
 20
126.0957386121
 30
0.0
 11
202.8765153132
 21
126.1240806246
 31
0.0
  0
SPLINE
  5
1B7
330
1F
100
AcDbEntity
  8
0
  6
Continuous
 62
     7
370
    15
100
AcDbSpline
210
0.0
220
0.0
230
1.0
 70
     8
 71
     3
 72
    11
 73
     7
 74
     0
 42
0.00000001
 43
0.00000001
 40
0.0
 40
0.0
 40
0.0
 40
0.0
 40
0.2503042847020633
 40
0.5002979451325511
 40
0.7501213484862487
 40
1.0
 40
1.0
 40
1.0
 40
1.0
 10
202.8765153132484
 20
126.1240806245989
 30
0.0
 10
202.8808190095601
 20
126.1288646868066
 30
0.0
 10
202.8894210613538
 20
126.1384268742647
 30
0.0
 10
202.8985258812522
 20
126.1520506242063
 30
0.0
 10
202.9037527059399
 20
126.1640028108124
 30
0.0
 10
202.9030565011545
 20
126.1692966483372
 30
0.0
 10
202.9027083602749
 20
126.1719438597487
 30
0.0
  0
SPLINE
  5
1B8
330
1F
100
AcDbEntity
  8
0
  6
Continuous
 62
     7
370
    15
100
AcDbSpline
210
0.0
220
0.0
230
1.0
 70
     8
 71
     3
 72
    13
 73
     9
 74
     0
 42
0.00000001
 43
0.00000001
 40
0.0
 40
0.0
 40
0.0
 40
0.0
 40
0.2491886988768673
 40
0.3735724231126562
 40
0.4997234333240658
 40
0.6255280748404839
 40
0.7502519078805222
 40
1.0
 40
1.0
 40
1.0
 40
1.0
 10
202.9027082801946
 20
126.1719441759456
 30
0.0
 10
202.9008695608324
 20
126.1745208520038
 30
0.0
 10
202.8981130359552
 20
126.1783836881716
 30
0.0
 10
202.8886758221377
 20
126.1779969413201
 30
0.0
 10
202.88018248251
 20
126.1758958894096
 30
0.0
 10
202.8704404724278
 20
126.1719281321388
 30
0.0
 10
202.8563168879382
 20
126.1643248433992
 30
0.0
 10
202.8453415052548
 20
126.1560813265384
 30
0.0
 10
202.8380216484076
 20
126.1505834441338
 30
0.0
  0
SPLINE
  5
1B9
330
1F
100
AcDbEntity
  8
0
  6
Continuous
 62
     7
370
    15
100
AcDbSpline
210
0.0
220
0.0
230
1.0
 70
     8
 71
     3
 72
    14
 73
    10
 74
     0
 42
0.00000001
 43
0.00000001
 40
0.0
 40
0.0
 40
0.0
 40
0.0
 40
0.2499182797635456
 40
0.4990992268408812
 40
0.6265652673828392
 40
0.7495019737159573
 40
0.8745989327643091
 40
0.9372969125677733
 40
1.0
 40
1.0
 40
1.0
 40
1.0
 10
202.8380216484076
 20
126.1505834441338
 30
0.0
 10
202.8312219364163
 20
126.1448793042184
 30
0.0
 10
202.817642573591
 20
126.1334878532839
 30
0.0
 10
202.8036841900078
 20
126.1171946825147
 30
0.0
 10
202.7956640946109
 20
126.1051513532801
 30
0.0
 10
202.7914657919804
 20
126.0968058786142
 30
0.0
 10
202.7899756696361
 20
126.0910183514585
 30
0.0
 10
202.7898595286504
 20
126.0871232977586
 30
0.0
 10
202.7902682713188
 20
126.085535776062
 30
0.0
 10
202.7904726509772
 20
126.0847419828836
 30
0.0
  0
SPLINE
  5
1BA
330
1F
100
AcDbEntity
  8
0
  6
Continuous
 62
     7
370
    15
100
AcDbSpline
210
0.0
220
0.0
230
1.0
 70
     8
 71
     3
 72
    10
 73
     6
 74
     0
 42
0.00000001
 43
0.00000001
 40
0.0
 40
0.0
 40
0.0
 40
0.0
 40
0.2500138183759938
 40
0.5002755069557216
 40
1.0
 40
1.0
 40
1.0
 40
1.0
 10
202.7904727421046
 20
126.0847416350542
 30
0.0
 10
202.7913959147867
 20
126.0832186476734
 30
0.0
 10
202.7932431754082
 20
126.0801711629824
 30
0.0
 10
202.8021622503511
 20
126.0790372561745
 30
0.0
 10
202.8117898709395
 20
126.0819437036252
 30
0.0
 10
202.818204866223
 20
126.0838803032778
 30
0.0
  0
LINE
  5
1BB
330
1F
100
AcDbEntity
  8
0
  6
Continuous
 62
     7
370
    15
100
AcDbLine
 10
202.8182049049
 20
126.0838803163
 30
0.0
 11
202.8128102113
 21
126.0518759032
 31
0.0
  0
LINE
  5
1BC
330
1F
100
AcDbEntity
  8
0
  6
Continuous
 62
     7
370
    15
100
AcDbLine
 10
202.8128102113
 20
126.0518759032
 30
0.0
 11
202.6145245915
 21
125.9154840062
 31
0.0
  0
LINE
  5
1BD
330
1F
100
AcDbEntity
  8
0
  6
Continuous
 62
     7
370
    15
100
AcDbLine
 10
202.6502048392
 20
126.037271995
 30
0.0
 11
202.6495889971
 21
126.0379655167
 31
0.0
  0
LINE
  5
1BE
330
1F
100
AcDbEntity
  8
0
  6
Continuous
 62
     7
370
    15
100
AcDbLine
 10
202.5892149671
 20
125.9886593363
 30
0.0
 11
202.5885990654
 21
125.9893530415
 31
0.0
  0
LINE
  5
1BF
330
1F
100
AcDbEntity
  8
0
  6
Continuous
 62
     7
370
    15
100
AcDbLine
 10
202.6145245915
 20
125.9154840062
 30
0.0
 11
202.61390152
 21
125.9161997778
 31
0.0
  0
LINE
  5
1C0
330
1F
100
AcDbEntity
  8
0
  6
Continuous
 62
     7
370
    15
100
AcDbLine
 10
202.8241746702
 20
126.1788581441
 30
0.0
 11
202.8235592381
 21
126.1795504038
 31
0.0
  0
LINE
  5
1C1
330
1F
100
AcDbEntity
  8
0
  6
Continuous
 62
     7
370
    15
100
AcDbLine
 10
202.7275595311
 20
126.0367404077
 30
0.0
 11
202.7269388823
 21
126.0374487228
 31
0.0
  0
ARC
  5
1C2
330
1F
100
AcDbEntity
  8
0
  6
Continuous
 62
     7
370
    15
100
AcDbCircle
 10
204.6853662624
 20
127.9395735062
 30
0.0
 40
0.1190608807906208
100
AcDbArc
 50
68.5914088265
 51
118.9762263587
  0
ARC
  5
1C3
330
1F
100
AcDbEntity
  8
0
  6
Continuous
 62
     7
370
    15
100
AcDbCircle
 10
204.6480372076
 20
128.029015885
 30
0.0
 40
0.0835753823840463
100
AcDbArc
 50
305.0355498025
 51
14.8386162464
  0
ARC
  5
1C4
330
1F
100
AcDbEntity
  8
0
  6
Continuous
 62
     7
370
    15
100
AcDbCircle
 10
203.6663780832
 20
131.0756966498
 30
0.0
 40
0.1190608807908624
100
AcDbArc
 50
277.0237736414
 51
327.4085911735
  0
ARC
  5
1C5
330
1F
100
AcDbEntity
  8
0
  6
Continuous
 62
     7
370
    15
100
AcDbCircle
 10
203.6887511547
 20
130.9813947774
 30
0.0
 40
0.0835753823841611
100
AcDbArc
 50
21.1613837537
 51
90.9644501975
  0
LINE
  5
1C6
330
1F
100
AcDbEntity
  8
0
  6
Continuous
 62
     7
370
    15
100
AcDbLine
 10
203.7666908249
 20
131.0115651662
 30
0.0
 11
204.7288254349
 21
128.0504193165
 31
0.0
  0
LINE
  5
1C7
330
1F
100
AcDbEntity
  8
0
  6
Continuous
 62
     7
370
    15
100
AcDbLine
 10
202.9027082802
 20
126.1719441759
 30
0.0
 11
202.902087321
 21
126.1726534463
 31
0.0
  0
LINE
  5
1C8
330
1F
100
AcDbEntity
  8
0
  6
Continuous
 62
     7
370
    15
100
AcDbLine
 10
204.7288254349
 20
128.0504193165
 30
0.0
 11
204.8303606747
 21
127.7379259803
 31
0.0
  0
LINE
  5
1C9
330
1F
100
AcDbEntity
  8
0
  6
Continuous
 62
     7
370
    15
100
AcDbLine
 10
203.6670024442
 20
131.3183744543
 30
0.0
 11
203.7666908249
 21
131.0115651662
 31
0.0
  0
SPLINE
  5
1CA
330
1F
100
AcDbEntity
  8
0
  6
Continuous
 62
     7
370
    15
100
AcDbSpline
210
0.0
220
0.0
230
1.0
 70
     8
 71
     3
 72
    11
 73
     7
 74
     0
 42
0.00000001
 43
0.00000001
 40
0.0
 40
0.0
 40
0.0
 40
0.0
 40
0.293311876092731
 40
0.586599120142031
 40
0.8805021461503372
 40
1.0
 40
1.0
 40
1.0
 40
1.0
 10
203.582659406605
 20
131.3871456339424
 30
0.0
 10
203.5937276351283
 20
131.3848123216071
 30
0.0
 10
203.6158631626759
 20
131.3801458928857
 30
0.0
 10
203.6436525487455
 20
131.3596862785066
 30
0.0
 10
203.6599121835362
 20
131.3374791512219
 30
0.0
 10
203.6654125156092
 20
131.3226585145251
 30
0.0
 10
203.6670024441996
 20
131.3183744542721
 30
0.0
  0
LINE
  5
1CB
330
1F
100
AcDbEntity
  8
0
  6
Continuous
 62
     7
370
    15
100
AcDbLine
 10
202.8182049049
 20
126.0838803163
 30
0.0
 11
202.8175822852
 21
126.0845946971
 31
0.0
  0
LINE
  5
1CC
330
1F
100
AcDbEntity
  8
0
  6
Continuous
 62
     7
370
    15
100
AcDbLine
 10
202.8765153132
 20
126.1240806246
 30
0.0
 11
202.8758921875
 21
126.124796563
 31
0.0
  0
LINE
  5
1CD
330
1F
100
AcDbEntity
  8
0
  6
Continuous
 62
     7
370
    15
100
AcDbLine
 10
202.8847290265
 20
126.0957386121
 30
0.0
 11
202.8841031088
 21
126.0964631433
 31
0.0
  0
LINE
  5
1CE
330
1F
100
AcDbEntity
  8
0
  6
Continuous
 62
     7
370
    15
100
AcDbLine
 10
201.2608558051
 20
128.6919216233
 30
0.0
 11
201.3559614567
 21
128.7228233227
 31
0.0
  0
LINE
  5
1CF
330
1F
100
AcDbEntity
  8
0
  6
Continuous
 62
     7
370
    15
100
AcDbLine
 10
201.4342944876
 20
128.481739043
 30
0.0
 11
201.3386494448
 21
128.4524974189
 31
0.0
  0
LINE
  5
1D0
330
1F
100
AcDbEntity
  8
0
  6
Continuous
 62
     7
370
    15
100
AcDbLine
 10
201.5262620479
 20
128.1986919969
 30
0.0
 11
201.4310993048
 21
128.1679660069
 31
0.0
  0
SPLINE
  5
1D1
330
1F
100
AcDbEntity
  8
0
  6
Continuous
 62
     7
370
    15
100
AcDbSpline
210
0.0
220
0.0
230
1.0
 70
     8
 71
     3
 72
    16
 73
    12
 74
     0
 42
0.00000001
 43
0.00000001
 40
0.0
 40
0.0
 40
0.0
 40
0.0
 40
0.0001752633037773
 40
0.1252145467434889
 40
0.2502437604272958
 40
0.3752581713093464
 40
0.5002621279327792
 40
0.6252645061158847
 40
0.7502652504798138
 40
0.8753600769388458
 40
0.9999999999999999
 40
0.9999999999999999
 40
0.9999999999999999
 40
0.9999999999999999
 10
200.6967274483065
 20
131.6755136683581
 30
0.0
 10
200.6967186286536
 20
131.675514889783
 30
0.0
 10
200.6904175443723
 20
131.6763875206413
 30
0.0
 10
200.7125980364605
 20
131.6732454737917
 30
0.0
 10
200.7641957548198
 20
131.666419309949
 30
0.0
 10
200.8480336556594
 20
131.65703602895
 30
0.0
 10
200.945593503839
 20
131.6489138520404
 30
0.0
 10
201.043850629328
 20
131.6438347834229
 30
0.0
 10
201.1265256751866
 20
131.6420312448352
 30
0.0
 10
201.1842764652248
 20
131.6421998374298
 30
0.0
 10
201.1918259199774
 20
131.6423124033141
 30
0.0
 10
201.1955937715131
 20
131.6423685837342
 30
0.0
  0
LINE
  5
1D2
330
1F
100
AcDbEntity
  8
0
  6
Continuous
 62
     7
370
    15
100
AcDbLine
 10
201.3451458619
 20
128.7561103008
 30
0.0
 11
201.2500402103
 21
128.7252086014
 31
0.0
  0
LINE
  5
1D3
330
1F
100
AcDbEntity
  8
0
  6
Continuous
 62
     7
370
    15
100
AcDbLine
 10
201.9181170564
 20
126.7499811898
 30
0.0
 11
202.2734866
 21
125.656266196
 31
0.0
  0
LINE
  5
1D4
330
1F
100
AcDbEntity
  8
0
  6
Continuous
 62
     7
370
    15
100
AcDbLine
 10
202.3685922516
 20
125.6871678954
 30
0.0
 11
202.0132227081
 21
126.7808828892
 31
0.0
  0
LINE
  5
1D5
330
1F
100
AcDbEntity
  8
0
  6
Continuous
 62
     7
370
    15
100
AcDbLine
 10
202.0447245458
 20
126.7648319011
 30
0.0
 11
202.3846432397
 21
125.7186697332
 31
0.0
  0
ARC
  5
1D6
330
1F
100
AcDbEntity
  8
0
  6
Continuous
 62
     7
370
    15
100
AcDbCircle
 10
198.0606497463
 20
132.5970810467
 30
0.0
 40
0.0999999999999943
100
AcDbArc
 50
90.0
 51
180.0
  0
LINE
  5
1D7
330
1F
100
AcDbEntity
  8
0
  6
Continuous
 62
     7
370
    15
100
AcDbLine
 10
198.0606497463
 20
132.6970810467
 30
0.0
 11
198.0606497463
 21
132.6470810467
 31
0.0
  0
ARC
  5
1D8
330
1F
100
AcDbEntity
  8
0
  6
Continuous
 62
     7
370
    15
100
AcDbCircle
 10
198.0606497463
 20
132.5970810467
 30
0.0
 40
0.0499999999999829
100
AcDbArc
 50
90.0
 51
180.0
  0
LINE
  5
1D9
330
1F
100
AcDbEntity
  8
0
  6
Continuous
 62
     7
370
    15
100
AcDbLine
 10
197.9606497463
 20
132.5970810467
 30
0.0
 11
198.0106497463
 21
132.5970810467
 31
0.0
  0
LINE
  5
1DA
330
1F
100
AcDbEntity
  8
0
  6
Continuous
 62
     7
370
    15
100
AcDbLine
 10
204.9215571395
 20
123.688464032
 30
0.0
 11
204.9386581467
 21
123.7354486631
 31
0.0
  0
LINE
  5
1DB
330
1F
100
AcDbEntity
  8
0
  6
Continuous
 62
     7
370
    15
100
AcDbLine
 10
204.9215571395
 20
123.688464032
 30
0.0
 11
202.9765178635
 21
124.396400433
 31
0.0
  0
LINE
  5
1DC
330
1F
100
AcDbEntity
  8
0
  6
Continuous
 62
     7
370
    15
100
AcDbLine
 10
202.9936188706
 20
124.443385064
 30
0.0
 11
202.9765178635
 21
124.396400433
 31
0.0
  0
ARC
  5
1DD
330
1F
100
AcDbEntity
  8
0
  6
Continuous
 62
     7
370
    15
100
AcDbCircle
 10
198.0606497463
 20
120.728313594
 30
0.0
 40
0.0500000000000114
100
AcDbArc
 50
180.0
 51
270.0
  0
LINE
  5
1DE
330
1F
100
AcDbEntity
  8
0
  6
Continuous
 62
     7
370
    15
100
AcDbLine
 10
198.0606497463
 20
120.678313594
 30
0.0
 11
198.0606497463
 21
120.628313594
 31
0.0
  0
ARC
  5
1DF
330
1F
100
AcDbEntity
  8
0
  6
Continuous
 62
     7
370
    15
100
AcDbCircle
 10
198.0606497463
 20
120.728313594
 30
0.0
 40
0.1000000000000085
100
AcDbArc
 50
180.0
 51
270.0
  0
LINE
  5
1E0
330
1F
100
AcDbEntity
  8
0
  6
Continuous
 62
     7
370
    15
100
AcDbLine
 10
198.0106497463
 20
120.728313594
 30
0.0
 11
197.9606497463
 21
120.728313594
 31
0.0
  0
ARC
  5
1E1
330
1F
100
AcDbEntity
  8
0
  6
Continuous
 62
     7
370
    15
100
AcDbCircle
 10
204.0250566764
 20
120.753313594
 30
0.0
 40
0.0750000000000185
100
AcDbArc
 50
270.0
 51
320.0
  0
LINE
  5
1E2
330
1F
100
AcDbEntity
  8
0
  6
Continuous
 62
     7
370
    15
100
AcDbLine
 10
204.0825100096
 20
120.7051045232
 30
0.0
 11
204.1208122318
 21
120.6729651428
 31
0.0
  0
LINE
  5
1E3
330
1F
100
AcDbEntity
  8
0
  6
Continuous
 62
     7
370
    15
100
AcDbLine
 10
204.0250566764
 20
120.678313594
 30
0.0
 11
204.0250566764
 21
120.628313594
 31
0.0
  0
LINE
  5
1E4
330
1F
100
AcDbEntity
  8
0
  6
Continuous
 62
     7
370
    15
100
AcDbLine
 10
204.0825100096
 20
120.7051045232
 30
0.0
 11
205.3243802243
 21
122.1851078131
 31
0.0
  0
LINE
  5
1E5
330
1F
100
AcDbEntity
  8
0
  6
Continuous
 62
     7
370
    15
100
AcDbLine
 10
205.3243802243
 20
122.1851078131
 30
0.0
 11
205.3626824465
 21
122.1529684326
 31
0.0
  0
ARC
  5
1E6
330
1F
100
AcDbEntity
  8
0
  6
Continuous
 62
     7
370
    15
100
AcDbCircle
 10
203.3630006254
 20
125.4582530945
 30
0.0
 40
1.130000000000014
100
AcDbArc
 50
198.0
 51
250.0
  0
LINE
  5
1E7
330
1F
100
AcDbEntity
  8
0
  6
Continuous
 62
     7
370
    15
100
AcDbLine
 10
202.3358595878
 20
125.1245147405
 30
0.0
 11
202.288306762
 21
125.1090638908
 31
0.0
  0
ARC
  5
1E8
330
1F
100
AcDbEntity
  8
0
  6
Continuous
 62
     7
370
    15
100
AcDbCircle
 10
204.5966380033
 20
122.7957560423
 30
0.0
 40
0.9500000000000078
100
AcDbArc
 50
320.0
 51
70.0
  0
ARC
  5
1E9
330
1F
100
AcDbEntity
  8
0
  6
Continuous
 62
     7
370
    15
100
AcDbCircle
 10
199.8027293911
 20
132.5970810467
 30
0.0
 40
0.0499999999999829
100
AcDbArc
 50
18.0
 51
90.0
  0
LINE
  5
1EA
330
1F
100
AcDbEntity
  8
0
  6
Continuous
 62
     7
370
    15
100
AcDbLine
 10
197.9606497463
 20
120.728313594
 30
0.0
 11
197.9606497463
 21
132.5970810467
 31
0.0
  0
LINE
  5
1EB
330
1F
100
AcDbEntity
  8
0
  6
Continuous
 62
     7
370
    15
100
AcDbLine
 10
198.0106497463
 20
132.5970810467
 30
0.0
 11
198.0106497463
 21
120.728313594
 31
0.0
  0
LINE
  5
1EC
330
1F
100
AcDbEntity
  8
0
  6
Continuous
 62
     7
370
    15
100
AcDbLine
 10
198.0606497463
 20
120.678313594
 30
0.0
 11
204.0250566764
 21
120.678313594
 31
0.0
  0
LINE
  5
1ED
330
1F
100
AcDbEntity
  8
0
  6
Continuous
 62
     7
370
    15
100
AcDbLine
 10
199.8027293911
 20
132.6470810467
 30
0.0
 11
198.0606497463
 21
132.6470810467
 31
0.0
  0
LINE
  5
1EE
330
1F
100
AcDbEntity
  8
0
  6
Continuous
 62
     7
370
    15
100
AcDbLine
 10
202.288306762
 20
125.1090638908
 30
0.0
 11
199.8502822169
 21
132.6125318964
 31
0.0
  0
LINE
  5
1EF
330
1F
100
AcDbEntity
  8
0
  6
Continuous
 62
     7
370
    15
100
AcDbLine
 10
197.9606497463
 20
132.6970810467
 30
0.0
 11
199.7845658279
 21
132.6970810467
 31
0.0
  0
LINE
  5
1F0
330
1F
100
AcDbEntity
  8
0
  6
Continuous
 62
     7
370
    15
100
AcDbLine
 10
199.7845658279
 20
132.6970810467
 30
0.0
 11
199.7845658279
 21
132.7770810467
 31
0.0
  0
LINE
  5
1F1
330
1F
100
AcDbEntity
  8
0
  6
Continuous
 62
     7
370
    15
100
AcDbLine
 10
197.9606497463
 20
132.7770810467
 30
0.0
 11
199.7845658279
 21
132.7770810467
 31
0.0
  0
LINE
  5
1F2
330
1F
100
AcDbEntity
  8
0
  6
Continuous
 62
     7
370
    15
100
AcDbLine
 10
197.9606497463
 20
132.7770810467
 30
0.0
 11
197.9606497463
 21
132.6970810467
 31
0.0
  0
LINE
  5
1F3
330
1F
100
AcDbEntity
  8
0
  6
Continuous
 62
     7
370
    15
100
AcDbLine
 10
197.9606497463
 20
120.628313594
 30
0.0
 11
197.9606497463
 21
120.548313594
 31
0.0
  0
LINE
  5
1F4
330
1F
100
AcDbEntity
  8
0
  6
Continuous
 62
     7
370
    15
100
AcDbLine
 10
197.9606497463
 20
120.628313594
 30
0.0
 11
204.0250566764
 21
120.628313594
 31
0.0
  0
LINE
  5
1F5
330
1F
100
AcDbEntity
  8
0
  6
Continuous
 62
     7
370
    15
100
AcDbLine
 10
204.0250566764
 20
120.548313594
 30
0.0
 11
204.0250566764
 21
120.628313594
 31
0.0
  0
LINE
  5
1F6
330
1F
100
AcDbEntity
  8
0
  6
Continuous
 62
     7
370
    15
100
AcDbLine
 10
197.9606497463
 20
120.548313594
 30
0.0
 11
204.0250566764
 21
120.548313594
 31
0.0
  0
ARC
  5
1F7
330
1F
100
AcDbEntity
  8
0
  6
Continuous
 62
     7
370
    15
100
AcDbCircle
 10
204.0250566764
 20
120.753313594
 30
0.0
 40
0.1250000000000255
100
AcDbArc
 50
270.0
 51
320.0
  0
LINE
  5
1F8
330
1F
100
AcDbEntity
  8
0
  6
Continuous
 62
     7
370
    15
100
AcDbLine
 10
204.1208122318
 20
120.6729651428
 30
0.0
 11
204.1820957873
 21
120.621542134
 31
0.0
  0
ARC
  5
1F9
330
1F
100
AcDbEntity
  8
0
  6
Continuous
 62
     7
370
    15
100
AcDbCircle
 10
204.0250566764
 20
120.753313594
 30
0.0
 40
0.2050000000000133
100
AcDbArc
 50
270.0
 51
320.0
  0
LINE
  5
1FA
330
1F
100
AcDbEntity
  8
0
  6
Continuous
 62
     7
370
    15
100
AcDbLine
 10
204.9386581467
 20
123.7354486631
 30
0.0
 11
204.9660197581
 21
123.8106240727
 31
0.0
  0
LINE
  5
1FB
330
1F
100
AcDbEntity
  8
0
  6
Continuous
 62
     7
370
    15
100
AcDbLine
 10
204.9386581467
 20
123.7354486631
 30
0.0
 11
202.9936188706
 21
124.443385064
 31
0.0
  0
LINE
  5
1FC
330
1F
100
AcDbEntity
  8
0
  6
Continuous
 62
     7
370
    15
100
AcDbLine
 10
203.0209804821
 20
124.5185604737
 30
0.0
 11
202.9936188706
 21
124.443385064
 31
0.0
  0
LINE
  5
1FD
330
1F
100
AcDbEntity
  8
0
  6
Continuous
 62
     7
370
    15
100
AcDbLine
 10
204.9660197581
 20
123.8106240727
 30
0.0
 11
203.0209804821
 21
124.5185604737
 31
0.0
  0
LINE
  5
1FE
330
1F
100
AcDbEntity
  8
0
  6
Continuous
 62
     7
370
    15
100
AcDbLine
 10
204.1208122318
 20
120.6729651428
 30
0.0
 11
205.3626824465
 21
122.1529684326
 31
0.0
  0
LINE
  5
1FF
330
1F
100
AcDbEntity
  8
0
  6
Continuous
 62
     7
370
    15
100
AcDbLine
 10
205.4239660019
 20
122.1015454238
 30
0.0
 11
205.3626824465
 21
122.1529684326
 31
0.0
  0
LINE
  5
200
330
1F
100
AcDbEntity
  8
0
  6
Continuous
 62
     7
370
    15
100
AcDbLine
 10
204.1820957873
 20
120.621542134
 30
0.0
 11
205.4239660019
 21
122.1015454238
 31
0.0
  0
ARC
  5
201
330
1F
100
AcDbEntity
  8
0
  6
Continuous
 62
     7
370
    15
100
AcDbCircle
 10
199.7845658279
 20
132.5720810467
 30
0.0
 40
0.2049999999999841
100
AcDbArc
 50
18.0
 51
90.0
  0
LINE
  5
202
330
1F
100
AcDbEntity
  8
0
  6
Continuous
 62
     7
370
    15
100
AcDbLine
 10
199.9034478925
 20
132.610708171
 30
0.0
 11
199.9795324138
 21
132.6354295305
 31
0.0
  0
ARC
  5
203
330
1F
100
AcDbEntity
  8
0
  6
Continuous
 62
     7
370
    15
100
AcDbCircle
 10
199.7845658279
 20
132.5720810467
 30
0.0
 40
0.125
100
AcDbArc
 50
18.0
 51
90.0
  0
LINE
  5
204
330
1F
100
AcDbEntity
  8
0
  6
Continuous
 62
     7
370
    15
100
AcDbLine
 10
202.3358595878
 20
125.1245147405
 30
0.0
 11
202.4119441091
 21
125.1492361001
 31
0.0
  0
LINE
  5
205
330
1F
100
AcDbEntity
  8
0
  6
Continuous
 62
     7
370
    15
100
AcDbLine
 10
202.3358595878
 20
125.1245147405
 30
0.0
 11
199.9034478925
 21
132.610708171
 31
0.0
  0
LINE
  5
206
330
1F
100
AcDbEntity
  8
0
  6
Continuous
 62
     7
370
    15
100
AcDbLine
 10
202.4119441091
 20
125.1492361001
 30
0.0
 11
199.9795324138
 21
132.6354295305
 31
0.0
  0
ARC
  5
207
330
1F
100
AcDbEntity
  8
0
  6
Continuous
 62
     7
370
    15
100
AcDbCircle
 10
204.5966380033
 20
122.7957560423
 30
0.0
 40
1.000000000000001
100
AcDbArc
 50
320.0
 51
70.0
  0
ARC
  5
208
330
1F
100
AcDbEntity
  8
0
  6
Continuous
 62
     7
370
    15
100
AcDbCircle
 10
204.5966380033
 20
122.7957560423
 30
0.0
 40
1.080000000000007
100
AcDbArc
 50
320.0
 51
70.0
  0
ARC
  5
209
330
1F
100
AcDbEntity
  8
0
  6
Continuous
 62
     7
370
    15
100
AcDbCircle
 10
203.3630006254
 20
125.4582530945
 30
0.0
 40
1.000000000000007
100
AcDbArc
 50
198.0
 51
250.0
  0
ARC
  5
20A
330
1F
100
AcDbEntity
  8
0
  6
Continuous
 62
     7
370
    15
100
AcDbCircle
 10
203.3630006254
 20
125.4582530945
 30
0.0
 40
1.080000000000001
100
AcDbArc
 50
198.0
 51
250.0
  0
LINE
  5
20B
330
1F
100
AcDbEntity
  8
0
  6
Continuous
 62
     7
370
    15
100
AcDbLine
 10
199.939895635
 20
132.757418992
 30
0.0
 11
199.9795324138
 21
132.6354295305
 31
0.0
  0
LINE
  5
20C
330
1F
100
AcDbEntity
  8
0
  6
Continuous
 62
     7
370
    15
100
AcDbLine
 10
201.2554676282
 20
133.5194106101
 30
0.0
 11
201.2754338025
 21
133.4745658483
 31
0.0
  0
LINE
  5
20D
330
1F
100
AcDbEntity
  8
0
  6
Continuous
 62
     7
370
    15
100
AcDbLine
 10
201.219727095
 20
133.4497636241
 30
0.0
 11
201.2754338025
 21
133.4745658483
 31
0.0
  0
LINE
  5
20E
330
1F
100
AcDbEntity
  8
0
  6
Continuous
 62
     7
370
    15
100
AcDbLine
 10
201.1878259548
 20
133.5231312237
 30
0.0
 11
201.2246946166
 21
133.5395462095
 31
0.0
  0
ARC
  5
20F
330
1F
100
AcDbEntity
  8
0
  6
Continuous
 62
     7
370
    15
100
AcDbCircle
 10
200.0587776995
 20
132.7960461163
 30
0.0
 40
0.1250000000000138
100
AcDbArc
 50
145.3407588999
 51
198.0
  0
ARC
  5
210
330
1F
100
AcDbEntity
  8
0
  6
Continuous
 62
     7
370
    15
100
AcDbCircle
 10
200.0587776995
 20
132.7960461163
 30
0.0
 40
0.2050000000000248
100
AcDbArc
 50
150.9557373116
 51
188.9570110178
  0
LINE
  5
211
330
1F
100
AcDbEntity
  8
0
  6
Continuous
 62
     7
370
    15
100
AcDbLine
 10
199.974974293
 20
132.7679357795
 30
0.0
 11
200.0453142103
 21
132.9059856401
 31
0.0
  0
ARC
  5
212
330
1F
100
AcDbEntity
  8
0
  6
Continuous
 62
     7
370
    15
100
AcDbCircle
 10
200.0863501085
 20
132.7111869671
 30
0.0
 40
0.1250000000000138
100
AcDbArc
 50
153.0
 51
198.0
  0
LINE
  5
213
330
1F
100
AcDbEntity
  8
0
  6
Continuous
 62
     7
370
    15
100
AcDbLine
 10
201.2318415041
 20
133.4227957799
 30
0.0
 11
201.2315148123
 21
133.4226537303
 31
0.0
  0
LINE
  5
214
330
1F
100
AcDbEntity
  8
0
  6
Continuous
 62
     7
370
    15
100
AcDbLine
 10
127.1543852512
 20
138.2300099789
 30
0.0
 11
127.1543852512
 21
138.2309033681
 31
0.0
  0
LINE
  5
215
330
1F
100
AcDbEntity
  8
0
  6
Continuous
 62
     7
370
    15
100
AcDbLine
 10
133.7143852512
 20
138.3170810467
 30
0.0
 11
133.7143852512
 21
138.3179744359
 31
0.0
  0
LINE
  5
216
330
1F
100
AcDbEntity
  8
0
  6
Continuous
 62
     7
370
    15
100
AcDbLine
 10
133.7143852512
 20
138.3179744359
 30
0.0
 11
199.3056497463
 21
138.3179744359
 31
0.0
  0
LINE
  5
217
330
1F
100
AcDbEntity
  8
0
  6
Continuous
 62
     7
370
    15
100
AcDbLine
 10
133.6743852512
 20
138.3170810467
 30
0.0
 11
133.6743852512
 21
138.3179744359
 31
0.0
  0
LINE
  5
218
330
1F
100
AcDbEntity
  8
0
  6
Continuous
 62
     7
370
    15
100
AcDbLine
 10
133.4973305967
 20
138.3179744359
 30
0.0
 11
133.6743852512
 21
138.3179744359
 31
0.0
  0
LINE
  5
219
330
1F
100
AcDbEntity
  8
0
  6
Continuous
 62
     7
370
    15
100
AcDbLine
 10
127.241456319
 20
138.2379744359
 30
0.0
 11
127.255887413
 21
138.2379744359
 31
0.0
  0
LINE
  5
21A
330
1F
100
AcDbEntity
  8
0
  6
Continuous
 62
     7
370
    15
100
AcDbLine
 10
133.6743852512
 20
138.3179744359
 30
0.0
 11
133.7143852512
 21
138.3179744359
 31
0.0
  0
SPLINE
  5
21B
330
1F
100
AcDbEntity
  8
0
  6
Continuous
 62
     7
370
    15
100
AcDbSpline
210
0.0
220
0.0
230
1.0
 70
     8
 71
     3
 72
    13
 73
     9
 74
     0
 42
0.00000001
 43
0.00000001
 40
0.0
 40
0.0
 40
0.0
 40
0.0
 40
0.1204594496068337
 40
0.2374747966600939
 40
0.3532657556912001
 40
0.4701227165282093
 40
0.6853795372238949
 40
1.0
 40
1.0
 40
1.0
 40
1.0
 10
127.2343852511688
 20
138.2309033680759
 30
0.0
 10
127.2350060044266
 20
138.2300064331338
 30
0.0
 10
127.2362297627465
 20
138.2282382078622
 30
0.0
 10
127.2454544504891
 20
138.2210023196521
 30
0.0
 10
127.2585336013242
 20
138.2104368886925
 30
0.0
 10
127.2789567987557
 20
138.1922452885728
 30
0.0
 10
127.3118788541834
 20
138.1592032169763
 30
0.0
 10
127.3416865839186
 20
138.1301971230581
 30
0.0
 10
127.3593852511689
 20
138.1129744358878
 30
0.0
  0
LINE
  5
21C
330
1F
100
AcDbEntity
  8
0
  6
Continuous
 62
     7
370
    15
100
AcDbLine
 10
201.1344746739
 20
133.6467241585
 30
0.0
 11
201.1500979449
 21
133.6107930951
 31
0.0
  0
LINE
  5
21D
330
1F
100
AcDbEntity
  8
0
  6
Continuous
 62
     7
370
    15
100
AcDbLine
 10
199.7680551631
 20
133.0525880458
 30
0.0
 11
199.8265868265
 21
132.9179744359
 31
0.0
  0
LINE
  5
21E
330
1F
100
AcDbEntity
  8
0
  6
Continuous
 62
     7
370
    15
100
AcDbLine
 10
199.8265868265
 20
132.9179744359
 30
0.0
 11
199.8261983698
 21
132.9179744359
 31
0.0
  0
LWPOLYLINE
  5
21F
330
1F
100
AcDbEntity
  8
0
  6
Continuous
 62
     7
370
    15
100
AcDbPolyline
 90
        3
 70
   128
 43
0.0
 10
200.3547644602
 20
134.4989938862
 10
200.3389108682
 20
134.4892332338
 10
200.2374971393
 20
134.4525581178
  0
ARC
  5
220
330
1F
100
AcDbEntity
  8
0
  6
Continuous
 62
     7
370
    15
100
AcDbCircle
 10
200.2333852512
 20
135.0377153875
 30
0.0
 40
0.0240000000000009
100
AcDbArc
 50
180.0
 51
260.0647455693
  0
ARC
  5
221
330
1F
100
AcDbEntity
  8
0
  6
Continuous
 62
     7
370
    15
100
AcDbCircle
 10
200.1843852512
 20
134.7579744359
 30
0.0
 40
0.2599999999999852
100
AcDbArc
 50
359.8990415236
 51
80.0647455693
  0
ARC
  5
222
330
1F
100
AcDbEntity
  8
0
  6
Continuous
 62
     7
370
    15
100
AcDbCircle
 10
200.2333852512
 20
134.4762032521
 30
0.0
 40
0.0240000000000097
100
AcDbArc
 50
180.0
 51
279.8650797974
  0
ARC
  5
223
330
1F
100
AcDbEntity
  8
0
  6
Continuous
 62
     7
370
    15
100
AcDbCircle
 10
200.1843852512
 20
134.7579744359
 30
0.0
 40
0.2600000000000091
100
AcDbArc
 50
99.9352544307
 51
180.100887197
  0
ARC
  5
224
330
1F
100
AcDbEntity
  8
0
  6
Continuous
 62
     7
370
    15
100
AcDbCircle
 10
200.1353852512
 20
135.0377153875
 30
0.0
 40
0.0240000000000009
100
AcDbArc
 50
279.9352544307
 51
0.0
  0
LWPOLYLINE
  5
225
330
1F
100
AcDbEntity
  8
0
  6
Continuous
 62
     7
370
    15
100
AcDbPolyline
 90
        3
 70
   128
 43
0.0
 10
200.1312733631
 20
134.4525581178
 10
200.0298596341
 20
134.4892332338
 10
200.0067587412
 20
134.503909832
  0
ARC
  5
226
330
1F
100
AcDbEntity
  8
0
  6
Continuous
 62
     7
370
    15
100
AcDbCircle
 10
200.1353852512
 20
134.4762032521
 30
0.0
 40
0.0240000000000049
100
AcDbArc
 50
260.1349202027
 51
0.0
  0
LINE
  5
227
330
1F
100
AcDbEntity
  8
0
  6
Continuous
 62
     7
370
    15
100
AcDbLine
 10
199.2623556937
 20
138.1120810467
 30
0.0
 11
127.3593852512
 21
138.1120810467
 31
0.0
  0
LINE
  5
228
330
1F
100
AcDbEntity
  8
0
  6
Continuous
 62
     7
370
    15
100
AcDbLine
 10
199.2623556937
 20
138.1120810467
 30
0.0
 11
199.2623556937
 21
138.0720810467
 31
0.0
  0
LINE
  5
229
330
1F
100
AcDbEntity
  8
0
  6
Continuous
 62
     7
370
    15
100
AcDbLine
 10
199.2623556937
 20
138.0720810467
 30
0.0
 11
199.3023556937
 21
138.0720810467
 31
0.0
  0
LINE
  5
22A
330
1F
100
AcDbEntity
  8
0
  6
Continuous
 62
     7
370
    15
100
AcDbLine
 10
199.3023556937
 20
138.0720810467
 30
0.0
 11
199.3023556937
 21
138.1196044963
 31
0.0
  0
LINE
  5
22B
330
1F
100
AcDbEntity
  8
0
  6
Continuous
 62
     7
370
    15
100
AcDbLine
 10
199.3023556937
 20
138.1196044963
 30
0.0
 11
199.302358647
 21
138.1196044963
 31
0.0
  0
LINE
  5
22C
330
1F
100
AcDbEntity
  8
0
  6
Continuous
 62
     7
370
    15
100
AcDbLine
 10
199.302358647
 20
138.1196044963
 30
0.0
 11
199.302358647
 21
138.2170810467
 31
0.0
  0
LINE
  5
22D
330
1F
100
AcDbEntity
  8
0
  6
Continuous
 62
     7
370
    15
100
AcDbLine
 10
199.302358647
 20
138.2170810467
 30
0.0
 11
201.4343852512
 21
138.2170810467
 31
0.0
  0
ARC
  5
22E
330
1F
100
AcDbEntity
  8
0
  6
Continuous
 62
     7
370
    15
100
AcDbCircle
 10
201.4343852512
 20
136.0070810467
 30
0.0
 40
2.210000000000007
100
AcDbArc
 50
293.5
 51
90.0
  0
LINE
  5
22F
330
1F
100
AcDbEntity
  8
0
  6
Continuous
 62
     7
370
    15
100
AcDbLine
 10
202.3156206935
 20
133.9803782823
 30
0.0
 11
201.2366239815
 21
133.5112171594
 31
0.0
  0
LINE
  5
230
330
1F
100
AcDbEntity
  8
0
  6
Continuous
 62
     7
370
    15
100
AcDbLine
 10
201.2366239815
 20
133.5112171594
 30
0.0
 11
201.1708303851
 21
133.6625320716
 31
0.0
  0
LINE
  5
231
330
1F
100
AcDbEntity
  8
0
  6
Continuous
 62
     7
370
    15
100
AcDbLine
 10
201.1708303851
 20
133.6625320716
 30
0.0
 11
201.1341479822
 21
133.6465821089
 31
0.0
  0
LINE
  5
232
330
1F
100
AcDbEntity
  8
0
  6
Continuous
 62
     7
370
    15
100
AcDbLine
 10
201.1341479822
 20
133.6465821089
 30
0.0
 11
201.1500979449
 21
133.6098997059
 31
0.0
  0
LINE
  5
233
330
1F
100
AcDbEntity
  8
0
  6
Continuous
 62
     7
370
    15
100
AcDbLine
 10
199.8203608371
 20
133.031713556
 30
0.0
 11
201.1500979449
 21
133.6098997059
 31
0.0
  0
LINE
  5
234
330
1F
100
AcDbEntity
  8
0
  6
Continuous
 62
     7
370
    15
100
AcDbLine
 10
199.8203608371
 20
133.031713556
 30
0.0
 11
199.8044108743
 21
133.0683959589
 31
0.0
  0
LINE
  5
235
330
1F
100
AcDbEntity
  8
0
  6
Continuous
 62
     7
370
    15
100
AcDbLine
 10
199.8044108743
 20
133.0683959589
 30
0.0
 11
199.7677284713
 21
133.0524459962
 31
0.0
  0
LINE
  5
236
330
1F
100
AcDbEntity
  8
0
  6
Continuous
 62
     7
370
    15
100
AcDbLine
 10
199.7677284713
 20
133.0524459962
 30
0.0
 11
199.8265868265
 21
132.9170810467
 31
0.0
  0
LINE
  5
237
330
1F
100
AcDbEntity
  8
0
  6
Continuous
 62
     7
370
    15
100
AcDbLine
 10
199.8265868265
 20
132.9170810467
 30
0.0
 11
198.1035308397
 21
132.9170810467
 31
0.0
  0
ARC
  5
238
330
1F
100
AcDbEntity
  8
0
  6
Continuous
 62
     7
370
    15
100
AcDbCircle
 10
198.1035308397
 20
133.1170810467
 30
0.0
 40
0.2000000000000171
100
AcDbArc
 50
180.0
 51
270.0
  0
LINE
  5
239
330
1F
100
AcDbEntity
  8
0
  6
Continuous
 62
     7
370
    15
100
AcDbLine
 10
197.9035308397
 20
133.1170810467
 30
0.0
 11
197.9035308397
 21
134.8020810467
 31
0.0
  0
LINE
  5
23A
330
1F
100
AcDbEntity
  8
0
  6
Continuous
 62
     7
370
    15
100
AcDbLine
 10
197.9035308397
 20
134.8020810467
 30
0.0
 11
197.8635308397
 21
134.8020810467
 31
0.0
  0
LINE
  5
23B
330
1F
100
AcDbEntity
  8
0
  6
Continuous
 62
     7
370
    15
100
AcDbLine
 10
197.8635308397
 20
134.8020810467
 30
0.0
 11
197.8635308397
 21
134.7620810467
 31
0.0
  0
LINE
  5
23C
330
1F
100
AcDbEntity
  8
0
  6
Continuous
 62
     7
370
    15
100
AcDbLine
 10
127.3593852512
 20
134.7620810467
 30
0.0
 11
197.8635308397
 21
134.7620810467
 31
0.0
  0
LINE
  5
23D
330
1F
100
AcDbEntity
  8
0
  6
Continuous
 62
     7
370
    15
100
AcDbLine
 10
127.3593852512
 20
138.1120810467
 30
0.0
 11
127.3593852512
 21
134.7620810467
 31
0.0
  0
ARC
  5
23E
330
1F
100
AcDbEntity
  8
0
  6
Continuous
 62
     7
370
    15
100
AcDbCircle
 10
200.1843852512
 20
134.7570810467
 30
0.0
 40
0.3100000000000101
100
AcDbArc
 50
279.8650797973
 51
80.1349202027
  0
ARC
  5
23F
330
1F
100
AcDbEntity
  8
0
  6
Continuous
 62
     7
370
    15
100
AcDbCircle
 10
200.2333852512
 20
135.0388522304
 30
0.0
 40
0.0240000000000097
100
AcDbArc
 50
80.1349202026
 51
180.0
  0
LINE
  5
240
330
1F
100
AcDbEntity
  8
0
  6
Continuous
 62
     7
370
    15
100
AcDbLine
 10
200.2093852512
 20
135.0368219983
 30
0.0
 11
200.2093852512
 21
135.0388522304
 31
0.0
  0
ARC
  5
241
330
1F
100
AcDbEntity
  8
0
  6
Continuous
 62
     7
370
    15
100
AcDbCircle
 10
200.2333852512
 20
135.0368219983
 30
0.0
 40
0.0240000000000191
100
AcDbArc
 50
180.0
 51
260.0647455693
  0
ARC
  5
242
330
1F
100
AcDbEntity
  8
0
  6
Continuous
 62
     7
370
    15
100
AcDbCircle
 10
200.1843852512
 20
134.7570810467
 30
0.0
 40
0.2600000000000347
100
AcDbArc
 50
279.9352544307
 51
80.0647455693
  0
ARC
  5
243
330
1F
100
AcDbEntity
  8
0
  6
Continuous
 62
     7
370
    15
100
AcDbCircle
 10
200.2333852512
 20
134.4773400951
 30
0.0
 40
0.0240000000000009
100
AcDbArc
 50
99.9352544307
 51
180.0
  0
LINE
  5
244
330
1F
100
AcDbEntity
  8
0
  6
Continuous
 62
     7
370
    15
100
AcDbLine
 10
200.2093852512
 20
134.4753098629
 30
0.0
 11
200.2093852512
 21
134.4773400951
 31
0.0
  0
ARC
  5
245
330
1F
100
AcDbEntity
  8
0
  6
Continuous
 62
     7
370
    15
100
AcDbCircle
 10
200.2333852512
 20
134.4753098629
 30
0.0
 40
0.0240000000000009
100
AcDbArc
 50
180.0
 51
279.8650797974
  0
LINE
  5
246
330
1F
100
AcDbEntity
  8
0
  6
Continuous
 62
     7
370
    15
100
AcDbLine
 10
200.1593852512
 20
135.0388522304
 30
0.0
 11
200.1593852512
 21
135.0368219983
 31
0.0
  0
ARC
  5
247
330
1F
100
AcDbEntity
  8
0
  6
Continuous
 62
     7
370
    15
100
AcDbCircle
 10
200.1353852512
 20
135.0388522304
 30
0.0
 40
0.0240000000000049
100
AcDbArc
 50
0.0
 51
99.8650797973
  0
ARC
  5
248
330
1F
100
AcDbEntity
  8
0
  6
Continuous
 62
     7
370
    15
100
AcDbCircle
 10
200.1843852512
 20
134.7570810467
 30
0.0
 40
0.3100000000000101
100
AcDbArc
 50
99.8650797973
 51
260.1349202027
  0
ARC
  5
249
330
1F
100
AcDbEntity
  8
0
  6
Continuous
 62
     7
370
    15
100
AcDbCircle
 10
200.1353852512
 20
134.4753098629
 30
0.0
 40
0.0240000000000009
100
AcDbArc
 50
260.1349202027
 51
0.0
  0
LINE
  5
24A
330
1F
100
AcDbEntity
  8
0
  6
Continuous
 62
     7
370
    15
100
AcDbLine
 10
200.1593852512
 20
134.4773400951
 30
0.0
 11
200.1593852512
 21
134.4753098629
 31
0.0
  0
ARC
  5
24B
330
1F
100
AcDbEntity
  8
0
  6
Continuous
 62
     7
370
    15
100
AcDbCircle
 10
200.1353852512
 20
134.4773400951
 30
0.0
 40
0.0240000000000009
100
AcDbArc
 50
0.0
 51
80.0647455693
  0
ARC
  5
24C
330
1F
100
AcDbEntity
  8
0
  6
Continuous
 62
     7
370
    15
100
AcDbCircle
 10
200.1843852512
 20
134.7570810467
 30
0.0
 40
0.2600000000000347
100
AcDbArc
 50
99.9352544307
 51
260.0647455693
  0
ARC
  5
24D
330
1F
100
AcDbEntity
  8
0
  6
Continuous
 62
     7
370
    15
100
AcDbCircle
 10
200.1353852512
 20
135.0368219983
 30
0.0
 40
0.024000000000024
100
AcDbArc
 50
279.9352544307
 51
0.0
  0
SPLINE
  5
24E
330
1F
100
AcDbEntity
  8
0
  6
Continuous
 62
     7
370
    15
100
AcDbSpline
210
0.0
220
0.0
230
1.0
 70
     8
 71
     3
 72
    13
 73
     9
 74
     0
 42
0.00000001
 43
0.00000001
 40
0.0
 40
0.0
 40
0.0
 40
0.0
 40
0.2844502635102811
 40
0.5071393085843203
 40
0.6356232041144141
 40
0.7591168195859735
 40
0.8797986304432592
 40
0.9999999999999999
 40
0.9999999999999999
 40
0.9999999999999999
 40
0.9999999999999999
 10
127.3593852511688
 20
134.7620810466735
 30
0.0
 10
127.3435332151069
 20
134.7464275181662
 30
0.0
 10
127.3152710138036
 20
134.7185192310509
 30
0.0
 10
127.282113249851
 20
134.6859800697339
 30
0.0
 10
127.2598247717205
 20
134.6668210321879
 30
0.0
 10
127.2457677987317
 20
134.6551270663399
 30
0.0
 10
127.2362421303283
 20
134.6471196036268
 30
0.0
 10
127.2350033873314
 20
134.6451399614009
 30
0.0
 10
127.2343852511688
 20
134.6441521144854
 30
0.0
  0
LINE
  5
24F
330
1F
100
AcDbEntity
  8
0
  6
Continuous
 62
     7
370
    15
100
AcDbLine
 10
127.1543852512
 20
134.6441521145
 30
0.0
 11
127.2343852512
 21
134.6441521145
 31
0.0
  0
SPLINE
  5
250
330
1F
100
AcDbEntity
  8
0
  6
Continuous
 62
     7
370
    15
100
AcDbSpline
210
0.0
220
0.0
230
1.0
 70
     8
 71
     3
 72
    13
 73
     9
 74
     0
 42
0.00000001
 43
0.00000001
 40
0.0
 40
0.0
 40
0.0
 40
0.0
 40
0.2631894718884321
 40
0.4767681899423364
 40
0.6068840017774784
 40
0.7367617254383041
 40
0.8674555261978212
 40
0.9999999999999999
 40
0.9999999999999999
 40
0.9999999999999999
 40
0.9999999999999999
 10
127.3593852511688
 20
134.7620810466735
 30
0.0
 10
127.3332283019051
 20
134.7463246302491
 30
0.0
 10
127.2858449424364
 20
134.7177818542606
 30
0.0
 10
127.2314243547623
 20
134.685296715424
 30
0.0
 10
127.1956169951398
 20
134.6665756220171
 30
0.0
 10
127.1727667170353
 20
134.6549825588462
 30
0.0
 10
127.1573665349408
 20
134.6470788985749
 30
0.0
 10
127.155383659236
 20
134.6451322710452
 30
0.0
 10
127.1543852511688
 20
134.6441521144854
 30
0.0
  0
SPLINE
  5
251
330
1F
100
AcDbEntity
  8
0
  6
Continuous
 62
     7
370
    15
100
AcDbSpline
210
0.0
220
0.0
230
1.0
 70
     8
 71
     3
 72
    11
 73
     7
 74
     0
 42
0.00000001
 43
0.00000001
 40
0.0
 40
0.0
 40
0.0
 40
0.0
 40
0.2506688637244197
 40
0.5014856490564956
 40
0.7523028878588988
 40
1.0
 40
1.0
 40
1.0
 40
1.0
 10
127.2414563189807
 20
134.6370810466736
 30
0.0
 10
127.2513102763339
 20
134.638970375191
 30
0.0
 10
127.2710240059355
 20
134.6427501471331
 30
0.0
 10
127.3005974161628
 20
134.6718236980182
 30
0.0
 10
127.3300554416942
 20
134.7131956002454
 30
0.0
 10
127.3496495268254
 20
134.7458540326098
 30
0.0
 10
127.3593852511688
 20
134.7620810466735
 30
0.0
  0
SPLINE
  5
252
330
1F
100
AcDbEntity
  8
0
  6
Continuous
 62
     7
370
    15
100
AcDbSpline
210
0.0
220
0.0
230
1.0
 70
     8
 71
     3
 72
    12
 73
     8
 74
     0
 42
0.00000001
 43
0.00000001
 40
0.0
 40
0.0
 40
0.0
 40
0.0
 40
0.2286702771456207
 40
0.4574139526361017
 40
0.6861579520289273
 40
0.9149017666627888
 40
0.9999999999999999
 40
0.9999999999999999
 40
0.9999999999999999
 40
0.9999999999999999
 10
127.2414563189807
 20
134.5570810466735
 30
0.0
 10
127.2504480891134
 20
134.559654673145
 30
0.0
 10
127.2684345155478
 20
134.5648027521677
 30
0.0
 10
127.2954204323876
 20
134.6047640571669
 30
0.0
 10
127.3223902419418
 20
134.6629007285085
 30
0.0
 10
127.3437710522551
 20
134.7194509830491
 30
0.0
 10
127.3560545753639
 20
134.7529875976751
 30
0.0
 10
127.3593852511688
 20
134.7620810466735
 30
0.0
  0
LINE
  5
253
330
1F
100
AcDbEntity
  8
0
  6
Continuous
 62
     7
370
    15
100
AcDbLine
 10
127.241456319
 20
134.6370810467
 30
0.0
 11
127.241456319
 21
134.5570810467
 31
0.0
  0
SPLINE
  5
254
330
1F
100
AcDbEntity
  8
0
  6
Continuous
 62
     7
370
    15
100
AcDbSpline
210
0.0
220
0.0
230
1.0
 70
     8
 71
     3
 72
    13
 73
     9
 74
     0
 42
0.00000001
 43
0.00000001
 40
0.0
 40
0.0
 40
0.0
 40
0.0
 40
0.1408080974708744
 40
0.2698864652958697
 40
0.3884819666955389
 40
0.4982106601886161
 40
0.705843744407811
 40
1.0
 40
1.0
 40
1.0
 40
1.0
 10
127.2343852511688
 20
138.2300099788617
 30
0.0
 10
127.2352041499593
 20
138.2279780045832
 30
0.0
 10
127.2367737308567
 20
138.2240833254743
 30
0.0
 10
127.2480037114039
 20
138.2152328372174
 30
0.0
 10
127.2624804532442
 20
138.2044578326105
 30
0.0
 10
127.2834815924064
 20
138.1871631132078
 30
0.0
 10
127.3152723946427
 20
138.1559682696298
 30
0.0
 10
127.3430825380511
 20
138.1283003727779
 30
0.0
 10
127.3593852511688
 20
138.1120810466735
 30
0.0
  0
LWPOLYLINE
  5
255
330
1F
100
AcDbEntity
  8
0
  6
Continuous
 62
     7
370
    15
100
AcDbPolyline
 90
        2
 70
   128
 43
0.0
 10
127.3593852512
 20
138.1120810467
 10
127.3593852512
 20
138.1120810467
  0
SPLINE
  5
256
330
1F
100
AcDbEntity
  8
0
  6
Continuous
 62
     7
370
    15
100
AcDbSpline
210
0.0
220
0.0
230
1.0
 70
     8
 71
     3
 72
    13
 73
     9
 74
     0
 42
0.00000001
 43
0.00000001
 40
0.0
 40
0.0
 40
0.0
 40
0.0
 40
0.1539267985818381
 40
0.2930349304036886
 40
0.4178698881970327
 40
0.5292007622219395
 40
0.7284464827277679
 40
1.0
 40
1.0
 40
1.0
 40
1.0
 10
127.1543852511688
 20
138.2300099788617
 30
0.0
 10
127.1557111457807
 20
138.2279862725105
 30
0.0
 10
127.1582352899771
 20
138.2241336837786
 30
0.0
 10
127.1764780563392
 20
138.2153408891563
 30
0.0
 10
127.2000010659552
 20
138.2046698590984
 30
0.0
 10
127.2337431653312
 20
138.1877889751673
 30
0.0
 10
127.2857928752912
 20
138.1567497999395
 30
0.0
 10
127.332465072887
 20
138.1284209295378
 30
0.0
 10
127.3593852511688
 20
138.1120810466735
 30
0.0
  0
LINE
  5
257
330
1F
100
AcDbEntity
  8
0
  6
Continuous
 62
     7
370
    15
100
AcDbLine
 10
127.1543852512
 20
138.2300099789
 30
0.0
 11
127.2343852512
 21
138.2300099789
 31
0.0
  0
SPLINE
  5
258
330
1F
100
AcDbEntity
  8
0
  6
Continuous
 62
     7
370
    15
100
AcDbSpline
210
0.0
220
0.0
230
1.0
 70
     8
 71
     3
 72
    11
 73
     7
 74
     0
 42
0.00000001
 43
0.00000001
 40
0.0
 40
0.0
 40
0.0
 40
0.0
 40
0.2506719719564423
 40
0.5014887651677221
 40
0.7523060046713803
 40
1.0
 40
1.0
 40
1.0
 40
1.0
 10
127.3593852511689
 20
138.1120810466735
 30
0.0
 10
127.3495311701357
 20
138.1285050065892
 30
0.0
 10
127.32981731505
 20
138.1613624150701
 30
0.0
 10
127.3002437838225
 20
138.2027673878872
 30
0.0
 10
127.2707858790118
 20
138.2315230791106
 30
0.0
 10
127.251191919338
 20
138.2352361451157
 30
0.0
 10
127.2414563189807
 20
138.2370810466735
 30
0.0
  0
LINE
  5
259
330
1F
100
AcDbEntity
  8
0
  6
Continuous
 62
     7
370
    15
100
AcDbLine
 10
127.241456319
 20
138.2370810467
 30
0.0
 11
127.241456319
 21
138.3170810467
 31
0.0
  0
SPLINE
  5
25A
330
1F
100
AcDbEntity
  8
0
  6
Continuous
 62
     7
370
    15
100
AcDbSpline
210
0.0
220
0.0
230
1.0
 70
     8
 71
     3
 72
    12
 73
     8
 74
     0
 42
0.00000001
 43
0.00000001
 40
0.0
 40
0.0
 40
0.0
 40
0.0
 40
0.2479455426276163
 40
0.4959712348963343
 40
0.7439972788704475
 40
0.992023122503602
 40
1.0
 40
1.0
 40
1.0
 40
1.0
 10
127.3593852511689
 20
138.1120810466735
 30
0.0
 10
127.3503936016665
 20
138.1366168101394
 30
0.0
 10
127.332407396066
 20
138.1856962683799
 30
0.0
 10
127.3054200003572
 20
138.2501842218423
 30
0.0
 10
127.278455888097
 20
138.2959496729032
 30
0.0
 10
127.2601240897638
 20
138.3137716544393
 30
0.0
 10
127.2508783020327
 20
138.3153729285779
 30
0.0
 10
127.250590209329
 20
138.3154228232336
 30
0.0
  0
LINE
  5
25B
330
1F
100
AcDbEntity
  8
0
  6
Continuous
 62
     7
370
    15
100
AcDbLine
 10
127.1543852512
 20
138.2300099789
 30
0.0
 11
127.1543852512
 21
134.6441521145
 31
0.0
  0
LINE
  5
25C
330
1F
100
AcDbEntity
  8
0
  6
Continuous
 62
     7
370
    15
100
AcDbLine
 10
197.8635308397
 20
134.5570810467
 30
0.0
 11
127.241456319
 21
134.5570810467
 31
0.0
  0
LINE
  5
25D
330
1F
100
AcDbEntity
  8
0
  6
Continuous
 62
     7
370
    15
100
AcDbLine
 10
197.8635308397
 20
134.7620810467
 30
0.0
 11
197.8635308397
 21
134.5570810467
 31
0.0
  0
LINE
  5
25E
330
1F
100
AcDbEntity
  8
0
  6
Continuous
 62
     7
370
    15
100
AcDbLine
 10
199.2623556937
 20
138.3170810467
 30
0.0
 11
199.2623556937
 21
138.1120810467
 31
0.0
  0
LINE
  5
25F
330
1F
100
AcDbEntity
  8
0
  6
Continuous
 62
     7
370
    15
100
AcDbLine
 10
132.4623305967
 20
138.3170810467
 30
0.0
 11
199.2623556937
 21
138.3170810467
 31
0.0
  0
LINE
  5
260
330
1F
100
AcDbEntity
  8
0
  6
Continuous
 62
     7
370
    15
100
AcDbLine
 10
201.1500979449
 20
133.6098997059
 30
0.0
 11
201.2318415041
 21
133.4219023907
 31
0.0
  0
LINE
  5
261
330
1F
100
AcDbEntity
  8
0
  6
Continuous
 62
     7
370
    15
100
AcDbLine
 10
199.9021043962
 20
132.8437162407
 30
0.0
 11
201.2318415041
 21
133.4219023907
 31
0.0
  0
LINE
  5
262
330
1F
100
AcDbEntity
  8
0
  6
Continuous
 62
     7
370
    15
100
AcDbLine
 10
199.9021043962
 20
132.8437162407
 30
0.0
 11
199.8203608371
 21
133.031713556
 31
0.0
  0
LINE
  5
263
330
1F
100
AcDbEntity
  8
0
  6
Continuous
 62
     7
370
    15
100
AcDbLine
 10
199.2623556937
 20
138.3170810467
 30
0.0
 11
199.3056497463
 21
138.3170810467
 31
0.0
  0
LINE
  5
264
330
1F
100
AcDbEntity
  8
0
  6
Continuous
 62
     7
370
    15
100
AcDbLine
 10
199.2623556937
 20
138.2370810467
 30
0.0
 11
199.3056497463
 21
138.2370810467
 31
0.0
  0
ARC
  5
265
330
1F
100
AcDbEntity
  8
0
  6
Continuous
 62
     7
370
    15
100
AcDbCircle
 10
201.4323305967
 20
135.9879744359
 30
0.0
 40
2.210000000000005
100
AcDbArc
 50
293.5
 51
354.1113169107
  0
ARC
  5
266
330
1F
100
AcDbEntity
  8
0
  6
Continuous
 62
     7
370
    15
100
AcDbCircle
 10
201.4323305967
 20
135.9879744359
 30
0.0
 40
2.330000000000013
100
AcDbArc
 50
293.5
 51
90.0
  0
LINE
  5
267
330
1F
100
AcDbEntity
  8
0
  6
Continuous
 62
     7
370
    15
100
AcDbLine
 10
202.3614159273
 20
133.8512244626
 30
0.0
 11
202.313566039
 21
133.9612716715
 31
0.0
  0
LINE
  5
268
330
1F
100
AcDbEntity
  8
0
  6
Continuous
 62
     7
370
    15
100
AcDbLine
 10
201.4198957636
 20
133.4418398441
 30
0.0
 11
201.3720458753
 21
133.551887053
 31
0.0
  0
LINE
  5
269
330
1F
100
AcDbEntity
  8
0
  6
Continuous
 62
     7
370
    15
100
AcDbLine
 10
201.3720458753
 20
133.551887053
 30
0.0
 11
202.313566039
 21
133.9612716715
 31
0.0
  0
LINE
  5
26A
330
1F
100
AcDbEntity
  8
0
  6
Continuous
 62
     7
370
    15
100
AcDbLine
 10
201.4198957636
 20
133.4418398441
 30
0.0
 11
202.3614159273
 21
133.8512244626
 31
0.0
  0
LINE
  5
26B
330
1F
100
AcDbEntity
  8
0
  6
Continuous
 62
     7
370
    15
100
AcDbLine
 10
199.3056497463
 20
138.2170810467
 30
0.0
 11
199.3056497463
 21
138.3179744359
 31
0.0
  0
LINE
  5
26C
330
1F
100
AcDbEntity
  8
0
  6
Continuous
 62
     7
370
    15
100
AcDbLine
 10
201.4323305967
 20
138.3179744359
 30
0.0
 11
199.3056497463
 21
138.3179744359
 31
0.0
  0
LINE
  5
26D
330
1F
100
AcDbEntity
  8
0
  6
Continuous
 62
     7
370
    15
100
AcDbLine
 10
197.7356497463
 20
134.4379744359
 30
0.0
 11
197.7356497463
 21
134.5570810467
 31
0.0
  0
LINE
  5
26E
330
1F
100
AcDbEntity
  8
0
  6
Continuous
 62
     7
370
    15
100
AcDbLine
 10
197.8556497463
 20
134.4379744359
 30
0.0
 11
197.8556497463
 21
134.5570810467
 31
0.0
  0
LINE
  5
26F
330
1F
100
AcDbEntity
  8
0
  6
Continuous
 62
     7
370
    15
100
AcDbLine
 10
132.4723305967
 20
139.4379744359
 30
0.0
 11
132.4623305967
 21
139.4379744359
 31
0.0
  0
LINE
  5
270
330
1F
100
AcDbEntity
  8
0
  6
Continuous
 62
     7
370
    15
100
AcDbLine
 10
133.5164484269
 20
138.3170810467
 30
0.0
 11
133.4973305967
 21
138.3179744359
 31
0.0
  0
LINE
  5
271
330
1F
100
AcDbEntity
  8
0
  6
Continuous
 62
     7
370
    15
100
AcDbLine
 10
132.5973305967
 20
138.3179744359
 30
0.0
 11
133.4973305967
 21
138.3179744359
 31
0.0
  0
LWPOLYLINE
  5
272
330
1F
100
AcDbEntity
  8
0
  6
Continuous
 62
     7
370
    15
100
AcDbPolyline
 90
        3
 70
   128
 43
0.0
 10
132.5523305967
 20
138.326355398
 10
132.5729443064
 20
138.3203762758
 10
132.5973305967
 20
138.3179744359
  0
LINE
  5
273
330
1F
100
AcDbEntity
  8
0
  6
Continuous
 62
     7
370
    15
100
AcDbLine
 10
200.975964078
 20
129.5849085414
 30
0.0
 11
200.9952212176
 21
129.52564116
 31
0.0
  0
LINE
  5
274
330
1F
100
AcDbEntity
  8
0
  6
Continuous
 62
     7
370
    15
100
AcDbLine
 10
127.0473305967
 20
139.7076945583
 30
0.0
 11
127.0523305967
 21
139.7076945583
 31
0.0
  0
LINE
  5
275
330
1F
100
AcDbEntity
  8
0
  6
Continuous
 62
     7
370
    15
100
AcDbLine
 10
127.0473305967
 20
137.2076945583
 30
0.0
 11
127.0523305967
 21
137.2076945583
 31
0.0
  0
LINE
  5
276
330
1F
100
AcDbEntity
  8
0
  6
Continuous
 62
     7
370
    15
100
AcDbLine
 10
127.0473305967
 20
137.2076945583
 30
0.0
 11
127.0473305967
 21
139.7076945583
 31
0.0
  0
ARC
  5
277
330
1F
100
AcDbEntity
  8
0
  6
Continuous
 62
     7
370
    15
100
AcDbCircle
 10
198.3706497463
 20
117.6478351357
 30
0.0
 40
0.4749999999999974
100
AcDbArc
 50
0.0
 51
140.2123117229
  0
LWPOLYLINE
  5
278
330
1F
100
AcDbEntity
  8
0
  6
Continuous
 62
     7
370
    15
100
AcDbPolyline
 90
        3
 70
   128
 43
0.0
 10
198.7265129119
 20
72.294345328
 10
198.607745138
 20
72.2430833542
 10
198.4807200131
 20
72.2257642104
  0
LWPOLYLINE
  5
279
330
1F
100
AcDbEntity
  8
0
  6
Continuous
 62
     7
370
    15
100
AcDbPolyline
 90
        3
 70
   128
 43
0.0
 10
198.8456497464
 20
72.3967905224
 10
198.8270461396
 20
72.3757495307
 10
198.7265129119
 20
72.294345328
  0
LINE
  5
27A
330
1F
100
AcDbEntity
  8
0
  6
Continuous
 62
     7
370
    15
100
AcDbLine
 10
204.1034345809
 20
119.9273885362
 30
0.0
 11
204.1718386096
 21
119.7394500121
 31
0.0
  0
LINE
  5
27B
330
1F
100
AcDbEntity
  8
0
  6
Continuous
 62
     7
370
    15
100
AcDbLine
 10
204.1718386096
 20
119.7394500121
 30
0.0
 11
203.8256497463
 21
119.6134475704
 31
0.0
  0
LINE
  5
27C
330
1F
100
AcDbEntity
  8
0
  6
Continuous
 62
     7
370
    15
100
AcDbLine
 10
203.6335882705
 20
119.7563784646
 30
0.0
 11
204.1034345809
 21
119.9273885362
 31
0.0
  0
ARC
  5
27D
330
1F
100
AcDbEntity
  8
0
  6
Continuous
 62
     7
370
    15
100
AcDbCircle
 10
201.0956497463
 20
119.3879744359
 30
0.0
 40
0.6500000000000057
100
AcDbArc
 50
30.7021490987
 51
149.2978509013
  0
LINE
  5
27E
330
1F
100
AcDbEntity
  8
0
  6
Continuous
 62
     7
370
    15
100
AcDbLine
 10
198.2456497463
 20
119.4879744359
 30
0.0
 11
198.535613334
 21
119.4879744359
 31
0.0
  0
LINE
  5
27F
330
1F
100
AcDbEntity
  8
0
  6
Continuous
 62
     7
370
    15
100
AcDbLine
 10
198.0056497463
 20
118.3879744359
 30
0.0
 11
198.0956497463
 21
118.3879744359
 31
0.0
  0
LINE
  5
280
330
1F
100
AcDbEntity
  8
0
  6
Continuous
 62
     7
370
    15
100
AcDbLine
 10
198.0956497463
 20
118.3879744359
 30
0.0
 11
198.0956497463
 21
119.3379744359
 31
0.0
  0
ARC
  5
281
330
1F
100
AcDbEntity
  8
0
  6
Continuous
 62
     7
370
    15
100
AcDbCircle
 10
201.0956497463
 20
119.3879744359
 30
0.0
 40
0.8500000000000179
100
AcDbArc
 50
26.7436839504
 51
153.2563160496
  0
ARC
  5
282
330
1F
100
AcDbEntity
  8
0
  6
Continuous
 62
     7
370
    15
100
AcDbCircle
 10
201.9886783013
 20
119.8379744359
 30
0.0
 40
0.1499999999999974
100
AcDbArc
 50
206.7436839504
 51
231.9531989301
  0
ARC
  5
283
330
1F
100
AcDbEntity
  8
0
  6
Continuous
 62
     7
370
    15
100
AcDbCircle
 10
198.2456497463
 20
119.3379744359
 30
0.0
 40
0.1500000000000199
100
AcDbArc
 50
90.0
 51
180.0
  0
LINE
  5
284
330
1F
100
AcDbEntity
  8
0
  6
Continuous
 62
     7
370
    15
100
AcDbLine
 10
203.6335882705
 20
119.7563784646
 30
0.0
 11
203.5332224577
 21
119.7198482961
 31
0.0
  0
ARC
  5
285
330
1F
100
AcDbEntity
  8
0
  6
Continuous
 62
     7
370
    15
100
AcDbCircle
 10
198.2456497463
 20
119.3379744359
 30
0.0
 40
0.3500000000000071
100
AcDbArc
 50
91.3932487247
 51
133.2918076005
  0
ARC
  5
286
330
1F
100
AcDbEntity
  8
0
  6
Continuous
 62
     7
370
    15
100
AcDbCircle
 10
200.2026211914
 20
119.8379744359
 30
0.0
 40
0.1500000000000061
100
AcDbArc
 50
308.0468010699
 51
333.2563160496
  0
LINE
  5
287
330
1F
100
AcDbEntity
  8
0
  6
Continuous
 62
     7
370
    15
100
AcDbLine
 10
126.2956497463
 20
68.411386453
 30
0.0
 11
126.8356497463
 21
68.411386453
 31
0.0
  0
LINE
  5
288
330
1F
100
AcDbEntity
  8
0
  6
Continuous
 62
     7
370
    15
100
AcDbLine
 10
126.2956497463
 20
69.6039894013
 30
0.0
 11
126.8356497463
 21
69.6039894013
 31
0.0
  0
LINE
  5
289
330
1F
100
AcDbEntity
  8
0
  6
Continuous
 62
     7
370
    15
100
AcDbLine
 10
126.8356497463
 20
68.411386453
 30
0.0
 11
126.8356497463
 21
69.6039894013
 31
0.0
  0
LINE
  5
28A
330
1F
100
AcDbEntity
  8
0
  6
Continuous
 62
     7
370
    15
100
AcDbLine
 10
126.2956497463
 20
68.411386453
 30
0.0
 11
126.2956497463
 21
69.6039894013
 31
0.0
  0
LINE
  5
28B
330
1F
100
AcDbEntity
  8
0
  6
Continuous
 62
     7
370
    15
100
AcDbLine
 10
125.4006497463
 20
69.2954744359
 30
0.0
 11
125.4006497463
 21
71.4204744359
 31
0.0
  0
LINE
  5
28C
330
1F
100
AcDbEntity
  8
0
  6
Continuous
 62
     7
370
    15
100
AcDbLine
 10
126.2956497463
 20
71.5505773842
 30
0.0
 11
126.8356497463
 21
71.5505773842
 31
0.0
  0
LINE
  5
28D
330
1F
100
AcDbEntity
  8
0
  6
Continuous
 62
     7
370
    15
100
AcDbLine
 10
126.8356497463
 20
69.6039894013
 30
0.0
 11
126.8356497463
 21
71.5505773842
 31
0.0
  0
LINE
  5
28E
330
1F
100
AcDbEntity
  8
0
  6
Continuous
 62
     7
370
    15
100
AcDbLine
 10
126.2956497463
 20
69.6039894013
 30
0.0
 11
126.2956497463
 21
71.5505773842
 31
0.0
  0
LINE
  5
28F
330
1F
100
AcDbEntity
  8
0
  6
Continuous
 62
     7
370
    15
100
AcDbLine
 10
126.2956497463
 20
72.3045624188
 30
0.0
 11
126.8356497463
 21
72.3045624188
 31
0.0
  0
LINE
  5
290
330
1F
100
AcDbEntity
  8
0
  6
Continuous
 62
     7
370
    15
100
AcDbLine
 10
126.8356497463
 20
71.5505773842
 30
0.0
 11
126.8356497463
 21
72.3045624188
 31
0.0
  0
LINE
  5
291
330
1F
100
AcDbEntity
  8
0
  6
Continuous
 62
     7
370
    15
100
AcDbLine
 10
126.2956497463
 20
71.5505773842
 30
0.0
 11
126.2956497463
 21
72.3045624188
 31
0.0
  0
LINE
  5
292
330
1F
100
AcDbEntity
  8
0
  6
Continuous
 62
     7
370
    15
100
AcDbLine
 10
127.2006497463
 20
66.2079744078
 30
0.0
 11
127.2006497463
 21
68.6704744359
 31
0.0
  0
LINE
  5
293
330
1F
100
AcDbEntity
  8
0
  6
Continuous
 62
     7
370
    15
100
AcDbLine
 10
127.2006497463
 20
72.0454744359
 30
0.0
 11
127.2006497463
 21
134.3579744078
 31
0.0
  0
LINE
  5
294
330
1F
100
AcDbEntity
  8
0
  6
Continuous
 62
     7
370
    15
100
AcDbLine
 10
127.2006497463
 20
134.3579744078
 30
0.0
 11
127.2456497463
 21
134.3579744078
 31
0.0
  0
LINE
  5
295
330
1F
100
AcDbEntity
  8
0
  6
Continuous
 62
     7
370
    15
100
AcDbLine
 10
127.2006497463
 20
66.2079744078
 30
0.0
 11
127.2456497463
 21
66.2079744078
 31
0.0
  0
LINE
  5
296
330
1F
100
AcDbEntity
  8
0
  6
Continuous
 62
     7
370
    15
100
AcDbLine
 10
197.8806497463
 20
66.2801083526
 30
0.0
 11
197.8806497463
 21
66.2252495939
 31
0.0
  0
LINE
  5
297
330
1F
100
AcDbEntity
  8
0
  6
Continuous
 62
     7
370
    15
100
AcDbLine
 10
197.8956497463
 20
66.2150454756
 30
0.0
 11
197.8806497463
 21
66.2150454756
 31
0.0
  0
LINE
  5
298
330
1F
100
AcDbEntity
  8
0
  6
Continuous
 62
     7
370
    15
100
AcDbLine
 10
197.8759626876
 20
66.2295682397
 30
0.0
 11
197.8806497463
 21
66.2150454747
 31
0.0
  0
LINE
  5
299
330
1F
100
AcDbEntity
  8
0
  6
Continuous
 62
     7
370
    15
100
AcDbLine
 10
127.4856497463
 20
66.2079744069
 30
0.0
 11
127.5256497463
 21
66.2079744069
 31
0.0
  0
LINE
  5
29A
330
1F
100
AcDbEntity
  8
0
  6
Continuous
 62
     7
370
    15
100
AcDbLine
 10
127.4956497463
 20
134.3579744069
 30
0.0
 11
127.4856497463
 21
134.3579744069
 31
0.0
  0
LINE
  5
29B
330
1F
100
AcDbEntity
  8
0
  6
Continuous
 62
     7
370
    15
100
AcDbLine
 10
127.4506497463
 20
134.3579744359
 30
0.0
 11
127.4506497463
 21
66.2079744359
 31
0.0
  0
LINE
  5
29C
330
1F
100
AcDbEntity
  8
0
  6
Continuous
 62
     7
370
    15
100
AcDbLine
 10
127.4856497463
 20
134.3579744359
 30
0.0
 11
127.4506497463
 21
134.3579744359
 31
0.0
  0
LINE
  5
29D
330
1F
100
AcDbEntity
  8
0
  6
Continuous
 62
     7
370
    15
100
AcDbLine
 10
127.4856497463
 20
134.1929744359
 30
0.0
 11
127.4856497463
 21
134.3579744359
 31
0.0
  0
LINE
  5
29E
330
1F
100
AcDbEntity
  8
0
  6
Continuous
 62
     7
370
    15
100
AcDbLine
 10
127.5256497463
 20
134.1929744359
 30
0.0
 11
127.4856497463
 21
134.1929744359
 31
0.0
  0
LINE
  5
29F
330
1F
100
AcDbEntity
  8
0
  6
Continuous
 62
     7
370
    15
100
AcDbLine
 10
127.5256497463
 20
134.2329744359
 30
0.0
 11
127.5256497463
 21
134.1929744359
 31
0.0
  0
LINE
  5
2A0
330
1F
100
AcDbEntity
  8
0
  6
Continuous
 62
     7
370
    15
100
AcDbLine
 10
197.8006497463
 20
134.2329744359
 30
0.0
 11
127.5256497463
 21
134.2329744359
 31
0.0
  0
LINE
  5
2A1
330
1F
100
AcDbEntity
  8
0
  6
Continuous
 62
     7
370
    15
100
AcDbLine
 10
197.8006497463
 20
66.3329744359
 30
0.0
 11
197.8006497463
 21
134.2329744359
 31
0.0
  0
LINE
  5
2A2
330
1F
100
AcDbEntity
  8
0
  6
Continuous
 62
     7
370
    15
100
AcDbLine
 10
127.5256497463
 20
66.3329744359
 30
0.0
 11
197.8006497463
 21
66.3329744359
 31
0.0
  0
LINE
  5
2A3
330
1F
100
AcDbEntity
  8
0
  6
Continuous
 62
     7
370
    15
100
AcDbLine
 10
127.5256497463
 20
66.3729744359
 30
0.0
 11
127.5256497463
 21
66.3329744359
 31
0.0
  0
LINE
  5
2A4
330
1F
100
AcDbEntity
  8
0
  6
Continuous
 62
     7
370
    15
100
AcDbLine
 10
127.4856497463
 20
66.3729744359
 30
0.0
 11
127.5256497463
 21
66.3729744359
 31
0.0
  0
LINE
  5
2A5
330
1F
100
AcDbEntity
  8
0
  6
Continuous
 62
     7
370
    15
100
AcDbLine
 10
127.4856497463
 20
66.2079744359
 30
0.0
 11
127.4856497463
 21
66.3729744359
 31
0.0
  0
LINE
  5
2A6
330
1F
100
AcDbEntity
  8
0
  6
Continuous
 62
     7
370
    15
100
AcDbLine
 10
127.4506497463
 20
66.2079744359
 30
0.0
 11
127.4856497463
 21
66.2079744359
 31
0.0
  0
LINE
  5
2A7
330
1F
100
AcDbEntity
  8
0
  6
Continuous
 62
     7
370
    15
100
AcDbLine
 10
127.5256497463
 20
134.4379744359
 30
0.0
 11
127.5256497463
 21
134.2329744359
 31
0.0
  0
LINE
  5
2A8
330
1F
100
AcDbEntity
  8
0
  6
Continuous
 62
     7
370
    15
100
AcDbLine
 10
197.9035308397
 20
134.4379744359
 30
0.0
 11
127.5256497463
 21
134.4379744359
 31
0.0
  0
SPLINE
  5
2A9
330
1F
100
AcDbEntity
  8
0
  6
Continuous
 62
     7
370
    15
100
AcDbSpline
210
0.0
220
0.0
230
1.0
 70
     8
 71
     3
 72
    11
 73
     7
 74
     0
 42
0.00000001
 43
0.00000001
 40
0.0
 40
0.0
 40
0.0
 40
0.0
 40
0.2499999999999898
 40
0.4999999999999999
 40
0.7500000000000101
 40
0.9999999999999999
 40
0.9999999999999999
 40
0.9999999999999999
 40
0.9999999999999999
 10
197.8006497463047
 20
134.2329744358966
 30
0.0
 10
197.8104771573203
 20
134.2598370298769
 30
0.0
 10
197.8301319793517
 20
134.3135622178374
 30
0.0
 10
197.8596142123988
 20
134.3813239299423
 30
0.0
 10
197.8890964454458
 20
134.4287300186324
 30
0.0
 10
197.9087512674771
 20
134.4348929634752
 30
0.0
 10
197.9185786784928
 20
134.4379744358966
 30
0.0
  0
SPLINE
  5
2AA
330
1F
100
AcDbEntity
  8
0
  6
Continuous
 62
     7
370
    15
100
AcDbSpline
210
0.0
220
0.0
230
1.0
 70
     8
 71
     3
 72
    12
 73
     8
 74
     0
 42
0.00000001
 43
0.00000001
 40
0.0
 40
0.0
 40
0.0
 40
0.0
 40
0.2286697549031932
 40
0.4574134284523948
 40
0.6861574263647217
 40
0.9149012395109751
 40
1.0
 40
1.0
 40
1.0
 40
1.0
 10
197.9185786784928
 20
66.12797443589659
 30
0.0
 10
197.909586929086
 20
66.13054805072078
 30
0.0
 10
197.8916005236441
 20
66.13569611230307
 30
0.0
 10
197.8646146271175
 20
66.17565733196624
 30
0.0
 10
197.8376448175776
 20
66.23379396536609
 30
0.0
 10
197.8162639866246
 20
66.2903442592148
 30
0.0
 10
197.8039804427845
 20
66.32388093044919
 30
0.0
 10
197.8006497463047
 20
66.33297443589659
 30
0.0
  0
LINE
  5
2AB
330
1F
100
AcDbEntity
  8
0
  6
Continuous
 62
     7
370
    15
100
AcDbLine
 10
127.5256497463
 20
66.1279744359
 30
0.0
 11
197.9185786785
 21
66.1279744359
 31
0.0
  0
LINE
  5
2AC
330
1F
100
AcDbEntity
  8
0
  6
Continuous
 62
     7
370
    15
100
AcDbLine
 10
127.5256497463
 20
66.3329744359
 30
0.0
 11
127.5256497463
 21
66.1279744359
 31
0.0
  0
SPLINE
  5
2AD
330
1F
100
AcDbEntity
  8
0
  6
Continuous
 62
     7
370
    15
100
AcDbSpline
210
0.0
220
0.0
230
1.0
 70
     8
 71
     3
 72
    10
 73
     6
 74
     0
 42
0.00000001
 43
0.00000001
 40
0.0
 40
0.0
 40
0.0
 40
0.0
 40
0.0701100520269151
 40
0.7478593135181176
 40
1.0
 40
1.0
 40
1.0
 40
1.0
 10
197.9035308397291
 20
134.2727490607556
 30
0.0
 10
197.9015752548695
 20
134.2718186512087
 30
0.0
 10
197.8807151598
 20
134.2618940337698
 30
0.0
 10
197.8429792536625
 20
134.248587898829
 30
0.0
 10
197.809679115538
 20
134.2363049665507
 30
0.0
 10
197.8006497463047
 20
134.2329744358966
 30
0.0
  0
LINE
  5
2AE
330
1F
100
AcDbEntity
  8
0
  6
Continuous
 62
     7
370
    15
100
AcDbLine
 10
198.0056497463
 20
66.2150455037
 30
0.0
 11
198.0056497463
 21
120.548313594
 31
0.0
  0
LINE
  5
2AF
330
1F
100
AcDbEntity
  8
0
  6
Continuous
 62
     7
370
    15
100
AcDbLine
 10
198.0056497463
 20
120.628313594
 30
0.0
 11
198.0056497463
 21
120.6447971285
 31
0.0
  0
LINE
  5
2B0
330
1F
100
AcDbEntity
  8
0
  6
Continuous
 62
     7
370
    15
100
AcDbLine
 10
198.0056497463
 20
132.6805975121
 30
0.0
 11
198.0056497463
 21
132.6970810467
 31
0.0
  0
LINE
  5
2B1
330
1F
100
AcDbEntity
  8
0
  6
Continuous
 62
     7
370
    15
100
AcDbLine
 10
198.0056497463
 20
132.7770810467
 30
0.0
 11
198.0056497463
 21
132.9426697754
 31
0.0
  0
SPLINE
  5
2B2
330
1F
100
AcDbEntity
  8
0
  6
Continuous
 62
     7
370
    15
100
AcDbSpline
210
0.0
220
0.0
230
1.0
 70
     8
 71
     3
 72
    11
 73
     7
 74
     0
 42
0.00000001
 43
0.00000001
 40
0.0
 40
0.0
 40
0.0
 40
0.0
 40
0.2500000000000118
 40
0.4999999999999971
 40
0.7499999999999852
 40
1.0
 40
1.0
 40
1.0
 40
1.0
 10
197.8006497463047
 20
66.3329744358966
 30
0.0
 10
197.827512340285
 20
66.32314702488091
 30
0.0
 10
197.8812375282455
 20
66.30349220284957
 30
0.0
 10
197.9489992403504
 20
66.2740099698025
 30
0.0
 10
197.9964053290404
 20
66.2445277367555
 30
0.0
 10
198.0025682738833
 20
66.22487291472413
 30
0.0
 10
198.0056497463047
 20
66.21504550370847
 30
0.0
  0
SPLINE
  5
2B3
330
1F
100
AcDbEntity
  8
0
  6
Continuous
 62
     7
370
    15
100
AcDbSpline
210
0.0
220
0.0
230
1.0
 70
     8
 71
     3
 72
    10
 73
     6
 74
     0
 42
0.00000001
 43
0.00000001
 40
0.0
 40
0.0
 40
0.0
 40
0.0
 40
0.2134655132375462
 40
0.6091966321371222
 40
1.0
 40
1.0
 40
1.0
 40
1.0
 10
197.9035308397291
 20
134.3077174791975
 30
0.0
 10
197.8990313165748
 20
134.3023989089116
 30
0.0
 10
197.8861903929508
 20
134.2872205550088
 30
0.0
 10
197.849027953199
 20
134.2623039782687
 30
0.0
 10
197.8167083195606
 20
134.2427100303922
 30
0.0
 10
197.8006497463047
 20
134.2329744358966
 30
0.0
  0
SPLINE
  5
2B4
330
1F
100
AcDbEntity
  8
0
  6
Continuous
 62
     7
370
    15
100
AcDbSpline
210
0.0
220
0.0
230
1.0
 70
     8
 71
     3
 72
    11
 73
     7
 74
     0
 42
0.00000001
 43
0.00000001
 40
0.0
 40
0.0
 40
0.0
 40
0.0
 40
0.2500000000000122
 40
0.5000000000000041
 40
0.7499999999999961
 40
1.0
 40
1.0
 40
1.0
 40
1.0
 10
197.8006497463047
 20
134.2329744358966
 30
0.0
 10
197.8104771573203
 20
134.2493540663724
 30
0.0
 10
197.8301319793517
 20
134.2821133273239
 30
0.0
 10
197.8596142123987
 20
134.323431444461
 30
0.0
 10
197.8890964454458
 20
134.3523375961014
 30
0.0
 10
197.9087512674771
 20
134.3560954892982
 30
0.0
 10
197.9185786784928
 20
134.3579744358966
 30
0.0
  0
LINE
  5
2B5
330
1F
100
AcDbEntity
  8
0
  6
Continuous
 62
     7
370
    15
100
AcDbLine
 10
197.9256497463
 20
66.2150455037
 30
0.0
 11
198.0056497463
 21
66.2150455037
 31
0.0
  0
SPLINE
  5
2B6
330
1F
100
AcDbEntity
  8
0
  6
Continuous
 62
     7
370
    15
100
AcDbSpline
210
0.0
220
0.0
230
1.0
 70
     8
 71
     3
 72
    11
 73
     7
 74
     0
 42
0.00000001
 43
0.00000001
 40
0.0
 40
0.0
 40
0.0
 40
0.0
 40
0.250000000000009
 40
0.5000000000000175
 40
0.7499999999999871
 40
1.0
 40
1.0
 40
1.0
 40
1.0
 10
197.8006497463047
 20
66.3329744358966
 30
0.0
 10
197.8170293767805
 20
66.32314702488091
 30
0.0
 10
197.849788637732
 20
66.30349220284957
 30
0.0
 10
197.8911067548692
 20
66.2740099698025
 30
0.0
 10
197.9200129065094
 20
66.2445277367555
 30
0.0
 10
197.9237707997062
 20
66.22487291472414
 30
0.0
 10
197.9256497463047
 20
66.21504550370847
 30
0.0
  0
SPLINE
  5
2B7
330
1F
100
AcDbEntity
  8
0
  6
Continuous
 62
     7
370
    15
100
AcDbSpline
210
0.0
220
0.0
230
1.0
 70
     8
 71
     3
 72
    11
 73
     7
 74
     0
 42
0.00000001
 43
0.00000001
 40
0.0
 40
0.0
 40
0.0
 40
0.0
 40
0.2506719719564562
 40
0.5014887651676849
 40
0.7523060046712894
 40
1.0
 40
1.0
 40
1.0
 40
1.0
 10
197.9185786784928
 20
66.20797443589659
 30
0.0
 10
197.9087245974596
 20
66.20986381112353
 30
0.0
 10
197.8890107423739
 20
66.21364365313018
 30
0.0
 10
197.8594372111465
 20
66.24271753727312
 30
0.0
 10
197.8299793063358
 20
66.28408940423972
 30
0.0
 10
197.8103853466619
 20
66.31674762815867
 30
0.0
 10
197.8006497463047
 20
66.33297443589659
 30
0.0
  0
LINE
  5
2B8
330
1F
100
AcDbEntity
  8
0
  6
Continuous
 62
     7
370
    15
100
AcDbLine
 10
197.9185786785
 20
66.1279744359
 30
0.0
 11
197.9185786785
 21
66.2079744359
 31
0.0
  0
LINE
  5
2B9
330
1F
100
AcDbEntity
  8
0
  6
Continuous
 62
     7
370
    15
100
AcDbLine
 10
127.4506497463
 20
66.2079744359
 30
0.0
 11
127.2456497463
 21
66.2079744359
 31
0.0
  0
LINE
  5
2BA
330
1F
100
AcDbEntity
  8
0
  6
Continuous
 62
     7
370
    15
100
AcDbLine
 10
127.2456497463
 20
134.3579744359
 30
0.0
 11
127.2456497463
 21
66.2079744359
 31
0.0
  0
LINE
  5
2BB
330
1F
100
AcDbEntity
  8
0
  6
Continuous
 62
     7
370
    15
100
AcDbLine
 10
127.2456497463
 20
134.3579744359
 30
0.0
 11
127.4506497463
 21
134.3579744359
 31
0.0
  0
LINE
  5
2BC
330
1F
100
AcDbEntity
  8
0
  6
Continuous
 62
     7
370
    15
100
AcDbLine
 10
127.4956497463
 20
66.3579744359
 30
0.0
 11
127.5256497463
 21
66.3579744359
 31
0.0
  0
LINE
  5
2BD
330
1F
100
AcDbEntity
  8
0
  6
Continuous
 62
     7
370
    15
100
AcDbLine
 10
127.4956497463
 20
134.5570810467
 30
0.0
 11
127.4956497463
 21
134.1929744359
 31
0.0
  0
LINE
  5
2BE
330
1F
100
AcDbEntity
  8
0
  6
Continuous
 62
     7
370
    15
100
AcDbLine
 10
127.4956497463
 20
66.3729744359
 30
0.0
 11
127.4956497463
 21
66.3579744359
 31
0.0
  0
LINE
  5
2BF
330
1F
100
AcDbEntity
  8
0
  6
Continuous
 62
     7
370
    15
100
AcDbLine
 10
127.5756497463
 20
134.5570810467
 30
0.0
 11
127.5756497463
 21
134.4379744359
 31
0.0
  0
LINE
  5
2C0
330
1F
100
AcDbEntity
  8
0
  6
Continuous
 62
     7
370
    15
100
AcDbLine
 10
204.1106497463
 20
75.5442028851
 30
0.0
 11
204.1106497463
 21
70.0517459867
 31
0.0
  0
SPLINE
  5
2C1
330
1F
100
AcDbEntity
  8
0
  6
Continuous
 62
     7
370
    15
100
AcDbSpline
210
0.0
220
0.0
230
1.0
 70
     8
 71
     3
 72
    11
 73
     7
 74
     0
 42
0.00000001
 43
0.00000001
 40
0.0
 40
0.0
 40
0.0
 40
0.0
 40
0.0049882319872362
 40
0.3450060065194449
 40
0.6720450176487125
 40
0.9999999999999999
 40
0.9999999999999999
 40
0.9999999999999999
 40
0.9999999999999999
 10
204.025649746368
 20
75.75323069373813
 30
0.0
 10
204.0259506197561
 20
75.75298675029197
 30
0.0
 10
204.0467602225084
 20
75.73611464923648
 30
0.0
 10
204.0746203902726
 20
75.69053038597107
 30
0.0
 10
204.105362345608
 20
75.61997733279071
 30
0.0
 10
204.1088856370541
 20
75.5694845713856
 30
0.0
 10
204.1106497463368
 20
75.5442028850796
 30
0.0
  0
SPLINE
  5
2C2
330
1F
100
AcDbEntity
  8
0
  6
Continuous
 62
     7
370
    15
100
AcDbSpline
210
0.0
220
0.0
230
1.0
 70
     8
 71
     3
 72
    11
 73
     7
 74
     0
 42
0.00000001
 43
0.00000001
 40
0.0
 40
0.0
 40
0.0
 40
0.0
 40
0.3279552279517456
 40
0.6549944839955041
 40
0.9950043754241654
 40
1.0
 40
1.0
 40
1.0
 40
1.0
 10
204.1106497463368
 20
70.05174598669758
 30
0.0
 10
204.1088856379758
 20
70.02646430168991
 30
0.0
 10
204.1053623483706
 20
69.97597154287779
 30
0.0
 10
204.0746206305002
 20
69.90541904705543
 30
0.0
 10
204.0467606170934
 20
69.85983486110142
 30
0.0
 10
204.0259510653421
 20
69.84296277553345
 30
0.0
 10
204.025649746368
 20
69.8427184704386
 30
0.0
  0
LINE
  5
2C3
330
1F
100
AcDbEntity
  8
0
  6
Continuous
 62
     7
370
    15
100
AcDbLine
 10
200.0256497464
 20
119.2579744359
 30
0.0
 11
200.0256497464
 21
119.1579744359
 31
0.0
  0
LINE
  5
2C4
330
1F
100
AcDbEntity
  8
0
  6
Continuous
 62
     7
370
    15
100
AcDbLine
 10
200.3256497464
 20
119.2579744359
 30
0.0
 11
200.0256497464
 21
119.2579744359
 31
0.0
  0
LINE
  5
2C5
330
1F
100
AcDbEntity
  8
0
  6
Continuous
 62
     7
370
    15
100
AcDbLine
 10
200.3256497464
 20
119.2579744359
 30
0.0
 11
200.3256497464
 21
119.1579744359
 31
0.0
  0
LINE
  5
2C6
330
1F
100
AcDbEntity
  8
0
  6
Continuous
 62
     7
370
    15
100
AcDbLine
 10
200.3256497464
 20
119.2579744359
 30
0.0
 11
200.3256497464
 21
119.4579744359
 31
0.0
  0
LINE
  5
2C7
330
1F
100
AcDbEntity
  8
0
  6
Continuous
 62
     7
370
    15
100
AcDbLine
 10
200.3256497464
 20
119.4579744359
 30
0.0
 11
202.5256497464
 21
119.4579744359
 31
0.0
  0
ARC
  5
2C8
330
1F
100
AcDbEntity
  8
0
  6
Continuous
 62
     7
370
    15
100
AcDbCircle
 10
200.2256497464
 20
119.2579744359
 30
0.0
 40
0.2000000000000028
100
AcDbArc
 50
90.0
 51
180.0
  0
LINE
  5
2C9
330
1F
100
AcDbEntity
  8
0
  6
Continuous
 62
     7
370
    15
100
AcDbLine
 10
200.2256497464
 20
119.4579744359
 30
0.0
 11
200.3256497464
 21
119.4579744359
 31
0.0
  0
ARC
  5
2CA
330
1F
100
AcDbEntity
  8
0
  6
Continuous
 62
     7
370
    15
100
AcDbCircle
 10
201.4256497464
 20
119.2079744359
 30
0.0
 40
0.6614378277661467
100
AcDbArc
 50
79.7091704503
 51
129.2963520005
  0
LINE
  5
2CB
330
1F
100
AcDbEntity
  8
0
  6
Continuous
 62
     7
370
    15
100
AcDbLine
 10
201.5843562835
 20
119.4504298365
 30
0.0
 11
201.5827620986
 21
119.4698482961
 31
0.0
  0
LINE
  5
2CC
330
1F
100
AcDbEntity
  8
0
  6
Continuous
 62
     7
370
    15
100
AcDbLine
 10
201.268365213
 20
119.4698482961
 30
0.0
 11
201.2680463226
 21
119.4579744359
 31
0.0
  0
LINE
  5
2CD
330
1F
100
AcDbEntity
  8
0
  6
Continuous
 62
     7
370
    15
100
AcDbLine
 10
201.5256497464
 20
119.4579744359
 30
0.0
 11
201.5249423012
 21
119.4698482961
 31
0.0
  0
LINE
  5
2CE
330
1F
100
AcDbEntity
  8
0
  6
Continuous
 62
     7
370
    15
100
AcDbLine
 10
201.3263571915
 20
119.4698482961
 30
0.0
 11
201.3256497464
 21
119.4579744359
 31
0.0
  0
ARC
  5
2CF
330
1F
100
AcDbEntity
  8
0
  6
Continuous
 62
     7
370
    15
100
AcDbCircle
 10
201.4256497464
 20
119.4579744359
 30
0.0
 40
0.4999999999999983
100
AcDbArc
 50
91.9552470213
 51
148.4160213963
  0
ARC
  5
2D0
330
1F
100
AcDbEntity
  8
0
  6
Continuous
 62
     7
370
    15
100
AcDbCircle
 10
201.4256497464
 20
119.4579744359
 30
0.0
 40
0.6500000000000049
100
AcDbArc
 50
23.7585242406
 51
76.8517002926
  0
ARC
  5
2D1
330
1F
100
AcDbEntity
  8
0
  6
Continuous
 62
     7
370
    15
100
AcDbCircle
 10
201.4256497464
 20
119.4579744359
 30
0.0
 40
0.6500000000000316
100
AcDbArc
 50
117.0161868996
 51
156.2414757594
  0
LINE
  5
2D2
330
1F
100
AcDbEntity
  8
0
  6
Continuous
 62
     7
370
    15
100
AcDbLine
 10
202.1756497464
 20
66.5579744359
 30
0.0
 11
203.8756497464
 21
66.5579744359
 31
0.0
  0
LINE
  5
2D3
330
1F
100
AcDbEntity
  8
0
  6
Continuous
 62
     7
370
    15
100
AcDbLine
 10
203.0256497463
 20
66.5079744359
 30
0.0
 11
203.8256497464
 21
66.5079744359
 31
0.0
  0
LINE
  5
2D4
330
1F
100
AcDbEntity
  8
0
  6
Continuous
 62
     7
370
    15
100
AcDbLine
 10
202.1756497464
 20
66.7079744359
 30
0.0
 11
203.8756497464
 21
66.7079744359
 31
0.0
  0
LINE
  5
2D5
330
1F
100
AcDbEntity
  8
0
  6
Continuous
 62
     7
370
    15
100
AcDbLine
 10
203.8206497464
 20
66.7579744359
 30
0.0
 11
203.8256497464
 21
66.7579744359
 31
0.0
  0
LINE
  5
2D6
330
1F
100
AcDbEntity
  8
0
  6
Continuous
 62
     7
370
    15
100
AcDbLine
 10
203.0056497464
 20
66.7579744359
 30
0.0
 11
203.0056497464
 21
66.7379744359
 31
0.0
  0
LINE
  5
2D7
330
1F
100
AcDbEntity
  8
0
  6
Continuous
 62
     7
370
    15
100
AcDbLine
 10
203.0456497464
 20
66.7379744359
 30
0.0
 11
203.0056497464
 21
66.7379744359
 31
0.0
  0
LINE
  5
2D8
330
1F
100
AcDbEntity
  8
0
  6
Continuous
 62
     7
370
    15
100
AcDbLine
 10
203.0456497464
 20
66.7379744359
 30
0.0
 11
203.0456497464
 21
66.7579744359
 31
0.0
  0
LINE
  5
2D9
330
1F
100
AcDbEntity
  8
0
  6
Continuous
 62
     7
370
    15
100
AcDbLine
 10
203.8756497464
 20
119.3579744359
 30
0.0
 11
202.1756497464
 21
119.3579744359
 31
0.0
  0
LINE
  5
2DA
330
1F
100
AcDbEntity
  8
0
  6
Continuous
 62
     7
370
    15
100
AcDbLine
 10
203.8256497464
 20
119.4079744359
 30
0.0
 11
202.2256497464
 21
119.4079744359
 31
0.0
  0
LINE
  5
2DB
330
1F
100
AcDbEntity
  8
0
  6
Continuous
 62
     7
370
    15
100
AcDbLine
 10
203.8756497464
 20
119.2079744359
 30
0.0
 11
202.1756497464
 21
119.2079744359
 31
0.0
  0
LINE
  5
2DC
330
1F
100
AcDbEntity
  8
0
  6
Continuous
 62
     7
370
    15
100
AcDbLine
 10
203.8256497464
 20
119.1579744359
 30
0.0
 11
203.8206497464
 21
119.1579744359
 31
0.0
  0
LINE
  5
2DD
330
1F
100
AcDbEntity
  8
0
  6
Continuous
 62
     7
370
    15
100
AcDbLine
 10
203.0456497464
 20
119.1579744359
 30
0.0
 11
203.0456497464
 21
119.1779744359
 31
0.0
  0
LINE
  5
2DE
330
1F
100
AcDbEntity
  8
0
  6
Continuous
 62
     7
370
    15
100
AcDbLine
 10
203.0056497464
 20
119.1779744359
 30
0.0
 11
203.0456497464
 21
119.1779744359
 31
0.0
  0
LINE
  5
2DF
330
1F
100
AcDbEntity
  8
0
  6
Continuous
 62
     7
370
    15
100
AcDbLine
 10
203.0056497464
 20
119.1779744359
 30
0.0
 11
203.0056497464
 21
119.1579744359
 31
0.0
  0
SPLINE
  5
2E0
330
1F
100
AcDbEntity
  8
0
  6
Continuous
 62
     7
370
    15
100
AcDbSpline
210
0.0
220
0.0
230
1.0
 70
     8
 71
     3
 72
    12
 73
     8
 74
     0
 42
0.00000001
 43
0.00000001
 40
0.0
 40
0.0
 40
0.0
 40
0.0
 40
0.145440423507766
 40
0.2766795477475992
 40
0.497813603148107
 40
0.7087136041795176
 40
0.9999999999999999
 40
0.9999999999999999
 40
0.9999999999999999
 40
0.9999999999999999
 10
203.820649746368
 20
66.8450455037582
 30
0.0
 10
203.837375095014
 20
66.84673419054033
 30
0.0
 10
203.8691926721887
 20
66.84994667496456
 30
0.0
 10
203.9227260012928
 20
66.85954334938445
 30
0.0
 10
203.9735704062461
 20
66.87712717756776
 30
0.0
 10
204.0161701744664
 20
66.91550503988171
 30
0.0
 10
204.0221697652538
 20
66.94554826907692
 30
0.0
 10
204.025649746368
 20
66.96297443594631
 30
0.0
  0
LINE
  5
2E1
330
1F
100
AcDbEntity
  8
0
  6
Continuous
 62
     7
370
    15
100
AcDbLine
 10
203.8206497464
 20
119.0709033681
 30
0.0
 11
203.8206497464
 21
66.8450455038
 31
0.0
  0
SPLINE
  5
2E2
330
1F
100
AcDbEntity
  8
0
  6
Continuous
 62
     7
370
    15
100
AcDbSpline
210
0.0
220
0.0
230
1.0
 70
     8
 71
     3
 72
    12
 73
     8
 74
     0
 42
0.00000001
 43
0.00000001
 40
0.0
 40
0.0
 40
0.0
 40
0.0
 40
0.2392224862808852
 40
0.5048676216032053
 40
0.6979819728871589
 40
0.8912963971471596
 40
0.9999999999999999
 40
0.9999999999999999
 40
0.9999999999999999
 40
0.9999999999999999
 10
204.025649746368
 20
118.9529744359463
 30
0.0
 10
204.0232397404787
 20
118.967110744162
 30
0.0
 10
204.0181535382563
 20
118.9969447468848
 30
0.0
 10
203.9791160137242
 20
119.0355206069014
 30
0.0
 10
203.9222800453589
 20
119.058840249251
 30
0.0
 10
203.8680145458467
 20
119.0683047039575
 30
0.0
 10
203.8331855467158
 20
119.0702155929163
 30
0.0
 10
203.820649746368
 20
119.0709033681345
 30
0.0
  0
LINE
  5
2E3
330
1F
100
AcDbEntity
  8
0
  6
Continuous
 62
     7
370
    15
100
AcDbLine
 10
204.0256497464
 20
118.9529744359
 30
0.0
 11
204.0256497464
 21
66.9629744359
 31
0.0
  0
LINE
  5
2E4
330
1F
100
AcDbEntity
  8
0
  6
Continuous
 62
     7
370
    15
100
AcDbLine
 10
203.8206497464
 20
66.8450455038
 30
0.0
 11
199.9456497464
 21
66.8450455038
 31
0.0
  0
LINE
  5
2E5
330
1F
100
AcDbEntity
  8
0
  6
Continuous
 62
     7
370
    15
100
AcDbLine
 10
199.9456497464
 20
119.0709033681
 30
0.0
 11
199.9456497464
 21
66.8450455038
 31
0.0
  0
CIRCLE
  5
2E6
330
1F
100
AcDbEntity
  8
0
  6
Continuous
 62
     7
370
    15
100
AcDbCircle
 10
201.1056497464
 20
92.9579744359
 30
0.0
 40
0.1599999999999966
  0
CIRCLE
  5
2E7
330
1F
100
AcDbEntity
  8
0
  6
Continuous
 62
     7
370
    15
100
AcDbCircle
 10
201.1056497464
 20
69.7079744359
 30
0.0
 40
0.1599999999999966
  0
CIRCLE
  5
2E8
330
1F
100
AcDbEntity
  8
0
  6
Continuous
 62
     7
370
    15
100
AcDbCircle
 10
201.1056497464
 20
116.2079744359
 30
0.0
 40
0.1599999999999966
  0
LINE
  5
2E9
330
1F
100
AcDbEntity
  8
0
  6
Continuous
 62
     7
370
    15
100
AcDbLine
 10
203.8206497464
 20
119.0709033681
 30
0.0
 11
199.9456497464
 21
119.0709033681
 31
0.0
  0
SPLINE
  5
2EA
330
1F
100
AcDbEntity
  8
0
  6
Continuous
 62
     7
370
    15
100
AcDbSpline
210
0.0
220
0.0
230
1.0
 70
     8
 71
     3
 72
    12
 73
     8
 74
     0
 42
0.00000001
 43
0.00000001
 40
0.0
 40
0.0
 40
0.0
 40
0.0
 40
0.2286702771456224
 40
0.4574139526360293
 40
0.6861579520287803
 40
0.9149017666625751
 40
1.0
 40
1.0
 40
1.0
 40
1.0
 10
204.0256497463681
 20
66.96297443594634
 30
0.0
 10
204.0230761198966
 20
66.93842719398927
 30
0.0
 10
204.0179280408739
 20
66.88932483092725
 30
0.0
 10
203.9779667358747
 20
66.82500826079337
 30
0.0
 10
203.9198300645331
 20
66.77859149438565
 30
0.0
 10
203.8632798099925
 20
66.75971350699496
 30
0.0
 10
203.8297431953665
 20
66.75834539842072
 30
0.0
 10
203.820649746368
 20
66.75797443594634
 30
0.0
  0
LINE
  5
2EB
330
1F
100
AcDbEntity
  8
0
  6
Continuous
 62
     7
370
    15
100
AcDbLine
 10
203.8206497464
 20
66.8379744359
 30
0.0
 11
203.8206497464
 21
66.7579744359
 31
0.0
  0
SPLINE
  5
2EC
330
1F
100
AcDbEntity
  8
0
  6
Continuous
 62
     7
370
    15
100
AcDbSpline
210
0.0
220
0.0
230
1.0
 70
     8
 71
     3
 72
     9
 73
     5
 74
     0
 42
0.00000001
 43
0.00000001
 40
0.0
 40
0.0
 40
0.0
 40
0.0
 40
0.1335047189897185
 40
1.0
 40
1.0
 40
1.0
 40
1.0
 10
203.8742660972202
 20
66.85143336583721
 30
0.0
 10
203.8722229789547
 20
66.85000117546366
 30
0.0
 10
203.8569192632435
 20
66.83927353688738
 30
0.0
 10
203.8374873808035
 20
66.83857752605131
 30
0.0
 10
203.820649746368
 20
66.83797443594634
 30
0.0
  0
LINE
  5
2ED
330
1F
100
AcDbEntity
  8
0
  6
Continuous
 62
     7
370
    15
100
AcDbLine
 10
199.93504574
 20
66.7579744359
 30
0.0
 11
199.93504574
 21
66.8379744359
 31
0.0
  0
LINE
  5
2EE
330
1F
100
AcDbEntity
  8
0
  6
Continuous
 62
     7
370
    15
100
AcDbLine
 10
199.93504574
 20
66.8379744359
 30
0.0
 11
203.8206497464
 21
66.8379744359
 31
0.0
  0
LINE
  5
2EF
330
1F
100
AcDbEntity
  8
0
  6
Continuous
 62
     7
370
    15
100
AcDbLine
 10
203.8206497464
 20
66.7579744359
 30
0.0
 11
199.93504574
 21
66.7579744359
 31
0.0
  0
LINE
  5
2F0
330
1F
100
AcDbEntity
  8
0
  6
Continuous
 62
     7
370
    15
100
AcDbLine
 10
203.8206497464
 20
119.0779744359
 30
0.0
 11
199.93504574
 21
119.0779744359
 31
0.0
  0
LINE
  5
2F1
330
1F
100
AcDbEntity
  8
0
  6
Continuous
 62
     7
370
    15
100
AcDbLine
 10
199.93504574
 20
119.1579744359
 30
0.0
 11
199.93504574
 21
119.0779744359
 31
0.0
  0
LINE
  5
2F2
330
1F
100
AcDbEntity
  8
0
  6
Continuous
 62
     7
370
    15
100
AcDbLine
 10
203.8206497464
 20
119.1579744359
 30
0.0
 11
199.93504574
 21
119.1579744359
 31
0.0
  0
LINE
  5
2F3
330
1F
100
AcDbEntity
  8
0
  6
Continuous
 62
     7
370
    15
100
AcDbLine
 10
203.8206497464
 20
119.0779744359
 30
0.0
 11
203.8206497464
 21
119.1579744359
 31
0.0
  0
SPLINE
  5
2F4
330
1F
100
AcDbEntity
  8
0
  6
Continuous
 62
     7
370
    15
100
AcDbSpline
210
0.0
220
0.0
230
1.0
 70
     8
 71
     3
 72
     9
 73
     5
 74
     0
 42
0.00000001
 43
0.00000001
 40
0.0
 40
0.0
 40
0.0
 40
0.0
 40
0.9088323038566035
 40
1.0
 40
1.0
 40
1.0
 40
1.0
 10
203.820649746368
 20
119.0779744359463
 30
0.0
 10
203.8376979861739
 20
119.0774658610335
 30
0.0
 10
203.8564563860828
 20
119.0769062694448
 30
0.0
 10
203.8712082655301
 20
119.0666740818199
 30
0.0
 10
203.8725531603931
 20
119.0657412368476
 30
0.0
  0
SPLINE
  5
2F5
330
1F
100
AcDbEntity
  8
0
  6
Continuous
 62
     7
370
    15
100
AcDbSpline
210
0.0
220
0.0
230
1.0
 70
     8
 71
     3
 72
    11
 73
     7
 74
     0
 42
0.00000001
 43
0.00000001
 40
0.0
 40
0.0
 40
0.0
 40
0.0
 40
0.2500000000000056
 40
0.5000000000000039
 40
0.7500000000000064
 40
1.0
 40
1.0
 40
1.0
 40
1.0
 10
203.820649746368
 20
119.1579744359464
 30
0.0
 10
203.8475123403483
 20
119.154892963525
 30
0.0
 10
203.9012375283089
 20
119.1487300186822
 30
0.0
 10
203.9689992404137
 20
119.1013239299921
 30
0.0
 10
204.0164053291038
 20
119.0335622178872
 30
0.0
 10
204.0225682739466
 20
118.9798370299266
 30
0.0
 10
204.025649746368
 20
118.9529744359463
 30
0.0
  0
LINE
  5
2F6
330
1F
100
AcDbEntity
  8
0
  6
Continuous
 62
     7
370
    15
100
AcDbLine
 10
199.8463351713
 20
66.7579744359
 30
0.0
 11
199.8463351713
 21
66.8379744359
 31
0.0
  0
LINE
  5
2F7
330
1F
100
AcDbEntity
  8
0
  6
Continuous
 62
     7
370
    15
100
AcDbLine
 10
199.93504574
 20
66.7579744359
 30
0.0
 11
199.8463351713
 21
66.7579744359
 31
0.0
  0
LINE
  5
2F8
330
1F
100
AcDbEntity
  8
0
  6
Continuous
 62
     7
370
    15
100
AcDbLine
 10
199.93504574
 20
66.8379744359
 30
0.0
 11
199.8463351713
 21
66.8379744359
 31
0.0
  0
LINE
  5
2F9
330
1F
100
AcDbEntity
  8
0
  6
Continuous
 62
     7
370
    15
100
AcDbLine
 10
199.8463351713
 20
119.1579744359
 30
0.0
 11
199.8463351713
 21
119.0779744359
 31
0.0
  0
LINE
  5
2FA
330
1F
100
AcDbEntity
  8
0
  6
Continuous
 62
     7
370
    15
100
AcDbLine
 10
199.8463351713
 20
119.1579744359
 30
0.0
 11
199.93504574
 21
119.1579744359
 31
0.0
  0
LINE
  5
2FB
330
1F
100
AcDbEntity
  8
0
  6
Continuous
 62
     7
370
    15
100
AcDbLine
 10
199.8463351713
 20
119.0779744359
 30
0.0
 11
199.93504574
 21
119.0779744359
 31
0.0
  0
LINE
  5
2FC
330
1F
100
AcDbEntity
  8
0
  6
Continuous
 62
     7
370
    15
100
AcDbLine
 10
199.0842283901
 20
66.7579744359
 30
0.0
 11
199.0842283901
 21
66.8379744359
 31
0.0
  0
LINE
  5
2FD
330
1F
100
AcDbEntity
  8
0
  6
Continuous
 62
     7
370
    15
100
AcDbLine
 10
199.8463351713
 20
66.7579744359
 30
0.0
 11
199.0842283901
 21
66.7579744359
 31
0.0
  0
LINE
  5
2FE
330
1F
100
AcDbEntity
  8
0
  6
Continuous
 62
     7
370
    15
100
AcDbLine
 10
199.8463351713
 20
66.8379744359
 30
0.0
 11
199.0842283901
 21
66.8379744359
 31
0.0
  0
LINE
  5
2FF
330
1F
100
AcDbEntity
  8
0
  6
Continuous
 62
     7
370
    15
100
AcDbLine
 10
199.0842283901
 20
119.1579744359
 30
0.0
 11
199.0842283901
 21
119.0779744359
 31
0.0
  0
LINE
  5
300
330
1F
100
AcDbEntity
  8
0
  6
Continuous
 62
     7
370
    15
100
AcDbLine
 10
199.0842283901
 20
119.1579744359
 30
0.0
 11
199.8463351713
 21
119.1579744359
 31
0.0
  0
LINE
  5
301
330
1F
100
AcDbEntity
  8
0
  6
Continuous
 62
     7
370
    15
100
AcDbLine
 10
199.0842283901
 20
119.0779744359
 30
0.0
 11
199.8463351713
 21
119.0779744359
 31
0.0
  0
LINE
  5
302
330
1F
100
AcDbEntity
  8
0
  6
Continuous
 62
     7
370
    15
100
AcDbLine
 10
199.0256497464
 20
119.1579744359
 30
0.0
 11
199.0256497464
 21
119.0779744359
 31
0.0
  0
LINE
  5
303
330
1F
100
AcDbEntity
  8
0
  6
Continuous
 62
     7
370
    15
100
AcDbLine
 10
199.0256497464
 20
119.1579744359
 30
0.0
 11
199.0842283901
 21
119.1579744359
 31
0.0
  0
LINE
  5
304
330
1F
100
AcDbEntity
  8
0
  6
Continuous
 62
     7
370
    15
100
AcDbLine
 10
199.0256497464
 20
119.0779744359
 30
0.0
 11
199.0842283901
 21
119.0779744359
 31
0.0
  0
LINE
  5
305
330
1F
100
AcDbEntity
  8
0
  6
Continuous
 62
     7
370
    15
100
AcDbLine
 10
199.0256497464
 20
66.7579744359
 30
0.0
 11
199.0256497464
 21
66.8379744359
 31
0.0
  0
LINE
  5
306
330
1F
100
AcDbEntity
  8
0
  6
Continuous
 62
     7
370
    15
100
AcDbLine
 10
199.0842283901
 20
66.7579744359
 30
0.0
 11
199.0256497464
 21
66.7579744359
 31
0.0
  0
LINE
  5
307
330
1F
100
AcDbEntity
  8
0
  6
Continuous
 62
     7
370
    15
100
AcDbLine
 10
199.0842283901
 20
66.8379744359
 30
0.0
 11
199.0256497464
 21
66.8379744359
 31
0.0
  0
LINE
  5
308
330
1F
100
AcDbEntity
  8
0
  6
Continuous
 62
     7
370
    15
100
AcDbLine
 10
199.9456497464
 20
66.8450455038
 30
0.0
 11
198.9206497464
 21
66.8450455038
 31
0.0
  0
LINE
  5
309
330
1F
100
AcDbEntity
  8
0
  6
Continuous
 62
     7
370
    15
100
AcDbLine
 10
198.9206497464
 20
66.8450455038
 30
0.0
 11
198.9206497464
 21
66.9629744359
 31
0.0
  0
LINE
  5
30A
330
1F
100
AcDbEntity
  8
0
  6
Continuous
 62
     7
370
    15
100
AcDbLine
 10
198.9206497464
 20
119.0709033681
 30
0.0
 11
198.9206497464
 21
118.9529744359
 31
0.0
  0
LINE
  5
30B
330
1F
100
AcDbEntity
  8
0
  6
Continuous
 62
     7
370
    15
100
AcDbLine
 10
199.9456497464
 20
119.0709033681
 30
0.0
 11
198.9206497464
 21
119.0709033681
 31
0.0
  0
LINE
  5
30C
330
1F
100
AcDbEntity
  8
0
  6
Continuous
 62
     7
370
    15
100
AcDbLine
 10
198.9206497464
 20
66.9629744359
 30
0.0
 11
198.7156497464
 21
66.9629744359
 31
0.0
  0
LINE
  5
30D
330
1F
100
AcDbEntity
  8
0
  6
Continuous
 62
     7
370
    15
100
AcDbLine
 10
198.7156497464
 20
118.9529744359
 30
0.0
 11
198.7156497464
 21
117.97433169
 31
0.0
  0
LINE
  5
30E
330
1F
100
AcDbEntity
  8
0
  6
Continuous
 62
     7
370
    15
100
AcDbLine
 10
198.7156497464
 20
72.2879688565
 30
0.0
 11
198.7156497464
 21
66.9629744359
 31
0.0
  0
LINE
  5
30F
330
1F
100
AcDbEntity
  8
0
  6
Continuous
 62
     7
370
    15
100
AcDbLine
 10
198.7156497464
 20
118.9529744359
 30
0.0
 11
198.9206497464
 21
118.9529744359
 31
0.0
  0
LINE
  5
310
330
1F
100
AcDbEntity
  8
0
  6
Continuous
 62
     7
370
    15
100
AcDbLine
 10
199.9456497464
 20
118.9179744359
 30
0.0
 11
199.8259545791
 21
118.9179744359
 31
0.0
  0
LINE
  5
311
330
1F
100
AcDbEntity
  8
0
  6
Continuous
 62
     7
370
    15
100
AcDbLine
 10
199.8259545791
 20
66.9979744359
 30
0.0
 11
199.9456497464
 21
66.9979744359
 31
0.0
  0
LINE
  5
312
330
1F
100
AcDbEntity
  8
0
  6
Continuous
 62
     7
370
    15
100
AcDbLine
 10
199.8259545791
 20
66.9979744359
 30
0.0
 11
199.8259545791
 21
118.9179744359
 31
0.0
  0
LINE
  5
313
330
1F
100
AcDbEntity
  8
0
  6
Continuous
 62
     7
370
    15
100
AcDbLine
 10
199.6809976889
 20
66.9979744359
 30
0.0
 11
199.6809976889
 21
118.9179744359
 31
0.0
  0
LINE
  5
314
330
1F
100
AcDbEntity
  8
0
  6
Continuous
 62
     7
370
    15
100
AcDbLine
 10
199.8259545791
 20
66.9979744359
 30
0.0
 11
199.6809976889
 21
66.9979744359
 31
0.0
  0
LINE
  5
315
330
1F
100
AcDbEntity
  8
0
  6
Continuous
 62
     7
370
    15
100
AcDbLine
 10
199.6809976889
 20
118.9179744359
 30
0.0
 11
199.8259545791
 21
118.9179744359
 31
0.0
  0
LINE
  5
316
330
1F
100
AcDbEntity
  8
0
  6
Continuous
 62
     7
370
    15
100
AcDbLine
 10
198.9056928562
 20
66.9979744359
 30
0.0
 11
199.6809976889
 21
66.9979744359
 31
0.0
  0
LINE
  5
317
330
1F
100
AcDbEntity
  8
0
  6
Continuous
 62
     7
370
    15
100
AcDbLine
 10
198.9056928562
 20
66.9979744359
 30
0.0
 11
198.9056928562
 21
118.9179744359
 31
0.0
  0
LINE
  5
318
330
1F
100
AcDbEntity
  8
0
  6
Continuous
 62
     7
370
    15
100
AcDbLine
 10
199.6809976889
 20
118.9179744359
 30
0.0
 11
198.9056928562
 21
118.9179744359
 31
0.0
  0
LINE
  5
319
330
1F
100
AcDbEntity
  8
0
  6
Continuous
 62
     7
370
    15
100
AcDbLine
 10
199.0506497464
 20
66.9979744359
 30
0.0
 11
199.0506497464
 21
66.9179744359
 31
0.0
  0
LINE
  5
31A
330
1F
100
AcDbEntity
  8
0
  6
Continuous
 62
     7
370
    15
100
AcDbLine
 10
199.7517083671
 20
66.9979744359
 30
0.0
 11
199.7517083671
 21
66.9179744359
 31
0.0
  0
LINE
  5
31B
330
1F
100
AcDbEntity
  8
0
  6
Continuous
 62
     7
370
    15
100
AcDbLine
 10
199.7517083671
 20
66.9179744359
 30
0.0
 11
199.0506497464
 21
66.9179744359
 31
0.0
  0
LINE
  5
31C
330
1F
100
AcDbEntity
  8
0
  6
Continuous
 62
     7
370
    15
100
AcDbLine
 10
199.9456497464
 20
66.9179744359
 30
0.0
 11
199.7517083671
 21
66.9179744359
 31
0.0
  0
LINE
  5
31D
330
1F
100
AcDbEntity
  8
0
  6
Continuous
 62
     7
370
    15
100
AcDbLine
 10
199.7517083671
 20
118.9179744359
 30
0.0
 11
199.7517083671
 21
118.9979744359
 31
0.0
  0
LINE
  5
31E
330
1F
100
AcDbEntity
  8
0
  6
Continuous
 62
     7
370
    15
100
AcDbLine
 10
199.7517083671
 20
118.9979744359
 30
0.0
 11
199.9456497464
 21
118.9979744359
 31
0.0
  0
LINE
  5
31F
330
1F
100
AcDbEntity
  8
0
  6
Continuous
 62
     7
370
    15
100
AcDbLine
 10
199.0506497464
 20
118.9179744359
 30
0.0
 11
199.0506497464
 21
118.9979744359
 31
0.0
  0
LINE
  5
320
330
1F
100
AcDbEntity
  8
0
  6
Continuous
 62
     7
370
    15
100
AcDbLine
 10
199.0506497464
 20
118.9979744359
 30
0.0
 11
199.7517083671
 21
118.9979744359
 31
0.0
  0
LINE
  5
321
330
1F
100
AcDbEntity
  8
0
  6
Continuous
 62
     7
370
    15
100
AcDbLine
 10
198.8456497464
 20
67.1229744359
 30
0.0
 11
198.8456497464
 21
118.7929744359
 31
0.0
  0
LINE
  5
322
330
1F
100
AcDbEntity
  8
0
  6
Continuous
 62
     7
370
    15
100
AcDbLine
 10
198.8456497464
 20
118.9179744359
 30
0.0
 11
198.8456497464
 21
118.7929744359
 31
0.0
  0
LINE
  5
323
330
1F
100
AcDbEntity
  8
0
  6
Continuous
 62
     7
370
    15
100
AcDbLine
 10
198.8456497464
 20
118.9179744359
 30
0.0
 11
198.9056928562
 21
118.9179744359
 31
0.0
  0
LINE
  5
324
330
1F
100
AcDbEntity
  8
0
  6
Continuous
 62
     7
370
    15
100
AcDbLine
 10
198.9056928562
 20
66.9979744359
 30
0.0
 11
198.8456497464
 21
66.9979744359
 31
0.0
  0
LINE
  5
325
330
1F
100
AcDbEntity
  8
0
  6
Continuous
 62
     7
370
    15
100
AcDbLine
 10
198.8456497464
 20
66.9979744359
 30
0.0
 11
198.8456497464
 21
67.1229744359
 31
0.0
  0
ARC
  5
326
330
1F
100
AcDbEntity
  8
0
  6
Continuous
 62
     7
370
    15
100
AcDbCircle
 10
199.0506497464
 20
118.7929744359
 30
0.0
 40
0.2049999999999983
100
AcDbArc
 50
90.0
 51
142.4281306803
  0
ARC
  5
327
330
1F
100
AcDbEntity
  8
0
  6
Continuous
 62
     7
370
    15
100
AcDbCircle
 10
199.0506497464
 20
67.1229744359
 30
0.0
 40
0.2049999999999983
100
AcDbArc
 50
217.5718693197
 51
270.0
  0
LINE
  5
328
330
1F
100
AcDbEntity
  8
0
  6
Continuous
 62
     7
370
    15
100
AcDbLine
 10
198.0056497463
 20
66.1579744359
 30
0.0
 11
197.9256497463
 21
66.1579744359
 31
0.0
  0
LINE
  5
329
330
1F
100
AcDbEntity
  8
0
  6
Continuous
 62
     7
370
    15
100
AcDbLine
 10
197.9256497463
 20
66.1579744359
 30
0.0
 11
197.9256497463
 21
66.2140714044
 31
0.0
  0
LINE
  5
32A
330
1F
100
AcDbEntity
  8
0
  6
Continuous
 62
     7
370
    15
100
AcDbLine
 10
198.0056497463
 20
66.2150455037
 30
0.0
 11
198.0056497463
 21
66.1579744359
 31
0.0
  0
LINE
  5
32B
330
1F
100
AcDbEntity
  8
0
  6
Continuous
 62
     7
370
    15
100
AcDbLine
 10
197.8006497463
 20
66.0779744359
 30
0.0
 11
196.9256497463
 21
66.0779744359
 31
0.0
  0
ARC
  5
32C
330
1F
100
AcDbEntity
  8
0
  6
Continuous
 62
     7
370
    15
100
AcDbCircle
 10
197.8006497463
 20
66.2829744359
 30
0.0
 40
0.2050000000000125
100
AcDbArc
 50
270.0
 51
322.4281306803
  0
ARC
  5
32D
330
1F
100
AcDbEntity
  8
0
  6
Continuous
 62
     7
370
    15
100
AcDbCircle
 10
197.8006497463
 20
66.2829744359
 30
0.0
 40
0.125
100
AcDbArc
 50
325.4780694298
 51
0.0
  0
LINE
  5
32E
330
1F
100
AcDbEntity
  8
0
  6
Continuous
 62
     7
370
    15
100
AcDbLine
 10
196.9256497463
 20
66.0779744359
 30
0.0
 11
196.8556497463
 21
66.0779744359
 31
0.0
  0
LINE
  5
32F
330
1F
100
AcDbEntity
  8
0
  6
Continuous
 62
     7
370
    15
100
AcDbLine
 10
198.6756497463
 20
119.7198482961
 30
0.0
 11
198.6756497463
 21
119.4698482961
 31
0.0
  0
ARC
  5
330
330
1F
100
AcDbEntity
  8
0
  6
Continuous
 62
     7
370
    15
100
AcDbCircle
 10
198.6756497463
 20
120.0198482961
 30
0.0
 40
0.5500000000000114
100
AcDbArc
 50
180.0
 51
270.0
  0
LINE
  5
331
330
1F
100
AcDbEntity
  8
0
  6
Continuous
 62
     7
370
    15
100
AcDbLine
 10
198.3756497463
 20
120.0198482961
 30
0.0
 11
198.1256497463
 21
120.0198482961
 31
0.0
  0
ARC
  5
332
330
1F
100
AcDbEntity
  8
0
  6
Continuous
 62
     7
370
    15
100
AcDbCircle
 10
198.6756497463
 20
120.0198482961
 30
0.0
 40
0.3000000000000114
100
AcDbArc
 50
180.0
 51
270.0
  0
LINE
  5
333
330
1F
100
AcDbEntity
  8
0
  6
Continuous
 62
     7
370
    15
100
AcDbLine
 10
203.0256497463
 20
119.7198482961
 30
0.0
 11
203.0256497463
 21
119.4698482961
 31
0.0
  0
LINE
  5
334
330
1F
100
AcDbEntity
  8
0
  6
Continuous
 62
     7
370
    15
100
AcDbLine
 10
198.6756497463
 20
119.4698482961
 30
0.0
 11
203.0256497463
 21
119.4698482961
 31
0.0
  0
LINE
  5
335
330
1F
100
AcDbEntity
  8
0
  6
Continuous
 62
     7
370
    15
100
AcDbLine
 10
198.6756497463
 20
119.7198482961
 30
0.0
 11
203.0256497463
 21
119.7198482961
 31
0.0
  0
LINE
  5
336
330
1F
100
AcDbEntity
  8
0
  6
Continuous
 62
     7
370
    15
100
AcDbLine
 10
198.3756497463
 20
120.0198482961
 30
0.0
 11
198.3756497463
 21
120.548313594
 31
0.0
  0
LINE
  5
337
330
1F
100
AcDbEntity
  8
0
  6
Continuous
 62
     7
370
    15
100
AcDbLine
 10
198.1256497463
 20
120.0198482961
 30
0.0
 11
198.1256497463
 21
120.548313594
 31
0.0
  0
LINE
  5
338
330
1F
100
AcDbEntity
  8
0
  6
Continuous
 62
     7
370
    15
100
AcDbLine
 10
203.0256497463
 20
119.4698482961
 30
0.0
 11
203.8256497463
 21
119.4698482961
 31
0.0
  0
LINE
  5
339
330
1F
100
AcDbEntity
  8
0
  6
Continuous
 62
     7
370
    15
100
AcDbLine
 10
203.0256497463
 20
119.7198482961
 30
0.0
 11
203.8256497463
 21
119.7198482961
 31
0.0
  0
LINE
  5
33A
330
1F
100
AcDbEntity
  8
0
  6
Continuous
 62
     7
370
    15
100
AcDbLine
 10
203.4156497463
 20
119.7698482961
 30
0.0
 11
202.6356497463
 21
119.7698482961
 31
0.0
  0
LINE
  5
33B
330
1F
100
AcDbEntity
  8
0
  6
Continuous
 62
     7
370
    15
100
AcDbLine
 10
198.6256497463
 20
66.5079744359
 30
0.0
 11
198.6256497463
 21
66.2079744359
 31
0.0
  0
ARC
  5
33C
330
1F
100
AcDbEntity
  8
0
  6
Continuous
 62
     7
370
    15
100
AcDbCircle
 10
198.6256497463
 20
66.9079744359
 30
0.0
 40
0.7000000000000028
100
AcDbArc
 50
207.6604498993
 51
270.0
  0
ARC
  5
33D
330
1F
100
AcDbEntity
  8
0
  6
Continuous
 62
     7
370
    15
100
AcDbCircle
 10
198.6256497463
 20
66.9079744359
 30
0.0
 40
0.4000000000000057
100
AcDbArc
 50
180.0
 51
270.0
  0
LINE
  5
33E
330
1F
100
AcDbEntity
  8
0
  6
Continuous
 62
     7
370
    15
100
AcDbLine
 10
198.0056497463
 20
71.8079744359
 30
0.0
 11
198.2256497463
 21
71.8079744359
 31
0.0
  0
LINE
  5
33F
330
1F
100
AcDbEntity
  8
0
  6
Continuous
 62
     7
370
    15
100
AcDbLine
 10
198.0056497463
 20
72.2079744359
 30
0.0
 11
198.2256497463
 21
72.2079744359
 31
0.0
  0
LINE
  5
340
330
1F
100
AcDbEntity
  8
0
  6
Continuous
 62
     7
370
    15
100
AcDbLine
 10
198.2256497463
 20
71.8079744359
 30
0.0
 11
198.2256497463
 21
72.2079744359
 31
0.0
  0
LINE
  5
341
330
1F
100
AcDbEntity
  8
0
  6
Continuous
 62
     7
370
    15
100
AcDbLine
 10
203.0256497463
 20
66.5079744359
 30
0.0
 11
203.0256497463
 21
66.2079744359
 31
0.0
  0
LINE
  5
342
330
1F
100
AcDbEntity
  8
0
  6
Continuous
 62
     7
370
    15
100
AcDbLine
 10
198.6256497463
 20
66.2079744359
 30
0.0
 11
203.0256497463
 21
66.2079744359
 31
0.0
  0
LINE
  5
343
330
1F
100
AcDbEntity
  8
0
  6
Continuous
 62
     7
370
    15
100
AcDbLine
 10
198.6256497463
 20
66.5079744359
 30
0.0
 11
203.0256497463
 21
66.5079744359
 31
0.0
  0
LINE
  5
344
330
1F
100
AcDbEntity
  8
0
  6
Continuous
 62
     7
370
    15
100
AcDbLine
 10
203.0256497463
 20
66.2079744359
 30
0.0
 11
203.8256497463
 21
66.2079744359
 31
0.0
  0
LINE
  5
345
330
1F
100
AcDbEntity
  8
0
  6
Continuous
 62
     7
370
    15
100
AcDbLine
 10
198.2256497463
 20
66.9079744359
 30
0.0
 11
198.2256497463
 21
71.8079744359
 31
0.0
  0
LINE
  5
346
330
1F
100
AcDbEntity
  8
0
  6
Continuous
 62
     7
370
    15
100
AcDbLine
 10
198.9206497464
 20
119.0509033681
 30
0.0
 11
198.0956497463
 21
119.0509033681
 31
0.0
  0
LINE
  5
347
330
1F
100
AcDbEntity
  8
0
  6
Continuous
 62
     7
370
    15
100
AcDbLine
 10
198.7156497464
 20
69.5250455037
 30
0.0
 11
198.2256497463
 21
69.5250455037
 31
0.0
  0
LINE
  5
348
330
1F
100
AcDbEntity
  8
0
  6
Continuous
 62
     7
370
    15
100
AcDbLine
 10
198.7156497464
 20
69.5179744359
 30
0.0
 11
198.2256497463
 21
69.5179744359
 31
0.0
  0
LINE
  5
349
330
1F
100
AcDbEntity
  8
0
  6
Continuous
 62
     7
370
    15
100
AcDbLine
 10
198.7156497464
 20
69.4379744359
 30
0.0
 11
198.2256497463
 21
69.4379744359
 31
0.0
  0
LINE
  5
34A
330
1F
100
AcDbEntity
  8
0
  6
Continuous
 62
     7
370
    15
100
AcDbLine
 10
199.0256497464
 20
119.1379744359
 30
0.0
 11
198.0956497463
 21
119.1379744359
 31
0.0
  0
LINE
  5
34B
330
1F
100
AcDbEntity
  8
0
  6
Continuous
 62
     7
370
    15
100
AcDbLine
 10
198.9206497464
 20
119.0579744359
 30
0.0
 11
198.0956497463
 21
119.0579744359
 31
0.0
  0
SPLINE
  5
34C
330
1F
100
AcDbEntity
  8
0
  6
Continuous
 62
     7
370
    15
100
AcDbSpline
210
0.0
220
0.0
230
1.0
 70
     8
 71
     3
 72
    10
 73
     6
 74
     0
 42
0.00000001
 43
0.00000001
 40
0.0
 40
0.0
 40
0.0
 40
0.0
 40
0.0887706851117269
 40
0.9129108109135113
 40
1.0
 40
1.0
 40
1.0
 40
1.0
 10
203.6756497463682
 20
119.1240505701659
 30
0.0
 10
203.6784707546911
 20
119.1235316474083
 30
0.0
 10
203.7074817845418
 20
119.1181950861907
 30
0.0
 10
203.7377634704994
 20
119.0979770936177
 30
0.0
 10
203.753772529299
 20
119.0732651682899
 30
0.0
 10
203.7553025678153
 20
119.0709033681345
 30
0.0
  0
LINE
  5
34D
330
1F
100
AcDbEntity
  8
0
  6
Continuous
 62
     7
370
    15
100
AcDbLine
 10
197.8956497463
 20
66.2668162141
 30
0.0
 11
197.8956497463
 21
66.2079744359
 31
0.0
  0
SPLINE
  5
34E
330
1F
100
AcDbEntity
  8
0
  6
Continuous
 62
     7
370
    15
100
AcDbSpline
210
0.0
220
0.0
230
1.0
 70
     8
 71
     3
 72
     9
 73
     5
 74
     0
 42
0.00000001
 43
0.00000001
 40
0.0
 40
0.0
 40
0.0
 40
0.0
 40
0.9835435374729639
 40
1.0
 40
1.0
 40
1.0
 40
1.0
 10
165.1106497463373
 20
134.4579744358878
 30
0.0
 10
165.1182706151991
 20
134.4575027589105
 30
0.0
 10
165.1260189949824
 20
134.4570231899241
 30
0.0
 10
165.1337673801945
 20
134.4382828358314
 30
0.0
 10
165.1338948912054
 20
134.4379744358966
 30
0.0
  0
SPLINE
  5
34F
330
1F
100
AcDbEntity
  8
0
  6
Continuous
 62
     7
370
    15
100
AcDbSpline
210
0.0
220
0.0
230
1.0
 70
     8
 71
     3
 72
     9
 73
     5
 74
     0
 42
0.00000001
 43
0.00000001
 40
0.0
 40
0.0
 40
0.0
 40
0.0
 40
0.3835785575915744
 40
1.0
 40
1.0
 40
1.0
 40
1.0
 10
161.4398047299475
 20
134.4379744358966
 30
0.0
 10
161.4424769808342
 20
134.4432744949315
 30
0.0
 10
161.4494436134412
 20
134.457091896687
 30
0.0
 10
161.456376293621
 20
134.4576378800411
 30
0.0
 10
161.4606497463373
 20
134.4579744358878
 30
0.0
  0
LINE
  5
350
330
1F
100
AcDbEntity
  8
0
  6
Continuous
 62
     7
370
    15
100
AcDbLine
 10
161.4606497463
 20
134.4579744359
 30
0.0
 11
165.1106497463
 21
134.4579744359
 31
0.0
  0
SPLINE
  5
351
330
1F
100
AcDbEntity
  8
0
  6
Continuous
 62
     7
370
    15
100
AcDbSpline
210
0.0
220
0.0
230
1.0
 70
     8
 71
     3
 72
     9
 73
     5
 74
     0
 42
0.00000001
 43
0.00000001
 40
0.0
 40
0.0
 40
0.0
 40
0.0
 40
0.9835435374729593
 40
1.0
 40
1.0
 40
1.0
 40
1.0
 10
161.4606497463373
 20
134.4579744358878
 30
0.0
 10
161.4219656124268
 20
134.4575027589107
 30
0.0
 10
161.3826342229797
 20
134.4570231899245
 30
0.0
 10
161.3498521189841
 20
134.4382828358314
 30
0.0
 10
161.3493126415182
 20
134.4379744358966
 30
0.0
  0
SPLINE
  5
352
330
1F
100
AcDbEntity
  8
0
  6
Continuous
 62
     7
370
    15
100
AcDbSpline
210
0.0
220
0.0
230
1.0
 70
     8
 71
     3
 72
     9
 73
     5
 74
     0
 42
0.00000001
 43
0.00000001
 40
0.0
 40
0.0
 40
0.0
 40
0.0
 40
0.3835785575916892
 40
1.0
 40
1.0
 40
1.0
 40
1.0
 10
165.2095267740217
 20
134.4379744358966
 30
0.0
 10
165.1975311765582
 20
134.4432744949316
 30
0.0
 10
165.1662583193402
 20
134.457091896687
 30
0.0
 10
165.1318560455618
 20
134.4576378800411
 30
0.0
 10
165.1106497463373
 20
134.4579744358878
 30
0.0
  0
LINE
  5
353
330
1F
100
AcDbEntity
  8
0
  6
Continuous
 62
     7
370
    15
100
AcDbLine
 10
193.7606497463
 20
134.4579744359
 30
0.0
 11
197.4106497463
 21
134.4579744359
 31
0.0
  0
SPLINE
  5
354
330
1F
100
AcDbEntity
  8
0
  6
Continuous
 62
     7
370
    15
100
AcDbSpline
210
0.0
220
0.0
230
1.0
 70
     8
 71
     3
 72
     9
 73
     5
 74
     0
 42
0.00000001
 43
0.00000001
 40
0.0
 40
0.0
 40
0.0
 40
0.0
 40
0.3835785576047223
 40
1.0
 40
1.0
 40
1.0
 40
1.0
 10
193.7398047299471
 20
134.4379744358966
 30
0.0
 10
193.7424769808339
 20
134.4432744949319
 30
0.0
 10
193.749443613441
 20
134.4570918966876
 30
0.0
 10
193.756376293621
 20
134.4576378800419
 30
0.0
 10
193.7606497463373
 20
134.4579744358886
 30
0.0
  0
SPLINE
  5
355
330
1F
100
AcDbEntity
  8
0
  6
Continuous
 62
     7
370
    15
100
AcDbSpline
210
0.0
220
0.0
230
1.0
 70
     8
 71
     3
 72
     9
 73
     5
 74
     0
 42
0.00000001
 43
0.00000001
 40
0.0
 40
0.0
 40
0.0
 40
0.0
 40
0.9835435374591
 40
1.0
 40
1.0
 40
1.0
 40
1.0
 10
197.4106497463373
 20
134.4579744358886
 30
0.0
 10
197.4182706151991
 20
134.4575027589114
 30
0.0
 10
197.4260189949826
 20
134.4570231899251
 30
0.0
 10
197.4337673801947
 20
134.4382828358317
 30
0.0
 10
197.4338948912057
 20
134.4379744358966
 30
0.0
  0
SPLINE
  5
356
330
1F
100
AcDbEntity
  8
0
  6
Continuous
 62
     7
370
    15
100
AcDbSpline
210
0.0
220
0.0
230
1.0
 70
     8
 71
     3
 72
     9
 73
     5
 74
     0
 42
0.00000001
 43
0.00000001
 40
0.0
 40
0.0
 40
0.0
 40
0.0
 40
0.3835785576048647
 40
1.0
 40
1.0
 40
1.0
 40
1.0
 10
197.5095267740237
 20
134.4379744358966
 30
0.0
 10
197.4975311765596
 20
134.4432744949319
 30
0.0
 10
197.4662583193409
 20
134.4570918966876
 30
0.0
 10
197.4318560455618
 20
134.4576378800419
 30
0.0
 10
197.4106497463373
 20
134.4579744358886
 30
0.0
  0
SPLINE
  5
357
330
1F
100
AcDbEntity
  8
0
  6
Continuous
 62
     7
370
    15
100
AcDbSpline
210
0.0
220
0.0
230
1.0
 70
     8
 71
     3
 72
     9
 73
     5
 74
     0
 42
0.00000001
 43
0.00000001
 40
0.0
 40
0.0
 40
0.0
 40
0.0
 40
0.9835435374592788
 40
1.0
 40
1.0
 40
1.0
 40
1.0
 10
193.7606497463373
 20
134.4579744358886
 30
0.0
 10
193.7219656124268
 20
134.4575027589112
 30
0.0
 10
193.6826342229793
 20
134.4570231899248
 30
0.0
 10
193.6498521189832
 20
134.4382828358317
 30
0.0
 10
193.6493126415168
 20
134.4379744358966
 30
0.0
  0
SPLINE
  5
358
330
1F
100
AcDbEntity
  8
0
  6
Continuous
 62
     7
370
    15
100
AcDbSpline
210
0.0
220
0.0
230
1.0
 70
     8
 71
     3
 72
     9
 73
     5
 74
     0
 42
0.00000001
 43
0.00000001
 40
0.0
 40
0.0
 40
0.0
 40
0.0
 40
0.9835435374696352
 40
1.0
 40
1.0
 40
1.0
 40
1.0
 10
170.9106497463373
 20
134.457974435888
 30
0.0
 10
170.9182706151991
 20
134.4575027589112
 30
0.0
 10
170.9260189949825
 20
134.4570231899254
 30
0.0
 10
170.9337673801945
 20
134.4382828358315
 30
0.0
 10
170.9338948912054
 20
134.4379744358966
 30
0.0
  0
LINE
  5
359
330
1F
100
AcDbEntity
  8
0
  6
Continuous
 62
     7
370
    15
100
AcDbLine
 10
167.2606497463
 20
134.4579744359
 30
0.0
 11
170.9106497463
 21
134.4579744359
 31
0.0
  0
SPLINE
  5
35A
330
1F
100
AcDbEntity
  8
0
  6
Continuous
 62
     7
370
    15
100
AcDbSpline
210
0.0
220
0.0
230
1.0
 70
     8
 71
     3
 72
     9
 73
     5
 74
     0
 42
0.00000001
 43
0.00000001
 40
0.0
 40
0.0
 40
0.0
 40
0.0
 40
0.3835785575947477
 40
1.0
 40
1.0
 40
1.0
 40
1.0
 10
167.2398047299474
 20
134.4379744358966
 30
0.0
 10
167.2424769808341
 20
134.4432744949316
 30
0.0
 10
167.2494436134411
 20
134.4570918966871
 30
0.0
 10
167.256376293621
 20
134.4576378800413
 30
0.0
 10
167.2606497463373
 20
134.457974435888
 30
0.0
  0
SPLINE
  5
35B
330
1F
100
AcDbEntity
  8
0
  6
Continuous
 62
     7
370
    15
100
AcDbSpline
210
0.0
220
0.0
230
1.0
 70
     8
 71
     3
 72
     9
 73
     5
 74
     0
 42
0.00000001
 43
0.00000001
 40
0.0
 40
0.0
 40
0.0
 40
0.0
 40
0.983543537469643
 40
0.9999999999999999
 40
0.9999999999999999
 40
0.9999999999999999
 40
0.9999999999999999
 10
167.2606497463373
 20
134.457974435888
 30
0.0
 10
167.2219656124268
 20
134.4575027589107
 30
0.0
 10
167.1826342229796
 20
134.4570231899243
 30
0.0
 10
167.1498521189839
 20
134.4382828358315
 30
0.0
 10
167.1493126415178
 20
134.4379744358966
 30
0.0
  0
SPLINE
  5
35C
330
1F
100
AcDbEntity
  8
0
  6
Continuous
 62
     7
370
    15
100
AcDbSpline
210
0.0
220
0.0
230
1.0
 70
     8
 71
     3
 72
     9
 73
     5
 74
     0
 42
0.00000001
 43
0.00000001
 40
0.0
 40
0.0
 40
0.0
 40
0.0
 40
0.3835785575948952
 40
1.0
 40
1.0
 40
1.0
 40
1.0
 10
171.0095267740222
 20
134.4379744358966
 30
0.0
 10
170.9975311765586
 20
134.4432744949316
 30
0.0
 10
170.9662583193403
 20
134.4570918966871
 30
0.0
 10
170.9318560455618
 20
134.4576378800413
 30
0.0
 10
170.9106497463373
 20
134.457974435888
 30
0.0
  0
SPLINE
  5
35D
330
1F
100
AcDbEntity
  8
0
  6
Continuous
 62
     7
370
    15
100
AcDbSpline
210
0.0
220
0.0
230
1.0
 70
     8
 71
     3
 72
     9
 73
     5
 74
     0
 42
0.00000001
 43
0.00000001
 40
0.0
 40
0.0
 40
0.0
 40
0.0
 40
0.9835435374829047
 40
1.0
 40
1.0
 40
1.0
 40
1.0
 10
138.6106497463372
 20
134.4579744358873
 30
0.0
 10
138.6182706151989
 20
134.4575027589103
 30
0.0
 10
138.6260189949821
 20
134.4570231899243
 30
0.0
 10
138.6337673801943
 20
134.4382828358312
 30
0.0
 10
138.6338948912051
 20
134.4379744358966
 30
0.0
  0
LINE
  5
35E
330
1F
100
AcDbEntity
  8
0
  6
Continuous
 62
     7
370
    15
100
AcDbLine
 10
134.9606497463
 20
134.4579744359
 30
0.0
 11
138.6106497463
 21
134.4579744359
 31
0.0
  0
SPLINE
  5
35F
330
1F
100
AcDbEntity
  8
0
  6
Continuous
 62
     7
370
    15
100
AcDbSpline
210
0.0
220
0.0
230
1.0
 70
     8
 71
     3
 72
     9
 73
     5
 74
     0
 42
0.00000001
 43
0.00000001
 40
0.0
 40
0.0
 40
0.0
 40
0.0
 40
0.3835785575819303
 40
1.0
 40
1.0
 40
1.0
 40
1.0
 10
134.9398047299478
 20
134.4379744358966
 30
0.0
 10
134.9424769808344
 20
134.4432744949313
 30
0.0
 10
134.9494436134412
 20
134.4570918966865
 30
0.0
 10
134.956376293621
 20
134.4576378800406
 30
0.0
 10
134.9606497463373
 20
134.4579744358873
 30
0.0
  0
SPLINE
  5
360
330
1F
100
AcDbEntity
  8
0
  6
Continuous
 62
     7
370
    15
100
AcDbSpline
210
0.0
220
0.0
230
1.0
 70
     8
 71
     3
 72
     9
 73
     5
 74
     0
 42
0.00000001
 43
0.00000001
 40
0.0
 40
0.0
 40
0.0
 40
0.0
 40
0.9835435374828979
 40
1.0
 40
1.0
 40
1.0
 40
1.0
 10
134.9606497463373
 20
134.4579744358873
 30
0.0
 10
134.9219656124267
 20
134.4575027589102
 30
0.0
 10
134.88263422298
 20
134.4570231899241
 30
0.0
 10
134.8498521189848
 20
134.4382828358312
 30
0.0
 10
134.8493126415191
 20
134.4379744358966
 30
0.0
  0
SPLINE
  5
361
330
1F
100
AcDbEntity
  8
0
  6
Continuous
 62
     7
370
    15
100
AcDbSpline
210
0.0
220
0.0
230
1.0
 70
     8
 71
     3
 72
     9
 73
     5
 74
     0
 42
0.00000001
 43
0.00000001
 40
0.0
 40
0.0
 40
0.0
 40
0.0
 40
0.3835785575820794
 40
1.0
 40
1.0
 40
1.0
 40
1.0
 10
138.7095267740202
 20
134.4379744358966
 30
0.0
 10
138.6975311765572
 20
134.4432744949313
 30
0.0
 10
138.6662583193396
 20
134.4570918966865
 30
0.0
 10
138.6318560455618
 20
134.4576378800406
 30
0.0
 10
138.6106497463372
 20
134.4579744358873
 30
0.0
  0
LINE
  5
362
330
1F
100
AcDbEntity
  8
0
  6
Continuous
 62
     7
370
    15
100
AcDbLine
 10
197.8175457915
 20
134.2579744359
 30
0.0
 11
197.8431133633
 21
134.2579744359
 31
0.0
  0
LINE
  5
363
330
1F
100
AcDbEntity
  8
0
  6
Continuous
 62
     7
370
    15
100
AcDbLine
 10
198.2556497463
 20
132.7770810467
 30
0.0
 11
198.2556497463
 21
132.9170810467
 31
0.0
  0
LWPOLYLINE
  5
364
330
1F
100
AcDbEntity
  8
0
  6
Continuous
 62
     7
370
    15
100
AcDbPolyline
 90
        3
 70
   128
 43
0.0
 10
197.8348470439
 20
66.2787775809
 10
197.8451041112
 20
66.2885200711
 10
197.8549012957
 20
66.2988377894
  0
SPLINE
  5
365
330
1F
100
AcDbEntity
  8
0
  6
Continuous
 62
     8
370
    15
100
AcDbSpline
210
0.0
220
0.0
230
1.0
 70
     8
 71
     3
 72
    11
 73
     7
 74
     0
 42
0.00000001
 43
0.00000001
 40
0.0
 40
0.0
 40
0.0
 40
0.0
 40
0.2599126727807372
 40
0.519573859867341
 40
0.7792764966053841
 40
1.0
 40
1.0
 40
1.0
 40
1.0
 10
207.7094597837113
 20
115.1719605183465
 30
0.0
 10
207.699168265129
 20
115.2520316421218
 30
0.0
 10
207.6785951858079
 20
115.4120964146423
 30
0.0
 10
207.6197726703603
 20
115.596142142422
 30
0.0
 10
207.5523445663587
 20
115.7121841684118
 30
0.0
 10
207.506104756699
 20
115.7188037002826
 30
0.0
 10
207.484860673724
 20
115.7218449300229
 30
0.0
  0
SPLINE
  5
366
330
1F
100
AcDbEntity
  8
0
  6
Continuous
 62
     8
370
    15
100
AcDbSpline
210
0.0
220
0.0
230
1.0
 70
     8
 71
     3
 72
     9
 73
     5
 74
     0
 42
0.00000001
 43
0.00000001
 40
0.0
 40
0.0
 40
0.0
 40
0.0
 40
0.000169519785056
 40
1.0
 40
1.0
 40
1.0
 40
1.0
 10
208.8620950086931
 20
112.7095621070706
 30
0.0
 10
208.8620949081339
 20
112.7095621183388
 30
0.0
 10
208.861501707907
 20
112.7096285895526
 30
0.0
 10
208.8608973450329
 20
112.7096950690979
 30
0.0
 10
208.8602930846102
 20
112.7097615373737
 30
0.0
  0
LINE
  5
367
330
1F
100
AcDbEntity
  8
0
  6
Continuous
 62
     8
370
    15
100
AcDbLine
 10
208.9308652299
 20
115.6353542222
 30
0.0
 11
208.7601934851
 21
115.6300920707
 31
0.0
  0
SPLINE
  5
368
330
1F
100
AcDbEntity
  8
0
  6
Continuous
 62
     8
370
    15
100
AcDbSpline
210
0.0
220
0.0
230
1.0
 70
     8
 71
     3
 72
    11
 73
     7
 74
     0
 42
0.00000001
 43
0.00000001
 40
0.0
 40
0.0
 40
0.0
 40
0.0
 40
0.0496704560632196
 40
0.3663773967605397
 40
0.6830332630284237
 40
1.0
 40
1.0
 40
1.0
 40
1.0
 10
207.6777503076445
 20
112.8110966328038
 30
0.0
 10
207.6904661676402
 20
112.8123539099146
 30
0.0
 10
207.7842604278918
 20
112.8216277912393
 30
0.0
 10
207.938979889624
 20
112.9228925887481
 30
0.0
 10
208.1117716520797
 20
113.1036604960883
 30
0.0
 10
208.160034587212
 20
113.2647648984893
 30
0.0
 10
208.1841778942648
 20
113.3453566205645
 30
0.0
  0
SPLINE
  5
369
330
1F
100
AcDbEntity
  8
0
  6
Continuous
 62
     8
370
    15
100
AcDbSpline
210
0.0
220
0.0
230
1.0
 70
     8
 71
     3
 72
    10
 73
     6
 74
     0
 42
0.00000001
 43
0.00000001
 40
0.0
 40
0.0
 40
0.0
 40
0.0
 40
0.3466504322796892
 40
0.6929608810510245
 40
1.0
 40
1.0
 40
1.0
 40
1.0
 10
208.1841778942648
 20
115.1689734338805
 30
0.0
 10
208.1598053406296
 20
115.248640845328
 30
0.0
 10
208.1110841371697
 20
115.4078975330081
 30
0.0
 10
207.9481353066712
 20
115.5933617291865
 30
0.0
 10
207.8067106868821
 20
115.6553106275134
 30
0.0
 10
207.7402487302159
 20
115.6844232742524
 30
0.0
  0
LINE
  5
36A
330
1F
100
AcDbEntity
  8
0
  6
Continuous
 62
     8
370
    15
100
AcDbLine
 10
198.2256497463
 20
68.9529744363
 30
0.0
 11
198.7156497464
 21
68.9529744363
 31
0.0
  0
LINE
  5
36B
330
1F
100
AcDbEntity
  8
0
  6
Continuous
 62
     8
370
    15
100
AcDbLine
 10
203.8577138829
 20
66.7629744363
 30
0.0
 11
203.9206497463
 21
66.7629744363
 31
0.0
  0
LINE
  5
36C
330
1F
100
AcDbEntity
  8
0
  6
Continuous
 62
     8
370
    15
100
AcDbLine
 10
196.2056497463
 20
49.4079744359
 30
0.0
 11
190.5056497463
 21
49.4079744359
 31
0.0
  0
LINE
  5
36D
330
1F
100
AcDbEntity
  8
0
  6
Continuous
 62
     8
370
    15
100
AcDbLine
 10
137.3056497463
 20
49.4079744359
 30
0.0
 11
131.6056497463
 21
49.4079744359
 31
0.0
  0
LINE
  5
36E
330
1F
100
AcDbEntity
  8
0
  6
Continuous
 62
     8
370
    15
100
AcDbLine
 10
196.5456497463
 20
65.8579744359
 30
0.0
 11
190.1656497463
 21
65.8579744359
 31
0.0
  0
LINE
  5
36F
330
1F
100
AcDbEntity
  8
0
  6
Continuous
 62
     8
370
    15
100
AcDbLine
 10
196.5456497463
 20
57.2112310305
 30
0.0
 11
190.1656497463
 21
57.2112310305
 31
0.0
  0
LINE
  5
370
330
1F
100
AcDbEntity
  8
0
  6
Continuous
 62
     8
370
    15
100
AcDbLine
 10
196.5392584236
 20
57.133984708
 30
0.0
 11
190.172041069
 21
57.133984708
 31
0.0
  0
LINE
  5
371
330
1F
100
AcDbEntity
  8
0
  6
Continuous
 62
     8
370
    15
100
AcDbLine
 10
137.6456497463
 20
65.8579744359
 30
0.0
 11
131.2656497463
 21
65.8579744359
 31
0.0
  0
LINE
  5
372
330
1F
100
AcDbEntity
  8
0
  6
Continuous
 62
     8
370
    15
100
AcDbLine
 10
137.6456497463
 20
57.2112310305
 30
0.0
 11
131.2656497463
 21
57.2112310305
 31
0.0
  0
LINE
  5
373
330
1F
100
AcDbEntity
  8
0
  6
Continuous
 62
     8
370
    15
100
AcDbLine
 10
137.6392584236
 20
57.133984708
 30
0.0
 11
131.272041069
 21
57.133984708
 31
0.0
  0
LINE
  5
374
330
1F
100
AcDbEntity
  8
0
  6
Continuous
 62
     8
370
    15
100
AcDbLine
 10
204.8024629474
 20
127.6329763578
 30
0.0
 11
204.6960165457
 21
127.9605846958
 31
0.0
  0
LINE
  5
375
330
1F
100
AcDbEntity
  8
0
  6
Continuous
 62
     8
370
    15
100
AcDbLine
 10
201.3679077908
 20
128.686056287
 30
0.0
 11
201.2729164977
 21
128.6548026281
 31
0.0
  0
LINE
  5
376
330
1F
100
AcDbEntity
  8
0
  6
Continuous
 62
     8
370
    15
100
AcDbLine
 10
201.4177648556
 20
128.5326120195
 30
0.0
 11
201.3226592039
 21
128.50171032
 31
0.0
  0
LINE
  5
377
330
1F
100
AcDbEntity
  8
0
  6
Continuous
 62
     8
370
    15
100
AcDbLine
 10
201.5798741154
 20
128.0336910193
 30
0.0
 11
201.4843966292
 21
128.003933709
 31
0.0
  0
LINE
  5
378
330
1F
100
AcDbEntity
  8
0
  6
Continuous
 62
     8
370
    15
100
AcDbLine
 10
201.5602144361
 20
128.0941972905
 30
0.0
 11
201.4653784801
 21
128.0624655534
 31
0.0
  0
LINE
  5
379
330
1F
100
AcDbEntity
  8
0
  6
Continuous
 62
     8
370
    15
100
AcDbLine
 10
201.6125999421
 20
127.9329712811
 30
0.0
 11
201.5170473918
 21
127.9034449945
 31
0.0
  0
LINE
  5
37A
330
1F
100
AcDbEntity
  8
0
  6
Continuous
 62
     8
370
    15
100
AcDbLine
 10
199.8965732755
 20
132.6275727731
 30
0.0
 11
199.8502822169
 21
132.6125318964
 31
0.0
  0
LINE
  5
37B
330
1F
100
AcDbEntity
  8
0
  6
Continuous
 62
     8
370
    15
100
AcDbLine
 10
199.8027293911
 20
132.695754346
 30
0.0
 11
199.8027293911
 21
132.6470810467
 31
0.0
  0
LINE
  5
37C
330
1F
100
AcDbEntity
  8
0
  6
Continuous
 62
     8
370
    15
100
AcDbLine
 10
199.939895635
 20
132.757418992
 30
0.0
 11
199.8970163297
 21
132.7434866611
 31
0.0
  0
LINE
  5
37D
330
1F
100
AcDbEntity
  8
0
  6
Continuous
 62
     8
370
    15
100
AcDbLine
 10
199.974974293
 20
132.7679357795
 30
0.0
 11
199.9339867425
 21
132.7888199796
 31
0.0
  0
LINE
  5
37E
330
1F
100
AcDbEntity
  8
0
  6
Continuous
 62
     8
370
    15
100
AcDbLine
 10
201.1500979449
 20
133.6107930951
 30
0.0
 11
201.1497712532
 21
133.6106510455
 31
0.0
  0
LINE
  5
37F
330
1F
100
AcDbEntity
  8
0
  6
Continuous
 62
     8
370
    15
100
AcDbLine
 10
199.2623556937
 20
138.1120810467
 30
0.0
 11
199.3023556937
 21
138.1120810467
 31
0.0
  0
LINE
  5
380
330
1F
100
AcDbEntity
  8
0
  6
Continuous
 62
     8
370
    15
100
AcDbLine
 10
201.4323305967
 20
138.2170810467
 30
0.0
 11
201.4323305967
 21
138.3179744359
 31
0.0
  0
LINE
  5
381
330
1F
100
AcDbEntity
  8
0
  6
Continuous
 62
     8
370
    15
100
AcDbLine
 10
132.4623305967
 20
138.4429744359
 30
0.0
 11
132.4723305967
 21
138.4429744359
 31
0.0
  0
LINE
  5
382
330
1F
100
AcDbEntity
  8
0
  6
Continuous
 62
     8
370
    15
100
AcDbLine
 10
133.4973305967
 20
138.3170810467
 30
0.0
 11
133.4973305967
 21
138.3179744359
 31
0.0
  0
LINE
  5
383
330
1F
100
AcDbEntity
  8
0
  6
Continuous
 62
     8
370
    15
100
AcDbLine
 10
132.5973305967
 20
138.3179744359
 30
0.0
 11
132.5973305967
 21
138.3170810467
 31
0.0
  0
LINE
  5
384
330
1F
100
AcDbEntity
  8
0
  6
Continuous
 62
     8
370
    15
100
AcDbLine
 10
198.0056497463
 20
72.6878351357
 30
0.0
 11
198.8456497463
 21
72.6878351357
 31
0.0
  0
LINE
  5
385
330
1F
100
AcDbEntity
  8
0
  6
Continuous
 62
     8
370
    15
100
AcDbLine
 10
198.0056497463
 20
113.6478351357
 30
0.0
 11
198.8456497463
 21
113.6478351357
 31
0.0
  0
LINE
  5
386
330
1F
100
AcDbEntity
  8
0
  6
Continuous
 62
     8
370
    15
100
AcDbLine
 10
203.6468841644
 20
119.7198482961
 30
0.0
 11
203.6335882705
 21
119.7563784646
 31
0.0
  0
SPLINE
  5
387
330
1F
100
AcDbEntity
  8
0
  6
Continuous
 62
     8
370
    15
100
AcDbSpline
210
0.0
220
0.0
230
1.0
 70
     8
 71
     3
 72
    14
 73
    10
 74
     0
 42
0.00000001
 43
0.00000001
 40
0.0
 40
0.0
 40
0.0
 40
0.0
 40
0.0818075833749618
 40
0.2591884211465227
 40
0.4354418403746447
 40
0.613376082911166
 40
0.7894652164311828
 40
0.9672763342041059
 40
0.9999999999999999
 40
0.9999999999999999
 40
0.9999999999999999
 40
0.9999999999999999
 10
195.8941245049048
 20
134.5570810466735
 30
0.0
 10
195.861598082484
 20
134.554619264504
 30
0.0
 10
195.7585456303152
 20
134.546819676649
 30
0.0
 10
195.5517274392902
 20
134.5334886571061
 30
0.0
 10
195.3136463281647
 20
134.5178321819088
 30
0.0
 10
195.1077911329148
 20
134.5013600523407
 30
0.0
 10
194.9716752000992
 20
134.4858028481751
 30
0.0
 10
194.9096450149811
 20
134.4737855419215
 30
0.0
 10
194.9219380012079
 20
134.4674867302497
 30
0.0
 10
194.9238487143267
 20
134.4665076986399
 30
0.0
  0
LINE
  5
388
330
1F
100
AcDbEntity
  8
0
  6
Continuous
 62
     8
370
    15
100
AcDbLine
 10
166.952780036
 20
134.4379744359
 30
0.0
 11
166.9308661358
 21
134.4418679946
 31
0.0
  0
SPLINE
  5
389
330
1F
100
AcDbEntity
  8
0
  6
Continuous
 62
     8
370
    15
100
AcDbSpline
210
0.0
220
0.0
230
1.0
 70
     8
 71
     3
 72
    14
 73
    10
 74
     0
 42
0.00000001
 43
0.00000001
 40
0.0
 40
0.0
 40
0.0
 40
0.0
 40
0.0818075833738797
 40
0.2591884211456515
 40
0.435441840373979
 40
0.6133760829107116
 40
0.7894652164309358
 40
0.9672763342040678
 40
1.0
 40
1.0
 40
1.0
 40
1.0
 10
167.7092612308272
 20
134.5570810466735
 30
0.0
 10
167.6767348084068
 20
134.554619264504
 30
0.0
 10
167.5736823562385
 20
134.5468196766491
 30
0.0
 10
167.366864165214
 20
134.5334886571062
 30
0.0
 10
167.1287830540885
 20
134.5178321819089
 30
0.0
 10
166.9229278588386
 20
134.5013600523409
 30
0.0
 10
166.786811926023
 20
134.4858028481752
 30
0.0
 10
166.7247817409049
 20
134.4737855419217
 30
0.0
 10
166.7370747271318
 20
134.4674867302498
 30
0.0
 10
166.7389854402505
 20
134.46650769864
 30
0.0
  0
SPLINE
  5
38A
330
1F
100
AcDbEntity
  8
0
  6
Continuous
 62
     8
370
    15
100
AcDbSpline
210
0.0
220
0.0
230
1.0
 70
     8
 71
     3
 72
    14
 73
    10
 74
     0
 42
0.00000001
 43
0.00000001
 40
0.0
 40
0.0
 40
0.0
 40
0.0
 40
0.081807583373877
 40
0.2591884211456476
 40
0.4354418403739743
 40
0.6133760829107096
 40
0.789465216430935
 40
0.9672763342040676
 40
1.0
 40
1.0
 40
1.0
 40
1.0
 10
137.0967357906639
 20
134.5570810466735
 30
0.0
 10
137.0642093682436
 20
134.554619264504
 30
0.0
 10
136.9611569160752
 20
134.5468196766491
 30
0.0
 10
136.7543387250508
 20
134.5334886571062
 30
0.0
 10
136.5162576139253
 20
134.5178321819089
 30
0.0
 10
136.3104024186754
 20
134.5013600523409
 30
0.0
 10
136.1742864858598
 20
134.4858028481752
 30
0.0
 10
136.1122563007417
 20
134.4737855419217
 30
0.0
 10
136.1245492869685
 20
134.4674867302498
 30
0.0
 10
136.1264600000873
 20
134.46650769864
 30
0.0
  0
LINE
  5
38B
330
1F
100
AcDbEntity
  8
0
  6
Continuous
 62
     8
370
    15
100
AcDbLine
 10
193.3952550561
 20
134.4379744359
 30
0.0
 11
193.3733411559
 21
134.4418679946
 31
0.0
  0
SPLINE
  5
38C
330
1F
100
AcDbEntity
  8
0
  6
Continuous
 62
     8
370
    15
100
AcDbSpline
210
0.0
220
0.0
230
1.0
 70
     8
 71
     3
 72
    14
 73
    10
 74
     0
 42
0.00000001
 43
0.00000001
 40
0.0
 40
0.0
 40
0.0
 40
0.0
 40
0.0818075833740118
 40
0.2591884211457559
 40
0.4354418403740603
 40
0.6133760829107657
 40
0.789465216430965
 40
0.9672763342040721
 40
1.0
 40
1.0
 40
1.0
 40
1.0
 10
194.1517362509796
 20
134.5570810466735
 30
0.0
 10
194.1192098285592
 20
134.554619264504
 30
0.0
 10
194.0161573763908
 20
134.5468196766491
 30
0.0
 10
193.8093391853662
 20
134.5334886571062
 30
0.0
 10
193.5712580742408
 20
134.5178321819089
 30
0.0
 10
193.3654028789909
 20
134.5013600523408
 30
0.0
 10
193.2292869461753
 20
134.4858028481752
 30
0.0
 10
193.1672567610572
 20
134.4737855419216
 30
0.0
 10
193.179549747284
 20
134.4674867302498
 30
0.0
 10
193.1814604604028
 20
134.46650769864
 30
0.0
  0
SPLINE
  5
38D
330
1F
100
AcDbEntity
  8
0
  6
Continuous
 62
     8
370
    15
100
AcDbSpline
210
0.0
220
0.0
230
1.0
 70
     8
 71
     3
 72
     9
 73
     5
 74
     0
 42
0.00000001
 43
0.00000001
 40
0.0
 40
0.0
 40
0.0
 40
0.0
 40
0.844568839214191
 40
1.0
 40
1.0
 40
1.0
 40
1.0
 10
168.4832350001242
 20
134.4856928196795
 30
0.0
 10
168.450662162419
 20
134.4802435135084
 30
0.0
 10
168.4120947464869
 20
134.4737913382466
 30
0.0
 10
168.4246494147782
 20
134.4674875099843
 30
0.0
 10
168.426600801444
 20
134.4665076986401
 30
0.0
  0
SPLINE
  5
38E
330
1F
100
AcDbEntity
  8
0
  6
Continuous
 62
     8
370
    15
100
AcDbSpline
210
0.0
220
0.0
230
1.0
 70
     8
 71
     3
 72
    14
 73
    10
 74
     0
 42
0.00000001
 43
0.00000001
 40
0.0
 40
0.0
 40
0.0
 40
0.0
 40
0.0818075833745092
 40
0.2591884211461598
 40
0.4354418403743674
 40
0.6133760829109788
 40
0.7894652164310832
 40
0.9672763342040942
 40
1.0
 40
1.0
 40
1.0
 40
1.0
 10
163.5967357902905
 20
134.5570810466735
 30
0.0
 10
163.5642093678699
 20
134.554619264504
 30
0.0
 10
163.4611569157013
 20
134.5468196766491
 30
0.0
 10
163.2543387246765
 20
134.5334886571061
 30
0.0
 10
163.016257613551
 20
134.5178321819088
 30
0.0
 10
162.8104024183011
 20
134.5013600523408
 30
0.0
 10
162.6742864854855
 20
134.4858028481752
 30
0.0
 10
162.6122563003674
 20
134.4737855419216
 30
0.0
 10
162.6245492865942
 20
134.4674867302497
 30
0.0
 10
162.626459999713
 20
134.46650769864
 30
0.0
  0
SPLINE
  5
38F
330
1F
100
AcDbEntity
  8
0
  6
Continuous
 62
     8
370
    15
100
AcDbSpline
210
0.0
220
0.0
230
1.0
 70
     8
 71
     3
 72
    14
 73
    10
 74
     0
 42
0.00000001
 43
0.00000001
 40
0.0
 40
0.0
 40
0.0
 40
0.0
 40
0.0818075833725227
 40
0.2591884211445566
 40
0.4354418403731447
 40
0.61337608291014
 40
0.7894652164306246
 40
0.9672763342040194
 40
1.0
 40
1.0
 40
1.0
 40
1.0
 10
169.4544015714925
 20
134.5570810466735
 30
0.0
 10
169.4218751490728
 20
134.5546192645041
 30
0.0
 10
169.318822696905
 20
134.5468196766492
 30
0.0
 10
169.1120045058811
 20
134.5334886571063
 30
0.0
 10
168.8739233947557
 20
134.517832181909
 30
0.0
 10
168.6680681995058
 20
134.501360052341
 30
0.0
 10
168.5319522666902
 20
134.4858028481754
 30
0.0
 10
168.4699220815721
 20
134.4737855419218
 30
0.0
 10
168.4822150677989
 20
134.4674867302499
 30
0.0
 10
168.4841257809177
 20
134.4665076986402
 30
0.0
  0
LINE
  5
390
330
1F
100
AcDbEntity
  8
0
  6
Continuous
 62
     8
370
    15
100
AcDbLine
 10
126.1812744961
 20
68.6847236967
 30
0.0
 11
126.1812744961
 21
68.6704744359
 31
0.0
  0
LINE
  5
391
330
1F
100
AcDbEntity
  8
0
  6
Continuous
 62
     8
370
    15
100
AcDbLine
 10
126.1812744961
 20
72.0454744359
 30
0.0
 11
126.1812744961
 21
68.6847236967
 31
0.0
  0
SPLINE
  5
392
330
1F
100
AcDbEntity
  8
0
  6
Continuous
 62
     8
370
    15
100
AcDbSpline
210
0.0
220
0.0
230
1.0
 70
     8
 71
     3
 72
    11
 73
     7
 74
     0
 42
0.00000001
 43
0.00000001
 40
0.0
 40
0.0
 40
0.0
 40
0.0
 40
0.004994278609018
 40
0.344965939649562
 40
0.6720129185546746
 40
1.0
 40
1.0
 40
1.0
 40
1.0
 10
204.025649746368
 20
75.5889358425843
 30
0.0
 10
204.0259510651994
 20
75.58888341928078
 30
0.0
 10
204.0467638275453
 20
75.5852624250227
 30
0.0
 10
204.074622355436
 20
75.57554521359377
 30
0.0
 10
204.1053630403594
 20
75.56041869807338
 30
0.0
 10
204.1088858257147
 20
75.54961332535495
 30
0.0
 10
204.1106497463368
 20
75.5442028850796
 30
0.0
  0
SPLINE
  5
393
330
1F
100
AcDbEntity
  8
0
  6
Continuous
 62
     8
370
    15
100
AcDbSpline
210
0.0
220
0.0
230
1.0
 70
     8
 71
     3
 72
    11
 73
     7
 74
     0
 42
0.00000001
 43
0.00000001
 40
0.0
 40
0.0
 40
0.0
 40
0.0
 40
0.00498682577754
 40
0.3449644509124964
 40
0.6720115715189258
 40
1.0
 40
1.0
 40
1.0
 40
1.0
 10
204.025649746368
 20
70.00698055915872
 30
0.0
 10
204.0259506199035
 20
70.00703294334211
 30
0.0
 10
204.0467635936427
 20
70.0106566273988
 30
0.0
 10
204.0746222018064
 20
70.02038078042652
 30
0.0
 10
204.1053630721543
 20
70.03551843911787
 30
0.0
 10
204.1088858341672
 20
70.0463316245353
 30
0.0
 10
204.1106497463368
 20
70.05174598669758
 30
0.0
  0
LINE
  5
394
330
1F
100
AcDbEntity
  8
0
  6
Continuous
 62
     8
370
    15
100
AcDbLine
 10
202.1756497464
 20
119.2579744359
 30
0.0
 11
200.3256497464
 21
119.2579744359
 31
0.0
  0
LINE
  5
395
330
1F
100
AcDbEntity
  8
0
  6
Continuous
 62
     8
370
    15
100
AcDbLine
 10
198.9206497464
 20
118.9529744359
 30
0.0
 11
198.9206497464
 21
118.9514831108
 31
0.0
  0
LINE
  5
396
330
1F
100
AcDbEntity
  8
0
  6
Continuous
 62
     8
370
    15
100
AcDbLine
 10
198.9206497464
 20
66.9644657611
 30
0.0
 11
198.9206497464
 21
66.9629744359
 31
0.0
  0
LINE
  5
397
330
1F
100
AcDbEntity
  8
0
  6
Continuous
 62
     8
370
    15
100
AcDbLine
 10
197.8006497463
 20
66.1279744359
 30
0.0
 11
197.8006497463
 21
66.0779744359
 31
0.0
  0
LINE
  5
398
330
1F
100
AcDbEntity
  8
0
  6
Continuous
 62
     8
370
    15
100
AcDbLine
 10
196.9256497463
 20
66.1279744359
 30
0.0
 11
196.9256497463
 21
66.0779744359
 31
0.0
  0
LINE
  5
399
330
1F
100
AcDbEntity
  8
0
  6
Continuous
 62
     8
370
    15
100
AcDbLine
 10
198.2256497463
 20
66.9079744359
 30
0.0
 11
198.0056497463
 21
66.9079744359
 31
0.0
  0
ENDSEC
  0
SECTION
  2
OBJECTS
  0
DICTIONARY
  5
C
330
0
100
AcDbDictionary
281
     1
  3
ACAD_GROUP
350
D
  3
ACAD_LAYOUT
350
1A
  3
ACAD_MLINESTYLE
350
17
  3
ACAD_PLOTSETTINGS
350
19
  3
ACAD_PLOTSTYLENAME
350
E
  0
DICTIONARY
  5
D
102
{ACAD_REACTORS
330
C
102
}
330
C
100
AcDbDictionary
281
     1
  0
DICTIONARY
  5
1A
102
{ACAD_REACTORS
330
C
102
}
330
C
100
AcDbDictionary
281
     1
  3
Layout1
350
1E
  3
Layout2
350
26
  3
Model
350
22
  0
DICTIONARY
  5
17
102
{ACAD_REACTORS
330
C
102
}
330
C
100
AcDbDictionary
281
     1
  3
Standard
350
18
  0
DICTIONARY
  5
19
102
{ACAD_REACTORS
330
C
102
}
330
C
100
AcDbDictionary
281
     1
  0
ACDBDICTIONARYWDFLT
  5
E
102
{ACAD_REACTORS
330
C
102
}
330
C
100
AcDbDictionary
281
     1
  3
Normal
350
F
100
AcDbDictionaryWithDefault
340
F
  0
LAYOUT
  5
1E
102
{ACAD_REACTORS
330
1A
102
}
330
1A
100
AcDbPlotSettings
  1

  2
none_device
  4

  6

 40
0.0
 41
0.0
 42
0.0
 43
0.0
 44
0.0
 45
0.0
 46
0.0
 47
0.0
 48
0.0
 49
0.0
140
0.0
141
0.0
142
1.0
143
1.0
 70
   688
 72
     0
 73
     0
 74
     5
  7

 75
    16
147
1.0
148
0.0
149
0.0
100
AcDbLayout
  1
Layout1
 70
     1
 71
     1
 10
0.0
 20
0.0
 11
420.0
 21
297.0
 12
0.0
 22
0.0
 32
0.0
 14
1.0000000000E+20
 24
1.0000000000E+20
 34
1.0000000000E+20
 15
-1.0000000000E+20
 25
-1.0000000000E+20
 35
-1.0000000000E+20
146
0.0
 13
0.0
 23
0.0
 33
0.0
 16
1.0
 26
0.0
 36
0.0
 17
0.0
 27
1.0
 37
0.0
 76
     0
330
1B
  0
LAYOUT
  5
26
102
{ACAD_REACTORS
330
1A
102
}
330
1A
100
AcDbPlotSettings
  1

  2
none_device
  4

  6

 40
0.0
 41
0.0
 42
0.0
 43
0.0
 44
0.0
 45
0.0
 46
0.0
 47
0.0
 48
0.0
 49
0.0
140
0.0
141
0.0
142
1.0
143
1.0
 70
   688
 72
     0
 73
     0
 74
     5
  7

 75
    16
147
1.0
148
0.0
149
0.0
100
AcDbLayout
  1
Layout2
 70
     1
 71
     2
 10
0.0
 20
0.0
 11
0.0
 21
0.0
 12
0.0
 22
0.0
 32
0.0
 14
0.0
 24
0.0
 34
0.0
 15
0.0
 25
0.0
 35
0.0
146
0.0
 13
0.0
 23
0.0
 33
0.0
 16
1.0
 26
0.0
 36
0.0
 17
0.0
 27
1.0
 37
0.0
 76
     0
330
23
  0
LAYOUT
  5
22
102
{ACAD_REACTORS
330
1A
102
}
330
1A
100
AcDbPlotSettings
  1

  2
none_device
  4

  6

 40
0.0
 41
0.0
 42
0.0
 43
0.0
 44
0.0
 45
0.0
 46
0.0
 47
0.0
 48
0.0
 49
0.0
140
0.0
141
0.0
142
1.0
143
1.0
 70
  1712
 72
     0
 73
     0
 74
     0
  7

 75
     0
147
1.0
148
0.0
149
0.0
100
AcDbLayout
  1
Model
 70
     1
 71
     0
 10
0.0
 20
0.0
 11
420.0
 21
297.0
 12
0.0
 22
0.0
 32
0.0
 14
0.0
 24
0.0
 34
0.0
 15
420.0
 25
297.0
 35
0.0
146
0.0
 13
0.0
 23
0.0
 33
0.0
 16
1.0
 26
0.0
 36
0.0
 17
0.0
 27
1.0
 37
0.0
 76
     0
330
1F
331
29
  0
MLINESTYLE
  5
18
102
{ACAD_REACTORS
330
17
102
}
330
17
100
AcDbMlineStyle
  2
Standard
 70
     0
  3

 62
   256
 51
90.0
 52
90.0
 71
     2
 49
0.5
 62
   256
  6
BYLAYER
 49
-0.5
 62
   256
  6
BYLAYER
  0
ACDBPLACEHOLDER
  5
F
102
{ACAD_REACTORS
330
E
102
}
330
E
  0
ENDSEC
  0
EOF
