  0
SECTION
  2
HEADER
  9
$ACADVER
  1
AC1018
  9
$ACADMAINTVER
 70
   104
  9
$DWGCODEPAGE
  3
ANSI_1252
  9
$LASTSAVEDBY
  1
Simon
  9
$INSBASE
 10
0.0
 20
0.0
 30
0.0
  9
$EXTMIN
 10
80.2560435517878
 20
98.46826252488916
 30
-0.0002835931653671
  9
$EXTMAX
 10
157.9934699111543
 20
161.25718742313
 30
0.0001890909610331
  9
$LIMMIN
 10
0.0
 20
0.0
  9
$LIMMAX
 10
420.0
 20
297.0
  9
$ORTHOMODE
 70
     0
  9
$REGENMODE
 70
     1
  9
$FILLMODE
 70
     1
  9
$QTEXTMODE
 70
     0
  9
$MIRRTEXT
 70
     1
  9
$LTSCALE
 40
1.0
  9
$ATTMODE
 70
     1
  9
$TEXTSIZE
 40
2.5
  9
$TRACEWID
 40
1.0
  9
$TEXTSTYLE
  7
STANDARD
  9
$CLAYER
  8
0
  9
$CELTYPE
  6
ByLayer
  9
$CECOLOR
 62
   256
  9
$CELTSCALE
 40
1.0
  9
$DISPSILH
 70
     0
  9
$DIMSCALE
 40
1.0
  9
$DIMASZ
 40
3.302
  9
$DIMEXO
 40
1.0
  9
$DIMDLI
 40
3.75
  9
$DIMRND
 40
0.0
  9
$DIMDLE
 40
0.0
  9
$DIMEXE
 40
1.0
  9
$DIMTP
 40
0.0
  9
$DIMTM
 40
0.0
  9
$DIMTXT
 40
3.5
  9
$DIMCEN
 40
2.5
  9
$DIMTSZ
 40
0.0
  9
$DIMTOL
 70
     0
  9
$DIMLIM
 70
     0
  9
$DIMTIH
 70
     1
  9
$DIMTOH
 70
     1
  9
$DIMSE1
 70
     0
  9
$DIMSE2
 70
     0
  9
$DIMTAD
 70
     1
  9
$DIMZIN
 70
     0
  9
$DIMBLK
  1

  9
$DIMASO
 70
     1
  9
$DIMSHO
 70
     1
  9
$DIMPOST
  1

  9
$DIMAPOST
  1

  9
$DIMALT
 70
     0
  9
$DIMALTD
 70
     3
  9
$DIMALTF
 40
0.0393700787
  9
$DIMLFAC
 40
10.0
  9
$DIMTOFL
 70
     1
  9
$DIMTVP
 40
0.0
  9
$DIMTIX
 70
     0
  9
$DIMSOXD
 70
     0
  9
$DIMSAH
 70
     0
  9
$DIMBLK1
  1

  9
$DIMBLK2
  1

  9
$DIMSTYLE
  2
ISO-25
  9
$DIMCLRD
 70
     0
  9
$DIMCLRE
 70
     0
  9
$DIMCLRT
 70
     0
  9
$DIMTFAC
 40
1.0
  9
$DIMGAP
 40
1.524
  9
$DIMJUST
 70
     0
  9
$DIMSD1
 70
     0
  9
$DIMSD2
 70
     0
  9
$DIMTOLJ
 70
     0
  9
$DIMTZIN
 70
     0
  9
$DIMALTZ
 70
     0
  9
$DIMALTTZ
 70
     0
  9
$DIMUPT
 70
     0
  9
$DIMDEC
 70
     1
  9
$DIMTDEC
 70
     1
  9
$DIMALTU
 70
     2
  9
$DIMALTTD
 70
     3
  9
$DIMTXSTY
  7
STANDARD
  9
$DIMAUNIT
 70
     0
  9
$DIMADEC
 70
     1
  9
$DIMALTRND
 40
0.0
  9
$DIMAZIN
 70
     0
  9
$DIMDSEP
 70
    44
  9
$DIMATFIT
 70
     3
  9
$DIMFRAC
 70
     0
  9
$DIMLDRBLK
  1

  9
$DIMLUNIT
 70
     2
  9
$DIMLWD
 70
    -2
  9
$DIMLWE
 70
    -2
  9
$DIMTMOVE
 70
     0
  9
$LUNITS
 70
     2
  9
$LUPREC
 70
     1
  9
$SKETCHINC
 40
1.0
  9
$FILLETRAD
 40
10.0
  9
$AUNITS
 70
     0
  9
$AUPREC
 70
     1
  9
$MENU
  1
.
  9
$ELEVATION
 40
0.0
  9
$PELEVATION
 40
0.0
  9
$THICKNESS
 40
0.0
  9
$LIMCHECK
 70
     0
  9
$CHAMFERA
 40
10.0
  9
$CHAMFERB
 40
10.0
  9
$CHAMFERC
 40
20.0
  9
$CHAMFERD
 40
0.0
  9
$SKPOLY
 70
     0
  9
$TDCREATE
 40
2455497.289422442
  9
$TDUCREATE
 40
2455497.289422442
  9
$TDUPDATE
 40
2455545.711378217
  9
$TDUUPDATE
 40
2455545.711378217
  9
$TDINDWG
 40
0.0078868403
  9
$TDUSRTIMER
 40
0.0078868403
  9
$USRTIMER
 70
     1
  9
$ANGBASE
 50
0.0
  9
$ANGDIR
 70
     0
  9
$PDMODE
 70
     0
  9
$PDSIZE
 40
-1.0
  9
$PLINEWID
 40
0.0
  9
$SPLFRAME
 70
     0
  9
$SPLINETYPE
 70
     6
  9
$SPLINESEGS
 70
     8
  9
$HANDSEED
  5
D42
  9
$SURFTAB1
 70
     6
  9
$SURFTAB2
 70
     6
  9
$SURFTYPE
 70
     6
  9
$SURFU
 70
     6
  9
$SURFV
 70
     6
  9
$UCSBASE
  2

  9
$UCSNAME
  2

  9
$UCSORG
 10
0.0
 20
0.0
 30
0.0
  9
$UCSXDIR
 10
1.0
 20
0.0
 30
0.0
  9
$UCSYDIR
 10
0.0
 20
1.0
 30
0.0
  9
$UCSORTHOREF
  2

  9
$UCSORTHOVIEW
 70
     1
  9
$UCSORGTOP
 10
0.0
 20
0.0
 30
0.0
  9
$UCSORGBOTTOM
 10
0.0
 20
0.0
 30
0.0
  9
$UCSORGLEFT
 10
0.0
 20
0.0
 30
0.0
  9
$UCSORGRIGHT
 10
0.0
 20
0.0
 30
0.0
  9
$UCSORGFRONT
 10
0.0
 20
0.0
 30
0.0
  9
$UCSORGBACK
 10
0.0
 20
0.0
 30
0.0
  9
$PUCSBASE
  2

  9
$PUCSNAME
  2

  9
$PUCSORG
 10
0.0
 20
0.0
 30
0.0
  9
$PUCSXDIR
 10
1.0
 20
0.0
 30
0.0
  9
$PUCSYDIR
 10
0.0
 20
1.0
 30
0.0
  9
$PUCSORTHOREF
  2

  9
$PUCSORTHOVIEW
 70
     0
  9
$PUCSORGTOP
 10
0.0
 20
0.0
 30
0.0
  9
$PUCSORGBOTTOM
 10
0.0
 20
0.0
 30
0.0
  9
$PUCSORGLEFT
 10
0.0
 20
0.0
 30
0.0
  9
$PUCSORGRIGHT
 10
0.0
 20
0.0
 30
0.0
  9
$PUCSORGFRONT
 10
0.0
 20
0.0
 30
0.0
  9
$PUCSORGBACK
 10
0.0
 20
0.0
 30
0.0
  9
$USERI1
 70
     0
  9
$USERI2
 70
     0
  9
$USERI3
 70
     0
  9
$USERI4
 70
     0
  9
$USERI5
 70
     0
  9
$USERR1
 40
0.0
  9
$USERR2
 40
0.0
  9
$USERR3
 40
0.0
  9
$USERR4
 40
0.0
  9
$USERR5
 40
0.0
  9
$WORLDVIEW
 70
     1
  9
$SHADEDGE
 70
     3
  9
$SHADEDIF
 70
    70
  9
$TILEMODE
 70
     1
  9
$MAXACTVP
 70
    64
  9
$PINSBASE
 10
0.0
 20
0.0
 30
0.0
  9
$PLIMCHECK
 70
     0
  9
$PEXTMIN
 10
1.000000000000000E+20
 20
1.000000000000000E+20
 30
1.000000000000000E+20
  9
$PEXTMAX
 10
-1.000000000000000E+20
 20
-1.000000000000000E+20
 30
-1.000000000000000E+20
  9
$PLIMMIN
 10
0.0
 20
0.0
  9
$PLIMMAX
 10
420.0
 20
297.0
  9
$UNITMODE
 70
     0
  9
$VISRETAIN
 70
     1
  9
$PLINEGEN
 70
     0
  9
$PSLTSCALE
 70
     1
  9
$TREEDEPTH
 70
  3020
  9
$CMLSTYLE
  2
Standard
  9
$CMLJUST
 70
     0
  9
$CMLSCALE
 40
20.0
  9
$PROXYGRAPHICS
 70
     1
  9
$MEASUREMENT
 70
     1
  9
$CELWEIGHT
370
    -1
  9
$ENDCAPS
280
     0
  9
$JOINSTYLE
280
     0
  9
$LWDISPLAY
290
     1
  9
$INSUNITS
 70
     4
  9
$HYPERLINKBASE
  1

  9
$STYLESHEET
  1

  9
$XEDIT
290
     1
  9
$CEPSNTYPE
380
     0
  9
$PSTYLEMODE
290
     1
  9
$FINGERPRINTGUID
  2
{F2AE55AF-2DF7-46F2-9725-2307856F767D}
  9
$VERSIONGUID
  2
{AC7A94F6-A445-422E-930B-E736B48A7485}
  9
$EXTNAMES
290
     1
  9
$PSVPSCALE
 40
0.0
  9
$OLESTARTUP
290
     0
  9
$SORTENTS
280
   127
  9
$INDEXCTL
280
     0
  9
$HIDETEXT
280
     0
  9
$XCLIPFRAME
290
     0
  9
$HALOGAP
280
     0
  9
$OBSCOLOR
 70
   257
  9
$OBSLTYPE
280
     0
  9
$INTERSECTIONDISPLAY
280
     0
  9
$INTERSECTIONCOLOR
 70
   257
  9
$DIMASSOC
280
     1
  9
$PROJECTNAME
  1

  0
ENDSEC
  0
SECTION
  2
CLASSES
  0
CLASS
  1
ACDBDICTIONARYWDFLT
  2
AcDbDictionaryWithDefault
  3
ObjectDBX Classes
 90
        0
 91
        1
280
     0
281
     0
  0
CLASS
  1
VISUALSTYLE
  2
AcDbVisualStyle
  3
ObjectDBX Classes
 90
     4095
 91
       16
280
     0
281
     0
  0
CLASS
  1
MATERIAL
  2
AcDbMaterial
  3
ObjectDBX Classes
 90
     1024
 91
        3
280
     0
281
     0
  0
CLASS
  1
SCALE
  2
AcDbScale
  3
ObjectDBX Classes
 90
     1153
 91
       33
280
     0
281
     0
  0
CLASS
  1
DICTIONARYVAR
  2
AcDbDictionaryVar
  3
ObjectDBX Classes
 90
        0
 91
        2
280
     0
281
     0
  0
CLASS
  1
ACDBPLACEHOLDER
  2
AcDbPlaceHolder
  3
ObjectDBX Classes
 90
        0
 91
        1
280
     0
281
     0
  0
CLASS
  1
LAYOUT
  2
AcDbLayout
  3
ObjectDBX Classes
 90
        0
 91
        3
280
     0
281
     0
  0
CLASS
  1
TABLESTYLE
  2
AcDbTableStyle
  3
ObjectDBX Classes
 90
     4095
 91
        1
280
     0
281
     0
  0
ENDSEC
  0
SECTION
  2
TABLES
  0
TABLE
  2
VPORT
  5
8
330
0
100
AcDbSymbolTable
 70
     1
  0
VPORT
  5
29
330
8
100
AcDbSymbolTableRecord
100
AcDbViewportTableRecord
  2
*Active
 70
     0
 10
0.0
 20
0.0
 11
1.0
 21
1.0
 12
138.3901924769533
 22
120.1239887412984
 13
0.0
 23
0.0
 14
10.0
 24
10.0
 15
10.0
 25
10.0
 16
0.0
 26
0.0
 36
1.0
 17
0.0
 27
0.0
 37
0.0
 40
101.1500573015934
 41
1.739789964994165
 42
50.0
 43
0.0
 44
0.0
 50
0.0
 51
0.0
 71
     0
 72
  2000
 73
     1
 74
     3
 75
     0
 76
     0
 77
     0
 78
     0
281
     0
 65
     1
110
0.0
120
0.0
130
0.0
111
1.0
121
0.0
131
0.0
112
0.0
122
1.0
132
0.0
 79
     0
146
0.0
  0
ENDTAB
  0
TABLE
  2
LTYPE
  5
5
330
0
100
AcDbSymbolTable
 70
     8
  0
LTYPE
  5
14
330
5
100
AcDbSymbolTableRecord
100
AcDbLinetypeTableRecord
  2
ByBlock
 70
     0
  3

 72
    65
 73
     0
 40
0.0
  0
LTYPE
  5
15
330
5
100
AcDbSymbolTableRecord
100
AcDbLinetypeTableRecord
  2
ByLayer
 70
     0
  3

 72
    65
 73
     0
 40
0.0
  0
LTYPE
  5
16
330
5
100
AcDbSymbolTableRecord
100
AcDbLinetypeTableRecord
  2
Continuous
 70
     0
  3
Solid line
 72
    65
 73
     0
 40
0.0
  0
LTYPE
  5
3F
330
5
100
AcDbSymbolTableRecord
100
AcDbLinetypeTableRecord
  2
SLD-Solid
 70
     0
  3
SolidWorks Line Style
 72
    65
 73
     0
 40
0.0
  0
LTYPE
  5
40
330
5
100
AcDbSymbolTableRecord
100
AcDbLinetypeTableRecord
  2
SLD-Dashed
 70
     0
  3
SolidWorks Line Style
 72
    65
 73
     2
 40
1.905
 49
1.27
 74
     0
 49
-0.635
 74
     0
  0
LTYPE
  5
41
330
5
100
AcDbSymbolTableRecord
100
AcDbLinetypeTableRecord
  2
SLD-Phantom
 70
     0
  3
SolidWorks Line Style
 72
    65
 73
     6
 40
12.7
 49
6.349999999999999
 74
     0
 49
-1.27
 74
     0
 49
1.27
 74
     0
 49
-1.27
 74
     0
 49
1.27
 74
     0
 49
-1.27
 74
     0
  0
LTYPE
  5
42
330
5
100
AcDbSymbolTableRecord
100
AcDbLinetypeTableRecord
  2
SLD-Chain
 70
     0
  3
SolidWorks Line Style
 72
    65
 73
     4
 40
10.16
 49
6.349999999999999
 74
     0
 49
-1.27
 74
     0
 49
1.27
 74
     0
 49
-1.27
 74
     0
  0
LTYPE
  5
43
330
5
100
AcDbSymbolTableRecord
100
AcDbLinetypeTableRecord
  2
SLD-Center
 70
     0
  3
SolidWorks Line Style
 72
    65
 73
     4
 40
19.05
 49
15.24
 74
     0
 49
-1.27
 74
     0
 49
1.27
 74
     0
 49
-1.27
 74
     0
  0
LTYPE
  5
44
330
5
100
AcDbSymbolTableRecord
100
AcDbLinetypeTableRecord
  2
SLD-Stitch
 70
     0
  3
SolidWorks Line Style
 72
    65
 73
     2
 40
0.635
 49
0.0
 74
     0
 49
-0.635
 74
     0
  0
LTYPE
  5
45
330
5
100
AcDbSymbolTableRecord
100
AcDbLinetypeTableRecord
  2
SLD-Thin-Thick-Chain
 70
     0
  3
SolidWorks Line Style
 72
    65
 73
     4
 40
10.16
 49
6.349999999999999
 74
     0
 49
-1.27
 74
     0
 49
1.27
 74
     0
 49
-1.27
 74
     0
  0
ENDTAB
  0
TABLE
  2
LAYER
  5
2
330
0
100
AcDbSymbolTable
 70
     4
  0
LAYER
  5
10
330
2
100
AcDbSymbolTableRecord
100
AcDbLayerTableRecord
  2
0
 70
     0
 62
     7
  6
Continuous
370
    -3
390
F
  0
LAYER
  5
46
330
2
100
AcDbSymbolTableRecord
100
AcDbLayerTableRecord
  2
FORMAT
 70
     0
 62
     7
  6
SLD-Solid
370
    -3
390
F
  0
LAYER
  5
47
330
2
100
AcDbSymbolTableRecord
100
AcDbLayerTableRecord
  2
SLD-0
 70
     0
 62
     1
  6
SLD-Solid
370
    -3
390
F
  0
LAYER
  5
48
330
2
100
AcDbSymbolTableRecord
100
AcDbLayerTableRecord
  2
WATERMARK
 70
     0
 62
    20
  6
SLD-Solid
370
    -3
390
F
  0
ENDTAB
  0
TABLE
  2
STYLE
  5
3
330
0
100
AcDbSymbolTable
 70
     2
  0
STYLE
  5
11
330
3
100
AcDbSymbolTableRecord
100
AcDbTextStyleTableRecord
  2
STANDARD
 70
     0
 40
0.0
 41
1.0
 50
0.0
 71
     0
 42
2.5
  3
GOTHIC.TTF
  4

1001
ACAD
1000
CENTURY GOTHIC
1071
       34
  0
STYLE
  5
96B
330
3
100
AcDbSymbolTableRecord
100
AcDbTextStyleTableRecord
  2
SLDTEXTSTYLE0
 70
     0
 40
0.0
 41
0.9129999999999999
 50
0.0
 71
     0
 42
0.2
  3
GOTHIC.TTF
  4

1001
ACAD
1000
Century Gothic
1071
      290
  0
ENDTAB
  0
TABLE
  2
VIEW
  5
6
330
0
100
AcDbSymbolTable
 70
     3
  0
ENDTAB
  0
TABLE
  2
UCS
  5
7
330
0
100
AcDbSymbolTable
 70
     0
  0
ENDTAB
  0
TABLE
  2
APPID
  5
9
330
0
100
AcDbSymbolTable
 70
     1
  0
APPID
  5
12
330
9
100
AcDbSymbolTableRecord
100
AcDbRegAppTableRecord
  2
ACAD
 70
     0
  0
ENDTAB
  0
TABLE
  2
DIMSTYLE
  5
A
330
0
100
AcDbSymbolTable
 70
     3
100
AcDbDimStyleTable
 71
     0
  0
DIMSTYLE
105
27
330
A
100
AcDbSymbolTableRecord
100
AcDbDimStyleTableRecord
  2
ISO-25
 70
     0
 41
2.5
 42
0.625
 43
3.75
 44
1.25
 73
     0
 74
     0
 77
     1
 78
     8
140
2.5
141
2.5
143
0.0393700787
147
0.625
171
     3
172
     1
271
     2
272
     2
274
     3
278
    44
283
     0
284
     8
340
11
  0
DIMSTYLE
105
96C
330
A
100
AcDbSymbolTableRecord
100
AcDbDimStyleTableRecord
  2
SLDDIMSTYLE0
 70
     0
 41
3.302
 44
0.0
 45
0.000000001
 73
     0
 74
     0
 77
     2
 78
    12
140
3.5
144
10.0
147
0.875
173
     1
271
     1
272
     1
276
     2
284
    12
340
96B
341
96D
343
96D
344
96D
  0
DIMSTYLE
105
C09
330
A
100
AcDbSymbolTableRecord
100
AcDbDimStyleTableRecord
  2
SLDDIMSTYLE1
 70
     0
 41
3.302
 44
0.0
 45
0.000000001
 73
     0
 74
     0
 77
     2
 78
    12
140
3.5
144
10.0
147
0.875
173
     1
271
     0
272
     0
276
     2
284
    12
340
96B
341
96D
343
96D
344
96D
  0
ENDTAB
  0
TABLE
  2
BLOCK_RECORD
  5
1
330
0
100
AcDbSymbolTable
 70
     6
  0
BLOCK_RECORD
  5
1F
330
1
100
AcDbSymbolTableRecord
100
AcDbBlockTableRecord
  2
*Model_Space
340
22
  0
BLOCK_RECORD
  5
1B
330
1
100
AcDbSymbolTableRecord
100
AcDbBlockTableRecord
  2
*Paper_Space
340
1E
  0
BLOCK_RECORD
  5
23
330
1
100
AcDbSymbolTableRecord
100
AcDbBlockTableRecord
  2
*Paper_Space0
340
26
  0
BLOCK_RECORD
  5
96D
330
1
100
AcDbSymbolTableRecord
100
AcDbBlockTableRecord
  2
_CLOSED
340
0
102
{BLKREFS
331
977
331
978
331
C02
331
C03
331
C0D
331
C0E
331
C17
331
C18
102
}
  0
BLOCK_RECORD
  5
974
330
1
100
AcDbSymbolTableRecord
100
AcDbBlockTableRecord
  2
*D2
340
0
  0
BLOCK_RECORD
  5
BFF
330
1
100
AcDbSymbolTableRecord
100
AcDbBlockTableRecord
  2
*D3
340
0
  0
BLOCK_RECORD
  5
C0A
330
1
100
AcDbSymbolTableRecord
100
AcDbBlockTableRecord
  2
*D4
340
0
  0
BLOCK_RECORD
  5
C14
330
1
100
AcDbSymbolTableRecord
100
AcDbBlockTableRecord
  2
*D5
340
0
  0
ENDTAB
  0
ENDSEC
  0
SECTION
  2
BLOCKS
  0
BLOCK
  5
20
330
1F
100
AcDbEntity
  8
0
100
AcDbBlockBegin
  2
*Model_Space
 70
     0
 10
0.0
 20
0.0
 30
0.0
  3
*Model_Space
  1

  0
ENDBLK
  5
21
330
1F
100
AcDbEntity
  8
0
100
AcDbBlockEnd
  0
BLOCK
  5
1C
330
1B
100
AcDbEntity
 67
     1
  8
0
100
AcDbBlockBegin
  2
*Paper_Space
 70
     0
 10
0.0
 20
0.0
 30
0.0
  3
*Paper_Space
  1

  0
ENDBLK
  5
1D
330
1B
100
AcDbEntity
 67
     1
  8
0
100
AcDbBlockEnd
  0
BLOCK
  5
24
330
23
100
AcDbEntity
 67
     1
  8
0
100
AcDbBlockBegin
  2
*Paper_Space0
 70
     0
 10
0.0
 20
0.0
 30
0.0
  3
*Paper_Space0
  1

  0
ENDBLK
  5
25
330
23
100
AcDbEntity
 67
     1
  8
0
100
AcDbBlockEnd
  0
BLOCK
  5
96E
330
96D
100
AcDbEntity
  8
0
100
AcDbBlockBegin
  2
_CLOSED
 70
     0
 10
0.0
 20
0.0
 30
0.0
  3
_CLOSED
  1

  0
LINE
  5
970
330
96D
100
AcDbEntity
  8
0
  6
ByBlock
 62
     0
370
    -2
100
AcDbLine
 10
-1.0
 20
0.166667
 30
0.0
 11
0.0
 21
0.0
 31
0.0
  0
LINE
  5
971
330
96D
100
AcDbEntity
  8
0
  6
ByBlock
 62
     0
370
    -2
100
AcDbLine
 10
0.0
 20
0.0
 30
0.0
 11
-1.0
 21
-0.166667
 31
0.0
  0
LINE
  5
972
330
96D
100
AcDbEntity
  8
0
  6
ByBlock
 62
     0
370
    -2
100
AcDbLine
 10
-1.0
 20
0.166667
 30
0.0
 11
-1.0
 21
-0.166667
 31
0.0
  0
LINE
  5
973
330
96D
100
AcDbEntity
  8
0
  6
ByBlock
 62
     0
370
    -2
100
AcDbLine
 10
0.0
 20
0.0
 30
0.0
 11
-1.0
 21
0.0
 31
0.0
  0
ENDBLK
  5
96F
330
96D
100
AcDbEntity
  8
0
100
AcDbBlockEnd
  0
BLOCK
  5
975
330
974
100
AcDbEntity
  8
0
100
AcDbBlockBegin
  2
*D2
 70
     1
 10
0.0
 20
0.0
 30
0.0
  3
*D2
  1

  0
INSERT
  5
977
330
974
100
AcDbEntity
  8
0
  6
SLD-Solid
 62
     7
370
     0
100
AcDbBlockReference
  2
_CLOSED
 10
157.6162506437
 20
265.8108306998
 30
-6.1956599126
 41
3.302
 42
3.302
 50
360.0
  0
INSERT
  5
978
330
974
100
AcDbEntity
  8
0
  6
SLD-Solid
 62
     7
370
     0
100
AcDbBlockReference
  2
_CLOSED
 10
80.6162506437
 20
265.8108306998
 30
-6.1956599126
 41
3.302
 42
3.302
 50
180.0
  0
LINE
  5
979
330
974
100
AcDbEntity
  8
0
  6
SLD-Solid
 62
     7
370
     0
100
AcDbLine
 10
157.6162506437
 20
251.700899051
 30
0.0
 11
157.6162506437
 21
266.8108306998
 31
0.0
  0
LINE
  5
97A
330
974
100
AcDbEntity
  8
0
  6
SLD-Solid
 62
     7
370
     0
100
AcDbLine
 10
80.6162506437
 20
251.700899051
 30
0.0
 11
80.6162506437
 21
266.8108306998
 31
0.0
  0
LINE
  5
97B
330
974
100
AcDbEntity
  8
0
  6
SLD-Solid
 62
     7
370
     0
100
AcDbLine
 10
157.6162506437
 20
265.8108306998
 30
0.0
 11
80.6162506437
 21
265.8108306998
 31
0.0
  0
MTEXT
  5
97C
330
974
100
AcDbEntity
  8
0
  6
SLD-Solid
 62
     7
370
     0
100
AcDbMText
 10
115.2390817771
 20
270.2815336502
 30
0.0
 40
3.5
 41
0.0
 71
     1
 72
     1
  1
770
  7
SLDTEXTSTYLE0
 73
     1
 44
1.0
  0
ENDBLK
  5
976
330
974
100
AcDbEntity
  8
0
100
AcDbBlockEnd
  0
BLOCK
  5
C00
330
BFF
100
AcDbEntity
  8
0
100
AcDbBlockBegin
  2
*D3
 70
     1
 10
0.0
 20
0.0
 30
0.0
  3
*D3
  1

  0
INSERT
  5
C02
330
BFF
100
AcDbEntity
  8
0
  6
SLD-Solid
 62
     7
370
     0
100
AcDbBlockReference
  2
_CLOSED
 10
301.3648811972
 20
193.945899051
 30
-2.7171086706
 41
3.302
 42
3.302
 50
270.0
  0
INSERT
  5
C03
330
BFF
100
AcDbEntity
  8
0
  6
SLD-Solid
 62
     7
370
     0
100
AcDbBlockReference
  2
_CLOSED
 10
301.3648811972
 20
250.945899051
 30
-2.7171086706
 41
3.302
 42
3.302
 50
90.0
  0
LINE
  5
C04
330
BFF
100
AcDbEntity
  8
0
  6
SLD-Solid
 62
     7
370
     0
100
AcDbLine
 10
265.7442479281
 20
193.945899051
 30
0.0
 11
302.3648811972
 21
193.945899051
 31
0.0
  0
LINE
  5
C05
330
BFF
100
AcDbEntity
  8
0
  6
SLD-Solid
 62
     7
370
     0
100
AcDbLine
 10
269.3192479281
 20
250.945899051
 30
0.0
 11
302.3648811972
 21
250.945899051
 31
0.0
  0
LINE
  5
C06
330
BFF
100
AcDbEntity
  8
0
  6
SLD-Solid
 62
     7
370
     0
100
AcDbLine
 10
301.3648811972
 20
193.945899051
 30
0.0
 11
301.3648811972
 21
250.945899051
 31
0.0
  0
MTEXT
  5
C07
330
BFF
100
AcDbEntity
  8
0
  6
SLD-Solid
 62
     7
370
     0
100
AcDbMText
 10
296.8941782468
 20
218.5687301844
 30
0.0
 40
3.5
 41
0.0
 71
     1
 72
     1
  1
570
  7
SLDTEXTSTYLE0
 11
-0.0000000000000002
 21
1.0
 31
0.0
 73
     1
 44
1.0
  0
ENDBLK
  5
C01
330
BFF
100
AcDbEntity
  8
0
100
AcDbBlockEnd
  0
BLOCK
  5
C0B
330
C0A
100
AcDbEntity
  8
0
100
AcDbBlockBegin
  2
*D4
 70
     1
 10
0.0
 20
0.0
 30
0.0
  3
*D4
  1

  0
INSERT
  5
C0D
330
C0A
100
AcDbEntity
  8
0
  6
SLD-Solid
 62
     7
370
     0
100
AcDbBlockReference
  2
_CLOSED
 10
216.4142479281
 20
266.855899051
 30
-2.7171086706
 41
3.302
 42
3.302
 50
180.0
  0
INSERT
  5
C0E
330
C0A
100
AcDbEntity
  8
0
  6
SLD-Solid
 62
     7
370
     0
100
AcDbBlockReference
  2
_CLOSED
 10
272.5242479281
 20
266.855899051
 30
-2.7171086706
 41
3.302
 42
3.302
  0
LINE
  5
C0F
330
C0A
100
AcDbEntity
  8
0
  6
SLD-Solid
 62
     7
370
     0
100
AcDbLine
 10
216.4142479281
 20
249.540899051
 30
0.0
 11
216.4142479281
 21
267.855899051
 31
0.0
  0
LINE
  5
C10
330
C0A
100
AcDbEntity
  8
0
  6
SLD-Solid
 62
     7
370
     0
100
AcDbLine
 10
272.5242479281
 20
251.700899051
 30
0.0
 11
272.5242479281
 21
267.855899051
 31
0.0
  0
LINE
  5
C11
330
C0A
100
AcDbEntity
  8
0
  6
SLD-Solid
 62
     7
370
     0
100
AcDbLine
 10
216.4142479281
 20
266.855899051
 30
0.0
 11
272.5242479281
 21
266.855899051
 31
0.0
  0
MTEXT
  5
C12
330
C0A
100
AcDbEntity
  8
0
  6
SLD-Solid
 62
     7
370
     0
100
AcDbMText
 10
240.5920790615
 20
271.3266020014
 30
0.0
 40
3.5
 41
0.0
 71
     1
 72
     1
  1
561
  7
SLDTEXTSTYLE0
 73
     1
 44
1.0
  0
ENDBLK
  5
C0C
330
C0A
100
AcDbEntity
  8
0
100
AcDbBlockEnd
  0
BLOCK
  5
C15
330
C14
100
AcDbEntity
  8
0
100
AcDbBlockBegin
  2
*D5
 70
     1
 10
0.0
 20
0.0
 30
0.0
  3
*D5
  1

  0
INSERT
  5
C17
330
C14
100
AcDbEntity
  8
0
  6
SLD-Solid
 62
     7
370
     0
100
AcDbBlockReference
  2
_CLOSED
 10
216.4142479281
 20
274.5835040143
 30
-2.7171086706
 41
3.302
 42
3.302
 50
180.0
  0
INSERT
  5
C18
330
C14
100
AcDbEntity
  8
0
  6
SLD-Solid
 62
     7
370
     0
100
AcDbBlockReference
  2
_CLOSED
 10
279.1817925057
 20
274.5835040143
 30
-2.7171086706
 41
3.302
 42
3.302
  0
LINE
  5
C19
330
C14
100
AcDbEntity
  8
0
  6
SLD-Solid
 62
     7
370
     0
100
AcDbLine
 10
216.4142479281
 20
249.540899051
 30
0.0
 11
216.4142479281
 21
275.5835040143
 31
0.0
  0
LINE
  5
C1A
330
C14
100
AcDbEntity
  8
0
  6
SLD-Solid
 62
     7
370
     0
100
AcDbLine
 10
279.1817925057
 20
230.7215967917
 30
0.0
 11
279.1817925057
 21
275.5835040143
 31
0.0
  0
LINE
  5
C1B
330
C14
100
AcDbEntity
  8
0
  6
SLD-Solid
 62
     7
370
     0
100
AcDbLine
 10
216.4142479281
 20
274.5835040143
 30
0.0
 11
279.1817925057
 21
274.5835040143
 31
0.0
  0
MTEXT
  5
C1C
330
C14
100
AcDbEntity
  8
0
  6
SLD-Solid
 62
     7
370
     0
100
AcDbMText
 10
241.980012749
 20
279.0542069647
 30
0.0
 40
3.5
 41
0.0
 71
     1
 72
     1
  1
627.7
  7
SLDTEXTSTYLE0
 73
     1
 44
1.0
  0
ENDBLK
  5
C16
330
C14
100
AcDbEntity
  8
0
100
AcDbBlockEnd
  0
ENDSEC
  0
SECTION
  2
ENTITIES
  0
LINE
  5
C1D
330
1F
100
AcDbEntity
  8
0
  6
SLD-Solid
 62
     7
370
    15
100
AcDbLine
 10
151.3833606418
 20
105.1346589548
 30
0.0
 11
151.4430755552
 21
103.4246613008
 31
0.0
  0
LINE
  5
C1E
330
1F
100
AcDbEntity
  8
0
  6
SLD-Solid
 62
     7
370
    15
100
AcDbLine
 10
153.2894247945
 20
103.4246613008
 30
0.0
 11
153.3491397079
 21
105.1346589548
 31
0.0
  0
LINE
  5
C1F
330
1F
100
AcDbEntity
  8
0
  6
SLD-Solid
 62
     7
370
    15
100
AcDbLine
 10
114.6007345792
 20
158.458953045
 30
0.0
 11
114.6007345792
 21
158.8589523656
 31
0.0
  0
LINE
  5
C20
330
1F
100
AcDbEntity
  8
0
  6
SLD-Solid
 62
     7
370
    15
100
AcDbLine
 10
114.0007348533
 20
158.8589523656
 30
0.0
 11
114.0007348533
 21
158.458953045
 31
0.0
  0
ARC
  5
C21
330
1F
100
AcDbEntity
  8
0
  6
SLD-Solid
 62
     7
370
    15
100
AcDbCircle
 10
146.0921461364
 20
99.11966176760001
 30
0.0
 40
0.5800011340376756
100
AcDbArc
 50
322.3212580425
 51
346.5564187079
  0
ARC
  5
C22
330
1F
100
AcDbEntity
  8
0
  6
SLD-Solid
 62
     7
370
    15
100
AcDbCircle
 10
146.0358334976
 20
99.12240692700002
 30
0.0
 40
0.6270774404568395
100
AcDbArc
 50
292.1830960166
 51
325.2689985543
  0
ARC
  5
C23
330
1F
100
AcDbEntity
  8
0
  6
SLD-Solid
 62
     7
370
    15
100
AcDbCircle
 10
146.0213741906
 20
99.01668329479999
 30
0.0
 40
0.537289569476175
100
AcDbArc
 50
266.0862061674
 51
297.8770315863
  0
ARC
  5
C24
330
1F
100
AcDbEntity
  8
0
  6
SLD-Solid
 62
     7
370
    15
100
AcDbCircle
 10
144.3555031279
 20
99.11611543500001
 30
0.0
 40
0.6361401319418193
100
AcDbArc
 50
216.8715694279
 51
272.6327267733
  0
ARC
  5
C25
330
1F
100
AcDbEntity
  8
0
  6
SLD-Solid
 62
     7
370
    15
100
AcDbCircle
 10
144.2901240159
 20
99.14656767530001
 30
0.0
 40
0.6054586879754359
100
AcDbArc
 50
177.1859427797
 51
222.9003622548
  0
LINE
  5
C26
330
1F
100
AcDbEntity
  8
0
  6
SLD-Solid
 62
     7
370
    15
100
AcDbLine
 10
144.3847114022999
 20
98.4763701183
 30
0.0
 11
145.9847116645
 21
98.4763701183
 31
0.0
  0
LINE
  5
C27
330
1F
100
AcDbEntity
  8
0
  6
SLD-Solid
 62
     7
370
    15
100
AcDbLine
 10
149.4185143884
 20
156.2446598632
 30
0.0
 11
149.4185143884
 21
156.2346596939
 31
0.0
  0
LINE
  5
C28
330
1F
100
AcDbEntity
  8
0
  6
SLD-Solid
 62
     7
370
    15
100
AcDbLine
 10
150.2185130294
 20
156.2346596939
 30
0.0
 11
150.2185130294
 21
156.2446598632
 31
0.0
  0
LINE
  5
C29
330
1F
100
AcDbEntity
  8
0
  6
SLD-Solid
 62
     7
370
    15
100
AcDbLine
 10
88.016250151
 20
156.2446598632
 30
0.0
 11
88.016250151
 21
156.2346596939
 31
0.0
  0
LINE
  5
C2A
330
1F
100
AcDbEntity
  8
0
  6
SLD-Solid
 62
     7
370
    15
100
AcDbLine
 10
88.8162517722
 20
156.2346596939
 30
0.0
 11
88.8162517722
 21
156.2446598632
 31
0.0
  0
LINE
  5
C2B
330
1F
100
AcDbEntity
  8
0
  6
SLD-Solid
 62
     7
370
    15
100
AcDbLine
 10
153.2894247945
 20
103.4246613008
 30
0.0
 11
151.4430755552
 21
103.4246613008
 31
0.0
  0
LINE
  5
C2C
330
1F
100
AcDbEntity
  8
0
  6
SLD-Solid
 62
     7
370
    15
100
AcDbLine
 10
111.2507352408
 20
157.2889526111
 30
0.0
 11
111.2507352408
 21
156.9246594531
 31
0.0
  0
LINE
  5
C2D
330
1F
100
AcDbEntity
  8
0
  6
SLD-Solid
 62
     7
370
    15
100
AcDbLine
 10
111.2507352408
 20
156.2446598632
 30
0.0
 11
111.2507352408
 21
156.2346596939
 31
0.0
  0
LINE
  5
C2E
330
1F
100
AcDbEntity
  8
0
  6
SLD-Solid
 62
     7
370
    15
100
AcDbLine
 10
112.7507345553
 20
157.2889526111
 30
0.0
 11
111.2507352408
 21
157.2889526111
 31
0.0
  0
LINE
  5
C2F
330
1F
100
AcDbEntity
  8
0
  6
SLD-Solid
 62
     7
370
    15
100
AcDbLine
 10
117.3507349368
 20
157.2889526111
 30
0.0
 11
117.3507349368
 21
156.9246594531
 31
0.0
  0
LINE
  5
C30
330
1F
100
AcDbEntity
  8
0
  6
SLD-Solid
 62
     7
370
    15
100
AcDbLine
 10
117.3507349368
 20
156.2446598632
 30
0.0
 11
117.3507349368
 21
156.2346596939
 31
0.0
  0
LINE
  5
C31
330
1F
100
AcDbEntity
  8
0
  6
SLD-Solid
 62
     7
370
    15
100
AcDbLine
 10
117.3507349368
 20
157.2889526111
 30
0.0
 11
115.8507348772
 21
157.2889526111
 31
0.0
  0
LINE
  5
C32
330
1F
100
AcDbEntity
  8
0
  6
SLD-Solid
 62
     7
370
    15
100
AcDbLine
 10
115.8507348772
 20
157.2889526111
 30
0.0
 11
112.7507345553
 21
157.2889526111
 31
0.0
  0
LINE
  5
C33
330
1F
100
AcDbEntity
  8
0
  6
SLD-Solid
 62
     7
370
    15
100
AcDbLine
 10
114.6007345792
 20
158.8589523656
 30
0.0
 11
114.0007348533
 21
158.8589523656
 31
0.0
  0
LINE
  5
C34
330
1F
100
AcDbEntity
  8
0
  6
SLD-Solid
 62
     7
370
    15
100
AcDbLine
 10
112.9750275787
 20
158.458953045
 30
0.0
 11
115.6264425989
 21
158.458953045
 31
0.0
  0
ARC
  5
C35
330
1F
100
AcDbEntity
  8
0
  6
SLD-Solid
 62
     7
370
    15
100
AcDbCircle
 10
116.3507348751
 20
157.9589530732
 30
0.0
 40
0.1000000000000085
100
AcDbArc
 50
180.0
 51
270.0
  0
ARC
  5
C36
330
1F
100
AcDbEntity
  8
0
  6
SLD-Solid
 62
     7
370
    15
100
AcDbCircle
 10
112.2507348751
 20
157.9589530732
 30
0.0
 40
0.1000000000000227
100
AcDbArc
 50
270.0
 51
0.0
  0
LINE
  5
C37
330
1F
100
AcDbEntity
  8
0
  6
SLD-Solid
 62
     7
370
    15
100
AcDbLine
 10
111.600735205
 20
157.8589533192
 30
0.0
 11
112.2507350322
 21
157.8589533192
 31
0.0
  0
ARC
  5
C38
330
1F
100
AcDbEntity
  8
0
  6
SLD-Solid
 62
     7
370
    15
100
AcDbCircle
 10
111.6007348751
 20
157.7589530732
 30
0.0
 40
0.0999999999999943
100
AcDbArc
 50
90.0
 51
179.9999999999
  0
LINE
  5
C39
330
1F
100
AcDbEntity
  8
0
  6
SLD-Solid
 62
     7
370
    15
100
AcDbLine
 10
116.3507347729
 20
157.8589533192
 30
0.0
 11
117.0007349726
 21
157.8589533192
 31
0.0
  0
LWPOLYLINE
  5
C3A
330
1F
100
AcDbEntity
  8
0
  6
SLD-Solid
 62
     7
370
    15
100
AcDbPolyline
 90
        9
 70
   128
 43
0.0
 10
111.600735205
 20
157.3889528138
 10
111.5812258597
 20
157.3694442135
 10
111.5624667879
 20
157.3506851417
 10
111.5451777156
 20
157.3333953244
 10
111.5300239797
 20
157.3182423336
 10
111.5175882157
 20
157.3058058244
 10
111.5083472606
 20
157.2965656144
 10
111.5026565071
 20
157.2908748609
 10
111.5007350024
 20
157.2889526111
  0
LINE
  5
C3B
330
1F
100
AcDbEntity
  8
0
  6
SLD-Solid
 62
     7
370
    15
100
AcDbLine
 10
111.5007350024
 20
157.2889526111
 30
0.0
 11
111.5007350024
 21
157.7589531166
 31
0.0
  0
LINE
  5
C3C
330
1F
100
AcDbEntity
  8
0
  6
SLD-Solid
 62
     7
370
    15
100
AcDbLine
 10
115.6264425989
 20
158.458953045
 30
0.0
 11
116.1507347401
 21
158.458953045
 31
0.0
  0
LINE
  5
C3D
330
1F
100
AcDbEntity
  8
0
  6
SLD-Solid
 62
     7
370
    15
100
AcDbLine
 10
112.4507346924
 20
158.458953045
 30
0.0
 11
112.9750275787
 21
158.458953045
 31
0.0
  0
LINE
  5
C3E
330
1F
100
AcDbEntity
  8
0
  6
SLD-Solid
 62
     7
370
    15
100
AcDbLine
 10
116.2507349428
 20
158.3589528424
 30
0.0
 11
116.2507349428
 21
157.9589535219
 31
0.0
  0
LINE
  5
C3F
330
1F
100
AcDbEntity
  8
0
  6
SLD-Solid
 62
     7
370
    15
100
AcDbLine
 10
112.3507352348
 20
157.9589535219
 30
0.0
 11
112.3507352348
 21
158.3589528424
 31
0.0
  0
LINE
  5
C40
330
1F
100
AcDbEntity
  8
0
  6
SLD-Solid
 62
     7
370
    15
100
AcDbLine
 10
117.1007348027
 20
157.7589531166
 30
0.0
 11
117.1007348027
 21
157.2889526111
 31
0.0
  0
LWPOLYLINE
  5
C41
330
1F
100
AcDbEntity
  8
0
  6
SLD-Solid
 62
     7
370
    15
100
AcDbPolyline
 90
        9
 70
   128
 43
0.0
 10
117.1007348027
 20
157.2889526111
 10
117.0988132979
 20
157.2908748609
 10
117.093122917
 20
157.2965656144
 10
117.0838819619
 20
157.3058058244
 10
117.0714454528
 20
157.3182423336
 10
117.0562917169
 20
157.3333953244
 10
117.0390033897
 20
157.3506851417
 10
117.0202439453
 20
157.3694442135
 10
117.0007349726
 20
157.3889528138
  0
ARC
  5
C42
330
1F
100
AcDbEntity
  8
0
  6
SLD-Solid
 62
     7
370
    15
100
AcDbCircle
 10
112.4507348751
 20
158.3589530732
 30
0.0
 40
0.1000000000000085
100
AcDbArc
 50
90.0
 51
180.0
  0
ARC
  5
C43
330
1F
100
AcDbEntity
  8
0
  6
SLD-Solid
 62
     7
370
    15
100
AcDbCircle
 10
116.1507348751
 20
158.3589530732
 30
0.0
 40
0.1000000000000085
100
AcDbArc
 50
0.0
 51
90.0
  0
ARC
  5
C44
330
1F
100
AcDbEntity
  8
0
  6
SLD-Solid
 62
     7
370
    15
100
AcDbCircle
 10
117.0007348751
 20
157.7589530732
 30
0.0
 40
0.1000000000000085
100
AcDbArc
 50
0.0
 51
90.0
  0
LINE
  5
C45
330
1F
100
AcDbEntity
  8
0
  6
SLD-Solid
 62
     7
370
    15
100
AcDbLine
 10
116.6507350083
 20
158.4089536888
 30
0.0
 11
116.6507350083
 21
157.8589533192
 31
0.0
  0
LINE
  5
C46
330
1F
100
AcDbEntity
  8
0
  6
SLD-Solid
 62
     7
370
    15
100
AcDbLine
 10
116.6507350083
 20
158.4089536888
 30
0.0
 11
116.2373373087
 21
158.4089536888
 31
0.0
  0
LINE
  5
C47
330
1F
100
AcDbEntity
  8
0
  6
SLD-Solid
 62
     7
370
    15
100
AcDbLine
 10
111.9507351692
 20
158.4089536888
 30
0.0
 11
111.9507351692
 21
157.8589533192
 31
0.0
  0
LINE
  5
C48
330
1F
100
AcDbEntity
  8
0
  6
SLD-Solid
 62
     7
370
    15
100
AcDbLine
 10
111.9507351692
 20
158.4089536888
 30
0.0
 11
112.3641321238
 21
158.4089536888
 31
0.0
  0
LINE
  5
C49
330
1F
100
AcDbEntity
  8
0
  6
SLD-Solid
 62
     7
370
    15
100
AcDbLine
 10
117.1007348027
 20
157.5389523727
 30
0.0
 11
118.250734898
 21
157.5389523727
 31
0.0
  0
LINE
  5
C4A
330
1F
100
AcDbEntity
  8
0
  6
SLD-Solid
 62
     7
370
    15
100
AcDbLine
 10
118.250734898
 20
157.5389523727
 30
0.0
 11
118.250734898
 21
157.4589525086
 31
0.0
  0
LINE
  5
C4B
330
1F
100
AcDbEntity
  8
0
  6
SLD-Solid
 62
     7
370
    15
100
AcDbLine
 10
117.1007348027
 20
157.4589525086
 30
0.0
 11
118.250734898
 21
157.4589525086
 31
0.0
  0
LINE
  5
C4C
330
1F
100
AcDbEntity
  8
0
  6
SLD-Solid
 62
     7
370
    15
100
AcDbLine
 10
118.250734898
 20
157.5389523727
 30
0.0
 11
118.3007349994
 21
157.5389523727
 31
0.0
  0
LINE
  5
C4D
330
1F
100
AcDbEntity
  8
0
  6
SLD-Solid
 62
     7
370
    15
100
AcDbLine
 10
118.3007349994
 20
157.5389523727
 30
0.0
 11
118.3007349994
 21
157.4589525086
 31
0.0
  0
LINE
  5
C4E
330
1F
100
AcDbEntity
  8
0
  6
SLD-Solid
 62
     7
370
    15
100
AcDbLine
 10
118.250734898
 20
157.4589525086
 30
0.0
 11
118.3007349994
 21
157.4589525086
 31
0.0
  0
LINE
  5
C4F
330
1F
100
AcDbEntity
  8
0
  6
SLD-Solid
 62
     7
370
    15
100
AcDbLine
 10
82.77332128839999
 20
156.2446598632
 30
0.0
 11
87.81624974569998
 21
156.2446598632
 31
0.0
  0
LINE
  5
C50
330
1F
100
AcDbEntity
  8
0
  6
SLD-Solid
 62
     7
370
    15
100
AcDbLine
 10
82.77332128839999
 20
156.2446598632
 30
0.0
 11
82.77332128839999
 21
156.3246597273
 31
0.0
  0
LINE
  5
C51
330
1F
100
AcDbEntity
  8
0
  6
SLD-Solid
 62
     7
370
    15
100
AcDbLine
 10
82.77332128839999
 20
156.3246597273
 30
0.0
 11
87.81624974569998
 21
156.3246597273
 31
0.0
  0
LINE
  5
C52
330
1F
100
AcDbEntity
  8
0
  6
SLD-Solid
 62
     7
370
    15
100
AcDbLine
 10
88.11625184379998
 20
156.2446598632
 30
0.0
 11
88.11625184379998
 21
156.3246597273
 31
0.0
  0
LINE
  5
C53
330
1F
100
AcDbEntity
  8
0
  6
SLD-Solid
 62
     7
370
    15
100
AcDbLine
 10
87.81624974569998
 20
156.2446598632
 30
0.0
 11
88.11625184379998
 21
156.2446598632
 31
0.0
  0
LINE
  5
C54
330
1F
100
AcDbEntity
  8
0
  6
SLD-Solid
 62
     7
370
    15
100
AcDbLine
 10
87.81624974569998
 20
156.3246597273
 30
0.0
 11
88.11625184379998
 21
156.3246597273
 31
0.0
  0
LINE
  5
C55
330
1F
100
AcDbEntity
  8
0
  6
SLD-Solid
 62
     7
370
    15
100
AcDbLine
 10
89.0162491973
 20
156.2446598632
 30
0.0
 11
149.2162519868
 21
156.2446598632
 31
0.0
  0
LINE
  5
C56
330
1F
100
AcDbEntity
  8
0
  6
SLD-Solid
 62
     7
370
    15
100
AcDbLine
 10
89.0162491973
 20
156.3246597273
 30
0.0
 11
149.2162519868
 21
156.3246597273
 31
0.0
  0
LINE
  5
C57
330
1F
100
AcDbEntity
  8
0
  6
SLD-Solid
 62
     7
370
    15
100
AcDbLine
 10
88.71625007950001
 20
156.2446598632
 30
0.0
 11
89.0162491973
 21
156.2446598632
 31
0.0
  0
LINE
  5
C58
330
1F
100
AcDbEntity
  8
0
  6
SLD-Solid
 62
     7
370
    15
100
AcDbLine
 10
88.71625007950001
 20
156.2446598632
 30
0.0
 11
88.71625007950001
 21
156.3246597273
 31
0.0
  0
LINE
  5
C59
330
1F
100
AcDbEntity
  8
0
  6
SLD-Solid
 62
     7
370
    15
100
AcDbLine
 10
88.71625007950001
 20
156.3246597273
 30
0.0
 11
89.0162491973
 21
156.3246597273
 31
0.0
  0
LINE
  5
C5A
330
1F
100
AcDbEntity
  8
0
  6
SLD-Solid
 62
     7
370
    15
100
AcDbLine
 10
150.1162493404
 20
156.2446598632
 30
0.0
 11
150.1162493404
 21
156.3246597273
 31
0.0
  0
LINE
  5
C5B
330
1F
100
AcDbEntity
  8
0
  6
SLD-Solid
 62
     7
370
    15
100
AcDbLine
 10
150.1162493404
 20
156.2446598632
 30
0.0
 11
150.4162514385
 21
156.2446598632
 31
0.0
  0
LINE
  5
C5C
330
1F
100
AcDbEntity
  8
0
  6
SLD-Solid
 62
     7
370
    15
100
AcDbLine
 10
150.1162493404
 20
156.3246597273
 30
0.0
 11
150.4162514385
 21
156.3246597273
 31
0.0
  0
LINE
  5
C5D
330
1F
100
AcDbEntity
  8
0
  6
SLD-Solid
 62
     7
370
    15
100
AcDbLine
 10
155.4591798957
 20
156.2446598632
 30
0.0
 11
155.4591798957
 21
156.3246597273
 31
0.0
  0
LINE
  5
C5E
330
1F
100
AcDbEntity
  8
0
  6
SLD-Solid
 62
     7
370
    15
100
AcDbLine
 10
150.4162514385
 20
156.2446598632
 30
0.0
 11
155.4591798957
 21
156.2446598632
 31
0.0
  0
LINE
  5
C5F
330
1F
100
AcDbEntity
  8
0
  6
SLD-Solid
 62
     7
370
    15
100
AcDbLine
 10
150.4162514385
 20
156.3246597273
 30
0.0
 11
155.4591798957
 21
156.3246597273
 31
0.0
  0
LINE
  5
C60
330
1F
100
AcDbEntity
  8
0
  6
SLD-Solid
 62
     7
370
    15
100
AcDbLine
 10
149.5162511047
 20
156.2446598632
 30
0.0
 11
149.5162511047
 21
156.3246597273
 31
0.0
  0
LINE
  5
C61
330
1F
100
AcDbEntity
  8
0
  6
SLD-Solid
 62
     7
370
    15
100
AcDbLine
 10
149.2162519868
 20
156.2446598632
 30
0.0
 11
149.5162511047
 21
156.2446598632
 31
0.0
  0
LINE
  5
C62
330
1F
100
AcDbEntity
  8
0
  6
SLD-Solid
 62
     7
370
    15
100
AcDbLine
 10
149.2162519868
 20
156.3246597273
 30
0.0
 11
149.5162511047
 21
156.3246597273
 31
0.0
  0
LINE
  5
C63
330
1F
100
AcDbEntity
  8
0
  6
SLD-Solid
 62
     7
370
    15
100
AcDbLine
 10
88.11625184379998
 20
156.3246597273
 30
0.0
 11
88.71625007950001
 21
156.3246597273
 31
0.0
  0
LINE
  5
C64
330
1F
100
AcDbEntity
  8
0
  6
SLD-Solid
 62
     7
370
    15
100
AcDbLine
 10
149.5162511047
 20
156.3246597273
 30
0.0
 11
150.1162493404
 21
156.3246597273
 31
0.0
  0
LINE
  5
C65
330
1F
100
AcDbEntity
  8
0
  6
SLD-Solid
 62
     7
370
    15
100
AcDbLine
 10
155.4591798957
 20
156.3246597273
 30
0.0
 11
155.4591798957
 21
156.449659608
 31
0.0
  0
LINE
  5
C66
330
1F
100
AcDbEntity
  8
0
  6
SLD-Solid
 62
     7
370
    15
100
AcDbLine
 10
82.77332128839999
 20
156.449659608
 30
0.0
 11
82.77332128839999
 21
156.3246597273
 31
0.0
  0
LINE
  5
C67
330
1F
100
AcDbEntity
  8
0
  6
SLD-Solid
 62
     7
370
    15
100
AcDbLine
 10
155.4591798957
 20
156.449659608
 30
0.0
 11
155.4591798957
 21
161.0396613104
 31
0.0
  0
LINE
  5
C68
330
1F
100
AcDbEntity
  8
0
  6
SLD-Solid
 62
     7
370
    15
100
AcDbLine
 10
82.77332128839999
 20
156.449659608
 30
0.0
 11
82.77332128839999
 21
161.0396613104
 31
0.0
  0
LINE
  5
C69
330
1F
100
AcDbEntity
  8
0
  6
SLD-Solid
 62
     7
370
    15
100
AcDbLine
 10
109.2561716016
 20
159.5246602518
 30
0.0
 11
119.2561710056
 21
159.5246602518
 31
0.0
  0
LINE
  5
C6A
330
1F
100
AcDbEntity
  8
0
  6
SLD-Solid
 62
     7
370
    15
100
AcDbLine
 10
119.2561710056
 20
156.9246594531
 30
0.0
 11
109.2561716016
 21
156.9246594531
 31
0.0
  0
LINE
  5
C6B
330
1F
100
AcDbEntity
  8
0
  6
SLD-Solid
 62
     7
370
    15
100
AcDbLine
 10
119.2561710056
 20
159.5246602518
 30
0.0
 11
119.2561710056
 21
156.9246594531
 31
0.0
  0
LINE
  5
C6C
330
1F
100
AcDbEntity
  8
0
  6
SLD-Solid
 62
     7
370
    15
100
AcDbLine
 10
109.2561716016
 20
156.9246594531
 30
0.0
 11
109.2561716016
 21
159.5246602518
 31
0.0
  0
ARC
  5
C6D
330
1F
100
AcDbEntity
  8
0
  6
SLD-Solid
 62
     7
370
    15
100
AcDbCircle
 10
155.0638659143
 20
160.948670877
 30
0.0
 40
0.4056505920974986
100
AcDbArc
 50
12.962154687
 51
46.8582446408
  0
LINE
  5
C6E
330
1F
100
AcDbEntity
  8
0
  6
SLD-Solid
 62
     7
370
    15
100
AcDbLine
 10
82.8912520583
 20
161.2446595651
 30
0.0
 11
155.341252106
 21
161.2446595651
 31
0.0
  0
LWPOLYLINE
  5
C6F
330
1F
100
AcDbEntity
  8
0
  6
SLD-Solid
 62
     7
370
    15
100
AcDbPolyline
 90
        6
 70
   128
 43
0.0
 10
82.77332128839999
 20
161.0396613104
 10
82.8002983506
 20
161.1117441875
 10
82.8272813733
 20
161.1746419889
 10
82.8542673763
 20
161.2202872259
 10
82.8812533792
 20
161.2428446037
 10
82.8912520583
 20
161.2446595651
  0
ARC
  5
C70
330
1F
100
AcDbEntity
  8
0
  6
SLD-Solid
 62
     7
370
    15
100
AcDbCircle
 10
82.89124845149999
 20
161.0396619369
 30
0.0
 40
0.2049976282111853
100
AcDbArc
 50
89.9989919186
 51
180.0001751305
  0
ARC
  5
C71
330
1F
100
AcDbEntity
  8
0
  6
SLD-Solid
 62
     7
370
    15
100
AcDbCircle
 10
82.8708572202
 20
161.0473822087
 30
0.0
 40
0.1048925675511151
100
AcDbArc
 50
126.1104993938
 51
184.2212270045
  0
LINE
  5
C72
330
1F
100
AcDbEntity
  8
0
  6
SLD-Solid
 62
     7
370
    15
100
AcDbLine
 10
82.6862508233
 20
161.0396613104
 30
0.0
 11
82.7662491973
 21
161.0396613104
 31
0.0
  0
LINE
  5
C73
330
1F
100
AcDbEntity
  8
0
  6
SLD-Solid
 62
     7
370
    15
100
AcDbLine
 10
155.5462503608
 20
161.0396613104
 30
0.0
 11
155.4662519868
 21
161.0396613104
 31
0.0
  0
ARC
  5
C74
330
1F
100
AcDbEntity
  8
0
  6
SLD-Solid
 62
     7
370
    15
100
AcDbCircle
 10
155.361748782
 20
161.0475557687
 30
0.0
 40
0.1048009650942038
100
AcDbArc
 50
355.6799252154001
 51
53.52777495
  0
ARC
  5
C75
330
1F
100
AcDbEntity
  8
0
  6
SLD-Solid
 62
     7
370
    15
100
AcDbCircle
 10
155.3412514056
 20
161.03966061
 30
0.0
 40
0.2049989551640038
100
AcDbArc
 50
0.0001957532
 51
89.9998042468
  0
LINE
  5
C76
330
1F
100
AcDbEntity
  8
0
  6
SLD-Solid
 62
     7
370
    15
100
AcDbLine
 10
80.7862514432
 20
156.2346596939
 30
0.0
 11
80.7862514432
 21
156.314659558
 31
0.0
  0
LINE
  5
C77
330
1F
100
AcDbEntity
  8
0
  6
SLD-Solid
 62
     7
370
    15
100
AcDbLine
 10
80.7862514432
 20
156.314659558
 30
0.0
 11
82.5612509425
 21
156.314659558
 31
0.0
  0
LINE
  5
C78
330
1F
100
AcDbEntity
  8
0
  6
SLD-Solid
 62
     7
370
    15
100
AcDbLine
 10
80.7862514432
 20
156.2346596939
 30
0.0
 11
80.82125129060001
 21
156.2346596939
 31
0.0
  0
ARC
  5
C79
330
1F
100
AcDbEntity
  8
0
  6
SLD-Solid
 62
     7
370
    15
100
AcDbCircle
 10
82.56125064369999
 20
156.43966018
 30
0.0
 40
0.1250000000000142
100
AcDbArc
 50
270.0
 51
0.0
  0
ARC
  5
C7A
330
1F
100
AcDbEntity
  8
0
  6
SLD-Solid
 62
     7
370
    15
100
AcDbCircle
 10
82.56125064369999
 20
156.43966018
 30
0.0
 40
0.2050000000000125
100
AcDbArc
 50
270.0
 51
0.0
  0
LINE
  5
C7B
330
1F
100
AcDbEntity
  8
0
  6
SLD-Solid
 62
     7
370
    15
100
AcDbLine
 10
82.7662491973
 20
161.0396613104
 30
0.0
 11
82.7662491973
 21
156.4396594388
 31
0.0
  0
LINE
  5
C7C
330
1F
100
AcDbEntity
  8
0
  6
SLD-Solid
 62
     7
370
    15
100
AcDbLine
 10
82.6862508233
 20
161.0396613104
 30
0.0
 11
82.6862508233
 21
156.4396594388
 31
0.0
  0
LINE
  5
C7D
330
1F
100
AcDbEntity
  8
0
  6
SLD-Solid
 62
     7
370
    15
100
AcDbLine
 10
157.4462497409
 20
156.2346596939
 30
0.0
 11
157.4462497409
 21
156.314659558
 31
0.0
  0
LINE
  5
C7E
330
1F
100
AcDbEntity
  8
0
  6
SLD-Solid
 62
     7
370
    15
100
AcDbLine
 10
155.6712502416
 20
156.314659558
 30
0.0
 11
157.4462497409
 21
156.314659558
 31
0.0
  0
LINE
  5
C7F
330
1F
100
AcDbEntity
  8
0
  6
SLD-Solid
 62
     7
370
    15
100
AcDbLine
 10
157.4112498935
 20
156.2346596939
 30
0.0
 11
157.4462497409
 21
156.2346596939
 31
0.0
  0
LINE
  5
C80
330
1F
100
AcDbEntity
  8
0
  6
SLD-Solid
 62
     7
370
    15
100
AcDbLine
 10
155.4662519868
 20
161.0396613104
 30
0.0
 11
155.4662519868
 21
156.4396594388
 31
0.0
  0
LINE
  5
C81
330
1F
100
AcDbEntity
  8
0
  6
SLD-Solid
 62
     7
370
    15
100
AcDbLine
 10
155.5462503608
 20
161.0396613104
 30
0.0
 11
155.5462503608
 21
156.4396594388
 31
0.0
  0
ARC
  5
C82
330
1F
100
AcDbEntity
  8
0
  6
SLD-Solid
 62
     7
370
    15
100
AcDbCircle
 10
155.6712506437
 20
156.43966018
 30
0.0
 40
0.2050000000000125
100
AcDbArc
 50
180.0
 51
270.0
  0
ARC
  5
C83
330
1F
100
AcDbEntity
  8
0
  6
SLD-Solid
 62
     7
370
    15
100
AcDbCircle
 10
155.6712506437
 20
156.43966018
 30
0.0
 40
0.125
100
AcDbArc
 50
180.0
 51
270.0
  0
LINE
  5
C84
330
1F
100
AcDbEntity
  8
0
  6
SLD-Solid
 62
     7
370
    15
100
AcDbLine
 10
116.8061708834
 20
158.2746599538
 30
0.0
 11
116.6507350083
 21
158.2746599538
 31
0.0
  0
LINE
  5
C85
330
1F
100
AcDbEntity
  8
0
  6
SLD-Solid
 62
     7
370
    15
100
AcDbLine
 10
111.9507351692
 20
158.2746599538
 30
0.0
 11
111.7061713513
 21
158.2746599538
 31
0.0
  0
ARC
  5
C86
330
1F
100
AcDbEntity
  8
0
  6
SLD-Solid
 62
     7
370
    15
100
AcDbCircle
 10
116.806171059
 20
158.52466018
 30
0.0
 40
0.25
100
AcDbArc
 50
270.0
 51
90.0
  0
LINE
  5
C87
330
1F
100
AcDbEntity
  8
0
  6
SLD-Solid
 62
     7
370
    15
100
AcDbLine
 10
111.7061713513
 20
158.7746594769
 30
0.0
 11
114.0007348533
 21
158.7746594769
 31
0.0
  0
LINE
  5
C88
330
1F
100
AcDbEntity
  8
0
  6
SLD-Solid
 62
     7
370
    15
100
AcDbLine
 10
114.6007345792
 20
158.7746594769
 30
0.0
 11
116.8061708834
 21
158.7746594769
 31
0.0
  0
ARC
  5
C89
330
1F
100
AcDbEntity
  8
0
  6
SLD-Solid
 62
     7
370
    15
100
AcDbCircle
 10
111.706171059
 20
158.52466018
 30
0.0
 40
0.25
100
AcDbArc
 50
90.0
 51
270.0
  0
LINE
  5
C8A
330
1F
100
AcDbEntity
  8
0
  6
SLD-Solid
 62
     7
370
    15
100
AcDbLine
 10
155.4591798957
 20
156.2446598632
 30
0.0
 11
155.4591798957
 21
156.2346596939
 31
0.0
  0
LINE
  5
C8B
330
1F
100
AcDbEntity
  8
0
  6
SLD-Solid
 62
     7
370
    15
100
AcDbLine
 10
82.77332128839999
 20
156.2346596939
 30
0.0
 11
82.77332128839999
 21
156.2446598632
 31
0.0
  0
LWPOLYLINE
  5
C8C
330
1F
100
AcDbEntity
  8
0
  6
SLD-Solid
 62
     7
370
    15
100
AcDbPolyline
 90
        6
 70
   128
 43
0.0
 10
80.8612519677
 20
105.3796608669
 10
80.7765746291
 20
105.3531666023
 10
80.70232214289999
 20
105.3266663772
 10
80.64766468370001
 20
105.3001691324
 10
80.61934055649999
 20
105.2736689073
 10
80.61625005560001
 20
105.261730097
  0
LINE
  5
C8D
330
1F
100
AcDbEntity
  8
0
  6
SLD-Solid
 62
     7
370
    15
100
AcDbLine
 10
80.61625005560001
 20
108.8896591884
 30
0.0
 11
80.61625005560001
 21
105.261730097
 31
0.0
  0
LINE
  5
C8E
330
1F
100
AcDbEntity
  8
0
  6
SLD-Solid
 62
     7
370
    15
100
AcDbLine
 10
80.8612519677
 20
108.8896591884
 30
0.0
 11
80.61625005560001
 21
108.8896591884
 31
0.0
  0
LINE
  5
C8F
330
1F
100
AcDbEntity
  8
0
  6
SLD-Solid
 62
     7
370
    15
100
AcDbLine
 10
157.3712492164
 20
109.1346611005
 30
0.0
 11
157.3712492164
 21
108.8896591884
 31
0.0
  0
LINE
  5
C90
330
1F
100
AcDbEntity
  8
0
  6
SLD-Solid
 62
     7
370
    15
100
AcDbLine
 10
80.8612519677
 20
108.8896591884
 30
0.0
 11
80.8612519677
 21
109.1346611005
 31
0.0
  0
LWPOLYLINE
  5
C91
330
1F
100
AcDbEntity
  8
0
  6
SLD-Solid
 62
     7
370
    15
100
AcDbPolyline
 90
        6
 70
   128
 43
0.0
 10
157.6162511285
 20
105.261730097
 10
157.601153272
 20
105.2882243616
 10
157.5577104266
 20
105.3147245866
 10
157.4912780698
 20
105.3412218315
 10
157.4100458797
 20
105.3677220565
 10
157.3712492164
 20
105.3796608669
  0
LINE
  5
C92
330
1F
100
AcDbEntity
  8
0
  6
SLD-Solid
 62
     7
370
    15
100
AcDbLine
 10
157.6162511285
 20
108.8896591884
 30
0.0
 11
157.6162511285
 21
105.261730097
 31
0.0
  0
LINE
  5
C93
330
1F
100
AcDbEntity
  8
0
  6
SLD-Solid
 62
     7
370
    15
100
AcDbLine
 10
157.6162511285
 20
108.8896591884
 30
0.0
 11
157.3712492164
 21
108.8896591884
 31
0.0
  0
LINE
  5
C94
330
1F
100
AcDbEntity
  8
0
  6
SLD-Solid
 62
     7
370
    15
100
AcDbLine
 10
157.6162511285
 20
105.261730097
 30
0.0
 11
157.4962520774
 21
105.261730097
 31
0.0
  0
ARC
  5
C95
330
1F
100
AcDbEntity
  8
0
  6
SLD-Solid
 62
     7
370
    15
100
AcDbCircle
 10
157.2936922476
 20
105.1722380383
 30
0.0
 40
0.2214482179074755
100
AcDbArc
 50
23.8361080676
 51
69.4988486028
  0
LWPOLYLINE
  5
C96
330
1F
100
AcDbEntity
  8
0
  6
SLD-Solid
 62
     7
370
    15
100
AcDbPolyline
 90
        6
 70
   128
 43
0.0
 10
157.3712492164
 20
105.3796608669
 10
157.397743481
 20
105.2949835283
 10
157.4242437061
 20
105.2207310421
 10
157.4507409509
 20
105.1660735828
 10
157.477241176
 20
105.1377524358
 10
157.4891799863
 20
105.1346589548
  0
LINE
  5
C97
330
1F
100
AcDbEntity
  8
0
  6
SLD-Solid
 62
     7
370
    15
100
AcDbLine
 10
157.4891799863
 20
105.1346589548
 30
0.0
 11
80.74332119780001
 21
105.1346589548
 31
0.0
  0
LWPOLYLINE
  5
C98
330
1F
100
AcDbEntity
  8
0
  6
SLD-Solid
 62
     7
370
    15
100
AcDbPolyline
 90
        6
 70
   128
 43
0.0
 10
80.74332119780001
 20
105.1346589548
 10
80.7698154624
 20
105.1497597915
 10
80.7963156875
 20
105.1932026369
 10
80.8228129323
 20
105.2596349937
 10
80.8493131574
 20
105.3408642036
 10
80.8612519677
 20
105.3796608669
  0
ARC
  5
C99
330
1F
100
AcDbEntity
  8
0
  6
SLD-Solid
 62
     7
370
    15
100
AcDbCircle
 10
157.56804577
 20
105.4471973372
 30
0.0
 40
0.208062630780557
100
AcDbArc
 50
198.9411508265
 51
247.7252562135
  0
LINE
  5
C9A
330
1F
100
AcDbEntity
  8
0
  6
SLD-Solid
 62
     7
370
    15
100
AcDbLine
 10
157.4891799863
 20
105.1346589548
 30
0.0
 11
157.4891799863
 21
105.2546609861
 31
0.0
  0
ARC
  5
C9B
330
1F
100
AcDbEntity
  8
0
  6
SLD-Solid
 62
     7
370
    15
100
AcDbCircle
 10
80.92877688500001
 20
105.1828765589
 30
0.0
 40
0.2080472983079085
100
AcDbArc
 50
108.9392360936
 51
157.7271709464
  0
LINE
  5
C9C
330
1F
100
AcDbEntity
  8
0
  6
SLD-Solid
 62
     7
370
    15
100
AcDbLine
 10
80.61625005560001
 20
105.261730097
 30
0.0
 11
80.73625208699999
 21
105.261730097
 31
0.0
  0
LINE
  5
C9D
330
1F
100
AcDbEntity
  8
0
  6
SLD-Solid
 62
     7
370
    15
100
AcDbLine
 10
80.74332119780001
 20
105.1346589548
 30
0.0
 11
80.74332119780001
 21
105.2546609861
 31
0.0
  0
ARC
  5
C9E
330
1F
100
AcDbEntity
  8
0
  6
SLD-Solid
 62
     7
370
    15
100
AcDbCircle
 10
80.65384125879999
 20
105.4572112309
 30
0.0
 40
0.2214345527239747
100
AcDbArc
 50
293.8342418909
 51
339.499351069
  0
LINE
  5
C9F
330
1F
100
AcDbEntity
  8
0
  6
SLD-Solid
 62
     7
370
    15
100
AcDbLine
 10
80.73625208699999
 20
109.1346611005
 30
0.0
 11
80.61625005560001
 21
109.1346611005
 31
0.0
  0
LINE
  5
CA0
330
1F
100
AcDbEntity
  8
0
  6
SLD-Solid
 62
     7
370
    15
100
AcDbLine
 10
80.73625208699999
 20
108.8896591884
 30
0.0
 11
80.73625208699999
 21
109.1346611005
 31
0.0
  0
LINE
  5
CA1
330
1F
100
AcDbEntity
  8
0
  6
SLD-Solid
 62
     7
370
    15
100
AcDbLine
 10
80.61625005560001
 20
109.1346611005
 30
0.0
 11
80.61625005560001
 21
108.8896591884
 31
0.0
  0
LINE
  5
CA2
330
1F
100
AcDbEntity
  8
0
  6
SLD-Solid
 62
     7
370
    15
100
AcDbLine
 10
157.4962520774
 20
109.1346611005
 30
0.0
 11
157.4962520774
 21
108.8896591884
 31
0.0
  0
LINE
  5
CA3
330
1F
100
AcDbEntity
  8
0
  6
SLD-Solid
 62
     7
370
    15
100
AcDbLine
 10
157.4962520774
 20
109.1346611005
 30
0.0
 11
157.6162511285
 21
109.1346611005
 31
0.0
  0
LINE
  5
CA4
330
1F
100
AcDbEntity
  8
0
  6
SLD-Solid
 62
     7
370
    15
100
AcDbLine
 10
157.6162511285
 20
109.1346611005
 30
0.0
 11
157.6162511285
 21
108.8896591884
 31
0.0
  0
LINE
  5
CA5
330
1F
100
AcDbEntity
  8
0
  6
SLD-Solid
 62
     7
370
    15
100
AcDbLine
 10
80.82125129060001
 20
109.1346611005
 30
0.0
 11
80.73625208699999
 21
109.1346611005
 31
0.0
  0
LINE
  5
CA6
330
1F
100
AcDbEntity
  8
0
  6
SLD-Solid
 62
     7
370
    15
100
AcDbLine
 10
157.4962520774
 20
109.1346611005
 30
0.0
 11
157.4112498935
 21
109.1346611005
 31
0.0
  0
LINE
  5
CA7
330
1F
100
AcDbEntity
  8
0
  6
SLD-Solid
 62
     7
370
    15
100
AcDbLine
 10
146.684711593
 20
105.1346589548
 30
0.0
 11
146.684711593
 21
99.17637004680001
 31
0.0
  0
LINE
  5
CA8
330
1F
100
AcDbEntity
  8
0
  6
SLD-Solid
 62
     7
370
    15
100
AcDbLine
 10
143.6847114737999
 20
105.1346589548
 30
0.0
 11
143.6847114737999
 21
99.17637004680001
 31
0.0
  0
LWPOLYLINE
  5
CA9
330
1F
100
AcDbEntity
  8
0
  6
SLD-Solid
 62
     7
370
    15
100
AcDbPolyline
 90
        3
 70
   128
 43
0.0
 10
146.684711593
 20
99.17637004680001
 10
146.6712618048999
 20
99.0399528963
 10
146.6578686412
 20
98.98458614170001
  0
LINE
  5
CAA
330
1F
100
AcDbEntity
  8
0
  6
SLD-Solid
 62
     7
370
    15
100
AcDbLine
 10
80.6147122558
 20
105.6396593076
 30
0.0
 11
80.61625005560001
 21
105.6396593076
 31
0.0
  0
LINE
  5
CAB
330
1F
100
AcDbEntity
  8
0
  6
SLD-Solid
 62
     7
370
    15
100
AcDbLine
 10
80.6147122558
 20
105.6396593076
 30
0.0
 11
80.6147122558
 21
108.0346603614
 31
0.0
  0
LINE
  5
CAC
330
1F
100
AcDbEntity
  8
0
  6
SLD-Solid
 62
     7
370
    15
100
AcDbLine
 10
80.61625005560001
 20
108.0346603614
 30
0.0
 11
80.6147122558
 21
108.0346603614
 31
0.0
  0
LINE
  5
CAD
330
1F
100
AcDbEntity
  8
0
  6
SLD-Solid
 62
     7
370
    15
100
AcDbLine
 10
157.4112498935
 20
156.1546598298
 30
0.0
 11
157.4112498935
 21
156.029659949
 31
0.0
  0
LINE
  5
CAE
330
1F
100
AcDbEntity
  8
0
  6
SLD-Solid
 62
     7
370
    15
100
AcDbLine
 10
157.4112498935
 20
156.1546598298
 30
0.0
 11
157.6162511285
 21
156.1546598298
 31
0.0
  0
LINE
  5
CAF
330
1F
100
AcDbEntity
  8
0
  6
SLD-Solid
 62
     7
370
    15
100
AcDbLine
 10
157.6162511285
 20
156.1546598298
 30
0.0
 11
157.6162511285
 21
156.029659949
 31
0.0
  0
LINE
  5
CB0
330
1F
100
AcDbEntity
  8
0
  6
SLD-Solid
 62
     7
370
    15
100
AcDbLine
 10
157.6162511285
 20
109.3396593553
 30
0.0
 11
157.6162511285
 21
156.029659949
 31
0.0
  0
LINE
  5
CB1
330
1F
100
AcDbEntity
  8
0
  6
SLD-Solid
 62
     7
370
    15
100
AcDbLine
 10
157.4112498935
 20
109.3396593553
 30
0.0
 11
157.6162511285
 21
109.3396593553
 31
0.0
  0
LINE
  5
CB2
330
1F
100
AcDbEntity
  8
0
  6
SLD-Solid
 62
     7
370
    15
100
AcDbLine
 10
80.61625005560001
 20
156.1546598298
 30
0.0
 11
80.61625005560001
 21
156.029659949
 31
0.0
  0
LINE
  5
CB3
330
1F
100
AcDbEntity
  8
0
  6
SLD-Solid
 62
     7
370
    15
100
AcDbLine
 10
80.61625005560001
 20
156.1546598298
 30
0.0
 11
80.82125129060001
 21
156.1546598298
 31
0.0
  0
LINE
  5
CB4
330
1F
100
AcDbEntity
  8
0
  6
SLD-Solid
 62
     7
370
    15
100
AcDbLine
 10
80.82125129060001
 20
156.1546598298
 30
0.0
 11
80.82125129060001
 21
156.029659949
 31
0.0
  0
LINE
  5
CB5
330
1F
100
AcDbEntity
  8
0
  6
SLD-Solid
 62
     7
370
    15
100
AcDbLine
 10
80.61625005560001
 20
109.3396593553
 30
0.0
 11
80.82125129060001
 21
109.3396593553
 31
0.0
  0
LINE
  5
CB6
330
1F
100
AcDbEntity
  8
0
  6
SLD-Solid
 62
     7
370
    15
100
AcDbLine
 10
80.61625005560001
 20
109.3396593553
 30
0.0
 11
80.61625005560001
 21
156.029659949
 31
0.0
  0
LINE
  5
CB7
330
1F
100
AcDbEntity
  8
0
  6
SLD-Solid
 62
     7
370
    15
100
AcDbLine
 10
157.3263967212
 20
156.2346596939
 30
0.0
 11
80.9061044629
 21
156.2346596939
 31
0.0
  0
ARC
  5
CB8
330
1F
100
AcDbEntity
  8
0
  6
SLD-Solid
 62
     7
370
    15
100
AcDbCircle
 10
156.9706364097
 20
155.9673429264
 30
0.0
 40
0.4449984869909943
100
AcDbArc
 50
8.050087341299999
 51
36.9210426243
  0
ARC
  5
CB9
330
1F
100
AcDbEntity
  8
0
  6
SLD-Solid
 62
     7
370
    15
100
AcDbCircle
 10
81.13047867609999
 20
156.0217260538
 30
0.0
 40
0.3093291493005646
100
AcDbArc
 50
136.4985943289
 51
178.5302757056
  0
LINE
  5
CBA
330
1F
100
AcDbEntity
  8
0
  6
SLD-Solid
 62
     7
370
    15
100
AcDbLine
 10
157.4112498935
 20
109.1346611005
 30
0.0
 11
157.3500091012
 21
109.1346611005
 31
0.0
  0
LINE
  5
CBB
330
1F
100
AcDbEntity
  8
0
  6
SLD-Solid
 62
     7
370
    15
100
AcDbLine
 10
80.88249208289999
 20
109.1346611005
 30
0.0
 11
157.3500091012
 21
109.1346611005
 31
0.0
  0
LINE
  5
CBC
330
1F
100
AcDbEntity
  8
0
  6
SLD-Solid
 62
     7
370
    15
100
AcDbLine
 10
80.82125129060001
 20
109.1346611005
 30
0.0
 11
80.88249208289999
 21
109.1346611005
 31
0.0
  0
LINE
  5
CBD
330
1F
100
AcDbEntity
  8
0
  6
SLD-Solid
 62
     7
370
    15
100
AcDbLine
 10
80.82125129060001
 20
109.1346611005
 30
0.0
 11
80.82125129060001
 21
109.3396593553
 31
0.0
  0
LINE
  5
CBE
330
1F
100
AcDbEntity
  8
0
  6
SLD-Solid
 62
     7
370
    15
100
AcDbLine
 10
157.4112498935
 20
109.3396593553
 30
0.0
 11
157.4112498935
 21
109.1346611005
 31
0.0
  0
ARC
  5
CBF
330
1F
100
AcDbEntity
  8
0
  6
SLD-Solid
 62
     7
370
    15
100
AcDbCircle
 10
157.4197369374
 20
156.0498109022
 30
0.0
 40
0.1850435238023451
100
AcDbArc
 50
34.5146997487
 51
92.62880016229999
  0
LINE
  5
CC0
330
1F
100
AcDbEntity
  8
0
  6
SLD-Solid
 62
     7
370
    15
100
AcDbLine
 10
157.4112498935
 20
156.2346596939
 30
0.0
 11
157.4112498935
 21
156.1546598298
 31
0.0
  0
ARC
  5
CC1
330
1F
100
AcDbEntity
  8
0
  6
SLD-Solid
 62
     7
370
    15
100
AcDbCircle
 10
80.81519914979999
 20
156.0493281411
 30
0.0
 40
0.1854303449989684
100
AcDbArc
 50
88.12962801000001
 51
145.3864000001
  0
LINE
  5
CC2
330
1F
100
AcDbEntity
  8
0
  6
SLD-Solid
 62
     7
370
    15
100
AcDbLine
 10
80.82125129060001
 20
156.2346596939
 30
0.0
 11
80.82125129060001
 21
156.1546598298
 31
0.0
  0
ARC
  5
CC3
330
1F
100
AcDbEntity
  8
0
  6
SLD-Solid
 62
     7
370
    15
100
AcDbCircle
 10
157.4112508755
 20
109.3396583733
 30
0.0
 40
0.1249988988022953
100
AcDbArc
 50
269.9995498839
 51
0.0004501161
  0
ARC
  5
CC4
330
1F
100
AcDbEntity
  8
0
  6
SLD-Solid
 62
     7
370
    15
100
AcDbCircle
 10
157.4112521975
 20
109.3396600316
 30
0.0
 40
0.2049989310398682
100
AcDbArc
 50
269.9993560565
 51
359.9998109926
  0
ARC
  5
CC5
330
1F
100
AcDbEntity
  8
0
  6
SLD-Solid
 62
     7
370
    15
100
AcDbCircle
 10
80.8212503086
 20
109.3396583733
 30
0.0
 40
0.1249988988022953
100
AcDbArc
 50
179.9995498839
 51
270.0004501161
  0
ARC
  5
CC6
330
1F
100
AcDbEntity
  8
0
  6
SLD-Solid
 62
     7
370
    15
100
AcDbCircle
 10
80.8212489867
 20
109.3396600316
 30
0.0
 40
0.2049989310398398
100
AcDbArc
 50
180.0001890074
 51
270.0006439435
  0
LINE
  5
CC7
330
1F
100
AcDbEntity
  8
0
  6
SLD-Solid
 62
     7
370
    15
100
AcDbLine
 10
157.4112498935
 20
156.1546598298
 30
0.0
 11
157.3751890834
 21
156.1546598298
 31
0.0
  0
LINE
  5
CC8
330
1F
100
AcDbEntity
  8
0
  6
SLD-Solid
 62
     7
370
    15
100
AcDbLine
 10
157.4112498935
 20
156.2346596939
 30
0.0
 11
157.3263967212
 21
156.2346596939
 31
0.0
  0
LINE
  5
CC9
330
1F
100
AcDbEntity
  8
0
  6
SLD-Solid
 62
     7
370
    15
100
AcDbLine
 10
80.9061044629
 20
156.2346596939
 30
0.0
 11
80.82125129060001
 21
156.2346596939
 31
0.0
  0
LINE
  5
CCA
330
1F
100
AcDbEntity
  8
0
  6
SLD-Solid
 62
     7
370
    15
100
AcDbLine
 10
80.85689188800001
 20
156.1546598298
 30
0.0
 11
80.82125129060001
 21
156.1546598298
 31
0.0
  0
ARC
  5
CCB
330
1F
100
AcDbEntity
  8
0
  6
SLD-Solid
 62
     7
370
    15
100
AcDbCircle
 10
80.49625064369999
 20
146.0451302338
 30
0.0
 40
0.1200000000000188
100
AcDbArc
 50
300.0
 51
0.0
  0
ARC
  5
CCC
330
1F
100
AcDbEntity
  8
0
  6
SLD-Solid
 62
     7
370
    15
100
AcDbCircle
 10
80.49625064369999
 20
139.8141901262
 30
0.0
 40
0.1200000000000031
100
AcDbArc
 50
0.0
 51
60.0
  0
ARC
  5
CCD
330
1F
100
AcDbEntity
  8
0
  6
SLD-Solid
 62
     7
370
    15
100
AcDbCircle
 10
80.49625064369999
 20
136.0451302338
 30
0.0
 40
0.1200000000000045
100
AcDbArc
 50
300.0
 51
0.0
  0
ARC
  5
CCE
330
1F
100
AcDbEntity
  8
0
  6
SLD-Solid
 62
     7
370
    15
100
AcDbCircle
 10
80.49625064369999
 20
129.8141901262
 30
0.0
 40
0.119999999999996
100
AcDbArc
 50
0.0
 51
60.0
  0
ARC
  5
CCF
330
1F
100
AcDbEntity
  8
0
  6
SLD-Solid
 62
     7
370
    15
100
AcDbCircle
 10
80.49625064369999
 20
126.0451302338
 30
0.0
 40
0.1200000000000045
100
AcDbArc
 50
300.0
 51
0.0
  0
ARC
  5
CD0
330
1F
100
AcDbEntity
  8
0
  6
SLD-Solid
 62
     7
370
    15
100
AcDbCircle
 10
80.49625064369999
 20
119.8141901262
 30
0.0
 40
0.1200000000000031
100
AcDbArc
 50
0.0
 51
60.0
  0
LINE
  5
CD1
330
1F
100
AcDbEntity
  8
0
  6
SLD-Solid
 62
     7
370
    15
100
AcDbLine
 10
80.55625202020001
 20
145.9412072522
 30
0.0
 11
80.40625097119999
 21
145.8546046836
 31
0.0
  0
LINE
  5
CD2
330
1F
100
AcDbEntity
  8
0
  6
SLD-Solid
 62
     7
370
    15
100
AcDbLine
 10
80.55625202020001
 20
139.9181131941
 30
0.0
 11
80.40625097119999
 21
140.0047157628
 31
0.0
  0
LINE
  5
CD3
330
1F
100
AcDbEntity
  8
0
  6
SLD-Solid
 62
     7
370
    15
100
AcDbLine
 10
80.55625202020001
 20
135.9412071963
 30
0.0
 11
80.40625097119999
 21
135.8546046277
 31
0.0
  0
LINE
  5
CD4
330
1F
100
AcDbEntity
  8
0
  6
SLD-Solid
 62
     7
370
    15
100
AcDbLine
 10
80.55625202020001
 20
129.9181130451
 30
0.0
 11
80.40625097119999
 21
130.0047156138
 31
0.0
  0
LINE
  5
CD5
330
1F
100
AcDbEntity
  8
0
  6
SLD-Solid
 62
     7
370
    15
100
AcDbLine
 10
80.55625202020001
 20
125.9412069542
 30
0.0
 11
80.40625097119999
 21
125.8546043855
 31
0.0
  0
LINE
  5
CD6
330
1F
100
AcDbEntity
  8
0
  6
SLD-Solid
 62
     7
370
    15
100
AcDbLine
 10
80.55625202020001
 20
119.9181128961
 30
0.0
 11
80.40625097119999
 21
120.0047154647
 31
0.0
  0
ARC
  5
CD7
330
1F
100
AcDbEntity
  8
0
  6
SLD-Solid
 62
     7
370
    15
100
AcDbCircle
 10
157.7362506437
 20
146.0451302338
 30
0.0
 40
0.1200000000000031
100
AcDbArc
 50
180.0
 51
240.0
  0
ARC
  5
CD8
330
1F
100
AcDbEntity
  8
0
  6
SLD-Solid
 62
     7
370
    15
100
AcDbCircle
 10
157.7362506437
 20
139.8141901262
 30
0.0
 40
0.1200000000000045
100
AcDbArc
 50
120.0
 51
180.0
  0
ARC
  5
CD9
330
1F
100
AcDbEntity
  8
0
  6
SLD-Solid
 62
     7
370
    15
100
AcDbCircle
 10
157.7362506437
 20
136.0451302338
 30
0.0
 40
0.1200000000000031
100
AcDbArc
 50
180.0
 51
240.0
  0
ARC
  5
CDA
330
1F
100
AcDbEntity
  8
0
  6
SLD-Solid
 62
     7
370
    15
100
AcDbCircle
 10
157.7362506437
 20
129.8141901262
 30
0.0
 40
0.1200000000000045
100
AcDbArc
 50
120.0
 51
180.0
  0
ARC
  5
CDB
330
1F
100
AcDbEntity
  8
0
  6
SLD-Solid
 62
     7
370
    15
100
AcDbCircle
 10
157.7362506437
 20
126.0451302338
 30
0.0
 40
0.1199999999999889
100
AcDbArc
 50
180.0
 51
240.0
  0
ARC
  5
CDC
330
1F
100
AcDbEntity
  8
0
  6
SLD-Solid
 62
     7
370
    15
100
AcDbCircle
 10
157.7362506437
 20
119.8141901262
 30
0.0
 40
0.1199999999999889
100
AcDbArc
 50
120.0
 51
180.0
  0
ARC
  5
CDD
330
1F
100
AcDbEntity
  8
0
  6
SLD-Solid
 62
     7
370
    15
100
AcDbCircle
 10
80.5462506437
 20
145.612117532
 30
0.0
 40
0.2800000000000284
100
AcDbArc
 50
120.0
 51
180.0
  0
LINE
  5
CDE
330
1F
100
AcDbEntity
  8
0
  6
SLD-Solid
 62
     7
370
    15
100
AcDbLine
 10
80.2662515815
 20
145.6121173424
 30
0.0
 11
80.2662515815
 21
144.929660551
 31
0.0
  0
LINE
  5
CDF
330
1F
100
AcDbEntity
  8
0
  6
SLD-Solid
 62
     7
370
    15
100
AcDbLine
 10
80.2662515815
 20
140.9296598953
 30
0.0
 11
80.2662515815
 21
144.929660551
 31
0.0
  0
ARC
  5
CE0
330
1F
100
AcDbEntity
  8
0
  6
SLD-Solid
 62
     7
370
    15
100
AcDbCircle
 10
80.5462506437
 20
140.2472028281
 30
0.0
 40
0.2800000000000213
100
AcDbArc
 50
180.0
 51
240.0
  0
LINE
  5
CE1
330
1F
100
AcDbEntity
  8
0
  6
SLD-Solid
 62
     7
370
    15
100
AcDbLine
 10
80.2662515815
 20
140.2472027314
 30
0.0
 11
80.2662515815
 21
140.9296598953
 31
0.0
  0
ARC
  5
CE2
330
1F
100
AcDbEntity
  8
0
  6
SLD-Solid
 62
     7
370
    15
100
AcDbCircle
 10
80.5462506437
 20
135.612117532
 30
0.0
 40
0.2800000000000011
100
AcDbArc
 50
120.0
 51
180.0
  0
LINE
  5
CE3
330
1F
100
AcDbEntity
  8
0
  6
SLD-Solid
 62
     7
370
    15
100
AcDbLine
 10
80.2662515815
 20
135.6121175659
 30
0.0
 11
80.2662515815
 21
134.9296601691
 31
0.0
  0
LINE
  5
CE4
330
1F
100
AcDbEntity
  8
0
  6
SLD-Solid
 62
     7
370
    15
100
AcDbLine
 10
80.2662515815
 20
130.9296601189
 30
0.0
 11
80.2662515815
 21
134.9296601691
 31
0.0
  0
ARC
  5
CE5
330
1F
100
AcDbEntity
  8
0
  6
SLD-Solid
 62
     7
370
    15
100
AcDbCircle
 10
80.5462506437
 20
130.2472028281
 30
0.0
 40
0.2800000000000011
100
AcDbArc
 50
180.0
 51
240.0
  0
LINE
  5
CE6
330
1F
100
AcDbEntity
  8
0
  6
SLD-Solid
 62
     7
370
    15
100
AcDbLine
 10
80.2662515815
 20
130.2472029549
 30
0.0
 11
80.2662515815
 21
130.9296601189
 31
0.0
  0
ARC
  5
CE7
330
1F
100
AcDbEntity
  8
0
  6
SLD-Solid
 62
     7
370
    15
100
AcDbCircle
 10
80.5462506437
 20
125.612117532
 30
0.0
 40
0.2800000000000038
100
AcDbArc
 50
120.0
 51
180.0
  0
LINE
  5
CE8
330
1F
100
AcDbEntity
  8
0
  6
SLD-Solid
 62
     7
370
    15
100
AcDbLine
 10
80.2662515815
 20
125.6121177894
 30
0.0
 11
80.2662515815
 21
124.929660253
 31
0.0
  0
LINE
  5
CE9
330
1F
100
AcDbEntity
  8
0
  6
SLD-Solid
 62
     7
370
    15
100
AcDbLine
 10
80.2662515815
 20
120.9296603424
 30
0.0
 11
80.2662515815
 21
124.929660253
 31
0.0
  0
ARC
  5
CEA
330
1F
100
AcDbEntity
  8
0
  6
SLD-Solid
 62
     7
370
    15
100
AcDbCircle
 10
80.5462506437
 20
120.2472028281
 30
0.0
 40
0.2800000000000011
100
AcDbArc
 50
180.0
 51
240.0
  0
LINE
  5
CEB
330
1F
100
AcDbEntity
  8
0
  6
SLD-Solid
 62
     7
370
    15
100
AcDbLine
 10
80.2662515815
 20
120.247203551
 30
0.0
 11
80.2662515815
 21
120.9296603424
 31
0.0
  0
LINE
  5
CEC
330
1F
100
AcDbEntity
  8
0
  6
SLD-Solid
 62
     7
370
    15
100
AcDbLine
 10
157.6762491639
 20
145.9412072522
 30
0.0
 11
157.826250213
 21
145.8546046836
 31
0.0
  0
LINE
  5
CED
330
1F
100
AcDbEntity
  8
0
  6
SLD-Solid
 62
     7
370
    15
100
AcDbLine
 10
157.6762491639
 20
139.9181131941
 30
0.0
 11
157.826250213
 21
140.0047157628
 31
0.0
  0
LINE
  5
CEE
330
1F
100
AcDbEntity
  8
0
  6
SLD-Solid
 62
     7
370
    15
100
AcDbLine
 10
157.6762491639
 20
135.9412071963
 30
0.0
 11
157.826250213
 21
135.8546046277
 31
0.0
  0
LINE
  5
CEF
330
1F
100
AcDbEntity
  8
0
  6
SLD-Solid
 62
     7
370
    15
100
AcDbLine
 10
157.6762491639
 20
129.9181130451
 30
0.0
 11
157.826250213
 21
130.0047156138
 31
0.0
  0
LINE
  5
CF0
330
1F
100
AcDbEntity
  8
0
  6
SLD-Solid
 62
     7
370
    15
100
AcDbLine
 10
157.6762491639
 20
125.9412069542
 30
0.0
 11
157.826250213
 21
125.8546043855
 31
0.0
  0
LINE
  5
CF1
330
1F
100
AcDbEntity
  8
0
  6
SLD-Solid
 62
     7
370
    15
100
AcDbLine
 10
157.6762491639
 20
119.9181128961
 30
0.0
 11
157.826250213
 21
120.0047154647
 31
0.0
  0
ARC
  5
CF2
330
1F
100
AcDbEntity
  8
0
  6
SLD-Solid
 62
     7
370
    15
100
AcDbCircle
 10
157.6862506437
 20
145.612117532
 30
0.0
 40
0.2800000000000038
100
AcDbArc
 50
0.0
 51
60.0
  0
LINE
  5
CF3
330
1F
100
AcDbEntity
  8
0
  6
SLD-Solid
 62
     7
370
    15
100
AcDbLine
 10
157.9662496026
 20
145.6121173424
 30
0.0
 11
157.9662496026
 21
144.929660551
 31
0.0
  0
LINE
  5
CF4
330
1F
100
AcDbEntity
  8
0
  6
SLD-Solid
 62
     7
370
    15
100
AcDbLine
 10
157.9662496026
 20
144.929660551
 30
0.0
 11
157.9662496026
 21
140.9296598953
 31
0.0
  0
ARC
  5
CF5
330
1F
100
AcDbEntity
  8
0
  6
SLD-Solid
 62
     7
370
    15
100
AcDbCircle
 10
157.6862506437
 20
140.2472028281
 30
0.0
 40
0.2800000000000038
100
AcDbArc
 50
300.0
 51
0.0
  0
LINE
  5
CF6
330
1F
100
AcDbEntity
  8
0
  6
SLD-Solid
 62
     7
370
    15
100
AcDbLine
 10
157.9662496026
 20
140.2472027314
 30
0.0
 11
157.9662496026
 21
140.9296598953
 31
0.0
  0
ARC
  5
CF7
330
1F
100
AcDbEntity
  8
0
  6
SLD-Solid
 62
     7
370
    15
100
AcDbCircle
 10
157.6862506437
 20
135.612117532
 30
0.0
 40
0.2800000000000284
100
AcDbArc
 50
0.0
 51
60.0
  0
LINE
  5
CF8
330
1F
100
AcDbEntity
  8
0
  6
SLD-Solid
 62
     7
370
    15
100
AcDbLine
 10
157.9662496026
 20
135.6121175659
 30
0.0
 11
157.9662496026
 21
134.9296601691
 31
0.0
  0
LINE
  5
CF9
330
1F
100
AcDbEntity
  8
0
  6
SLD-Solid
 62
     7
370
    15
100
AcDbLine
 10
157.9662496026
 20
134.9296601691
 30
0.0
 11
157.9662496026
 21
130.9296601189
 31
0.0
  0
ARC
  5
CFA
330
1F
100
AcDbEntity
  8
0
  6
SLD-Solid
 62
     7
370
    15
100
AcDbCircle
 10
157.6862506437
 20
130.2472028281
 30
0.0
 40
0.2800000000000038
100
AcDbArc
 50
300.0
 51
0.0
  0
LINE
  5
CFB
330
1F
100
AcDbEntity
  8
0
  6
SLD-Solid
 62
     7
370
    15
100
AcDbLine
 10
157.9662496026
 20
130.2472029549
 30
0.0
 11
157.9662496026
 21
130.9296601189
 31
0.0
  0
ARC
  5
CFC
330
1F
100
AcDbEntity
  8
0
  6
SLD-Solid
 62
     7
370
    15
100
AcDbCircle
 10
157.6862506437
 20
125.612117532
 30
0.0
 40
0.280000000000018
100
AcDbArc
 50
0.0
 51
60.0
  0
LINE
  5
CFD
330
1F
100
AcDbEntity
  8
0
  6
SLD-Solid
 62
     7
370
    15
100
AcDbLine
 10
157.9662496026
 20
125.6121177894
 30
0.0
 11
157.9662496026
 21
124.929660253
 31
0.0
  0
LINE
  5
CFE
330
1F
100
AcDbEntity
  8
0
  6
SLD-Solid
 62
     7
370
    15
100
AcDbLine
 10
157.9662496026
 20
124.929660253
 30
0.0
 11
157.9662496026
 21
120.9296603424
 31
0.0
  0
ARC
  5
CFF
330
1F
100
AcDbEntity
  8
0
  6
SLD-Solid
 62
     7
370
    15
100
AcDbCircle
 10
157.6862506437
 20
120.2472028281
 30
0.0
 40
0.280000000000018
100
AcDbArc
 50
300.0
 51
0.0
  0
LINE
  5
D00
330
1F
100
AcDbEntity
  8
0
  6
SLD-Solid
 62
     7
370
    15
100
AcDbLine
 10
157.9662496026
 20
120.247203551
 30
0.0
 11
157.9662496026
 21
120.9296603424
 31
0.0
  0
LINE
  5
D01
330
1F
100
AcDbEntity
  8
0
  6
SLD-Solid
 62
     7
370
    15
100
AcDbLine
 10
149.818515199
 20
156.2846605403
 30
0.0
 11
150.1162493404
 21
156.2846605403
 31
0.0
  0
LINE
  5
D02
330
1F
100
AcDbEntity
  8
0
  6
SLD-Solid
 62
     7
370
    15
100
AcDbLine
 10
149.5162511047
 20
156.2846605403
 30
0.0
 11
149.818515199
 21
156.2846605403
 31
0.0
  0
LINE
  5
D03
330
1F
100
AcDbEntity
  8
0
  6
SLD-Solid
 62
     7
370
    15
100
AcDbLine
 10
88.41625096159999
 20
156.2846605403
 30
0.0
 11
88.71625007950001
 21
156.2846605403
 31
0.0
  0
LINE
  5
D04
330
1F
100
AcDbEntity
  8
0
  6
SLD-Solid
 62
     7
370
    15
100
AcDbLine
 10
88.11625184379998
 20
156.2846605403
 30
0.0
 11
88.41625096159999
 21
156.2846605403
 31
0.0
  0
ENDSEC
  0
SECTION
  2
OBJECTS
  0
DICTIONARY
  5
C
330
0
100
AcDbDictionary
281
     1
  3
ACAD_COLOR
350
D1E
  3
ACAD_GROUP
350
D
  3
ACAD_LAYOUT
350
1A
  3
ACAD_MATERIAL
350
D09
  3
ACAD_MLINESTYLE
350
17
  3
ACAD_PLOTSETTINGS
350
19
  3
ACAD_PLOTSTYLENAME
350
E
  3
ACAD_SCALELIST
350
949
  3
ACAD_TABLESTYLE
350
D1F
  3
ACAD_VISUALSTYLE
350
D0D
  3
AcDbVariableDictionary
350
D05
  0
DICTIONARY
  5
D1E
102
{ACAD_REACTORS
330
C
102
}
330
C
100
AcDbDictionary
281
     1
  0
DICTIONARY
  5
D
102
{ACAD_REACTORS
330
C
102
}
330
C
100
AcDbDictionary
281
     1
  0
DICTIONARY
  5
1A
102
{ACAD_REACTORS
330
C
102
}
330
C
100
AcDbDictionary
281
     1
  3
Layout1
350
1E
  3
Layout2
350
26
  3
Model
350
22
  0
DICTIONARY
  5
D09
102
{ACAD_REACTORS
330
C
102
}
330
C
100
AcDbDictionary
281
     1
  3
ByBlock
350
D0B
  3
ByLayer
350
D0A
  3
Global
350
D0C
  0
DICTIONARY
  5
17
102
{ACAD_REACTORS
330
C
102
}
330
C
100
AcDbDictionary
281
     1
  3
Standard
350
18
  0
DICTIONARY
  5
19
102
{ACAD_REACTORS
330
C
102
}
330
C
100
AcDbDictionary
281
     1
  0
ACDBDICTIONARYWDFLT
  5
E
102
{ACAD_REACTORS
330
C
102
}
330
C
100
AcDbDictionary
281
     1
  3
Normal
350
F
100
AcDbDictionaryWithDefault
340
F
  0
DICTIONARY
  5
949
102
{ACAD_REACTORS
330
C
102
}
330
C
100
AcDbDictionary
281
     1
  3
A0
350
94A
  3
A1
350
94B
  3
A2
350
94C
  3
A3
350
94D
  3
A4
350
94E
  3
A5
350
94F
  3
A6
350
950
  3
A7
350
951
  3
A8
350
952
  3
A9
350
953
  3
B0
350
954
  3
B1
350
955
  3
B2
350
956
  3
B3
350
957
  3
B4
350
958
  3
B5
350
959
  3
B6
350
95A
  3
B7
350
95B
  3
B8
350
95C
  3
B9
350
95D
  3
C0
350
95E
  3
C1
350
95F
  3
C2
350
960
  3
C3
350
961
  3
C4
350
962
  3
C5
350
963
  3
C6
350
964
  3
C7
350
965
  3
C8
350
966
  3
C9
350
967
  3
D0
350
968
  3
D1
350
969
  3
D2
350
96A
  0
DICTIONARY
  5
D1F
102
{ACAD_REACTORS
330
C
102
}
330
C
100
AcDbDictionary
281
     1
  3
Standard
350
D20
  0
DICTIONARY
  5
D0D
102
{ACAD_REACTORS
330
C
102
}
330
C
100
AcDbDictionary
281
     1
  3
2dWireframe
350
D13
  3
3D Hidden
350
D15
  3
3dWireframe
350
D14
  3
Basic
350
D12
  3
Brighten
350
D19
  3
ColorChange
350
D1D
  3
Conceptual
350
D16
  3
Dim
350
D18
  3
Facepattern
350
D1C
  3
Flat
350
D0E
  3
FlatWithEdges
350
D0F
  3
Gouraud
350
D10
  3
GouraudWithEdges
350
D11
  3
Linepattern
350
D1B
  3
Realistic
350
D17
  3
Thicken
350
D1A
  0
DICTIONARY
  5
D05
102
{ACAD_REACTORS
330
C
102
}
330
C
100
AcDbDictionary
281
     1
  3
CANNOSCALE
350
D06
  3
CTABLESTYLE
350
D26
  0
LAYOUT
  5
1E
102
{ACAD_REACTORS
330
1A
102
}
330
1A
100
AcDbPlotSettings
  1

  2
none_device
  4

  6

 40
0.0
 41
0.0
 42
0.0
 43
0.0
 44
0.0
 45
0.0
 46
0.0
 47
0.0
 48
0.0
 49
0.0
140
0.0
141
0.0
142
1.0
143
1.0
 70
   688
 72
     0
 73
     0
 74
     5
  7

 75
    16
147
1.0
 76
     0
 77
     2
 78
   300
148
0.0
149
0.0
100
AcDbLayout
  1
Layout1
 70
     1
 71
     1
 10
0.0
 20
0.0
 11
420.0
 21
297.0
 12
0.0
 22
0.0
 32
0.0
 14
1.000000000000000E+20
 24
1.000000000000000E+20
 34
1.000000000000000E+20
 15
-1.000000000000000E+20
 25
-1.000000000000000E+20
 35
-1.000000000000000E+20
146
0.0
 13
0.0
 23
0.0
 33
0.0
 16
1.0
 26
0.0
 36
0.0
 17
0.0
 27
1.0
 37
0.0
 76
     0
330
1B
  0
LAYOUT
  5
26
102
{ACAD_REACTORS
330
1A
102
}
330
1A
100
AcDbPlotSettings
  1

  2
none_device
  4

  6

 40
0.0
 41
0.0
 42
0.0
 43
0.0
 44
0.0
 45
0.0
 46
0.0
 47
0.0
 48
0.0
 49
0.0
140
0.0
141
0.0
142
1.0
143
1.0
 70
   688
 72
     0
 73
     0
 74
     5
  7

 75
    16
147
1.0
 76
     0
 77
     2
 78
   300
148
0.0
149
0.0
100
AcDbLayout
  1
Layout2
 70
     1
 71
     2
 10
0.0
 20
0.0
 11
0.0
 21
0.0
 12
0.0
 22
0.0
 32
0.0
 14
0.0
 24
0.0
 34
0.0
 15
0.0
 25
0.0
 35
0.0
146
0.0
 13
0.0
 23
0.0
 33
0.0
 16
1.0
 26
0.0
 36
0.0
 17
0.0
 27
1.0
 37
0.0
 76
     0
330
23
  0
LAYOUT
  5
22
102
{ACAD_REACTORS
330
1A
102
}
330
1A
100
AcDbPlotSettings
  1

  2
none_device
  4

  6

 40
0.0
 41
0.0
 42
0.0
 43
0.0
 44
0.0
 45
0.0
 46
0.0
 47
0.0
 48
0.0
 49
0.0
140
0.0
141
0.0
142
1.0
143
1.0
 70
  1712
 72
     0
 73
     0
 74
     0
  7

 75
     0
147
1.0
 76
     0
 77
     2
 78
   300
148
0.0
149
0.0
100
AcDbLayout
  1
Model
 70
     1
 71
     0
 10
0.0
 20
0.0
 11
420.0
 21
297.0
 12
0.0
 22
0.0
 32
0.0
 14
0.0
 24
0.0
 34
0.0
 15
420.0
 25
297.0
 35
0.0
146
0.0
 13
0.0
 23
0.0
 33
0.0
 16
1.0
 26
0.0
 36
0.0
 17
0.0
 27
1.0
 37
0.0
 76
     0
330
1F
331
29
  0
MATERIAL
  5
D0B
102
{ACAD_XDICTIONARY
360
D3C
102
}
102
{ACAD_REACTORS
330
D09
102
}
330
D09
100
AcDbMaterial
  1
ByBlock
  0
MATERIAL
  5
D0A
102
{ACAD_XDICTIONARY
360
D3A
102
}
102
{ACAD_REACTORS
330
D09
102
}
330
D09
100
AcDbMaterial
  1
ByLayer
  0
MATERIAL
  5
D0C
102
{ACAD_XDICTIONARY
360
D3E
102
}
102
{ACAD_REACTORS
330
D09
102
}
330
D09
100
AcDbMaterial
  1
Global
  0
MLINESTYLE
  5
18
102
{ACAD_REACTORS
330
17
102
}
330
17
100
AcDbMlineStyle
  2
STANDARD
 70
     0
  3

 62
   256
 51
90.0
 52
90.0
 71
     2
 49
0.5
 62
   256
  6
BYLAYER
 49
-0.5
 62
   256
  6
BYLAYER
  0
ACDBPLACEHOLDER
  5
F
102
{ACAD_REACTORS
330
E
102
}
330
E
  0
ACAD_PROXY_OBJECT
  5
94A
102
{ACAD_REACTORS
330
949
102
}
330
949
100
AcDbProxyObject
 90
      499
 91
      503
 95
   393239
 70
     1
100
AcDbScale
 70
     0
300
1:1
140
1.0
141
1.0
290
     1
  0
ACAD_PROXY_OBJECT
  5
94B
102
{ACAD_REACTORS
330
949
102
}
330
949
100
AcDbProxyObject
 90
      499
 91
      503
 95
   393239
 70
     1
100
AcDbScale
 70
     0
300
1:2
140
1.0
141
2.0
290
     0
  0
ACAD_PROXY_OBJECT
  5
94C
102
{ACAD_REACTORS
330
949
102
}
330
949
100
AcDbProxyObject
 90
      499
 91
      503
 95
   393239
 70
     1
100
AcDbScale
 70
     0
300
1:4
140
1.0
141
4.0
290
     0
  0
ACAD_PROXY_OBJECT
  5
94D
102
{ACAD_REACTORS
330
949
102
}
330
949
100
AcDbProxyObject
 90
      499
 91
      503
 95
   393239
 70
     1
100
AcDbScale
 70
     0
300
1:5
140
1.0
141
5.0
290
     0
  0
ACAD_PROXY_OBJECT
  5
94E
102
{ACAD_REACTORS
330
949
102
}
330
949
100
AcDbProxyObject
 90
      499
 91
      503
 95
   393239
 70
     1
100
AcDbScale
 70
     0
300
1:8
140
1.0
141
8.0
290
     0
  0
ACAD_PROXY_OBJECT
  5
94F
102
{ACAD_REACTORS
330
949
102
}
330
949
100
AcDbProxyObject
 90
      499
 91
      503
 95
   393239
 70
     1
100
AcDbScale
 70
     0
300
1:10
140
1.0
141
10.0
290
     0
  0
ACAD_PROXY_OBJECT
  5
950
102
{ACAD_REACTORS
330
949
102
}
330
949
100
AcDbProxyObject
 90
      499
 91
      503
 95
   393239
 70
     1
100
AcDbScale
 70
     0
300
1:16
140
1.0
141
16.0
290
     0
  0
ACAD_PROXY_OBJECT
  5
951
102
{ACAD_REACTORS
330
949
102
}
330
949
100
AcDbProxyObject
 90
      499
 91
      503
 95
   393239
 70
     1
100
AcDbScale
 70
     0
300
1:20
140
1.0
141
20.0
290
     0
  0
ACAD_PROXY_OBJECT
  5
952
102
{ACAD_REACTORS
330
949
102
}
330
949
100
AcDbProxyObject
 90
      499
 91
      503
 95
   393239
 70
     1
100
AcDbScale
 70
     0
300
1:30
140
1.0
141
30.0
290
     0
  0
ACAD_PROXY_OBJECT
  5
953
102
{ACAD_REACTORS
330
949
102
}
330
949
100
AcDbProxyObject
 90
      499
 91
      503
 95
   393239
 70
     1
100
AcDbScale
 70
     0
300
1:40
140
1.0
141
40.0
290
     0
  0
ACAD_PROXY_OBJECT
  5
954
102
{ACAD_REACTORS
330
949
102
}
330
949
100
AcDbProxyObject
 90
      499
 91
      503
 95
   393239
 70
     1
100
AcDbScale
 70
     0
300
1:50
140
1.0
141
50.0
290
     0
  0
ACAD_PROXY_OBJECT
  5
955
102
{ACAD_REACTORS
330
949
102
}
330
949
100
AcDbProxyObject
 90
      499
 91
      503
 95
   393239
 70
     1
100
AcDbScale
 70
     0
300
1:100
140
1.0
141
100.0
290
     0
  0
ACAD_PROXY_OBJECT
  5
956
102
{ACAD_REACTORS
330
949
102
}
330
949
100
AcDbProxyObject
 90
      499
 91
      503
 95
   393239
 70
     1
100
AcDbScale
 70
     0
300
2:1
140
2.0
141
1.0
290
     0
  0
ACAD_PROXY_OBJECT
  5
957
102
{ACAD_REACTORS
330
949
102
}
330
949
100
AcDbProxyObject
 90
      499
 91
      503
 95
   393239
 70
     1
100
AcDbScale
 70
     0
300
4:1
140
4.0
141
1.0
290
     0
  0
ACAD_PROXY_OBJECT
  5
958
102
{ACAD_REACTORS
330
949
102
}
330
949
100
AcDbProxyObject
 90
      499
 91
      503
 95
   393239
 70
     1
100
AcDbScale
 70
     0
300
8:1
140
8.0
141
1.0
290
     0
  0
ACAD_PROXY_OBJECT
  5
959
102
{ACAD_REACTORS
330
949
102
}
330
949
100
AcDbProxyObject
 90
      499
 91
      503
 95
   393239
 70
     1
100
AcDbScale
 70
     0
300
10:1
140
10.0
141
1.0
290
     0
  0
ACAD_PROXY_OBJECT
  5
95A
102
{ACAD_REACTORS
330
949
102
}
330
949
100
AcDbProxyObject
 90
      499
 91
      503
 95
   393239
 70
     1
100
AcDbScale
 70
     0
300
100:1
140
100.0
141
1.0
290
     0
  0
ACAD_PROXY_OBJECT
  5
95B
102
{ACAD_REACTORS
330
949
102
}
330
949
100
AcDbProxyObject
 90
      499
 91
      503
 95
   393239
 70
     1
100
AcDbScale
 70
     0
300
1/128" = 1'-0"
140
0.0078125
141
12.0
290
     0
  0
ACAD_PROXY_OBJECT
  5
95C
102
{ACAD_REACTORS
330
949
102
}
330
949
100
AcDbProxyObject
 90
      499
 91
      503
 95
   393239
 70
     1
100
AcDbScale
 70
     0
300
1/64" = 1'-0"
140
0.015625
141
12.0
290
     0
  0
ACAD_PROXY_OBJECT
  5
95D
102
{ACAD_REACTORS
330
949
102
}
330
949
100
AcDbProxyObject
 90
      499
 91
      503
 95
   393239
 70
     1
100
AcDbScale
 70
     0
300
1/32" = 1'-0"
140
0.03125
141
12.0
290
     0
  0
ACAD_PROXY_OBJECT
  5
95E
102
{ACAD_REACTORS
330
949
102
}
330
949
100
AcDbProxyObject
 90
      499
 91
      503
 95
   393239
 70
     1
100
AcDbScale
 70
     0
300
1/16" = 1'-0"
140
0.0625
141
12.0
290
     0
  0
ACAD_PROXY_OBJECT
  5
95F
102
{ACAD_REACTORS
330
949
102
}
330
949
100
AcDbProxyObject
 90
      499
 91
      503
 95
   393239
 70
     1
100
AcDbScale
 70
     0
300
3/32" = 1'-0"
140
0.09375
141
12.0
290
     0
  0
ACAD_PROXY_OBJECT
  5
960
102
{ACAD_REACTORS
330
949
102
}
330
949
100
AcDbProxyObject
 90
      499
 91
      503
 95
   393239
 70
     1
100
AcDbScale
 70
     0
300
1/8" = 1'-0"
140
0.125
141
12.0
290
     0
  0
ACAD_PROXY_OBJECT
  5
961
102
{ACAD_REACTORS
330
949
102
}
330
949
100
AcDbProxyObject
 90
      499
 91
      503
 95
   393239
 70
     1
100
AcDbScale
 70
     0
300
3/16" = 1'-0"
140
0.1875
141
12.0
290
     0
  0
ACAD_PROXY_OBJECT
  5
962
102
{ACAD_REACTORS
330
949
102
}
330
949
100
AcDbProxyObject
 90
      499
 91
      503
 95
   393239
 70
     1
100
AcDbScale
 70
     0
300
1/4" = 1'-0"
140
0.25
141
12.0
290
     0
  0
ACAD_PROXY_OBJECT
  5
963
102
{ACAD_REACTORS
330
949
102
}
330
949
100
AcDbProxyObject
 90
      499
 91
      503
 95
   393239
 70
     1
100
AcDbScale
 70
     0
300
3/8" = 1'-0"
140
0.375
141
12.0
290
     0
  0
ACAD_PROXY_OBJECT
  5
964
102
{ACAD_REACTORS
330
949
102
}
330
949
100
AcDbProxyObject
 90
      499
 91
      503
 95
   393239
 70
     1
100
AcDbScale
 70
     0
300
1/2" = 1'-0"
140
0.5
141
12.0
290
     0
  0
ACAD_PROXY_OBJECT
  5
965
102
{ACAD_REACTORS
330
949
102
}
330
949
100
AcDbProxyObject
 90
      499
 91
      503
 95
   393239
 70
     1
100
AcDbScale
 70
     0
300
3/4" = 1'-0"
140
0.75
141
12.0
290
     0
  0
ACAD_PROXY_OBJECT
  5
966
102
{ACAD_REACTORS
330
949
102
}
330
949
100
AcDbProxyObject
 90
      499
 91
      503
 95
   393239
 70
     1
100
AcDbScale
 70
     0
300
1" = 1'-0"
140
1.0
141
12.0
290
     0
  0
ACAD_PROXY_OBJECT
  5
967
102
{ACAD_REACTORS
330
949
102
}
330
949
100
AcDbProxyObject
 90
      499
 91
      503
 95
   393239
 70
     1
100
AcDbScale
 70
     0
300
1-1/2" = 1'-0"
140
1.5
141
12.0
290
     0
  0
ACAD_PROXY_OBJECT
  5
968
102
{ACAD_REACTORS
330
949
102
}
330
949
100
AcDbProxyObject
 90
      499
 91
      503
 95
   393239
 70
     1
100
AcDbScale
 70
     0
300
3" = 1'-0"
140
3.0
141
12.0
290
     0
  0
ACAD_PROXY_OBJECT
  5
969
102
{ACAD_REACTORS
330
949
102
}
330
949
100
AcDbProxyObject
 90
      499
 91
      503
 95
   393239
 70
     1
100
AcDbScale
 70
     0
300
6" = 1'-0"
140
6.0
141
12.0
290
     0
  0
ACAD_PROXY_OBJECT
  5
96A
102
{ACAD_REACTORS
330
949
102
}
330
949
100
AcDbProxyObject
 90
      499
 91
      503
 95
   393239
 70
     1
100
AcDbScale
 70
     0
300
1'-0" = 1'-0"
140
12.0
141
12.0
290
     0
  0
TABLESTYLE
  5
D20
102
{ACAD_XDICTIONARY
360
D40
102
}
102
{ACAD_REACTORS
330
D1F
102
}
330
D1F
100
AcDbTableStyle
  3
Standard
 70
     0
 71
     0
 40
1.5
 41
1.5
280
     0
281
     0
  7
STANDARD
140
4.5
170
     2
 62
     0
 63
     7
283
     0
274
    -2
284
     1
 64
     0
275
    -2
285
     1
 65
     0
276
    -2
286
     1
 66
     0
277
    -2
287
     1
 67
     0
278
    -2
288
     1
 68
     0
279
    -2
289
     1
 69
     0
  7
STANDARD
140
6.0
170
     5
 62
     0
 63
     7
283
     0
274
    -2
284
     1
 64
     0
275
    -2
285
     1
 65
     0
276
    -2
286
     1
 66
     0
277
    -2
287
     1
 67
     0
278
    -2
288
     1
 68
     0
279
    -2
289
     1
 69
     0
  7
STANDARD
140
4.5
170
     5
 62
     0
 63
     7
283
     0
274
    -2
284
     1
 64
     0
275
    -2
285
     1
 65
     0
276
    -2
286
     1
 66
     0
277
    -2
287
     1
 67
     0
278
    -2
288
     1
 68
     0
279
    -2
289
     1
 69
     0
  0
VISUALSTYLE
  5
D13
102
{ACAD_REACTORS
330
D0D
102
}
330
D0D
100
AcDbVisualStyle
  2
2dWireframe
 70
     4
 71
     0
 72
     2
 73
     0
 90
        0
 40
-0.6
 41
-30.0
 62
     5
 63
     7
421
 16777215
 74
     1
 91
        4
 64
     7
 65
   257
 75
     1
175
     1
 42
1.0
 92
        0
 66
   257
 43
1.0
 76
     1
 77
     6
 78
     2
 67
     7
 79
     5
170
     0
171
     0
290
     0
174
     0
 93
        1
 44
0.0
173
     0
291
     0
 45
0.0
1001
ACAD
1000
AcDbSavedByObjectVersion
1070
     0
  0
VISUALSTYLE
  5
D15
102
{ACAD_REACTORS
330
D0D
102
}
330
D0D
100
AcDbVisualStyle
  2
3D Hidden
 70
     6
 71
     1
 72
     2
 73
     2
 90
        0
 40
-0.6
 41
-30.0
 62
     5
 63
     7
421
 16777215
 74
     2
 91
        2
 64
     7
 65
   257
 75
     2
175
     1
 42
40.0
 92
        0
 66
   257
 43
1.0
 76
     1
 77
     6
 78
     2
 67
     7
 79
     3
170
     0
171
     0
290
     0
174
     0
 93
        1
 44
0.0
173
     0
291
     0
 45
0.0
1001
ACAD
1000
AcDbSavedByObjectVersion
1070
     0
  0
VISUALSTYLE
  5
D14
102
{ACAD_REACTORS
330
D0D
102
}
330
D0D
100
AcDbVisualStyle
  2
3dWireframe
 70
     5
 71
     0
 72
     2
 73
     0
 90
        0
 40
-0.6
 41
-30.0
 62
     5
 63
     7
421
 16777215
 74
     1
 91
        4
 64
     7
 65
   257
 75
     1
175
     1
 42
1.0
 92
        0
 66
   257
 43
1.0
 76
     1
 77
     6
 78
     2
 67
     7
 79
     5
170
     0
171
     0
290
     0
174
     0
 93
        1
 44
0.0
173
     0
291
     0
 45
0.0
1001
ACAD
1000
AcDbSavedByObjectVersion
1070
     0
  0
VISUALSTYLE
  5
D12
102
{ACAD_REACTORS
330
D0D
102
}
330
D0D
100
AcDbVisualStyle
  2
Basic
 70
     7
 71
     1
 72
     0
 73
     1
 90
        0
 40
-0.6
 41
-30.0
 62
     5
 63
     7
421
 16777215
 74
     0
 91
        4
 64
     7
 65
   257
 75
     1
175
     1
 42
1.0
 92
        8
 66
     7
 43
1.0
 76
     1
 77
     6
 78
     2
 67
     7
 79
     5
170
     0
171
     0
290
     0
174
     0
 93
        1
 44
0.0
173
     0
291
     1
 45
0.0
1001
ACAD
1000
AcDbSavedByObjectVersion
1070
     0
  0
VISUALSTYLE
  5
D19
102
{ACAD_REACTORS
330
D0D
102
}
330
D0D
100
AcDbVisualStyle
  2
Brighten
 70
    12
 71
     2
 72
     2
 73
     0
 90
        0
 40
-0.6
 41
-30.0
 62
     5
 63
     7
421
 16777215
 74
     1
 91
        4
 64
     7
 65
   257
 75
     1
175
     1
 42
1.0
 92
        8
 66
     7
 43
1.0
 76
     1
 77
     6
 78
     2
 67
     7
 79
     5
170
     0
171
     0
290
     0
174
     0
 93
        1
 44
50.0
173
     0
291
     1
 45
0.0
1001
ACAD
1000
AcDbSavedByObjectVersion
1070
     0
  0
VISUALSTYLE
  5
D1D
102
{ACAD_REACTORS
330
D0D
102
}
330
D0D
100
AcDbVisualStyle
  2
ColorChange
 70
    16
 71
     2
 72
     2
 73
     3
 90
        0
 40
-0.6
 41
-30.0
 62
     5
 63
     8
421
  8421504
 74
     1
 91
        4
 64
     7
 65
   257
 75
     1
175
     1
 42
1.0
 92
        8
 66
     8
424
  8421504
 43
1.0
 76
     1
 77
     6
 78
     2
 67
     7
 79
     5
170
     0
171
     0
290
     0
174
     0
 93
        1
 44
0.0
173
     0
291
     1
 45
0.0
1001
ACAD
1000
AcDbSavedByObjectVersion
1070
     0
  0
VISUALSTYLE
  5
D16
102
{ACAD_REACTORS
330
D0D
102
}
330
D0D
100
AcDbVisualStyle
  2
Conceptual
 70
     9
 71
     3
 72
     2
 73
     0
 90
        0
 40
-0.6
 41
-30.0
 62
     5
 63
     7
421
 16777215
 74
     2
 91
        2
 64
     7
 65
   257
 75
     1
175
     1
 42
40.0
 92
        8
 66
     7
 43
1.0
 76
     1
 77
     6
 78
     2
 67
     7
 79
     3
170
     0
171
     0
290
     0
174
     0
 93
        1
 44
0.0
173
     0
291
     0
 45
0.0
1001
ACAD
1000
AcDbSavedByObjectVersion
1070
     0
  0
VISUALSTYLE
  5
D18
102
{ACAD_REACTORS
330
D0D
102
}
330
D0D
100
AcDbVisualStyle
  2
Dim
 70
    11
 71
     2
 72
     2
 73
     0
 90
        0
 40
-0.6
 41
-30.0
 62
     5
 63
     7
421
 16777215
 74
     1
 91
        4
 64
     7
 65
   257
 75
     1
175
     1
 42
1.0
 92
        8
 66
     7
 43
1.0
 76
     1
 77
     6
 78
     2
 67
     7
 79
     5
170
     0
171
     0
290
     0
174
     0
 93
        1
 44
-50.0
173
     0
291
     1
 45
0.0
1001
ACAD
1000
AcDbSavedByObjectVersion
1070
     0
  0
VISUALSTYLE
  5
D1C
102
{ACAD_REACTORS
330
D0D
102
}
330
D0D
100
AcDbVisualStyle
  2
Facepattern
 70
    15
 71
     2
 72
     2
 73
     0
 90
        0
 40
-0.6
 41
-30.0
 62
     5
 63
     7
421
 16777215
 74
     1
 91
        4
 64
     7
 65
   257
 75
     1
175
     1
 42
1.0
 92
        8
 66
     7
 43
1.0
 76
     1
 77
     6
 78
     2
 67
     7
 79
     5
170
     0
171
     0
290
     0
174
     0
 93
        1
 44
0.0
173
     0
291
     1
 45
0.0
1001
ACAD
1000
AcDbSavedByObjectVersion
1070
     0
  0
VISUALSTYLE
  5
D0E
102
{ACAD_REACTORS
330
D0D
102
}
330
D0D
100
AcDbVisualStyle
  2
Flat
 70
     0
 71
     2
 72
     1
 73
     1
 90
        2
 40
-0.6
 41
30.0
 62
     5
 63
     7
421
 16777215
 74
     0
 91
        4
 64
     7
 65
   257
 75
     1
175
     1
 42
1.0
 92
        8
 66
     7
 43
1.0
 76
     1
 77
     6
 78
     2
 67
     7
 79
     5
170
     0
171
     0
290
     0
174
     0
 93
       13
 44
0.0
173
     0
291
     1
 45
0.0
1001
ACAD
1000
AcDbSavedByObjectVersion
1070
     0
  0
VISUALSTYLE
  5
D0F
102
{ACAD_REACTORS
330
D0D
102
}
330
D0D
100
AcDbVisualStyle
  2
FlatWithEdges
 70
     1
 71
     2
 72
     1
 73
     1
 90
        2
 40
-0.6
 41
30.0
 62
     5
 63
     7
421
 16777215
 74
     1
 91
        4
 64
     7
 65
   257
 75
     1
175
     1
 42
1.0
 92
        0
 66
   257
 43
1.0
 76
     1
 77
     6
 78
     2
 67
     7
 79
     5
170
     0
171
     0
290
     0
174
     0
 93
       13
 44
0.0
173
     0
291
     1
 45
0.0
1001
ACAD
1000
AcDbSavedByObjectVersion
1070
     0
  0
VISUALSTYLE
  5
D10
102
{ACAD_REACTORS
330
D0D
102
}
330
D0D
100
AcDbVisualStyle
  2
Gouraud
 70
     2
 71
     2
 72
     2
 73
     1
 90
        2
 40
-0.6
 41
30.0
 62
     5
 63
     7
421
 16777215
 74
     0
 91
        4
 64
     7
 65
   257
 75
     1
175
     1
 42
1.0
 92
        0
 66
     7
 43
1.0
 76
     1
 77
     6
 78
     2
 67
     7
 79
     5
170
     0
171
     0
290
     0
174
     0
 93
       13
 44
0.0
173
     0
291
     1
 45
0.0
1001
ACAD
1000
AcDbSavedByObjectVersion
1070
     0
  0
VISUALSTYLE
  5
D11
102
{ACAD_REACTORS
330
D0D
102
}
330
D0D
100
AcDbVisualStyle
  2
GouraudWithEdges
 70
     3
 71
     2
 72
     2
 73
     1
 90
        2
 40
-0.6
 41
30.0
 62
     5
 63
     7
421
 16777215
 74
     1
 91
        4
 64
     7
 65
   257
 75
     1
175
     1
 42
1.0
 92
        0
 66
   257
 43
1.0
 76
     1
 77
     6
 78
     2
 67
     7
 79
     5
170
     0
171
     0
290
     0
174
     0
 93
       13
 44
0.0
173
     0
291
     1
 45
0.0
1001
ACAD
1000
AcDbSavedByObjectVersion
1070
     0
  0
VISUALSTYLE
  5
D1B
102
{ACAD_REACTORS
330
D0D
102
}
330
D0D
100
AcDbVisualStyle
  2
Linepattern
 70
    14
 71
     2
 72
     2
 73
     0
 90
        0
 40
-0.6
 41
-30.0
 62
     5
 63
     7
421
 16777215
 74
     1
 91
        4
 64
     7
 65
   257
 75
     7
175
     7
 42
1.0
 92
        8
 66
     7
 43
1.0
 76
     1
 77
     6
 78
     2
 67
     7
 79
     5
170
     0
171
     0
290
     0
174
     0
 93
        1
 44
0.0
173
     0
291
     1
 45
0.0
1001
ACAD
1000
AcDbSavedByObjectVersion
1070
     0
  0
VISUALSTYLE
  5
D17
102
{ACAD_REACTORS
330
D0D
102
}
330
D0D
100
AcDbVisualStyle
  2
Realistic
 70
     8
 71
     2
 72
     2
 73
     0
 90
        0
 40
-0.6
 41
-30.0
 62
     5
 63
     7
421
 16777215
 74
     1
 91
        0
 64
     7
 65
   257
 75
     1
175
     1
 42
1.0
 92
        8
 66
     8
424
  7895160
 43
1.0
 76
     1
 77
     6
 78
     2
 67
     7
 79
     5
170
     0
171
     0
290
     0
174
     0
 93
       13
 44
0.0
173
     0
291
     0
 45
0.0
1001
ACAD
1000
AcDbSavedByObjectVersion
1070
     0
  0
VISUALSTYLE
  5
D1A
102
{ACAD_REACTORS
330
D0D
102
}
330
D0D
100
AcDbVisualStyle
  2
Thicken
 70
    13
 71
     2
 72
     2
 73
     0
 90
        0
 40
-0.6
 41
-30.0
 62
     5
 63
     7
421
 16777215
 74
     1
 91
        4
 64
     7
 65
   257
 75
     1
175
     1
 42
1.0
 92
       12
 66
     7
 43
1.0
 76
     1
 77
     6
 78
     2
 67
     7
 79
     5
170
     0
171
     0
290
     0
174
     0
 93
        1
 44
0.0
173
     0
291
     1
 45
0.0
1001
ACAD
1000
AcDbSavedByObjectVersion
1070
     0
  0
DICTIONARYVAR
  5
D06
102
{ACAD_REACTORS
330
D05
102
}
330
D05
100
DictionaryVariables
280
     0
  1
1:1
  0
DICTIONARYVAR
  5
D26
102
{ACAD_REACTORS
330
D05
102
}
330
D05
100
DictionaryVariables
280
     0
  1
STANDARD
  0
DICTIONARY
  5
D3C
330
D0B
100
AcDbDictionary
280
     1
281
     1
  3
ACAD_XREC_ROUNDTRIP
360
D3D
  0
DICTIONARY
  5
D3A
330
D0A
100
AcDbDictionary
280
     1
281
     1
  3
ACAD_XREC_ROUNDTRIP
360
D3B
  0
DICTIONARY
  5
D3E
330
D0C
100
AcDbDictionary
280
     1
281
     1
  3
ACAD_XREC_ROUNDTRIP
360
D3F
  0
DICTIONARY
  5
D40
330
D20
100
AcDbDictionary
280
     1
281
     1
  3
ACAD_XREC_ROUNDTRIP
360
D41
  0
XRECORD
  5
D3D
102
{ACAD_REACTORS
330
D3C
102
}
330
D3C
100
AcDbXrecord
280
     1
102
MATERIAL
148
0.0
149
0.0
149
0.0
 93
        0
 94
       63
282
     0
 72
     1
 77
     1
171
     1
175
     1
179
     1
273
     0
  0
XRECORD
  5
D3B
102
{ACAD_REACTORS
330
D3A
102
}
330
D3A
100
AcDbXrecord
280
     1
102
MATERIAL
148
0.0
149
0.0
149
0.0
 93
        0
 94
       63
282
     0
 72
     1
 77
     1
171
     1
175
     1
179
     1
273
     0
  0
XRECORD
  5
D3F
102
{ACAD_REACTORS
330
D3E
102
}
330
D3E
100
AcDbXrecord
280
     1
102
MATERIAL
148
0.0
149
0.0
149
0.0
 93
        0
 94
       63
282
     0
 72
     1
 77
     1
171
     1
175
     1
179
     1
273
     0
  0
XRECORD
  5
D41
102
{ACAD_REACTORS
330
D40
102
}
330
D40
100
AcDbXrecord
280
     1
102
ACAD_ROUNDTRIP_PRE2007_TABLESTYLE
 90
      512
 91
        0
  1

 92
      512
 93
        0
  2

 94
      512
 95
        0
  3

  0
ENDSEC
  0
EOF
