  0
SECTION
  2
HEADER
  9
$LIMMIN
 10
0.000000
 20
0.000000
  9
$LIMMAX
 10
3363.600000
 20
2378.400000
  9
$EXTMIN
 10
0.000000
 20
0.000000
  9
$EXTMAX
 10
3363.600000
 20
2378.400000
  9
$ANGBASE
 50
0.0
  9
$ANGDIR
 70
0
  9
$DIMRND
 40
0.100000
  9
$DIMSE1
 70
0
  9
$DIMSE2
 70
0
  9
$DIMTXT
 40
3.500000
  9
$LTSCALE
 40
1.000000
  9
$LUPREC
 70
5
  9
$AUPREC
 70
5
  9
$PDMODE
 70
2
  9
$PDSIZE
 40
16.818000
  0
ENDSEC
  0
SECTION
  2
TABLES
  0
TABLE
  2
VPORT
  70
1
  0
VPORT
  2
*ACTIVE
 70
0
  10
0.0
 20
0.0
 11
1.0
 21
1.0
 12
594.0
 22
420.0
 13
0.0
 23
0.0
 14
10.0
 24
10.0
 15
10.0
 25
10.0
 16
0.0
 26
0.0
 36
1.0
 17
594.0
 27
420.0
 37
100.0
 40
1000.0
 41
1.0
 42
50.0
 43
0.0
 44
0.0
 50
0.0
 51
0.0
 71
0
 72
2000
 73
1
 74
3
 75
0
 76
0
 77
0
 78
1
  0
ENDTAB
  0
TABLE
  2
LTYPE
 70
4
  0
LTYPE
  2
CONTINUOUS
 70
0
  3
Solid line
 72
65
 73
0
 40
0.0
  0
LTYPE
  2
DASHED
 70
0
  3
Dashed line
 72
65
 73
2
 40
6.000000
 49
3.000000
 49
-3.000000
  0
LTYPE
  2
CENTER
 70
0
  3
Chain line
 72
65
 73
4
 40
24.000000
 49
15.000000
 49
-3.000000
 49
3.000000
 49
-3.000000
  0
LTYPE
  2
RANDOM
 70
0
  3
Random line
 72
65
 73
4
 40
22.500000
 49
6.000000
 49
-3.000000
 49
4.500000
 49
-9.000000
  0
ENDTAB
  0
TABLE
  2
STYLE
 70
9
  0
STYLE
  2
STANDARD
 40
0
 41
1.0
 50
0.0
 71
0
 42
0
  3
simplex
  4

 70
0
  0
ENDTAB
  0
TABLE
  2
LAYER
 70
2
  0
LAYER
  2
0
 70
0
 62
7
  6
CONTINUOUS
  0
LAYER
  2
0
 62
1
  6
CONTINUOUS
 70
0
  0
ENDTAB
  0
ENDSEC
  0
SECTION
  2
BLOCKS
  0
ENDSEC
  0
SECTION
  2
ENTITIES
  0
LINE
  8
0
  6
CONTINUOUS
 62
1
 10
1580.125397
 20
1028.988112
 11
1580.125397
 21
972.165806
  0
LINE
  8
0
  6
CONTINUOUS
 62
1
 10
1580.125397
 20
1028.988112
 11
1593.125397
 21
1025.799202
  0
LINE
  8
0
  6
CONTINUOUS
 62
1
 10
1580.125397
 20
972.165806
 11
1593.125397
 21
975.356848
  0
LINE
  8
0
  6
CONTINUOUS
 62
1
 10
1570.125397
 20
972.078537
 11
1580.125397
 21
972.165806
  0
LINE
  8
0
  6
CONTINUOUS
 62
1
 10
1570.125397
 20
1029.078537
 11
1580.125397
 21
1028.991269
  0
LINE
  8
0
  6
CONTINUOUS
 62
1
 10
1570.125397
 20
992.578537
 11
1568.125397
 21
992.578537
  0
LINE
  8
0
  6
CONTINUOUS
 62
1
 10
1568.125397
 20
992.578537
 11
1568.125397
 21
1005.989933
  0
LINE
  8
0
  6
CONTINUOUS
 62
1
 10
1570.125397
 20
1005.989933
 11
1568.125397
 21
1005.989933
  0
LINE
  8
0
  6
CONTINUOUS
 62
1
 10
1570.125397
 20
1029.078537
 11
1570.125397
 21
972.078537
  0
LINE
  8
0
  6
CONTINUOUS
 62
1
 10
1580.125397
 20
1238.488825
 11
1580.125397
 21
1181.666519
  0
LINE
  8
0
  6
CONTINUOUS
 62
1
 10
1580.125397
 20
1238.488825
 11
1592.377624
 21
1235.483344
  0
LINE
  8
0
  6
CONTINUOUS
 62
1
 10
1580.125397
 20
1181.666519
 11
1593.125397
 21
1184.857561
  0
LINE
  8
0
  6
CONTINUOUS
 62
1
 10
1570.125397
 20
1181.579250
 11
1580.125397
 21
1181.666519
  0
LINE
  8
0
  6
CONTINUOUS
 62
1
 10
1570.125397
 20
1238.579250
 11
1580.125397
 21
1238.491981
  0
LINE
  8
0
  6
CONTINUOUS
 62
1
 10
1570.125397
 20
1202.079250
 11
1568.125397
 21
1202.079250
  0
LINE
  8
0
  6
CONTINUOUS
 62
1
 10
1568.125397
 20
1202.079250
 11
1568.125397
 21
1215.490646
  0
LINE
  8
0
  6
CONTINUOUS
 62
1
 10
1570.125397
 20
1215.490646
 11
1568.125397
 21
1215.490646
  0
LINE
  8
0
  6
CONTINUOUS
 62
1
 10
1570.125397
 20
1238.579250
 11
1570.125397
 21
1181.579250
  0
LINE
  8
0
  6
CONTINUOUS
 62
1
 10
948.125404
 20
1266.189838
 11
973.125404
 21
1266.189838
  0
LINE
  8
0
  6
CONTINUOUS
 62
1
 10
973.125404
 20
1291.189838
 11
948.125404
 21
1291.189838
  0
LINE
  8
0
  6
CONTINUOUS
 62
1
 10
948.125404
 20
1266.189838
 11
948.125404
 21
1291.189838
  0
LINE
  8
0
  6
CONTINUOUS
 62
1
 10
1533.125404
 20
1366.189838
 11
1063.125404
 21
1366.189838
  0
LINE
  8
0
  6
CONTINUOUS
 62
1
 10
1038.125404
 20
1366.189838
 11
1062.225380
 21
1366.189838
  0
LINE
  8
0
  6
CONTINUOUS
 62
1
 10
1568.125397
 20
1366.189838
 11
1534.125404
 21
1366.189838
  0
LINE
  8
0
  6
CONTINUOUS
 62
1
 10
1568.125397
 20
1366.189838
 11
1568.125397
 21
833.189101
  0
LINE
  8
0
  6
CONTINUOUS
 62
1
 10
1567.125397
 20
832.189101
 11
1534.125404
 21
832.189101
  0
LINE
  8
0
  6
CONTINUOUS
 62
1
 10
1533.125404
 20
831.189838
 11
1038.125404
 21
831.189838
  0
LINE
  8
0
  6
CONTINUOUS
 62
1
 10
1038.125404
 20
831.189838
 11
1038.125404
 21
946.689838
  0
LINE
  8
0
  6
CONTINUOUS
 62
1
 10
1038.125404
 20
1366.189838
 11
1038.125404
 21
946.689838
  0
LINE
  8
0
  6
CONTINUOUS
 62
1
 10
1534.125404
 20
832.189101
 11
1533.125404
 21
1366.189838
  0
LINE
  8
0
  6
CONTINUOUS
 62
1
 10
1541.125397
 20
833.189101
 11
1541.125397
 21
1365.189838
  0
LINE
  8
0
  6
CENTER
 62
1
 10
1082.721159
 20
911.189838
 11
978.676785
 21
911.189838
  0
LINE
  8
0
  6
CONTINUOUS
 62
1
 10
1593.125397
 20
1231.689101
 11
1593.125397
 21
966.689101
  0
LINE
  8
0
  6
CONTINUOUS
 62
1
 10
1613.125397
 20
1231.689101
 11
1613.125397
 21
966.689101
  0
LINE
  8
0
  6
CONTINUOUS
 62
1
 10
1583.125397
 20
956.689101
 11
1568.125397
 21
956.689101
  0
LINE
  8
0
  6
CONTINUOUS
 62
1
 10
1583.125397
 20
936.689101
 11
1568.125397
 21
936.689101
  0
LINE
  8
0
  6
CONTINUOUS
 62
1
 10
1583.125397
 20
1261.689101
 11
1568.125397
 21
1261.689101
  0
LINE
  8
0
  6
CONTINUOUS
 62
1
 10
1583.125397
 20
1241.689101
 11
1568.125397
 21
1241.689101
  0
ARC
  8
0
  6
CONTINUOUS
 62
1
 10
1583.125397
 20
1231.689101
 40
10.000000
 50
0.000000
 51
90.000000
  0
ARC
  8
0
  6
CONTINUOUS
 62
1
 10
1583.125397
 20
966.689101
 40
10.000000
 50
270.000000
 51
0.000000
  0
ARC
  8
0
  6
CONTINUOUS
 62
1
 10
1583.125397
 20
1231.689101
 40
30.000000
 50
0.000000
 51
90.000000
  0
ARC
  8
0
  6
CONTINUOUS
 62
1
 10
1583.125397
 20
966.689101
 40
30.000000
 50
270.000000
 51
0.000000
  0
LINE
  8
0
  6
CONTINUOUS
 62
1
 10
973.125404
 20
1305.568060
 11
973.125404
 21
1007.311617
  0
LINE
  8
0
  6
CONTINUOUS
 62
1
 10
1038.125404
 20
1366.189838
 11
973.125404
 21
1305.568060
  0
LINE
  8
0
  6
CONTINUOUS
 62
1
 10
1038.125404
 20
946.689838
 11
973.125404
 21
1007.311617
  0
LINE
  8
0
  6
CONTINUOUS
 62
1
 10
1168.125404
 20
1316.189838
 11
1228.125404
 21
1316.189838
  0
LINE
  8
0
  6
CONTINUOUS
 62
1
 10
1223.977014
 20
1326.189838
 11
1172.273794
 21
1326.189838
  0
LINE
  8
0
  6
CONTINUOUS
 62
1
 10
1168.125404
 20
1316.189838
 11
1172.273794
 21
1326.189838
  0
LINE
  8
0
  6
CONTINUOUS
 62
1
 10
1228.125404
 20
1316.189838
 11
1223.977014
 21
1326.189838
  0
LINE
  8
0
  6
CONTINUOUS
 62
1
 10
1223.977014
 20
1326.189838
 11
1223.977014
 21
1316.189838
  0
LINE
  8
0
  6
CONTINUOUS
 62
1
 10
1172.273794
 20
1326.189838
 11
1172.273794
 21
1316.189838
  0
LINE
  8
0
  6
CONTINUOUS
 62
1
 10
1268.125404
 20
1316.189838
 11
1328.125404
 21
1316.189838
  0
LINE
  8
0
  6
CONTINUOUS
 62
1
 10
1323.977014
 20
1326.189838
 11
1272.273794
 21
1326.189838
  0
LINE
  8
0
  6
CONTINUOUS
 62
1
 10
1268.125404
 20
1316.189838
 11
1272.273794
 21
1326.189838
  0
LINE
  8
0
  6
CONTINUOUS
 62
1
 10
1328.125404
 20
1316.189838
 11
1323.977014
 21
1326.189838
  0
LINE
  8
0
  6
CONTINUOUS
 62
1
 10
1323.977014
 20
1326.189838
 11
1323.977014
 21
1316.189838
  0
LINE
  8
0
  6
CONTINUOUS
 62
1
 10
1272.273794
 20
1326.189838
 11
1272.273794
 21
1316.189838
  0
LINE
  8
0
  6
CONTINUOUS
 62
1
 10
1368.125404
 20
1316.189838
 11
1428.125404
 21
1316.189838
  0
LINE
  8
0
  6
CONTINUOUS
 62
1
 10
1423.977014
 20
1326.189838
 11
1372.273794
 21
1326.189838
  0
LINE
  8
0
  6
CONTINUOUS
 62
1
 10
1368.125404
 20
1316.189838
 11
1372.273794
 21
1326.189838
  0
LINE
  8
0
  6
CONTINUOUS
 62
1
 10
1428.125404
 20
1316.189838
 11
1423.977014
 21
1326.189838
  0
LINE
  8
0
  6
CONTINUOUS
 62
1
 10
1423.977014
 20
1326.189838
 11
1423.977014
 21
1316.189838
  0
LINE
  8
0
  6
CONTINUOUS
 62
1
 10
1372.273794
 20
1326.189838
 11
1372.273794
 21
1316.189838
  0
LINE
  8
0
  6
CONTINUOUS
 62
1
 10
1168.125404
 20
1291.189838
 11
1228.125404
 21
1291.189838
  0
LINE
  8
0
  6
CONTINUOUS
 62
1
 10
1223.977014
 20
1301.189838
 11
1172.273794
 21
1301.189838
  0
LINE
  8
0
  6
CONTINUOUS
 62
1
 10
1168.125404
 20
1291.189838
 11
1172.273794
 21
1301.189838
  0
LINE
  8
0
  6
CONTINUOUS
 62
1
 10
1228.125404
 20
1291.189838
 11
1223.977014
 21
1301.189838
  0
LINE
  8
0
  6
CONTINUOUS
 62
1
 10
1223.977014
 20
1301.189838
 11
1223.977014
 21
1291.189838
  0
LINE
  8
0
  6
CONTINUOUS
 62
1
 10
1172.273794
 20
1301.189838
 11
1172.273794
 21
1291.189838
  0
LINE
  8
0
  6
CONTINUOUS
 62
1
 10
1268.125404
 20
1291.189838
 11
1328.125404
 21
1291.189838
  0
LINE
  8
0
  6
CONTINUOUS
 62
1
 10
1323.977014
 20
1301.189838
 11
1272.273794
 21
1301.189838
  0
LINE
  8
0
  6
CONTINUOUS
 62
1
 10
1268.125404
 20
1291.189838
 11
1272.273794
 21
1301.189838
  0
LINE
  8
0
  6
CONTINUOUS
 62
1
 10
1328.125404
 20
1291.189838
 11
1323.977014
 21
1301.189838
  0
LINE
  8
0
  6
CONTINUOUS
 62
1
 10
1323.977014
 20
1301.189838
 11
1323.977014
 21
1291.189838
  0
LINE
  8
0
  6
CONTINUOUS
 62
1
 10
1272.273794
 20
1301.189838
 11
1272.273794
 21
1291.189838
  0
LINE
  8
0
  6
CONTINUOUS
 62
1
 10
1368.125404
 20
1291.189838
 11
1428.125404
 21
1291.189838
  0
LINE
  8
0
  6
CONTINUOUS
 62
1
 10
1423.977014
 20
1301.189838
 11
1372.273794
 21
1301.189838
  0
LINE
  8
0
  6
CONTINUOUS
 62
1
 10
1368.125404
 20
1291.189838
 11
1372.273794
 21
1301.189838
  0
LINE
  8
0
  6
CONTINUOUS
 62
1
 10
1428.125404
 20
1291.189838
 11
1423.977014
 21
1301.189838
  0
LINE
  8
0
  6
CONTINUOUS
 62
1
 10
1423.977014
 20
1301.189838
 11
1423.977014
 21
1291.189838
  0
LINE
  8
0
  6
CONTINUOUS
 62
1
 10
1372.273794
 20
1301.189838
 11
1372.273794
 21
1291.189838
  0
LINE
  8
0
  6
CONTINUOUS
 62
1
 10
1168.125404
 20
1266.189838
 11
1228.125404
 21
1266.189838
  0
LINE
  8
0
  6
CONTINUOUS
 62
1
 10
1223.977014
 20
1276.189838
 11
1172.273794
 21
1276.189838
  0
LINE
  8
0
  6
CONTINUOUS
 62
1
 10
1168.125404
 20
1266.189838
 11
1172.273794
 21
1276.189838
  0
LINE
  8
0
  6
CONTINUOUS
 62
1
 10
1228.125404
 20
1266.189838
 11
1223.977014
 21
1276.189838
  0
LINE
  8
0
  6
CONTINUOUS
 62
1
 10
1223.977014
 20
1276.189838
 11
1223.977014
 21
1266.189838
  0
LINE
  8
0
  6
CONTINUOUS
 62
1
 10
1172.273794
 20
1276.189838
 11
1172.273794
 21
1266.189838
  0
LINE
  8
0
  6
CONTINUOUS
 62
1
 10
1268.125404
 20
1266.189838
 11
1328.125404
 21
1266.189838
  0
LINE
  8
0
  6
CONTINUOUS
 62
1
 10
1323.977014
 20
1276.189838
 11
1272.273794
 21
1276.189838
  0
LINE
  8
0
  6
CONTINUOUS
 62
1
 10
1268.125404
 20
1266.189838
 11
1272.273794
 21
1276.189838
  0
LINE
  8
0
  6
CONTINUOUS
 62
1
 10
1328.125404
 20
1266.189838
 11
1323.977014
 21
1276.189838
  0
LINE
  8
0
  6
CONTINUOUS
 62
1
 10
1323.977014
 20
1276.189838
 11
1323.977014
 21
1266.189838
  0
LINE
  8
0
  6
CONTINUOUS
 62
1
 10
1272.273794
 20
1276.189838
 11
1272.273794
 21
1266.189838
  0
LINE
  8
0
  6
CONTINUOUS
 62
1
 10
1368.125404
 20
1266.189838
 11
1428.125404
 21
1266.189838
  0
LINE
  8
0
  6
CONTINUOUS
 62
1
 10
1423.977014
 20
1276.189838
 11
1372.273794
 21
1276.189838
  0
LINE
  8
0
  6
CONTINUOUS
 62
1
 10
1368.125404
 20
1266.189838
 11
1372.273794
 21
1276.189838
  0
LINE
  8
0
  6
CONTINUOUS
 62
1
 10
1428.125404
 20
1266.189838
 11
1423.977014
 21
1276.189838
  0
LINE
  8
0
  6
CONTINUOUS
 62
1
 10
1423.977014
 20
1276.189838
 11
1423.977014
 21
1266.189838
  0
LINE
  8
0
  6
CONTINUOUS
 62
1
 10
1372.273794
 20
1276.189838
 11
1372.273794
 21
1266.189838
  0
LINE
  8
0
  6
CONTINUOUS
 62
1
 10
1168.125404
 20
1241.189838
 11
1228.125404
 21
1241.189838
  0
LINE
  8
0
  6
CONTINUOUS
 62
1
 10
1223.977014
 20
1251.189838
 11
1172.273794
 21
1251.189838
  0
LINE
  8
0
  6
CONTINUOUS
 62
1
 10
1168.125404
 20
1241.189838
 11
1172.273794
 21
1251.189838
  0
LINE
  8
0
  6
CONTINUOUS
 62
1
 10
1228.125404
 20
1241.189838
 11
1223.977014
 21
1251.189838
  0
LINE
  8
0
  6
CONTINUOUS
 62
1
 10
1223.977014
 20
1251.189838
 11
1223.977014
 21
1241.189838
  0
LINE
  8
0
  6
CONTINUOUS
 62
1
 10
1172.273794
 20
1251.189838
 11
1172.273794
 21
1241.189838
  0
LINE
  8
0
  6
CONTINUOUS
 62
1
 10
1268.125404
 20
1241.189838
 11
1328.125404
 21
1241.189838
  0
LINE
  8
0
  6
CONTINUOUS
 62
1
 10
1323.977014
 20
1251.189838
 11
1272.273794
 21
1251.189838
  0
LINE
  8
0
  6
CONTINUOUS
 62
1
 10
1268.125404
 20
1241.189838
 11
1272.273794
 21
1251.189838
  0
LINE
  8
0
  6
CONTINUOUS
 62
1
 10
1328.125404
 20
1241.189838
 11
1323.977014
 21
1251.189838
  0
LINE
  8
0
  6
CONTINUOUS
 62
1
 10
1323.977014
 20
1251.189838
 11
1323.977014
 21
1241.189838
  0
LINE
  8
0
  6
CONTINUOUS
 62
1
 10
1272.273794
 20
1251.189838
 11
1272.273794
 21
1241.189838
  0
LINE
  8
0
  6
CONTINUOUS
 62
1
 10
1368.125404
 20
1241.189838
 11
1428.125404
 21
1241.189838
  0
LINE
  8
0
  6
CONTINUOUS
 62
1
 10
1423.977014
 20
1251.189838
 11
1372.273794
 21
1251.189838
  0
LINE
  8
0
  6
CONTINUOUS
 62
1
 10
1368.125404
 20
1241.189838
 11
1372.273794
 21
1251.189838
  0
LINE
  8
0
  6
CONTINUOUS
 62
1
 10
1428.125404
 20
1241.189838
 11
1423.977014
 21
1251.189838
  0
LINE
  8
0
  6
CONTINUOUS
 62
1
 10
1423.977014
 20
1251.189838
 11
1423.977014
 21
1241.189838
  0
LINE
  8
0
  6
CONTINUOUS
 62
1
 10
1372.273794
 20
1251.189838
 11
1372.273794
 21
1241.189838
  0
LINE
  8
0
  6
CONTINUOUS
 62
1
 10
1057.125404
 20
816.189838
 11
1072.125404
 21
816.189838
  0
LINE
  8
0
  6
CONTINUOUS
 62
1
 10
1082.125404
 20
801.189838
 11
1047.125404
 21
801.189838
  0
LINE
  8
0
  6
CONTINUOUS
 62
1
 10
1047.125404
 20
806.189838
 11
1047.125404
 21
801.189838
  0
LINE
  8
0
  6
CONTINUOUS
 62
1
 10
1082.125404
 20
806.189838
 11
1082.125404
 21
801.189838
  0
LINE
  8
0
  6
CONTINUOUS
 62
1
 10
1047.125404
 20
806.189838
 11
1082.125404
 21
806.189838
  0
LINE
  8
0
  6
CONTINUOUS
 62
1
 10
1047.125404
 20
806.189838
 11
1057.125404
 21
816.189838
  0
LINE
  8
0
  6
CONTINUOUS
 62
1
 10
1072.125404
 20
816.189838
 11
1082.125404
 21
806.189838
  0
LINE
  8
0
  6
CONTINUOUS
 62
1
 10
1060.625404
 20
831.189838
 11
1060.625404
 21
816.189838
  0
LINE
  8
0
  6
CONTINUOUS
 62
1
 10
1068.625404
 20
831.189838
 11
1068.625404
 21
816.189838
  0
LINE
  8
0
  6
CONTINUOUS
 62
1
 10
1462.625404
 20
816.189838
 11
1477.625404
 21
816.189838
  0
LINE
  8
0
  6
CONTINUOUS
 62
1
 10
1487.625404
 20
801.189838
 11
1452.625404
 21
801.189838
  0
LINE
  8
0
  6
CONTINUOUS
 62
1
 10
1452.625404
 20
806.189838
 11
1452.625404
 21
801.189838
  0
LINE
  8
0
  6
CONTINUOUS
 62
1
 10
1487.625404
 20
806.189838
 11
1487.625404
 21
801.189838
  0
LINE
  8
0
  6
CONTINUOUS
 62
1
 10
1452.625404
 20
806.189838
 11
1487.625404
 21
806.189838
  0
LINE
  8
0
  6
CONTINUOUS
 62
1
 10
1452.625404
 20
806.189838
 11
1462.625404
 21
816.189838
  0
LINE
  8
0
  6
CONTINUOUS
 62
1
 10
1477.625404
 20
816.189838
 11
1487.625404
 21
806.189838
  0
LINE
  8
0
  6
CONTINUOUS
 62
1
 10
1466.125404
 20
831.189838
 11
1466.125404
 21
816.189838
  0
LINE
  8
0
  6
CONTINUOUS
 62
1
 10
1474.125404
 20
831.189838
 11
1474.125404
 21
816.189838
  0
ENDSEC
  0
EOF
