  0
SECTION
  2
HEADER
  9
$ACADVER
  1
AC1015
  9
$ACADMAINTVER
 70
     6
  9
$DWGCODEPAGE
  3
ANSI_1252
  9
$INSBASE
 10
0.0
 20
0.0
 30
0.0
  9
$EXTMIN
 10
0.0
 20
0.0
 30
0.0
  9
$EXTMAX
 10
431.8
 20
279.4
 30
0.0
  9
$LIMMIN
 10
0.0
 20
0.0
  9
$LIMMAX
 10
431.8
 20
279.4
  9
$ORTHOMODE
 70
     0
  9
$REGENMODE
 70
     1
  9
$FILLMODE
 70
     1
  9
$QTEXTMODE
 70
     0
  9
$MIRRTEXT
 70
     1
  9
$LTSCALE
 40
1.0
  9
$ATTMODE
 70
     1
  9
$TEXTSIZE
 40
3.5
  9
$TRACEWID
 40
1.0
  9
$TEXTSTYLE
  7
Standard
  9
$CLAYER
  8
0
  9
$CELTYPE
  6
ByLayer
  9
$CECOLOR
 62
   256
  9
$CELTSCALE
 40
1.0
  9
$DISPSILH
 70
     0
  9
$DIMSCALE
 40
1.0
  9
$DIMASZ
 40
3.302
  9
$DIMEXO
 40
1.0
  9
$DIMDLI
 40
3.75
  9
$DIMRND
 40
0.0
  9
$DIMDLE
 40
0.0
  9
$DIMEXE
 40
1.0
  9
$DIMTP
 40
0.0
  9
$DIMTM
 40
0.0
  9
$DIMTXT
 40
3.5
  9
$DIMCEN
 40
2.5
  9
$DIMTSZ
 40
0.0
  9
$DIMTOL
 70
     0
  9
$DIMLIM
 70
     0
  9
$DIMTIH
 70
     1
  9
$DIMTOH
 70
     1
  9
$DIMSE1
 70
     0
  9
$DIMSE2
 70
     0
  9
$DIMTAD
 70
     1
  9
$DIMZIN
 70
     0
  9
$DIMBLK
  1

  9
$DIMASO
 70
     1
  9
$DIMSHO
 70
     1
  9
$DIMPOST
  1

  9
$DIMAPOST
  1

  9
$DIMALT
 70
     0
  9
$DIMALTD
 70
     3
  9
$DIMALTF
 40
0.0393700787
  9
$DIMLFAC
 40
5.0
  9
$DIMTOFL
 70
     1
  9
$DIMTVP
 40
0.0
  9
$DIMTIX
 70
     0
  9
$DIMSOXD
 70
     0
  9
$DIMSAH
 70
     0
  9
$DIMBLK1
  1

  9
$DIMBLK2
  1

  9
$DIMSTYLE
  2
ISO-25
  9
$DIMCLRD
 70
     0
  9
$DIMCLRE
 70
     0
  9
$DIMCLRT
 70
     0
  9
$DIMTFAC
 40
1.0
  9
$DIMGAP
 40
1.524
  9
$DIMJUST
 70
     0
  9
$DIMSD1
 70
     0
  9
$DIMSD2
 70
     0
  9
$DIMTOLJ
 70
     0
  9
$DIMTZIN
 70
     0
  9
$DIMALTZ
 70
     0
  9
$DIMALTTZ
 70
     0
  9
$DIMUPT
 70
     0
  9
$DIMDEC
 70
     3
  9
$DIMTDEC
 70
     3
  9
$DIMALTU
 70
     2
  9
$DIMALTTD
 70
     3
  9
$DIMTXSTY
  7
Standard
  9
$DIMAUNIT
 70
     0
  9
$DIMADEC
 70
     2
  9
$DIMALTRND
 40
0.0
  9
$DIMAZIN
 70
     0
  9
$DIMDSEP
 70
    44
  9
$DIMATFIT
 70
     3
  9
$DIMFRAC
 70
     0
  9
$DIMLDRBLK
  1

  9
$DIMLUNIT
 70
     2
  9
$DIMLWD
 70
    -2
  9
$DIMLWE
 70
    -2
  9
$DIMTMOVE
 70
     0
  9
$LUNITS
 70
     2
  9
$LUPREC
 70
     8
  9
$SKETCHINC
 40
1.0
  9
$FILLETRAD
 40
10.0
  9
$AUNITS
 70
     0
  9
$AUPREC
 70
     8
  9
$MENU
  1
.
  9
$ELEVATION
 40
0.0
  9
$PELEVATION
 40
0.0
  9
$THICKNESS
 40
0.0
  9
$LIMCHECK
 70
     0
  9
$CHAMFERA
 40
10.0
  9
$CHAMFERB
 40
10.0
  9
$CHAMFERC
 40
20.0
  9
$CHAMFERD
 40
0.0
  9
$SKPOLY
 70
     0
  9
$TDCREATE
 40
2457154.583539306
  9
$TDUCREATE
 40
2457154.541872639
  9
$TDUPDATE
 40
2457154.583540926
  9
$TDUUPDATE
 40
2457154.541874259
  9
$TDINDWG
 40
0.0000000116
  9
$TDUSRTIMER
 40
0.0000000116
  9
$USRTIMER
 70
     1
  9
$ANGBASE
 50
0.0
  9
$ANGDIR
 70
     0
  9
$PDMODE
 70
     0
  9
$PDSIZE
 40
-1.0
  9
$PLINEWID
 40
0.0
  9
$SPLFRAME
 70
     0
  9
$SPLINETYPE
 70
     6
  9
$SPLINESEGS
 70
     8
  9
$HANDSEED
  5
308
  9
$SURFTAB1
 70
     6
  9
$SURFTAB2
 70
     6
  9
$SURFTYPE
 70
     6
  9
$SURFU
 70
     6
  9
$SURFV
 70
     6
  9
$UCSBASE
  2

  9
$UCSNAME
  2

  9
$UCSORG
 10
0.0
 20
0.0
 30
0.0
  9
$UCSXDIR
 10
1.0
 20
0.0
 30
0.0
  9
$UCSYDIR
 10
0.0
 20
1.0
 30
0.0
  9
$UCSORTHOREF
  2

  9
$UCSORTHOVIEW
 70
     0
  9
$UCSORGTOP
 10
0.0
 20
0.0
 30
0.0
  9
$UCSORGBOTTOM
 10
0.0
 20
0.0
 30
0.0
  9
$UCSORGLEFT
 10
0.0
 20
0.0
 30
0.0
  9
$UCSORGRIGHT
 10
0.0
 20
0.0
 30
0.0
  9
$UCSORGFRONT
 10
0.0
 20
0.0
 30
0.0
  9
$UCSORGBACK
 10
0.0
 20
0.0
 30
0.0
  9
$PUCSBASE
  2

  9
$PUCSNAME
  2

  9
$PUCSORG
 10
0.0
 20
0.0
 30
0.0
  9
$PUCSXDIR
 10
1.0
 20
0.0
 30
0.0
  9
$PUCSYDIR
 10
0.0
 20
1.0
 30
0.0
  9
$PUCSORTHOREF
  2

  9
$PUCSORTHOVIEW
 70
     0
  9
$PUCSORGTOP
 10
0.0
 20
0.0
 30
0.0
  9
$PUCSORGBOTTOM
 10
0.0
 20
0.0
 30
0.0
  9
$PUCSORGLEFT
 10
0.0
 20
0.0
 30
0.0
  9
$PUCSORGRIGHT
 10
0.0
 20
0.0
 30
0.0
  9
$PUCSORGFRONT
 10
0.0
 20
0.0
 30
0.0
  9
$PUCSORGBACK
 10
0.0
 20
0.0
 30
0.0
  9
$USERI1
 70
     0
  9
$USERI2
 70
     0
  9
$USERI3
 70
     0
  9
$USERI4
 70
     0
  9
$USERI5
 70
     0
  9
$USERR1
 40
0.0
  9
$USERR2
 40
0.0
  9
$USERR3
 40
0.0
  9
$USERR4
 40
0.0
  9
$USERR5
 40
0.0
  9
$WORLDVIEW
 70
     1
  9
$SHADEDGE
 70
     3
  9
$SHADEDIF
 70
    70
  9
$TILEMODE
 70
     1
  9
$MAXACTVP
 70
    64
  9
$PINSBASE
 10
0.0
 20
0.0
 30
0.0
  9
$PLIMCHECK
 70
     0
  9
$PEXTMIN
 10
1.0000000000E+20
 20
1.0000000000E+20
 30
1.0000000000E+20
  9
$PEXTMAX
 10
-1.0000000000E+20
 20
-1.0000000000E+20
 30
-1.0000000000E+20
  9
$PLIMMIN
 10
0.0
 20
0.0
  9
$PLIMMAX
 10
420.0
 20
297.0
  9
$UNITMODE
 70
     0
  9
$VISRETAIN
 70
     1
  9
$PLINEGEN
 70
     0
  9
$PSLTSCALE
 70
     1
  9
$TREEDEPTH
 70
  3020
  9
$CMLSTYLE
  2
Standard
  9
$CMLJUST
 70
     0
  9
$CMLSCALE
 40
20.0
  9
$PROXYGRAPHICS
 70
     1
  9
$MEASUREMENT
 70
     1
  9
$CELWEIGHT
370
    -1
  9
$ENDCAPS
280
     0
  9
$JOINSTYLE
280
     0
  9
$LWDISPLAY
290
     1
  9
$INSUNITS
 70
     4
  9
$HYPERLINKBASE
  1

  9
$STYLESHEET
  1

  9
$XEDIT
290
     1
  9
$CEPSNTYPE
380
     0
  9
$PSTYLEMODE
290
     1
  9
$FINGERPRINTGUID
  2
{29006F06-0FE4-4CCF-8146-4BC506808A0E}
  9
$VERSIONGUID
  2
{FAEB1C32-E019-11D5-929B-00C0DF256EC4}
  9
$EXTNAMES
290
     1
  9
$PSVPSCALE
 40
0.0
  9
$OLESTARTUP
290
     0
  0
ENDSEC
  0
SECTION
  2
CLASSES
  0
CLASS
  1
ACDBDICTIONARYWDFLT
  2
AcDbDictionaryWithDefault
  3
ObjectDBX Classes
 90
        0
280
     0
281
     0
  0
CLASS
  1
VISUALSTYLE
  2
AcDbVisualStyle
  3
ObjectDBX Classes
 90
     4095
280
     0
281
     0
  0
CLASS
  1
MATERIAL
  2
AcDbMaterial
  3
ObjectDBX Classes
 90
     1153
280
     0
281
     0
  0
CLASS
  1
ACDBPLACEHOLDER
  2
AcDbPlaceHolder
  3
ObjectDBX Classes
 90
        0
280
     0
281
     0
  0
CLASS
  1
LAYOUT
  2
AcDbLayout
  3
ObjectDBX Classes
 90
        0
280
     0
281
     0
  0
ENDSEC
  0
SECTION
  2
TABLES
  0
TABLE
  2
VPORT
  5
8
330
0
100
AcDbSymbolTable
 70
     1
  0
VPORT
  5
29
330
8
100
AcDbSymbolTableRecord
100
AcDbViewportTableRecord
  2
*Active
 70
     0
 10
0.0
 20
0.0
 11
1.0
 21
1.0
 12
215.9
 22
139.7
 13
0.0
 23
0.0
 14
10.0
 24
10.0
 15
10.0
 25
10.0
 16
0.0
 26
0.0
 36
1.0
 17
0.0
 27
0.0
 37
0.0
 40
279.4
 41
1.5454545455
 42
50.0
 43
0.0
 44
0.0
 50
0.0
 51
0.0
 71
     0
 72
  2000
 73
     1
 74
     3
 75
     0
 76
     0
 77
     0
 78
     0
281
     0
 65
     1
110
0.0
120
0.0
130
0.0
111
1.0
121
0.0
131
0.0
112
0.0
122
1.0
132
0.0
 79
     0
146
0.0
  0
ENDTAB
  0
TABLE
  2
LTYPE
  5
5
330
0
100
AcDbSymbolTable
 70
     6
  0
LTYPE
  5
14
330
5
100
AcDbSymbolTableRecord
100
AcDbLinetypeTableRecord
  2
ByBlock
 70
     0
  3

 72
    65
 73
     0
 40
0.0
  0
LTYPE
  5
15
330
5
100
AcDbSymbolTableRecord
100
AcDbLinetypeTableRecord
  2
ByLayer
 70
     0
  3

 72
    65
 73
     0
 40
0.0
  0
LTYPE
  5
16
330
5
100
AcDbSymbolTableRecord
100
AcDbLinetypeTableRecord
  2
Continuous
 70
     0
  3
Solid line
 72
    65
 73
     0
 40
0.0
  0
LTYPE
  5
3F
330
5
100
AcDbSymbolTableRecord
100
AcDbLinetypeTableRecord
  2
HIDDEN
 70
     0
  3
Hidden __ __ __ __ __ __ __ __ __ __ __ __ __ __
 72
    65
 73
     2
 40
1.905
 49
1.27
 74
     0
 49
-0.635
 74
     0
  0
LTYPE
  5
40
330
5
100
AcDbSymbolTableRecord
100
AcDbLinetypeTableRecord
  2
PHANTOM
 70
     0
  3
Phantom ______  __  __  ______  __  __  ______
 72
    65
 73
     6
 40
12.7
 49
6.35
 74
     0
 49
-1.27
 74
     0
 49
1.27
 74
     0
 49
-1.27
 74
     0
 49
1.27
 74
     0
 49
-1.27
 74
     0
  0
LTYPE
  5
41
330
5
100
AcDbSymbolTableRecord
100
AcDbLinetypeTableRecord
  2
CENTER
 70
     0
  3
Center ____ _ ____ _ ____ _ ____ _ ____ _ ____
 72
    65
 73
     4
 40
10.16
 49
6.35
 74
     0
 49
-1.27
 74
     0
 49
1.27
 74
     0
 49
-1.27
 74
     0
  0
LTYPE
  5
42
330
5
100
AcDbSymbolTableRecord
100
AcDbLinetypeTableRecord
  2
CENTERX2
 70
     0
  3
Center (2x) ________  __  ________  __  _____
 72
    65
 73
     4
 40
20.32
 49
12.7
 74
     0
 49
-2.54
 74
     0
 49
2.54
 74
     0
 49
-2.54
 74
     0
  0
LTYPE
  5
43
330
5
100
AcDbSymbolTableRecord
100
AcDbLinetypeTableRecord
  2
DOT2
 70
     0
  3
Dot (.5x) ........................................
 72
    65
 73
     2
 40
0.635
 49
0.0
 74
     0
 49
-0.635
 74
     0
  0
ENDTAB
  0
TABLE
  2
LAYER
  5
2
330
0
100
AcDbSymbolTable
 70
     1
  0
LAYER
  5
10
330
2
100
AcDbSymbolTableRecord
100
AcDbLayerTableRecord
  2
0
 70
     0
 62
     7
  6
Continuous
370
    -3
390
F
  0
ENDTAB
  0
TABLE
  2
STYLE
  5
3
330
0
100
AcDbSymbolTable
 70
     1
  0
STYLE
  5
11
330
3
100
AcDbSymbolTableRecord
100
AcDbTextStyleTableRecord
  2
Standard
 70
     0
 40
0.0
 41
1.0
 50
0.0
 71
     0
 42
3.5
  3
txt
  4

  0
ENDTAB
  0
TABLE
  2
VIEW
  5
6
330
0
100
AcDbSymbolTable
 70
     0
  0
ENDTAB
  0
TABLE
  2
UCS
  5
7
330
0
100
AcDbSymbolTable
 70
     0
  0
ENDTAB
  0
TABLE
  2
APPID
  5
9
330
0
100
AcDbSymbolTable
 70
     1
  0
APPID
  5
12
330
9
100
AcDbSymbolTableRecord
100
AcDbRegAppTableRecord
  2
ACAD
 70
     0
  0
ENDTAB
  0
TABLE
  2
DIMSTYLE
  5
A
330
0
100
AcDbSymbolTable
 70
     1
100
AcDbDimStyleTable
  0
DIMSTYLE
105
27
330
A
100
AcDbSymbolTableRecord
100
AcDbDimStyleTableRecord
  2
ISO-25
 70
     0
 41
2.5
 42
0.625
 43
3.75
 44
1.25
 73
     0
 74
     0
 77
     1
 78
     8
140
2.5
141
2.5
143
0.0393700787
147
0.625
171
     3
172
     1
178
     0
271
     2
272
     2
274
     3
278
    44
283
     0
284
     8
340
11
  0
ENDTAB
  0
TABLE
  2
BLOCK_RECORD
  5
1
330
0
100
AcDbSymbolTable
 70
     1
  0
BLOCK_RECORD
  5
1F
330
1
100
AcDbSymbolTableRecord
100
AcDbBlockTableRecord
  2
*Model_Space
340
22
  0
BLOCK_RECORD
  5
1B
330
1
100
AcDbSymbolTableRecord
100
AcDbBlockTableRecord
  2
*Paper_Space
340
1E
  0
BLOCK_RECORD
  5
23
330
1
100
AcDbSymbolTableRecord
100
AcDbBlockTableRecord
  2
*Paper_Space0
340
26
  0
ENDTAB
  0
ENDSEC
  0
SECTION
  2
BLOCKS
  0
BLOCK
  5
20
330
1F
100
AcDbEntity
  8
0
100
AcDbBlockBegin
  2
*Model_Space
 70
     0
 10
0.0
 20
0.0
 30
0.0
  3
*Model_Space
  1

  0
ENDBLK
  5
21
330
1F
100
AcDbEntity
  8
0
100
AcDbBlockEnd
  0
BLOCK
  5
1C
330
1B
100
AcDbEntity
 67
     1
  8
0
100
AcDbBlockBegin
  2
*Paper_Space
 70
     0
 10
0.0
 20
0.0
 30
0.0
  3
*Paper_Space
  1

  0
ENDBLK
  5
1D
330
1B
100
AcDbEntity
 67
     1
  8
0
100
AcDbBlockEnd
  0
BLOCK
  5
24
330
23
100
AcDbEntity
  8
0
100
AcDbBlockBegin
  2
*Paper_Space0
 70
     0
 10
0.0
 20
0.0
 30
0.0
  3
*Paper_Space0
  1

  0
ENDBLK
  5
25
330
23
100
AcDbEntity
  8
0
100
AcDbBlockEnd
  0
ENDSEC
  0
SECTION
  2
ENTITIES
  0
LINE
  5
44
330
1F
100
AcDbEntity
  8
0
  6
Continuous
 62
     7
370
    15
100
AcDbLine
 10
294.7080302707
 20
198.8662693468
 30
0.0
 11
295.1976617763
 21
199.3258878045
 31
0.0
  0
LINE
  5
45
330
1F
100
AcDbEntity
  8
0
  6
Continuous
 62
     7
370
    15
100
AcDbLine
 10
294.0734972001
 20
201.736666518
 30
0.0
 11
293.3836862719
 21
201.6542777825
 31
0.0
  0
LINE
  5
46
330
1F
100
AcDbEntity
  8
0
  6
Continuous
 62
     7
370
    15
100
AcDbLine
 10
290.4342659082
 20
207.8846821006
 30
0.0
 11
290.9714791589
 21
208.3889656748
 31
0.0
  0
LINE
  5
47
330
1F
100
AcDbEntity
  8
0
  6
Continuous
 62
     7
370
    15
100
AcDbLine
 10
289.8473145827
 20
210.7997443883
 30
0.0
 11
289.1156969316
 21
210.7123623961
 31
0.0
  0
LINE
  5
48
330
1F
100
AcDbEntity
  8
0
  6
Continuous
 62
     7
370
    15
100
AcDbLine
 10
297.3737267728
 20
200.8158885302
 30
0.0
 11
297.7409664408
 21
201.2069783355
 31
0.0
  0
LINE
  5
49
330
1F
100
AcDbEntity
  8
0
  6
Continuous
 62
     7
370
    15
100
AcDbLine
 10
296.8756476186
 20
200.2854619549
 30
0.0
 11
297.001984228
 21
200.4200034118
 31
0.0
  0
LINE
  5
4A
330
1F
100
AcDbEntity
  8
0
  6
Continuous
 62
     7
370
    15
100
AcDbLine
 10
296.2664454761
 20
199.6366955823
 30
0.0
 11
296.4791913357
 21
199.863258081
 31
0.0
  0
LINE
  5
4B
330
1F
100
AcDbEntity
  8
0
  6
Continuous
 62
     7
370
    15
100
AcDbLine
 10
292.9231182569
 20
211.5388871077
 30
0.0
 11
290.7724080735
 21
211.4186968138
 31
0.0
  0
LINE
  5
4C
330
1F
100
AcDbEntity
  8
0
  6
Continuous
 62
     7
370
    15
100
AcDbLine
 10
293.0231091737
 20
211.5402349056
 30
0.0
 11
292.9231182569
 21
211.5388871077
 31
0.0
  0
LINE
  5
4D
330
1F
100
AcDbEntity
  8
0
  6
Continuous
 62
     7
370
    15
100
AcDbLine
 10
297.7409664408
 20
201.2069783355
 30
0.0
 11
300.5210336599
 21
204.4308720705
 31
0.0
  0
ARC
  5
4E
330
1F
100
AcDbEntity
  8
0
  6
Continuous
 62
     7
370
    15
100
AcDbCircle
 10
300.3695713831
 20
204.5614828614
 30
0.0
 40
0.1999999999999724
100
AcDbArc
 50
319.2277453179
 51
25.0
  0
LINE
  5
4F
330
1F
100
AcDbEntity
  8
0
  6
Continuous
 62
     7
370
    15
100
AcDbLine
 10
296.4726861741
 20
199.8534087298
 30
0.0
 11
296.8843559922
 21
200.2918141719
 31
0.0
  0
LINE
  5
50
330
1F
100
AcDbEntity
  8
0
  6
Continuous
 62
     7
370
    15
100
AcDbLine
 10
297.0025399141
 20
200.4176734703
 30
0.0
 11
297.1624331097
 21
200.5879508237
 31
0.0
  0
ARC
  5
51
330
1F
100
AcDbEntity
  8
0
  6
Continuous
 62
     7
370
    15
100
AcDbCircle
 10
291.1369633765
 20
209.6904247332
 30
0.0
 40
0.3999999999999903
100
AcDbArc
 50
205.0
 51
292.0
  0
ARC
  5
52
330
1F
100
AcDbEntity
  8
0
  6
Continuous
 62
     7
370
    15
100
AcDbCircle
 10
295.1768438843
 20
201.0268730261
 30
0.0
 40
0.4000000000000339
100
AcDbArc
 50
118.0
 51
205.0
  0
LINE
  5
53
330
1F
100
AcDbEntity
  8
0
  6
Continuous
 62
     7
370
    15
100
AcDbLine
 10
294.9890552592
 20
201.3800520632
 30
0.0
 11
295.3612283381
 21
201.5779399994
 31
0.0
  0
LINE
  5
54
330
1F
100
AcDbEntity
  8
0
  6
Continuous
 62
     7
370
    15
100
AcDbLine
 10
291.6776252115
 20
209.4774523967
 30
0.0
 11
291.2868060139
 21
209.3195511913
 31
0.0
  0
LINE
  5
55
330
1F
100
AcDbEntity
  8
0
  6
Continuous
 62
     7
370
    15
100
AcDbLine
 10
297.3821101312
 20
192.9849820817
 30
0.0
 11
297.4705260615
 21
193.0319936657
 31
0.0
  0
LINE
  5
56
330
1F
100
AcDbEntity
  8
0
  6
Continuous
 62
     7
370
    15
100
AcDbLine
 10
292.2522974512
 20
204.0805489382
 30
0.0
 11
292.2341712955
 21
204.0720965729
 31
0.0
  0
LINE
  5
57
330
1F
100
AcDbEntity
  8
0
  6
Continuous
 62
     7
370
    15
100
AcDbLine
 10
280.4368075093
 20
135.817052293
 30
0.0
 11
279.1168075093
 21
135.817052293
 31
0.0
  0
LINE
  5
58
330
1F
100
AcDbEntity
  8
0
  6
Continuous
 62
     7
370
    15
100
AcDbLine
 10
279.1168075093
 20
131.817052293
 30
0.0
 11
280.4368075093
 21
131.817052293
 31
0.0
  0
LINE
  5
59
330
1F
100
AcDbEntity
  8
0
  6
Continuous
 62
     7
370
    15
100
AcDbLine
 10
158.684880292
 20
244.8399253143
 30
0.0
 11
149.598509913
 21
250.3311154648
 31
0.0
  0
LINE
  5
5A
330
1F
100
AcDbEntity
  8
0
  6
Continuous
 62
     7
370
    15
100
AcDbLine
 10
148.0468508237
 20
247.7635574673
 30
0.0
 11
154.6803000529
 21
243.7547476178
 31
0.0
  0
SPLINE
  5
5B
330
1F
100
AcDbEntity
  8
0
  6
Continuous
 62
     7
370
    15
100
AcDbSpline
210
0.0
220
0.0
230
1.0
 70
     8
 71
     3
 72
    31
 73
    27
 74
     0
 42
0.00000001
 43
0.00000001
 12
1.0
 22
0.0
 32
0.0
 13
1.0
 23
0.0
 33
0.0
 40
0.0
 40
0.0
 40
0.0
 40
0.0
 40
0.0211270521963512
 40
0.0645494461496184
 40
0.1079814341522348
 40
0.1514186739431764
 40
0.194868954812138
 40
0.2383403168589873
 40
0.2818410151451226
 40
0.3253794063527006
 40
0.3689637298812144
 40
0.4126017686569693
 40
0.4563003864024474
 40
0.5000649559298381
 40
0.5438987173908796
 40
0.5878021343098835
 40
0.6317723433142552
 40
0.6758028117912099
 40
0.719883315141293
 40
0.7640003126799264
 40
0.8081377371975922
 40
0.8522734409306377
 40
0.8963891048880256
 40
0.9404692203719418
 40
0.9845009594663788
 40
1.0
 40
1.0
 40
1.0
 40
1.0
 10
137.4254310933799
 20
241.2531078319989
 30
0.0
 10
137.4268491787766
 20
241.3642178387175
 30
0.0
 10
137.4311818526441
 20
241.7036920506762
 30
0.0
 10
137.4815150550022
 20
242.2700877629521
 30
0.0
 10
137.5981612767499
 20
242.9447610604087
 30
0.0
 10
137.7733379641273
 20
243.6052493750265
 30
0.0
 10
138.0045660702393
 20
244.2459814824376
 30
0.0
 10
138.2901509917235
 20
244.8616699201575
 30
0.0
 10
138.627632313177
 20
245.4472308612977
 30
0.0
 10
139.014225887303
 20
245.9978382424972
 30
0.0
 10
139.4467377575619
 20
246.5089535473788
 30
0.0
 10
139.9216213378282
 20
246.9763571496111
 30
0.0
 10
140.4349963993068
 20
247.3961747659457
 30
0.0
 10
140.9826774157835
 20
247.7649018349792
 30
0.0
 10
141.5601979932825
 20
248.0794266586488
 30
0.0
 10
142.1628352940255
 20
248.3370538495675
 30
0.0
 10
142.7856349622876
 20
248.5355294367878
 30
0.0
 10
143.4234385192505
 20
248.6730674580647
 30
0.0
 10
144.0709171784575
 20
248.7483798863828
 30
0.0
 10
144.7226086888459
 20
248.7606985037727
 30
0.0
 10
145.3729563929219
 20
248.7098224514981
 30
0.0
 10
146.0163375857308
 20
248.5960622072805
 30
0.0
 10
146.647318961103
 20
248.4205493040131
 30
0.0
 10
147.2600655917258
 20
248.1840813410722
 30
0.0
 10
147.723541428406
 20
247.9544383093126
 30
0.0
 10
147.9800642392449
 20
247.8029880550408
 30
0.0
 10
148.0468508237283
 20
247.7635574672935
 30
0.0
  0
SPLINE
  5
5C
330
1F
100
AcDbEntity
  8
0
  6
Continuous
 62
     7
370
    15
100
AcDbSpline
210
0.0
220
0.0
230
1.0
 70
     8
 71
     3
 72
    35
 73
    31
 74
     0
 42
0.00000001
 43
0.00000001
 12
1.0
 22
0.0
 32
0.0
 13
1.0
 23
0.0
 33
0.0
 40
0.0
 40
0.0
 40
0.0
 40
0.0
 40
0.0210619188951166
 40
0.058058690041208
 40
0.0950448742617121
 40
0.1320084994106497
 40
0.1689521208876801
 40
0.2058790382661084
 40
0.2427931736411522
 40
0.2796989242630102
 40
0.316600528047209
 40
0.3535016818988661
 40
0.3904071752864013
 40
0.4273215733874786
 40
0.46424904112098
 40
0.5011931975835782
 40
0.5381570082252489
 40
0.5751427188786021
 40
0.6121518318273941
 40
0.6491851204809218
 40
0.6862426763033928
 40
0.7233239796957603
 40
0.7604279856546529
 40
0.7975532151971616
 40
0.834697844573993
 40
0.8718597859486611
 40
0.9090367552210825
 40
0.9462263247638931
 40
0.9834259608145072
 40
1.0
 40
1.0
 40
1.0
 40
1.0
 10
149.5985099129898
 20
250.3311154648298
 30
0.0
 10
149.4688792914776
 20
250.4070807489525
 30
0.0
 10
149.1115431858881
 20
250.6164845030329
 30
0.0
 10
148.5030889152083
 20
250.9144967720916
 30
0.0
 10
147.7702582557203
 20
251.2070706757317
 30
0.0
 10
147.0174996699639
 20
251.4388011023102
 30
0.0
 10
146.2500354126781
 20
251.6092778597254
 30
0.0
 10
145.4723371967742
 20
251.7172683909579
 30
0.0
 10
144.6891199527414
 20
251.7622429835789
 30
0.0
 10
143.9050691627624
 20
251.7439567471966
 30
0.0
 10
143.1248863386195
 20
251.6625613131369
 30
0.0
 10
142.3532373676575
 20
251.5185734832291
 30
0.0
 10
141.5947289412787
 20
251.3128771902829
 30
0.0
 10
140.8538791585591
 20
251.0467119329377
 30
0.0
 10
140.1351027706125
 20
250.7216675830646
 30
0.0
 10
139.4426881411411
 20
250.3396766760425
 30
0.0
 10
138.7807742040546
 20
249.9030056724589
 30
0.0
 10
138.1533272509543
 20
249.4142446243073
 30
0.0
 10
137.5641176820532
 20
248.8762949915015
 30
0.0
 10
137.0166970152576
 20
248.2923553282821
 30
0.0
 10
136.5143752524272
 20
247.6659046681768
 30
0.0
 10
136.0601998858772
 20
247.0006835919592
 30
0.0
 10
135.6569335853264
 20
246.3006729352145
 30
0.0
 10
135.3070434317573
 20
245.5700707719714
 30
0.0
 10
135.0126552352781
 20
244.8132662540513
 30
0.0
 10
134.7756477313899
 20
244.034816911479
 30
0.0
 10
134.5972347055769
 20
243.2394062236231
 30
0.0
 10
134.4794701200796
 20
242.4318695603766
 30
0.0
 10
134.4306561826302
 20
241.7676294399641
 30
0.0
 10
134.4266621331471
 20
241.3743299834543
 30
0.0
 10
134.4254310933799
 20
241.2531078319982
 30
0.0
  0
LINE
  5
5D
330
1F
100
AcDbEntity
  8
0
  6
Continuous
 62
     7
370
    15
100
AcDbLine
 10
137.4254310934
 20
231.253107832
 30
0.0
 11
137.4254310934
 21
241.253107832
 31
0.0
  0
LINE
  5
5E
330
1F
100
AcDbEntity
  8
0
  6
Continuous
 62
     7
370
    15
100
AcDbLine
 10
134.4254310934
 20
241.253107832
 30
0.0
 11
134.4254310934
 21
231.253107832
 31
0.0
  0
LINE
  5
5F
330
1F
100
AcDbEntity
  8
0
  6
Continuous
 62
     7
370
    15
100
AcDbLine
 10
137.9254310934
 20
230.853107832
 30
0.0
 11
137.9254310934
 21
231.253107832
 31
0.0
  0
LINE
  5
60
330
1F
100
AcDbEntity
  8
0
  6
Continuous
 62
     7
370
    15
100
AcDbLine
 10
133.9254310934
 20
231.253107832
 30
0.0
 11
133.9254310934
 21
230.853107832
 31
0.0
  0
LINE
  5
61
330
1F
100
AcDbEntity
  8
0
  6
Continuous
 62
     7
370
    15
100
AcDbLine
 10
290.6638555994
 20
211.8881084269
 30
0.0
 11
289.8481785911
 21
211.5077519913
 31
0.0
  0
ARC
  5
62
330
1F
100
AcDbEntity
  8
0
  6
Continuous
 62
     7
370
    15
100
AcDbCircle
 10
290.7074364625
 20
212.1732412177
 30
0.0
 40
0.1599999999999953
100
AcDbArc
 50
115.0
 51
205.0
  0
LINE
  5
63
330
1F
100
AcDbEntity
  8
0
  6
Continuous
 62
     7
370
    15
100
AcDbLine
 10
294.5731933364
 20
214.1524137195
 30
0.0
 11
290.6398175406
 21
212.3182504636
 31
0.0
  0
LINE
  5
64
330
1F
100
AcDbEntity
  8
0
  6
Continuous
 62
     7
370
    15
100
AcDbLine
 10
299.1728871357
 20
209.9992874197
 30
0.0
 11
299.5764506171
 21
210.3500998019
 31
0.0
  0
LINE
  5
65
330
1F
100
AcDbEntity
  8
0
  6
Continuous
 62
     7
370
    15
100
AcDbLine
 10
297.581240552
 20
214.6288415943
 30
0.0
 11
294.5731933364
 21
214.1524137195
 31
0.0
  0
ARC
  5
66
330
1F
100
AcDbEntity
  8
0
  6
Continuous
 62
     7
370
    15
100
AcDbCircle
 10
297.5968839985
 20
214.5300727602
 30
0.0
 40
0.1000000000000305
100
AcDbArc
 50
25.0
 51
99.0
  0
ARC
  5
67
330
1F
100
AcDbEntity
  8
0
  6
Continuous
 62
     7
370
    15
100
AcDbCircle
 10
299.5108447142
 20
210.4255707599
 30
0.0
 40
0.0999999999999913
100
AcDbArc
 50
311.0
 51
25.0
  0
LINE
  5
68
330
1F
100
AcDbEntity
  8
0
  6
Continuous
 62
     7
370
    15
100
AcDbLine
 10
305.3745076407
 20
203.874852171
 30
0.0
 11
299.1822142453
 21
210.0073953524
 31
0.0
  0
LINE
  5
69
330
1F
100
AcDbEntity
  8
0
  6
Continuous
 62
     7
370
    15
100
AcDbLine
 10
300.3114100745
 20
205.1594505069
 30
0.0
 11
302.884427578
 21
201.71181772
 31
0.0
  0
SPLINE
  5
6A
330
1F
100
AcDbEntity
  8
0
  6
Continuous
 62
     7
370
    15
100
AcDbSpline
210
0.0
220
0.0
230
1.0
 70
     8
 71
     3
 72
    22
 73
    18
 74
     0
 42
0.00000001
 43
0.00000001
 12
1.0
 22
0.0
 32
0.0
 13
1.0
 23
0.0
 33
0.0
 40
0.0
 40
0.0
 40
0.0
 40
0.0
 40
0.0649728797187283
 40
0.1240104232041531
 40
0.2243661736631249
 40
0.3023783928646549
 40
0.3587609502990777
 40
0.4347186112075573
 40
0.4682099931908688
 40
0.5023259923849657
 40
0.5697397021645774
 40
0.6473909402339482
 40
0.704936974974201
 40
0.7826336080192593
 40
0.8805066431987911
 40
0.9375238060645118
 40
1.0
 40
1.0
 40
1.0
 40
1.0
 10
302.8855548594973
 20
201.710308648762
 30
0.0
 10
302.9595237588023
 20
201.6245498901874
 30
0.0
 10
303.1007044259738
 20
201.4608665196744
 30
0.0
 10
303.4310127797415
 20
201.2510550219615
 30
0.0
 10
303.8296739045791
 20
201.1370519104513
 30
0.0
 10
304.2321543970509
 20
201.1636609703656
 30
0.0
 10
304.5686590656812
 20
201.2728424950869
 30
0.0
 10
304.8067312372318
 20
201.417401795749
 30
0.0
 10
304.9790967847798
 20
201.5620311870518
 30
0.0
 10
305.1592173582899
 20
201.7179682020021
 30
0.0
 10
305.3830618262688
 20
201.9098438700927
 30
0.0
 10
305.5908075549695
 20
202.1719588585925
 30
0.0
 10
305.7400796953814
 20
202.5008550312683
 30
0.0
 10
305.81101170887
 20
202.8927434753164
 30
0.0
 10
305.7459611899514
 20
203.2939768002232
 30
0.0
 10
305.584354585844
 20
203.6367735337238
 30
0.0
 10
305.4466918549655
 20
203.7929752634634
 30
0.0
 10
305.3747159418078
 20
203.8746441513539
 30
0.0
  0
ARC
  5
6B
330
1F
100
AcDbEntity
  8
0
  6
Continuous
 62
     7
370
    15
100
AcDbCircle
 10
298.1918292999
 20
213.9640689192
 30
0.0
 40
0.2000000000000456
100
AcDbArc
 50
115.0
 51
205.0
  0
ARC
  5
6C
330
1F
100
AcDbEntity
  8
0
  6
Continuous
 62
     7
370
    15
100
AcDbCircle
 10
299.4596840851
 20
211.245145558
 30
0.0
 40
0.1999999999999821
100
AcDbArc
 50
228.6213833339
 51
295.0
  0
LINE
  5
6D
330
1F
100
AcDbEntity
  8
0
  6
Continuous
 62
     7
370
    15
100
AcDbLine
 10
299.5442077374
 20
211.0638840006
 30
0.0
 11
299.5804600489
 21
211.0807887311
 31
0.0
  0
LINE
  5
6E
330
1F
100
AcDbEntity
  8
0
  6
Continuous
 62
     7
370
    15
100
AcDbLine
 10
298.143557959
 20
214.162235207
 30
0.0
 11
298.1073056475
 21
214.1453304766
 31
0.0
  0
ARC
  5
6F
330
1F
100
AcDbEntity
  8
0
  6
Continuous
 62
     7
370
    15
100
AcDbCircle
 10
298.2280816113
 20
213.9809736496
 30
0.0
 40
0.2000000000000319
100
AcDbArc
 50
31.9508058515
 51
115.0
  0
ARC
  5
70
330
1F
100
AcDbEntity
  8
0
  6
Continuous
 62
     7
370
    15
100
AcDbCircle
 10
299.4959363966
 20
211.2620502885
 30
0.0
 40
0.2000000000000114
100
AcDbArc
 50
295.0
 51
18.0491941485
  0
ARC
  5
71
330
1F
100
AcDbEntity
  8
0
  6
Continuous
 62
     7
370
    15
100
AcDbCircle
 10
257.1640715323
 20
188.3703302868
 30
0.0
 40
48.59584669400945
100
AcDbArc
 50
30.932758375
 51
31.9508058514
  0
ARC
  5
72
330
1F
100
AcDbEntity
  8
0
  6
Continuous
 62
     7
370
    15
100
AcDbCircle
 10
253.4816084809
 20
196.267397785
 30
0.0
 40
48.59584669400947
100
AcDbArc
 50
18.0491941486
 51
19.0672416251
  0
ARC
  5
73
330
1F
100
AcDbEntity
  8
0
  6
Continuous
 62
     7
370
    15
100
AcDbCircle
 10
299.3545768013
 20
212.1229706786
 30
0.0
 40
0.0600000000000042
100
AcDbArc
 50
19.067241625
 51
25.0
  0
ARC
  5
74
330
1F
100
AcDbEntity
  8
0
  6
Continuous
 62
     7
370
    15
100
AcDbCircle
 10
298.7967206958
 20
213.3192969575
 30
0.0
 40
0.0599999999999478
100
AcDbArc
 50
25.0
 51
30.932758375
  0
LINE
  5
75
330
1F
100
AcDbEntity
  8
0
  6
Continuous
 62
     7
370
    15
100
AcDbLine
 10
299.4089552685
 20
212.1483277743
 30
0.0
 11
298.851099163
 21
213.3446540532
 31
0.0
  0
LINE
  5
76
330
1F
100
AcDbEntity
  8
0
  6
Continuous
 62
     7
370
    15
100
AcDbLine
 10
130.0459866114
 20
167.7653148392
 30
0.0
 11
129.8636525553
 21
167.5829807831
 31
0.0
  0
LINE
  5
77
330
1F
100
AcDbEntity
  8
0
  6
Continuous
 62
     7
370
    15
100
AcDbLine
 10
129.8636525553
 20
164.0192348809
 30
0.0
 11
130.0459866114
 21
163.8369008248
 31
0.0
  0
LINE
  5
78
330
1F
100
AcDbEntity
  8
0
  6
Continuous
 62
     7
370
    15
100
AcDbLine
 10
129.2636525553
 20
167.7829807831
 30
0.0
 11
129.0636525553
 21
167.558784192
 31
0.0
  0
LINE
  5
79
330
1F
100
AcDbEntity
  8
0
  6
Continuous
 62
     7
370
    15
100
AcDbLine
 10
129.0636525553
 20
164.043431472
 30
0.0
 11
129.2636525553
 21
163.8192348809
 31
0.0
  0
LINE
  5
7A
330
1F
100
AcDbEntity
  8
0
  6
Continuous
 62
     7
370
    15
100
AcDbLine
 10
129.2636525553
 20
163.8192348809
 30
0.0
 11
129.4636525553
 21
164.0192348809
 31
0.0
  0
LINE
  5
7B
330
1F
100
AcDbEntity
  8
0
  6
Continuous
 62
     7
370
    15
100
AcDbLine
 10
129.4636525553
 20
167.5829807831
 30
0.0
 11
129.2636525553
 21
167.7829807831
 31
0.0
  0
LINE
  5
7C
330
1F
100
AcDbEntity
  8
0
  6
Continuous
 62
     7
370
    15
100
AcDbLine
 10
129.6636525553
 20
163.8192348809
 30
0.0
 11
129.8636525553
 21
164.0192348809
 31
0.0
  0
LINE
  5
7D
330
1F
100
AcDbEntity
  8
0
  6
Continuous
 62
     7
370
    15
100
AcDbLine
 10
129.8636525553
 20
167.5829807831
 30
0.0
 11
129.6636525553
 21
167.7829807831
 31
0.0
  0
LINE
  5
7E
330
1F
100
AcDbEntity
  8
0
  6
Continuous
 62
     7
370
    15
100
AcDbLine
 10
129.6636525553
 20
167.7829807831
 30
0.0
 11
129.4636525553
 21
167.5829807831
 31
0.0
  0
LINE
  5
7F
330
1F
100
AcDbEntity
  8
0
  6
Continuous
 62
     7
370
    15
100
AcDbLine
 10
129.4636525553
 20
164.0192348809
 30
0.0
 11
129.6636525553
 21
163.8192348809
 31
0.0
  0
LINE
  5
80
330
1F
100
AcDbEntity
  8
0
  6
Continuous
 62
     7
370
    15
100
AcDbLine
 10
128.8636525553
 20
163.8719295899
 30
0.0
 11
129.0636525553
 21
164.043431472
 31
0.0
  0
LINE
  5
81
330
1F
100
AcDbEntity
  8
0
  6
Continuous
 62
     7
370
    15
100
AcDbLine
 10
129.0636525553
 20
167.558784192
 30
0.0
 11
128.8636525553
 21
167.7302860741
 31
0.0
  0
LINE
  5
82
330
1F
100
AcDbEntity
  8
0
  6
Continuous
 62
     7
370
    15
100
AcDbLine
 10
128.8636525553
 20
167.7302860741
 30
0.0
 11
128.6636525553
 21
167.4970524821
 31
0.0
  0
LINE
  5
83
330
1F
100
AcDbEntity
  8
0
  6
Continuous
 62
     7
370
    15
100
AcDbLine
 10
128.6636525553
 20
164.1051631819
 30
0.0
 11
128.8636525553
 21
163.8719295899
 31
0.0
  0
LINE
  5
84
330
1F
100
AcDbEntity
  8
0
  6
Continuous
 62
     7
370
    15
100
AcDbLine
 10
128.4636525553
 20
167.6685543642
 30
0.0
 11
128.2636525553
 21
167.4353207721
 31
0.0
  0
LINE
  5
85
330
1F
100
AcDbEntity
  8
0
  6
Continuous
 62
     7
370
    15
100
AcDbLine
 10
128.2636525553
 20
164.1668948919
 30
0.0
 11
128.4636525553
 21
163.9336612999
 31
0.0
  0
LINE
  5
86
330
1F
100
AcDbEntity
  8
0
  6
Continuous
 62
     7
370
    15
100
AcDbLine
 10
128.4636525553
 20
163.9336612999
 30
0.0
 11
128.6636525553
 21
164.1051631819
 31
0.0
  0
LINE
  5
87
330
1F
100
AcDbEntity
  8
0
  6
Continuous
 62
     7
370
    15
100
AcDbLine
 10
128.6636525553
 20
167.4970524821
 30
0.0
 11
128.4636525553
 21
167.6685543642
 31
0.0
  0
LINE
  5
88
330
1F
100
AcDbEntity
  8
0
  6
Continuous
 62
     7
370
    15
100
AcDbLine
 10
128.0636525553
 20
163.9953930098
 30
0.0
 11
128.2636525553
 21
164.1668948919
 31
0.0
  0
LINE
  5
89
330
1F
100
AcDbEntity
  8
0
  6
Continuous
 62
     7
370
    15
100
AcDbLine
 10
128.2636525553
 20
167.4353207721
 30
0.0
 11
128.0636525553
 21
167.6068226542
 31
0.0
  0
LINE
  5
8A
330
1F
100
AcDbEntity
  8
0
  6
Continuous
 62
     7
370
    15
100
AcDbLine
 10
128.0636525553
 20
167.6068226542
 30
0.0
 11
127.8636525553
 21
167.3735890622
 31
0.0
  0
LINE
  5
8B
330
1F
100
AcDbEntity
  8
0
  6
Continuous
 62
     7
370
    15
100
AcDbLine
 10
127.8636525553
 20
164.2286266018
 30
0.0
 11
128.0636525553
 21
163.9953930098
 31
0.0
  0
LINE
  5
8C
330
1F
100
AcDbEntity
  8
0
  6
Continuous
 62
     7
370
    15
100
AcDbLine
 10
127.6636525553
 20
167.5450909443
 30
0.0
 11
127.4636525553
 21
167.3118573522
 31
0.0
  0
LINE
  5
8D
330
1F
100
AcDbEntity
  8
0
  6
Continuous
 62
     7
370
    15
100
AcDbLine
 10
127.4636525553
 20
164.2903583118
 30
0.0
 11
127.6636525553
 21
164.0571247198
 31
0.0
  0
LINE
  5
8E
330
1F
100
AcDbEntity
  8
0
  6
Continuous
 62
     7
370
    15
100
AcDbLine
 10
127.6636525553
 20
164.0571247198
 30
0.0
 11
127.8636525553
 21
164.2286266018
 31
0.0
  0
LINE
  5
8F
330
1F
100
AcDbEntity
  8
0
  6
Continuous
 62
     7
370
    15
100
AcDbLine
 10
127.8636525553
 20
167.3735890622
 30
0.0
 11
127.6636525553
 21
167.5450909443
 31
0.0
  0
LINE
  5
90
330
1F
100
AcDbEntity
  8
0
  6
Continuous
 62
     7
370
    15
100
AcDbLine
 10
127.2636525553
 20
164.1188564297
 30
0.0
 11
127.4636525553
 21
164.2903583118
 31
0.0
  0
LINE
  5
91
330
1F
100
AcDbEntity
  8
0
  6
Continuous
 62
     7
370
    15
100
AcDbLine
 10
127.4636525553
 20
167.3118573522
 30
0.0
 11
127.2636525553
 21
167.4833592343
 31
0.0
  0
LINE
  5
92
330
1F
100
AcDbEntity
  8
0
  6
Continuous
 62
     7
370
    15
100
AcDbLine
 10
127.2636525553
 20
167.4833592343
 30
0.0
 11
127.0636525553
 21
167.2501256423
 31
0.0
  0
LINE
  5
93
330
1F
100
AcDbEntity
  8
0
  6
Continuous
 62
     7
370
    15
100
AcDbLine
 10
127.0636525553
 20
164.3520900217
 30
0.0
 11
127.2636525553
 21
164.1188564297
 31
0.0
  0
LINE
  5
94
330
1F
100
AcDbEntity
  8
0
  6
Continuous
 62
     7
370
    15
100
AcDbLine
 10
127.0754310934
 20
234.453107832
 30
0.0
 11
127.0754310934
 21
236.353107832
 31
0.0
  0
LINE
  5
95
330
1F
100
AcDbEntity
  8
0
  6
Continuous
 62
     7
370
    15
100
AcDbLine
 10
123.2754310934
 20
236.353107832
 30
0.0
 11
123.2754310934
 21
234.453107832
 31
0.0
  0
ARC
  5
96
330
1F
100
AcDbEntity
  8
0
  6
Continuous
 62
     7
370
    15
100
AcDbCircle
 10
123.6754310934
 20
236.353107832
 30
0.0
 40
0.3999999999999915
100
AcDbArc
 50
90.0
 51
180.0
  0
ARC
  5
97
330
1F
100
AcDbEntity
  8
0
  6
Continuous
 62
     7
370
    15
100
AcDbCircle
 10
126.6754310934
 20
236.353107832
 30
0.0
 40
0.4000000000000057
100
AcDbArc
 50
0.0
 51
90.0
  0
LINE
  5
98
330
1F
100
AcDbEntity
  8
0
  6
Continuous
 62
     7
370
    15
100
AcDbLine
 10
279.2036525553
 20
169.7204283401
 30
0.0
 11
279.1036525553
 21
169.7204283401
 31
0.0
  0
LINE
  5
99
330
1F
100
AcDbEntity
  8
0
  6
Continuous
 62
     7
370
    15
100
AcDbLine
 10
279.1036525553
 20
168.0204283401
 30
0.0
 11
279.2036525553
 21
168.0204283401
 31
0.0
  0
LINE
  5
9A
330
1F
100
AcDbEntity
  8
0
  6
Continuous
 62
     7
370
    15
100
AcDbLine
 10
279.2036525553
 20
89.7204283401
 30
0.0
 11
279.1036525553
 21
89.7204283401
 31
0.0
  0
LINE
  5
9B
330
1F
100
AcDbEntity
  8
0
  6
Continuous
 62
     7
370
    15
100
AcDbLine
 10
279.1036525553
 20
88.0204283401
 30
0.0
 11
279.2036525553
 21
88.0204283401
 31
0.0
  0
LINE
  5
9C
330
1F
100
AcDbEntity
  8
0
  6
Continuous
 62
     7
370
    15
100
AcDbLine
 10
279.2036525553
 20
94.7204283401
 30
0.0
 11
279.1036525553
 21
94.7204283401
 31
0.0
  0
LINE
  5
9D
330
1F
100
AcDbEntity
  8
0
  6
Continuous
 62
     7
370
    15
100
AcDbLine
 10
279.1036525553
 20
93.0204283401
 30
0.0
 11
279.2036525553
 21
93.0204283401
 31
0.0
  0
LINE
  5
9E
330
1F
100
AcDbEntity
  8
0
  6
Continuous
 62
     7
370
    15
100
AcDbLine
 10
279.2036525553
 20
174.7204283401
 30
0.0
 11
279.1036525553
 21
174.7204283401
 31
0.0
  0
LINE
  5
9F
330
1F
100
AcDbEntity
  8
0
  6
Continuous
 62
     7
370
    15
100
AcDbLine
 10
279.1036525553
 20
173.0204283401
 30
0.0
 11
279.2036525553
 21
173.0204283401
 31
0.0
  0
LINE
  5
A0
330
1F
100
AcDbEntity
  8
0
  6
Continuous
 62
     7
370
    15
100
AcDbLine
 10
122.2486525553
 20
178.601107832
 30
0.0
 11
122.2486525553
 21
177.281107832
 31
0.0
  0
LINE
  5
A1
330
1F
100
AcDbEntity
  8
0
  6
Continuous
 62
     7
370
    15
100
AcDbLine
 10
128.9986525553
 20
177.281107832
 30
0.0
 11
128.9986525553
 21
178.601107832
 31
0.0
  0
LINE
  5
A2
330
1F
100
AcDbEntity
  8
0
  6
Continuous
 62
     7
370
    15
100
AcDbLine
 10
122.2486525553
 20
176.201107832
 30
0.0
 11
122.2486525553
 21
175.9723573316
 31
0.0
  0
LINE
  5
A3
330
1F
100
AcDbEntity
  8
0
  6
Continuous
 62
     7
370
    15
100
AcDbLine
 10
128.9986525553
 20
175.9723573316
 30
0.0
 11
128.9986525553
 21
176.201107832
 31
0.0
  0
ARC
  5
A4
330
1F
100
AcDbEntity
  8
0
  6
Continuous
 62
     7
370
    15
100
AcDbCircle
 10
127.3986525553
 20
175.9723573316
 30
0.0
 40
1.600000000000018
100
AcDbArc
 50
282.635625093
 51
0.0
  0
ARC
  5
A5
330
1F
100
AcDbEntity
  8
0
  6
Continuous
 62
     7
370
    15
100
AcDbCircle
 10
123.8486525553
 20
175.9723573316
 30
0.0
 40
1.600000000000009
100
AcDbArc
 50
180.0
 51
257.364374907
  0
LINE
  5
A6
330
1F
100
AcDbEntity
  8
0
  6
Continuous
 62
     7
370
    15
100
AcDbLine
 10
122.4536525553
 20
179.671107832
 30
0.0
 11
122.4536525553
 21
178.601107832
 31
0.0
  0
LINE
  5
A7
330
1F
100
AcDbEntity
  8
0
  6
Continuous
 62
     7
370
    15
100
AcDbLine
 10
128.7936525553
 20
178.601107832
 30
0.0
 11
128.7936525553
 21
179.671107832
 31
0.0
  0
LINE
  5
A8
330
1F
100
AcDbEntity
  8
0
  6
Continuous
 62
     7
370
    15
100
AcDbLine
 10
122.6386525553
 20
180.261107832
 30
0.0
 11
122.6386525553
 21
179.671107832
 31
0.0
  0
LINE
  5
A9
330
1F
100
AcDbEntity
  8
0
  6
Continuous
 62
     7
370
    15
100
AcDbLine
 10
128.6086525553
 20
179.671107832
 30
0.0
 11
128.6086525553
 21
180.261107832
 31
0.0
  0
SPLINE
  5
AA
330
1F
100
AcDbEntity
  8
0
  6
Continuous
 62
     7
370
    15
100
AcDbSpline
210
0.0
220
0.0
230
1.0
 70
     8
 71
     3
 72
    13
 73
     9
 74
     0
 42
0.00000001
 43
0.00000001
 12
1.0
 22
0.0
 32
0.0
 13
1.0
 23
0.0
 33
0.0
 40
0.0
 40
0.0
 40
0.0
 40
0.0
 40
0.1560186113410071
 40
0.4086735129024045
 40
0.595333587424214
 40
0.7561090603063334
 40
0.9249103809614729
 40
1.0
 40
1.0
 40
1.0
 40
1.0
 10
131.472443224013
 20
82.54131704283506
 30
0.0
 10
131.4719995702129
 20
82.54126575467133
 30
0.0
 10
131.4708374681057
 20
82.5411314109936
 30
0.0
 10
131.4662273657743
 20
82.54320317951485
 30
0.0
 10
131.4582760650612
 20
82.5523472749392
 30
0.0
 10
131.4521685449643
 20
82.56590217061253
 30
0.0
 10
131.4488491151658
 20
82.57967324274263
 30
0.0
 10
131.4490783762862
 20
82.58841602706778
 30
0.0
 10
131.4491489616479
 20
82.59110777258786
 30
0.0
  0
ARC
  5
AB
330
1F
100
AcDbEntity
  8
0
  6
Continuous
 62
     7
370
    15
100
AcDbCircle
 10
131.3987706881
 20
83.611107832
 30
0.0
 40
0.0500000000000114
100
AcDbArc
 50
0.0
 51
90.0
  0
LINE
  5
AC
330
1F
100
AcDbEntity
  8
0
  6
Continuous
 62
     7
370
    15
100
AcDbLine
 10
131.4487706881
 20
82.591107832
 30
0.0
 11
131.4487706881
 21
83.611107832
 31
0.0
  0
ARC
  5
AD
330
1F
100
AcDbEntity
  8
0
  6
Continuous
 62
     7
370
    15
100
AcDbCircle
 10
130.4335372937
 20
83.611107832
 30
0.0
 40
0.0500000000000114
100
AcDbArc
 50
90.0
 51
180.0
  0
LINE
  5
AE
330
1F
100
AcDbEntity
  8
0
  6
Continuous
 62
     7
370
    15
100
AcDbLine
 10
130.3835372937
 20
83.611107832
 30
0.0
 11
130.3835372937
 21
82.591107832
 31
0.0
  0
ARC
  5
AF
330
1F
100
AcDbEntity
  8
0
  6
Continuous
 62
     7
370
    15
100
AcDbCircle
 10
130.4936525553
 20
82.351107832
 30
0.0
 40
0.0499999999999972
100
AcDbArc
 50
180.0
 51
270.0
  0
LINE
  5
B0
330
1F
100
AcDbEntity
  8
0
  6
Continuous
 62
     7
370
    15
100
AcDbLine
 10
130.4436525553
 20
82.4037519146
 30
0.0
 11
130.4436525553
 21
82.351107832
 31
0.0
  0
LINE
  5
B1
330
1F
100
AcDbEntity
  8
0
  6
Continuous
 62
     7
370
    15
100
AcDbLine
 10
133.9837678169
 20
82.7054120354
 30
0.0
 11
133.9837678169
 21
83.611107832
 31
0.0
  0
ARC
  5
B2
330
1F
100
AcDbEntity
  8
0
  6
Continuous
 62
     7
370
    15
100
AcDbCircle
 10
133.9337678169
 20
83.611107832
 30
0.0
 40
0.0500000000000114
100
AcDbArc
 50
0.0
 51
90.0
  0
SPLINE
  5
B3
330
1F
100
AcDbEntity
  8
0
  6
Continuous
 62
     7
370
    15
100
AcDbSpline
210
0.0
220
0.0
230
1.0
 70
     8
 71
     3
 72
    13
 73
     9
 74
     0
 42
0.00000001
 43
0.00000001
 12
1.0
 22
0.0
 32
0.0
 13
1.0
 23
0.0
 33
0.0
 40
0.0
 40
0.0
 40
0.0
 40
0.0
 40
0.1537005146054285
 40
0.467783765126318
 40
0.6522647620226875
 40
0.8142558356539026
 40
0.9817880838827409
 40
1.0
 40
1.0
 40
1.0
 40
1.0
 10
133.0512419036524
 20
82.54063064455744
 30
0.0
 10
133.0526576471777
 20
82.54070343258445
 30
0.0
 10
133.0569664280455
 20
82.54092496116826
 30
0.0
 10
133.0650839536835
 20
82.53647153543088
 30
0.0
 10
133.0747046375421
 20
82.5240440467036
 30
0.0
 10
133.0802269438501
 20
82.5097500200138
 30
0.0
 10
133.0824610559613
 20
82.49800775745678
 30
0.0
 10
133.0820852861154
 20
82.49177886767573
 30
0.0
 10
133.0820484424873
 20
82.49116813506622
 30
0.0
  0
LINE
  5
B4
330
1F
100
AcDbEntity
  8
0
  6
Continuous
 62
     7
370
    15
100
AcDbLine
 10
133.0821761344
 20
82.491107832
 30
0.0
 11
133.0821761344
 21
81.471107832
 31
0.0
  0
ARC
  5
B5
330
1F
100
AcDbEntity
  8
0
  6
Continuous
 62
     7
370
    15
100
AcDbCircle
 10
133.1321761344
 20
81.471107832
 30
0.0
 40
0.0499999999999972
100
AcDbArc
 50
180.0
 51
270.0
  0
ARC
  5
B6
330
1F
100
AcDbEntity
  8
0
  6
Continuous
 62
     7
370
    15
100
AcDbCircle
 10
134.0197403773
 20
81.471107832
 30
0.0
 40
0.0500000000000114
100
AcDbArc
 50
270.0
 51
0.0
  0
LINE
  5
B7
330
1F
100
AcDbEntity
  8
0
  6
Continuous
 62
     7
370
    15
100
AcDbLine
 10
134.0697403773
 20
81.471107832
 30
0.0
 11
134.0697403773
 21
82.491107832
 31
0.0
  0
ARC
  5
B8
330
1F
100
AcDbEntity
  8
0
  6
Continuous
 62
     7
370
    15
100
AcDbCircle
 10
133.8736525553
 20
82.731107832
 30
0.0
 40
0.050000000000021
100
AcDbArc
 50
31.0756875733
 51
90.0
  0
LINE
  5
B9
330
1F
100
AcDbEntity
  8
0
  6
Continuous
 62
     7
370
    15
100
AcDbLine
 10
130.2975647333
 20
82.491107832
 30
0.0
 11
130.2975647333
 21
81.471107832
 31
0.0
  0
ARC
  5
BA
330
1F
100
AcDbEntity
  8
0
  6
Continuous
 62
     7
370
    15
100
AcDbCircle
 10
130.3475647333
 20
81.471107832
 30
0.0
 40
0.0500000000000114
100
AcDbArc
 50
180.0
 51
270.0
  0
LINE
  5
BB
330
1F
100
AcDbEntity
  8
0
  6
Continuous
 62
     7
370
    15
100
AcDbLine
 10
131.1836525553
 20
83.821107832
 30
0.0
 11
131.1530970601
 21
83.8034666086
 31
0.0
  0
LINE
  5
BC
330
1F
100
AcDbEntity
  8
0
  6
Continuous
 62
     7
370
    15
100
AcDbLine
 10
133.2142080505
 20
83.8034666086
 30
0.0
 11
133.1836525553
 21
83.821107832
 31
0.0
  0
LINE
  5
BD
330
1F
100
AcDbEntity
  8
0
  6
Continuous
 62
     7
370
    15
100
AcDbLine
 10
133.1836525553
 20
82.781107832
 30
0.0
 11
133.2142080505
 21
82.7987490554
 31
0.0
  0
LINE
  5
BE
330
1F
100
AcDbEntity
  8
0
  6
Continuous
 62
     7
370
    15
100
AcDbLine
 10
133.1836525553
 20
83.871107832
 30
0.0
 11
133.2516725925
 21
83.9103792188
 31
0.0
  0
LINE
  5
BF
330
1F
100
AcDbEntity
  8
0
  6
Continuous
 62
     7
370
    15
100
AcDbLine
 10
131.1156325181
 20
83.9103792188
 30
0.0
 11
131.1836525553
 21
83.871107832
 31
0.0
  0
LINE
  5
C0
330
1F
100
AcDbEntity
  8
0
  6
Continuous
 62
     7
370
    15
100
AcDbLine
 10
131.5836525553
 20
83.871107832
 30
0.0
 11
131.5836525553
 21
83.821107832
 31
0.0
  0
LINE
  5
C1
330
1F
100
AcDbEntity
  8
0
  6
Continuous
 62
     7
370
    15
100
AcDbLine
 10
132.7836525553
 20
83.821107832
 30
0.0
 11
132.7836525553
 21
83.871107832
 31
0.0
  0
LINE
  5
C2
330
1F
100
AcDbEntity
  8
0
  6
Continuous
 62
     7
370
    15
100
AcDbLine
 10
267.3036525553
 20
51.661107832
 30
0.0
 11
267.3036525553
 21
52.461107832
 31
0.0
  0
LINE
  5
C3
330
1F
100
AcDbEntity
  8
0
  6
Continuous
 62
     7
370
    15
100
AcDbLine
 10
255.9036525553
 20
52.461107832
 30
0.0
 11
255.9036525553
 21
51.661107832
 31
0.0
  0
ARC
  5
C4
330
1F
100
AcDbEntity
  8
0
  6
Continuous
 62
     7
370
    15
100
AcDbCircle
 10
266.9036525553
 20
51.661107832
 30
0.0
 40
0.4000000000000341
100
AcDbArc
 50
270.0
 51
0.0
  0
ARC
  5
C5
330
1F
100
AcDbEntity
  8
0
  6
Continuous
 62
     7
370
    15
100
AcDbCircle
 10
256.3036525553
 20
51.661107832
 30
0.0
 40
0.4000000000000341
100
AcDbArc
 50
180.0
 51
270.0
  0
LINE
  5
C6
330
1F
100
AcDbEntity
  8
0
  6
Continuous
 62
     7
370
    15
100
AcDbLine
 10
151.5036525553
 20
51.661107832
 30
0.0
 11
151.5036525553
 21
52.461107832
 31
0.0
  0
LINE
  5
C7
330
1F
100
AcDbEntity
  8
0
  6
Continuous
 62
     7
370
    15
100
AcDbLine
 10
140.1036525553
 20
52.461107832
 30
0.0
 11
140.1036525553
 21
51.661107832
 31
0.0
  0
ARC
  5
C8
330
1F
100
AcDbEntity
  8
0
  6
Continuous
 62
     7
370
    15
100
AcDbCircle
 10
151.1036525553
 20
51.661107832
 30
0.0
 40
0.3999999999999986
100
AcDbArc
 50
270.0
 51
0.0
  0
ARC
  5
C9
330
1F
100
AcDbEntity
  8
0
  6
Continuous
 62
     7
370
    15
100
AcDbCircle
 10
140.5036525553
 20
51.661107832
 30
0.0
 40
0.4000000000000057
100
AcDbArc
 50
180.0
 51
270.0
  0
LINE
  5
CA
330
1F
100
AcDbEntity
  8
0
  6
Continuous
 62
     7
370
    15
100
AcDbLine
 10
267.2636525553
 20
52.461107832
 30
0.0
 11
267.2636525553
 21
66.061107832
 31
0.0
  0
LINE
  5
CB
330
1F
100
AcDbEntity
  8
0
  6
Continuous
 62
     7
370
    15
100
AcDbLine
 10
255.9436525553
 20
66.061107832
 30
0.0
 11
255.9436525553
 21
52.461107832
 31
0.0
  0
LINE
  5
CC
330
1F
100
AcDbEntity
  8
0
  6
Continuous
 62
     7
370
    15
100
AcDbLine
 10
151.4636525553
 20
52.461107832
 30
0.0
 11
151.4636525553
 21
66.061107832
 31
0.0
  0
LINE
  5
CD
330
1F
100
AcDbEntity
  8
0
  6
Continuous
 62
     7
370
    15
100
AcDbLine
 10
140.1436525553
 20
66.061107832
 30
0.0
 11
140.1436525553
 21
52.461107832
 31
0.0
  0
ARC
  5
CE
330
1F
100
AcDbEntity
  8
0
  6
Continuous
 62
     7
370
    15
100
AcDbCircle
 10
268.2836525553
 20
84.561107832
 30
0.0
 40
0.3000000000000114
100
AcDbArc
 50
90.0
 51
180.0
  0
ARC
  5
CF
330
1F
100
AcDbEntity
  8
0
  6
Continuous
 62
     7
370
    15
100
AcDbCircle
 10
254.9236525553
 20
84.561107832
 30
0.0
 40
0.2999999999999972
100
AcDbArc
 50
0.0
 51
90.0
  0
ARC
  5
D0
330
1F
100
AcDbEntity
  8
0
  6
Continuous
 62
     7
370
    15
100
AcDbCircle
 10
267.0436525553
 20
67.2676210211
 30
0.0
 40
0.9400000000000025
100
AcDbArc
 50
350.5402980318
 51
0.0
  0
ARC
  5
D1
330
1F
100
AcDbEntity
  8
0
  6
Continuous
 62
     7
370
    15
100
AcDbCircle
 10
256.1636525553
 20
67.2676210211
 30
0.0
 40
0.9399999999999977
100
AcDbArc
 50
180.0
 51
189.4597019682
  0
LINE
  5
D2
330
1F
100
AcDbEntity
  8
0
  6
Continuous
 62
     7
370
    15
100
AcDbLine
 10
267.9836525553
 20
67.2676210211
 30
0.0
 11
267.9836525553
 21
84.561107832
 31
0.0
  0
LINE
  5
D3
330
1F
100
AcDbEntity
  8
0
  6
Continuous
 62
     7
370
    15
100
AcDbLine
 10
255.2236525553
 20
84.561107832
 30
0.0
 11
255.2236525553
 21
67.2676210211
 31
0.0
  0
LINE
  5
D4
330
1F
100
AcDbEntity
  8
0
  6
Continuous
 62
     7
370
    15
100
AcDbLine
 10
255.2364352007
 20
67.1131283763
 30
0.0
 11
255.4117225112
 21
66.061107832
 31
0.0
  0
LINE
  5
D5
330
1F
100
AcDbEntity
  8
0
  6
Continuous
 62
     7
370
    15
100
AcDbLine
 10
267.7955825994
 20
66.061107832
 30
0.0
 11
267.9708699099
 21
67.1131283763
 31
0.0
  0
ARC
  5
D6
330
1F
100
AcDbEntity
  8
0
  6
Continuous
 62
     7
370
    15
100
AcDbCircle
 10
152.4836525553
 20
84.561107832
 30
0.0
 40
0.2999999999999972
100
AcDbArc
 50
90.0
 51
180.0
  0
ARC
  5
D7
330
1F
100
AcDbEntity
  8
0
  6
Continuous
 62
     7
370
    15
100
AcDbCircle
 10
139.1236525553
 20
84.561107832
 30
0.0
 40
0.3000000000000398
100
AcDbArc
 50
0.0
 51
90.0
  0
LINE
  5
D8
330
1F
100
AcDbEntity
  8
0
  6
Continuous
 62
     7
370
    15
100
AcDbLine
 10
152.1836525553
 20
67.2676210211
 30
0.0
 11
152.1836525553
 21
84.561107832
 31
0.0
  0
LINE
  5
D9
330
1F
100
AcDbEntity
  8
0
  6
Continuous
 62
     7
370
    15
100
AcDbLine
 10
139.4236525553
 20
84.561107832
 30
0.0
 11
139.4236525553
 21
67.2676210211
 31
0.0
  0
ARC
  5
DA
330
1F
100
AcDbEntity
  8
0
  6
Continuous
 62
     7
370
    15
100
AcDbCircle
 10
151.2436525553
 20
67.2676210211
 30
0.0
 40
0.9399999999999977
100
AcDbArc
 50
350.5402980318
 51
0.0
  0
ARC
  5
DB
330
1F
100
AcDbEntity
  8
0
  6
Continuous
 62
     7
370
    15
100
AcDbCircle
 10
140.3636525553
 20
67.2676210211
 30
0.0
 40
0.9400000000000025
100
AcDbArc
 50
180.0
 51
189.4597019682
  0
LINE
  5
DC
330
1F
100
AcDbEntity
  8
0
  6
Continuous
 62
     7
370
    15
100
AcDbLine
 10
139.4364352007
 20
67.1131283763
 30
0.0
 11
139.6117225112
 21
66.061107832
 31
0.0
  0
LINE
  5
DD
330
1F
100
AcDbEntity
  8
0
  6
Continuous
 62
     7
370
    15
100
AcDbLine
 10
151.9955825994
 20
66.061107832
 30
0.0
 11
152.1708699099
 21
67.1131283763
 31
0.0
  0
LINE
  5
DE
330
1F
100
AcDbEntity
  8
0
  6
Continuous
 62
     7
370
    15
100
AcDbLine
 10
210.7754310934
 20
226.453107832
 30
0.0
 11
211.6154310934
 21
226.453107832
 31
0.0
  0
LINE
  5
DF
330
1F
100
AcDbEntity
  8
0
  6
Continuous
 62
     7
370
    15
100
AcDbLine
 10
211.6074482812
 20
226.3716103657
 30
0.0
 11
210.7837557461
 21
226.3699008104
 31
0.0
  0
LINE
  5
E0
330
1F
100
AcDbEntity
  8
0
  6
Continuous
 62
     7
370
    15
100
AcDbLine
 10
290.7989751731
 20
180.8648609861
 30
0.0
 11
290.7989751731
 21
180.8248609861
 31
0.0
  0
LINE
  5
E1
330
1F
100
AcDbEntity
  8
0
  6
Continuous
 62
     7
370
    15
100
AcDbLine
 10
279.9989751731
 20
180.8648609861
 30
0.0
 11
279.9989751731
 21
180.8248609861
 31
0.0
  0
LINE
  5
E2
330
1F
100
AcDbEntity
  8
0
  6
Continuous
 62
     7
370
    15
100
AcDbLine
 10
279.1036525553
 20
180.8248609861
 30
0.0
 11
291.3989751731
 21
180.8248609861
 31
0.0
  0
LINE
  5
E3
330
1F
100
AcDbEntity
  8
0
  6
Continuous
 62
     7
370
    15
100
AcDbLine
 10
291.3989751731
 20
180.8248609861
 30
0.0
 11
291.3989751731
 21
180.8098609861
 31
0.0
  0
LINE
  5
E4
330
1F
100
AcDbEntity
  8
0
  6
Continuous
 62
     7
370
    15
100
AcDbLine
 10
279.1036525553
 20
180.8098609861
 30
0.0
 11
291.3989751731
 21
180.8098609861
 31
0.0
  0
LINE
  5
E5
330
1F
100
AcDbEntity
  8
0
  6
Continuous
 62
     7
370
    15
100
AcDbLine
 10
294.0734972001
 20
201.736666518
 30
0.0
 11
295.1976617763
 21
199.3258878045
 31
0.0
  0
LINE
  5
E6
330
1F
100
AcDbEntity
  8
0
  6
Continuous
 62
     7
370
    15
100
AcDbLine
 10
289.8473145827
 20
210.7997443883
 30
0.0
 11
290.9714791589
 21
208.3889656748
 31
0.0
  0
LINE
  5
E7
330
1F
100
AcDbEntity
  8
0
  6
Continuous
 62
     7
370
    15
100
AcDbLine
 10
295.7111538602
 20
196.7150638669
 30
0.0
 11
295.7093412447
 21
196.7142186303
 31
0.0
  0
LINE
  5
E8
330
1F
100
AcDbEntity
  8
0
  6
Continuous
 62
     7
370
    15
100
AcDbLine
 10
295.7111538602
 20
196.7150638669
 30
0.0
 11
296.1126412089
 21
195.8540714692
 31
0.0
  0
LINE
  5
E9
330
1F
100
AcDbEntity
  8
0
  6
Continuous
 62
     7
370
    15
100
AcDbLine
 10
296.1126412089
 20
195.8540714692
 30
0.0
 11
296.1108285933
 21
195.8532262326
 31
0.0
  0
LINE
  5
EA
330
1F
100
AcDbEntity
  8
0
  6
Continuous
 62
     7
370
    15
100
AcDbLine
 10
294.7438576309
 20
198.7847049216
 30
0.0
 11
294.9154836384
 21
198.4166517609
 31
0.0
  0
LINE
  5
EB
330
1F
100
AcDbEntity
  8
0
  6
Continuous
 62
     7
370
    15
100
AcDbLine
 10
294.917296254
 20
198.4174969974
 30
0.0
 11
294.9154836384
 21
198.4166517609
 31
0.0
  0
LINE
  5
EC
330
1F
100
AcDbEntity
  8
0
  6
Continuous
 62
     7
370
    15
100
AcDbLine
 10
294.917296254
 20
198.4174969974
 30
0.0
 11
295.5149687314
 21
197.1357842333
 31
0.0
  0
LINE
  5
ED
330
1F
100
AcDbEntity
  8
0
  6
Continuous
 62
     7
370
    15
100
AcDbLine
 10
295.5131561158
 20
197.1349389968
 30
0.0
 11
296.1108285933
 21
195.8532262326
 31
0.0
  0
LINE
  5
EE
330
1F
100
AcDbEntity
  8
0
  6
Continuous
 62
     7
370
    15
100
AcDbLine
 10
296.1126412089
 20
195.8540714692
 30
0.0
 11
296.7103136863
 21
194.5723587051
 31
0.0
  0
LINE
  5
EF
330
1F
100
AcDbEntity
  8
0
  6
Continuous
 62
     7
370
    15
100
AcDbLine
 10
296.7103136863
 20
194.5723587051
 30
0.0
 11
296.7085010708
 21
194.5715134685
 31
0.0
  0
LINE
  5
F0
330
1F
100
AcDbEntity
  8
0
  6
Continuous
 62
     7
370
    15
100
AcDbLine
 10
295.5149687314
 20
197.1357842333
 30
0.0
 11
295.5131561158
 21
197.1349389968
 31
0.0
  0
LINE
  5
F1
330
1F
100
AcDbEntity
  8
0
  6
Continuous
 62
     7
370
    15
100
AcDbLine
 10
296.7085010708
 20
194.5715134685
 30
0.0
 11
296.941472592
 21
194.071904429
 31
0.0
  0
LINE
  5
F2
330
1F
100
AcDbEntity
  8
0
  6
Continuous
 62
     7
370
    15
100
AcDbLine
 10
297.1105198967
 20
193.7093813142
 30
0.0
 11
297.0561414295
 21
193.6840242185
 31
0.0
  0
LINE
  5
F3
330
1F
100
AcDbEntity
  8
0
  6
Continuous
 62
     7
370
    15
100
AcDbLine
 10
296.941472592
 20
194.071904429
 30
0.0
 11
297.1105198967
 21
193.7093813142
 31
0.0
  0
LINE
  5
F4
330
1F
100
AcDbEntity
  8
0
  6
Continuous
 62
     7
370
    15
100
AcDbLine
 10
294.5766229418
 20
199.1480732729
 30
0.0
 11
294.5748103262
 21
199.1472280364
 31
0.0
  0
LINE
  5
F5
330
1F
100
AcDbEntity
  8
0
  6
Continuous
 62
     7
370
    15
100
AcDbLine
 10
294.5766229418
 20
199.1480732729
 30
0.0
 11
294.917296254
 21
198.4174969974
 31
0.0
  0
LINE
  5
F6
330
1F
100
AcDbEntity
  8
0
  6
Continuous
 62
     7
370
    15
100
AcDbLine
 10
294.5748103262
 20
199.1472280364
 30
0.0
 11
294.520431859
 21
199.1218709407
 31
0.0
  0
LINE
  5
F7
330
1F
100
AcDbEntity
  8
0
  6
Continuous
 62
     7
370
    15
100
AcDbLine
 10
294.5748103262
 20
199.1472280364
 30
0.0
 11
294.7438576309
 21
198.7847049216
 31
0.0
  0
LINE
  5
F8
330
1F
100
AcDbEntity
  8
0
  6
Continuous
 62
     7
370
    15
100
AcDbLine
 10
297.1123325123
 20
193.7102265507
 30
0.0
 11
297.1105198967
 21
193.7093813142
 31
0.0
  0
LINE
  5
F9
330
1F
100
AcDbEntity
  8
0
  6
Continuous
 62
     7
370
    15
100
AcDbLine
 10
296.7108451636
 20
194.5712189484
 30
0.0
 11
297.1123325123
 21
193.7102265507
 31
0.0
  0
LINE
  5
FA
330
1F
100
AcDbEntity
  8
0
  6
Continuous
 62
     7
370
    15
100
AcDbLine
 10
295.5149687314
 20
197.1357842333
 30
0.0
 11
295.7111538602
 21
196.7150638669
 31
0.0
  0
LINE
  5
FB
330
1F
100
AcDbEntity
  8
0
  6
Continuous
 62
     7
370
    15
100
AcDbLine
 10
296.7108451636
 20
194.5712189484
 30
0.0
 11
296.709032548
 21
194.5703737119
 31
0.0
  0
LINE
  5
FC
330
1F
100
AcDbEntity
  8
0
  6
Continuous
 62
     7
370
    15
100
AcDbLine
 10
296.7103136863
 20
194.5723587051
 30
0.0
 11
296.7108451636
 21
194.5712189484
 31
0.0
  0
LINE
  5
FD
330
1F
100
AcDbEntity
  8
0
  6
Continuous
 62
     7
370
    15
100
AcDbLine
 10
286.3506892254
 20
217.233490953
 30
0.0
 11
288.8792879512
 21
218.4125959033
 31
0.0
  0
LINE
  5
FE
330
1F
100
AcDbEntity
  8
0
  6
Continuous
 62
     7
370
    15
100
AcDbLine
 10
286.4183081473
 20
217.0884817071
 30
0.0
 11
288.9469068731
 21
218.2675866574
 31
0.0
  0
ARC
  5
FF
330
1F
100
AcDbEntity
  8
0
  6
Continuous
 62
     7
370
    15
100
AcDbCircle
 10
295.5211348712
 20
191.8648609861
 30
0.0
 40
2.160000000000034
100
AcDbArc
 50
335.0
 51
25.0
  0
ARC
  5
100
330
1F
100
AcDbEntity
  8
0
  6
Continuous
 62
     7
370
    15
100
AcDbCircle
 10
295.5211348712
 20
191.8648609861
 30
0.0
 40
2.000000000000051
100
AcDbArc
 50
335.0
 51
25.0
  0
LINE
  5
101
330
1F
100
AcDbEntity
  8
0
  6
Continuous
 62
     7
370
    15
100
AcDbLine
 10
297.4787596912
 20
192.7777164315
 30
0.0
 11
286.297385766
 21
216.7562501949
 31
0.0
  0
LINE
  5
102
330
1F
100
AcDbEntity
  8
0
  6
Continuous
 62
     7
370
    15
100
AcDbLine
 10
297.3337504453
 20
192.7100975096
 30
0.0
 11
286.15237652
 21
216.688631273
 31
0.0
  0
ARC
  5
103
330
1F
100
AcDbEntity
  8
0
  6
Continuous
 62
     7
370
    15
100
AcDbCircle
 10
291.3989751731
 20
183.0248609861
 30
0.0
 40
2.16000000000001
100
AcDbArc
 50
270.0
 51
335.0
  0
ARC
  5
104
330
1F
100
AcDbEntity
  8
0
  6
Continuous
 62
     7
370
    15
100
AcDbCircle
 10
291.3989751731
 20
183.0248609861
 30
0.0
 40
2.000000000000015
100
AcDbArc
 50
270.0
 51
335.0
  0
LINE
  5
105
330
1F
100
AcDbEntity
  8
0
  6
Continuous
 62
     7
370
    15
100
AcDbLine
 10
279.2731156947
 20
180.8648609861
 30
0.0
 11
279.2731156947
 21
181.0248609861
 31
0.0
  0
LINE
  5
106
330
1F
100
AcDbEntity
  8
0
  6
Continuous
 62
     7
370
    15
100
AcDbLine
 10
279.2731156947
 20
181.0248609861
 30
0.0
 11
279.6731156947
 21
181.0248609861
 31
0.0
  0
LINE
  5
107
330
1F
100
AcDbEntity
  8
0
  6
Continuous
 62
     7
370
    15
100
AcDbLine
 10
279.6731156947
 20
180.8648609861
 30
0.0
 11
279.2731156947
 21
180.8648609861
 31
0.0
  0
LINE
  5
108
330
1F
100
AcDbEntity
  8
0
  6
Continuous
 62
     7
370
    15
100
AcDbLine
 10
288.8792879512
 20
218.4125959033
 30
0.0
 11
289.2418110661
 21
218.581643208
 31
0.0
  0
LINE
  5
109
330
1F
100
AcDbEntity
  8
0
  6
Continuous
 62
     7
370
    15
100
AcDbLine
 10
289.2418110661
 20
218.581643208
 30
0.0
 11
289.3094299879
 21
218.4366339621
 31
0.0
  0
LINE
  5
10A
330
1F
100
AcDbEntity
  8
0
  6
Continuous
 62
     7
370
    15
100
AcDbLine
 10
289.3094299879
 20
218.4366339621
 30
0.0
 11
288.9469068731
 21
218.2675866574
 31
0.0
  0
LINE
  5
10B
330
1F
100
AcDbEntity
  8
0
  6
Continuous
 62
     7
370
    15
100
AcDbLine
 10
279.6731156947
 20
181.0248609861
 30
0.0
 11
291.3989751731
 21
181.0248609861
 31
0.0
  0
LINE
  5
10C
330
1F
100
AcDbEntity
  8
0
  6
Continuous
 62
     7
370
    15
100
AcDbLine
 10
279.6731156947
 20
180.8648609861
 30
0.0
 11
291.3989751731
 21
180.8648609861
 31
0.0
  0
LINE
  5
10D
330
1F
100
AcDbEntity
  8
0
  6
Continuous
 62
     7
370
    15
100
AcDbLine
 10
293.3565999931
 20
182.1120055407
 30
0.0
 11
297.4787596912
 21
190.9520055407
 31
0.0
  0
LINE
  5
10E
330
1F
100
AcDbEntity
  8
0
  6
Continuous
 62
     7
370
    15
100
AcDbLine
 10
293.2115907472
 20
182.1796244626
 30
0.0
 11
297.3337504453
 21
191.0196244626
 31
0.0
  0
ARC
  5
10F
330
1F
100
AcDbEntity
  8
0
  6
Continuous
 62
     7
370
    15
100
AcDbCircle
 10
286.5239627127
 20
216.8619047603
 30
0.0
 40
0.2500000000000154
100
AcDbArc
 50
115.0
 51
205.0
  0
ARC
  5
110
330
1F
100
AcDbEntity
  8
0
  6
Continuous
 62
     7
370
    15
100
AcDbCircle
 10
286.5239627127
 20
216.8619047603
 30
0.0
 40
0.4100000000000364
100
AcDbArc
 50
115.0
 51
205.0
  0
ARC
  5
111
330
1F
100
AcDbEntity
  8
0
  6
Continuous
 62
     7
370
    15
100
AcDbCircle
 10
288.821142537
 20
218.716495627
 30
0.0
 40
0.3000000000000477
100
AcDbArc
 50
295.0
 51
307.6222980309
  0
LINE
  5
112
330
1F
100
AcDbEntity
  8
0
  6
Continuous
 62
     7
370
    15
100
AcDbLine
 10
289.2691305236
 20
218.6023824802
 30
0.0
 11
289.2534011426
 21
218.5591663611
 31
0.0
  0
LINE
  5
113
330
1F
100
AcDbEntity
  8
0
  6
Continuous
 62
     7
370
    15
100
AcDbLine
 10
293.3288505259
 20
210.6687914491
 30
0.0
 11
292.9231182569
 21
211.5388871077
 31
0.0
  0
LINE
  5
114
330
1F
100
AcDbEntity
  8
0
  6
Continuous
 62
     7
370
    15
100
AcDbLine
 10
297.7409664408
 20
201.2069783355
 30
0.0
 11
297.3352341719
 21
202.0770739941
 31
0.0
  0
LINE
  5
115
330
1F
100
AcDbEntity
  8
0
  6
Continuous
 62
     7
370
    15
100
AcDbLine
 10
292.0339598692
 20
210.8730057144
 30
0.0
 11
291.8242530994
 21
210.8510239225
 31
0.0
  0
SPLINE
  5
116
330
1F
100
AcDbEntity
  8
0
  6
Continuous
 62
     7
370
    15
100
AcDbSpline
210
0.0
220
0.0
230
1.0
 70
     8
 71
     3
 72
    10
 73
     6
 74
     0
 42
0.00000001
 43
0.00000001
 12
1.0
 22
0.0
 32
0.0
 13
1.0
 23
0.0
 33
0.0
 40
0.0
 40
0.0
 40
0.0
 40
0.0
 40
0.4562161980758598
 40
0.9122570840621247
 40
1.0
 40
1.0
 40
1.0
 40
1.0
 10
291.6765303103455
 20
210.8162662974148
 30
0.0
 10
291.6732283487516
 20
210.8234058488877
 30
0.0
 10
291.6666256944226
 20
210.8376822082887
 30
0.0
 10
291.6614562340284
 20
210.8534191314878
 30
0.0
 10
291.6628962655082
 20
210.8618361576087
 30
0.0
 10
291.66312862359
 20
210.8631942973928
 30
0.0
  0
LINE
  5
117
330
1F
100
AcDbEntity
  8
0
  6
Continuous
 62
     7
370
    15
100
AcDbLine
 10
291.7919603024
 20
210.5757625823
 30
0.0
 11
291.6765303103
 21
210.8162662974
 31
0.0
  0
SPLINE
  5
118
330
1F
100
AcDbEntity
  8
0
  6
Continuous
 62
     7
370
    15
100
AcDbSpline
210
0.0
220
0.0
230
1.0
 70
     8
 71
     3
 72
    13
 73
     9
 74
     0
 42
0.00000001
 43
0.00000001
 12
1.0
 22
0.0
 32
0.0
 13
1.0
 23
0.0
 33
0.0
 40
0.0
 40
0.0
 40
0.0
 40
0.0
 40
0.2502198136933698
 40
0.3752570654256099
 40
0.499916148737884
 40
0.6245567341583862
 40
0.7497048040157995
 40
1.0
 40
1.0
 40
1.0
 40
1.0
 10
292.0774884344348
 20
210.4780389331483
 30
0.0
 10
292.0444164834736
 20
210.4751936890103
 30
0.0
 10
291.9948181599738
 20
210.4709266489631
 30
0.0
 10
291.9278263448123
 20
210.4748117802165
 30
0.0
 10
291.8798308676849
 20
210.4848636844298
 30
0.0
 10
291.8449851478324
 20
210.504632099318
 30
0.0
 10
291.8127276845395
 20
210.5350143321008
 30
0.0
 10
291.800267248993
 20
210.5594632944847
 30
0.0
 10
291.7919603024022
 20
210.5757625822554
 30
0.0
  0
LINE
  5
119
330
1F
100
AcDbEntity
  8
0
  6
Continuous
 62
     7
370
    15
100
AcDbLine
 10
292.5883713587
 20
210.5315091895
 30
0.0
 11
292.0774884344
 21
210.4780389331
 31
0.0
  0
SPLINE
  5
11A
330
1F
100
AcDbEntity
  8
0
  6
Continuous
 62
     7
370
    15
100
AcDbSpline
210
0.0
220
0.0
230
1.0
 70
     8
 71
     3
 72
    12
 73
     8
 74
     0
 42
0.00000001
 43
0.00000001
 12
1.0
 22
0.0
 32
0.0
 13
1.0
 23
0.0
 33
0.0
 40
0.0
 40
0.0
 40
0.0
 40
0.0
 40
0.1669308933445565
 40
0.3331906553776671
 40
0.4994050497764695
 40
0.6662498299194567
 40
1.0
 40
1.0
 40
1.0
 40
1.0
 10
292.7834348051075
 20
210.6284963394983
 30
0.0
 10
292.7829600578767
 20
210.6198842341287
 30
0.0
 10
292.7820124720958
 20
210.602694647619
 30
0.0
 10
292.7647866749401
 20
210.5775231785148
 30
0.0
 10
292.7289332186338
 20
210.5585692067505
 30
0.0
 10
292.6700548639455
 20
210.5417126671843
 30
0.0
 10
292.6210459475437
 20
210.5355907288127
 30
0.0
 10
292.5883713586825
 20
210.5315091894927
 30
0.0
  0
LINE
  5
11B
330
1F
100
AcDbEntity
  8
0
  6
Continuous
 62
     7
370
    15
100
AcDbLine
 10
292.2436666972
 20
210.8949835654
 30
0.0
 11
292.2381353636
 21
210.9832868951
 31
0.0
  0
LINE
  5
11C
330
1F
100
AcDbEntity
  8
0
  6
Continuous
 62
     7
370
    15
100
AcDbLine
 10
292.4883239181
 20
210.9206382881
 30
0.0
 11
292.2436666972
 21
210.8949835654
 31
0.0
  0
LINE
  5
11D
330
1F
100
AcDbEntity
  8
0
  6
Continuous
 62
     7
370
    15
100
AcDbLine
 10
292.6195913651
 20
210.6480095204
 30
0.0
 11
292.4883239181
 21
210.9206382881
 31
0.0
  0
SPLINE
  5
11E
330
1F
100
AcDbEntity
  8
0
  6
Continuous
 62
     7
370
    15
100
AcDbSpline
210
0.0
220
0.0
230
1.0
 70
     8
 71
     3
 72
    17
 73
    13
 74
     0
 42
0.00000001
 43
0.00000001
 12
1.0
 22
0.0
 32
0.0
 13
1.0
 23
0.0
 33
0.0
 40
0.0
 40
0.0
 40
0.0
 40
0.0
 40
0.1239489222954508
 40
0.2494652926613216
 40
0.3120385011634533
 40
0.3745373948460421
 40
0.499828917267458
 40
0.6248446851546449
 40
0.749773078856624
 40
0.8749687260504239
 40
0.9373854777536729
 40
1.0
 40
1.0
 40
1.0
 40
1.0
 10
292.0924834255646
 20
210.2717127506939
 30
0.0
 10
292.0890972900872
 20
210.2842498013737
 30
0.0
 10
292.0822821983363
 20
210.3094824452648
 30
0.0
 10
292.0493151177297
 20
210.3363040076867
 30
0.0
 10
292.0148966280665
 20
210.3525771641331
 30
0.0
 10
291.9750089098367
 20
210.3643412406018
 30
0.0
 10
291.9190242110384
 20
210.3704621450931
 30
0.0
 10
291.8522341296031
 20
210.3639450455903
 30
0.0
 10
291.7969317196007
 20
210.3429843589176
 30
0.0
 10
291.7664016733728
 20
210.3172556192672
 30
0.0
 10
291.7537118663485
 20
210.293655482876
 30
0.0
 10
291.7531669074022
 20
210.2812172900428
 30
0.0
 10
291.7528939969296
 20
210.2749883564549
 30
0.0
  0
SPLINE
  5
11F
330
1F
100
AcDbEntity
  8
0
  6
Continuous
 62
     7
370
    15
100
AcDbSpline
210
0.0
220
0.0
230
1.0
 70
     8
 71
     3
 72
    13
 73
     9
 74
     0
 42
0.00000001
 43
0.00000001
 12
1.0
 22
0.0
 32
0.0
 13
1.0
 23
0.0
 33
0.0
 40
0.0
 40
0.0
 40
0.0
 40
0.0
 40
0.1251014890283483
 40
0.2500353149215294
 40
0.3738121351167235
 40
0.4999506315192457
 40
0.7494708103748812
 40
0.9999999999999999
 40
0.9999999999999999
 40
0.9999999999999999
 40
0.9999999999999999
 10
296.9893758918076
 20
200.4184732027171
 30
0.0
 10
296.9896113805479
 20
200.4199199386157
 30
0.0
 10
296.9900820424225
 20
200.4228114714729
 30
0.0
 10
297.0009386472283
 20
200.4383308571445
 30
0.0
 10
297.0204307968756
 20
200.4626885022695
 30
0.0
 10
297.0555270783749
 20
200.5036969269733
 30
0.0
 10
297.107862440018
 20
200.5617365952293
 30
0.0
 10
297.1508919046187
 20
200.6077054773031
 30
0.0
 10
297.1724500498258
 20
200.6307362968577
 30
0.0
  0
SPLINE
  5
120
330
1F
100
AcDbEntity
  8
0
  6
Continuous
 62
     7
370
    15
100
AcDbSpline
210
0.0
220
0.0
230
1.0
 70
     8
 71
     3
 72
    13
 73
     9
 74
     0
 42
0.00000001
 43
0.00000001
 12
1.0
 22
0.0
 32
0.0
 13
1.0
 23
0.0
 33
0.0
 40
0.0
 40
0.0
 40
0.0
 40
0.0
 40
0.2505319910839833
 40
0.5001531823995035
 40
0.6313897146487502
 40
0.7500675692868064
 40
0.8748998966085959
 40
1.0
 40
1.0
 40
1.0
 40
1.0
 10
297.1724500498258
 20
200.6307362968577
 30
0.0
 10
297.1939734480543
 20
200.6535637577891
 30
0.0
 10
297.2369419969949
 20
200.6991356912636
 30
0.0
 10
297.2912131682382
 20
200.7545591925031
 30
0.0
 10
297.3291771150582
 20
200.791371701323
 30
0.0
 10
297.351896826231
 20
200.8119869836111
 30
0.0
 10
297.3650008456462
 20
200.8219482269627
 30
0.0
 10
297.3669088403144
 20
200.8215750848915
 30
0.0
 10
297.3678638597553
 20
200.8213883139647
 30
0.0
  0
LINE
  5
121
330
1F
100
AcDbEntity
  8
0
  6
Continuous
 62
     7
370
    15
100
AcDbLine
 10
297.0015723269
 20
200.4203901709
 30
0.0
 11
297.037558726
 21
200.4587224927
 31
0.0
  0
LINE
  5
122
330
1F
100
AcDbEntity
  8
0
  6
Continuous
 62
     7
370
    15
100
AcDbLine
 10
296.4714555071
 20
199.8561512101
 30
0.0
 11
296.4809520936
 21
199.8656213649
 31
0.0
  0
LWPOLYLINE
  5
123
330
1F
100
AcDbEntity
  8
0
  6
Continuous
 62
     7
370
    15
100
AcDbPolyline
 90
       12
 70
   128
 43
0.0
 10
296.8736303965
 20
200.2838348354
 10
296.8820403521
 20
200.2934418588
 10
296.8644641631
 20
200.2787705241
 10
296.817138903
 20
200.2340267297
 10
296.7481142789
 20
200.1653652067
 10
296.668645396
 20
200.0825738737
 10
296.5911161136
 20
199.9979727943
 10
296.5269745996
 20
199.9247562132
 10
296.4854015353
 20
199.8749187743
 10
296.4745261515
 20
199.8610494603
 10
296.4714555071
 20
199.8561512101
 10
296.4714555071
 20
199.8561512101
  0
LINE
  5
124
330
1F
100
AcDbEntity
  8
0
  6
Continuous
 62
     7
370
    15
100
AcDbLine
 10
296.2664454761
 20
199.6366955823
 30
0.0
 11
290.7724080735
 21
211.4186968138
 31
0.0
  0
LINE
  5
125
330
1F
100
AcDbEntity
  8
0
  6
Continuous
 62
     7
370
    15
100
AcDbLine
 10
293.483898944
 20
210.3362890433
 30
0.0
 11
297.1801857537
 21
202.4095763998
 31
0.0
  0
SPLINE
  5
126
330
1F
100
AcDbEntity
  8
0
  6
Continuous
 62
     7
370
    15
100
AcDbSpline
210
0.0
220
0.0
230
1.0
 70
    11
 71
     3
 72
    27
 73
    23
 74
     0
 42
0.00000001
 43
0.00000001
 12
1.0
 22
0.0
 32
0.0
 13
1.0
 23
0.0
 33
0.0
 40
0.0
 40
0.0
 40
0.0
 40
0.0
 40
0.0620932355616579
 40
0.1249696189819818
 40
0.1563172078370572
 40
0.1876169837967957
 40
0.2503672336004809
 40
0.3129762532972781
 40
0.3755438613104577
 40
0.4382514466865274
 40
0.4695214823978285
 40
0.5008832721871606
 40
0.5636229804219915
 40
0.6261777201642038
 40
0.6888281224764098
 40
0.7515515712169714
 40
0.7827659696996228
 40
0.814197372869941
 40
0.8770720850288016
 40
0.9390415535588543
 40
0.96951703445436
 40
1.0
 40
1.0
 40
1.0
 40
1.0
 10
292.0925375860767
 20
210.2733541735139
 30
0.0
 10
292.0891497793106
 20
210.2858948338203
 30
0.0
 10
292.0823314372332
 20
210.3111343228901
 30
0.0
 10
292.0493604752108
 20
210.3379651316459
 30
0.0
 10
292.0149385461521
 20
210.3542443630543
 30
0.0
 10
291.9750488836499
 20
210.3660126501209
 30
0.0
 10
291.9190684368917
 20
210.3721375495705
 30
0.0
 10
291.8522558744952
 20
210.3656212271879
 30
0.0
 10
291.797025133491
 20
210.3446533087441
 30
0.0
 10
291.7662779231066
 20
210.3189246274685
 30
0.0
 10
291.7540421199653
 20
210.2953053802659
 30
0.0
 10
291.7511184131548
 20
210.270456744011
 30
0.0
 10
291.7638294755455
 20
210.2389152785226
 30
0.0
 10
291.8023283007338
 20
210.2057223569641
 30
0.0
 10
291.8604642920748
 20
210.183601578513
 30
0.0
 10
291.9163342628643
 20
210.1762470399905
 30
0.0
 10
291.9606144712542
 20
210.1783228824149
 30
0.0
 10
292.002704700402
 20
210.1859717458268
 30
0.0
 10
292.0484269295177
 20
210.2043105689902
 30
0.0
 10
292.0793084945595
 20
210.2308278888541
 30
0.0
 10
292.0917729251693
 20
210.2548102627724
 30
0.0
 10
292.0922826782445
 20
210.2671723639822
 30
0.0
 10
292.0925375860767
 20
210.2733541735139
 30
0.0
  0
SPLINE
  5
127
330
1F
100
AcDbEntity
  8
0
  6
Continuous
 62
     7
370
    15
100
AcDbSpline
210
0.0
220
0.0
230
1.0
 70
    11
 71
     3
 72
    23
 73
    19
 74
     0
 42
0.00000001
 43
0.00000001
 12
1.0
 22
0.0
 32
0.0
 13
1.0
 23
0.0
 33
0.0
 40
0.0
 40
0.0
 40
0.0
 40
0.0
 40
0.0625080959578617
 40
0.125010327725934
 40
0.1875111248015757
 40
0.250012100690038
 40
0.3125112401520414
 40
0.3750126258380045
 40
0.4375139235786202
 40
0.500016606293857
 40
0.5625185378154357
 40
0.6250209080104536
 40
0.6875214705338273
 40
0.7500221103468625
 40
0.8125210226449532
 40
0.8750222422034294
 40
0.9375235636509932
 40
1.0
 40
1.0
 40
1.0
 40
1.0
 10
292.001636628525
 20
210.2744651922624
 30
0.0
 10
292.0002687262636
 20
210.2803519067626
 30
0.0
 10
291.9975330500704
 20
210.2921247835015
 30
0.0
 10
291.9788142431393
 20
210.3071329640644
 30
0.0
 10
291.9523798964399
 20
210.3172172101146
 30
0.0
 10
291.9211953474326
 20
210.3209581784158
 30
0.0
 10
291.8902896656402
 20
210.3177811247911
 30
0.0
 10
291.8642765381212
 20
210.3082313645173
 30
0.0
 10
291.8471803750816
 20
210.2936762975601
 30
0.0
 10
291.8415401334389
 20
210.2762900462791
 30
0.0
 10
291.8482627883884
 20
210.2586554678127
 30
0.0
 10
291.8662785153972
 20
210.24344678514
 30
0.0
 10
291.89288984961
 20
210.2330346902518
 30
0.0
 10
291.9240053074953
 20
210.2290566589099
 30
0.0
 10
291.9549781932549
 20
210.2321931109709
 30
0.0
 10
291.9807928450249
 20
210.2419605424536
 30
0.0
 10
291.9986146049974
 20
210.2568263036424
 30
0.0
 10
292.0006294210766
 20
210.2685863432606
 30
0.0
 10
292.001636628525
 20
210.2744651922624
 30
0.0
  0
SPLINE
  5
128
330
1F
100
AcDbEntity
  8
0
  6
Continuous
 62
     7
370
    15
100
AcDbSpline
210
0.0
220
0.0
230
1.0
 70
    11
 71
     3
 72
    23
 73
    19
 74
     0
 42
0.00000001
 43
0.00000001
 12
1.0
 22
0.0
 32
0.0
 13
1.0
 23
0.0
 33
0.0
 40
0.0
 40
0.0
 40
0.0
 40
0.0
 40
0.0625076862890592
 40
0.1250095818259511
 40
0.1875102903388846
 40
0.2500114364693242
 40
0.3125109278599704
 40
0.3750125754562461
 40
0.4375138772524905
 40
0.5000162884004303
 40
0.5625178045117118
 40
0.6250198246228996
 40
0.687520263771554
 40
0.7500210371291166
 40
0.812520342995248
 40
0.8750218612363408
 40
0.937523212070384
 40
1.0
 40
1.0
 40
1.0
 40
1.0
 10
292.0015841729402
 20
210.2728201132629
 30
0.0
 10
292.0002166809049
 20
210.2787059992867
 30
0.0
 10
291.9974818235195
 20
210.2904772260619
 30
0.0
 10
291.9787602970809
 20
210.3054815946141
 30
0.0
 10
291.9523252108456
 20
210.3155603130072
 30
0.0
 10
291.9211444401092
 20
210.319296903032
 30
0.0
 10
291.8902443302221
 20
210.3161194398256
 30
0.0
 10
291.8642332650819
 20
210.3065730346748
 30
0.0
 10
291.8471341914287
 20
210.2920222319393
 30
0.0
 10
291.8414900158224
 20
210.274638928725
 30
0.0
 10
291.8482121221644
 20
210.257006655892
 30
0.0
 10
291.8662302306489
 20
210.2418017701985
 30
0.0
 10
291.8928422757731
 20
210.2313952053023
 30
0.0
 10
291.9239539362681
 20
210.2274216688071
 30
0.0
 10
291.9549212757651
 20
210.2305585853213
 30
0.0
 10
291.9807338213675
 20
210.2403225609097
 30
0.0
 10
291.9985588568211
 20
210.2551839207057
 30
0.0
 10
292.0005758663733
 20
210.2669421527221
 30
0.0
 10
292.0015841729402
 20
210.2728201132629
 30
0.0
  0
LINE
  5
129
330
1F
100
AcDbEntity
  8
0
  6
Continuous
 62
     7
370
    15
100
AcDbLine
 10
291.8242265751
 20
210.8528383745
 30
0.0
 11
291.9555376266
 21
210.5797478225
 31
0.0
  0
LINE
  5
12A
330
1F
100
AcDbEntity
  8
0
  6
Continuous
 62
     7
370
    15
100
AcDbLine
 10
291.9555376266
 20
210.5797478225
 30
0.0
 11
292.6196033969
 21
210.649741052
 31
0.0
  0
LINE
  5
12B
330
1F
100
AcDbEntity
  8
0
  6
Continuous
 62
     7
370
    15
100
AcDbLine
 10
292.6196035021
 20
210.6497410631
 30
0.0
 11
292.4882963959
 21
210.9224548801
 31
0.0
  0
LINE
  5
12C
330
1F
100
AcDbEntity
  8
0
  6
Continuous
 62
     7
370
    15
100
AcDbLine
 10
292.4882963959
 20
210.9224548801
 30
0.0
 11
292.243639659
 21
210.8967993572
 31
0.0
  0
LINE
  5
12D
330
1F
100
AcDbEntity
  8
0
  6
Continuous
 62
     7
370
    15
100
AcDbLine
 10
292.2436395528
 20
210.8967993547
 30
0.0
 11
292.2380960239
 21
210.9851288299
 31
0.0
  0
LINE
  5
12E
330
1F
100
AcDbEntity
  8
0
  6
Continuous
 62
     7
370
    15
100
AcDbLine
 10
292.2380960239
 20
210.9851288299
 30
0.0
 11
292.364525068
 21
210.9982035709
 31
0.0
  0
SPLINE
  5
12F
330
1F
100
AcDbEntity
  8
0
  6
Continuous
 62
     7
370
    15
100
AcDbSpline
210
0.0
220
0.0
230
1.0
 70
     8
 71
     3
 72
    13
 73
     9
 74
     0
 42
0.00000001
 43
0.00000001
 12
1.0
 22
0.0
 32
0.0
 13
1.0
 23
0.0
 33
0.0
 40
0.0
 40
0.0
 40
0.0
 40
0.0
 40
0.2500538580897175
 40
0.3750733393458853
 40
0.4996111881013006
 40
0.6228119550558252
 40
0.7496074583604045
 40
1.0
 40
1.0
 40
1.0
 40
1.0
 10
292.3645250679658
 20
210.9982035708556
 30
0.0
 10
292.3987967959413
 20
211.0012213679057
 30
0.0
 10
292.4502033671301
 20
211.0057479735964
 30
0.0
 10
292.5194492699104
 20
211.0037198146068
 30
0.0
 10
292.5677691737736
 20
210.9960363607294
 30
0.0
 10
292.602058289192
 20
210.9805184991288
 30
0.0
 10
292.633889628126
 20
210.9559772100174
 30
0.0
 10
292.6466595261211
 20
210.9348028057176
 30
0.0
 10
292.6551366962179
 20
210.9207463874896
 30
0.0
  0
LINE
  5
130
330
1F
100
AcDbEntity
  8
0
  6
Continuous
 62
     7
370
    15
100
AcDbLine
 10
292.6551366962
 20
210.9207463875
 30
0.0
 11
292.7705962468
 21
210.6806121686
 31
0.0
  0
SPLINE
  5
131
330
1F
100
AcDbEntity
  8
0
  6
Continuous
 62
     7
370
    15
100
AcDbSpline
210
0.0
220
0.0
230
1.0
 70
     8
 71
     3
 72
    13
 73
     9
 74
     0
 42
0.00000001
 43
0.00000001
 12
1.0
 22
0.0
 32
0.0
 13
1.0
 23
0.0
 33
0.0
 40
0.0
 40
0.0
 40
0.0
 40
0.0
 40
0.2503019843271949
 40
0.3754723006907476
 40
0.5001307036535271
 40
0.624740241585475
 40
0.7498137154032654
 40
1.0
 40
1.0
 40
1.0
 40
1.0
 10
292.7705962468414
 20
210.6806121685529
 30
0.0
 10
292.7767072423859
 20
210.6639629465348
 30
0.0
 10
292.7858742074931
 20
210.6389878281286
 30
0.0
 10
292.7816682781772
 20
210.6043782791498
 30
0.0
 10
292.7649100841021
 20
210.5792382733412
 30
0.0
 10
292.7289354259456
 20
210.5602688993057
 30
0.0
 10
292.6700973837286
 20
210.5434123538994
 30
0.0
 10
292.621079392238
 20
210.5372895359206
 30
0.0
 10
292.5883990184584
 20
210.5332074433247
 30
0.0
  0
LINE
  5
132
330
1F
100
AcDbEntity
  8
0
  6
Continuous
 62
     7
370
    15
100
AcDbLine
 10
292.5883990185
 20
210.5332074433
 30
0.0
 11
292.0775151212
 21
210.4797392736
 31
0.0
  0
SPLINE
  5
133
330
1F
100
AcDbEntity
  8
0
  6
Continuous
 62
     7
370
    15
100
AcDbSpline
210
0.0
220
0.0
230
1.0
 70
     8
 71
     3
 72
    13
 73
     9
 74
     0
 42
0.00000001
 43
0.00000001
 12
1.0
 22
0.0
 32
0.0
 13
1.0
 23
0.0
 33
0.0
 40
0.0
 40
0.0
 40
0.0
 40
0.0
 40
0.2501825044648919
 40
0.3752048891294637
 40
0.4998578627370271
 40
0.6245063725873815
 40
0.7496694926848104
 40
1.0
 40
1.0
 40
1.0
 40
1.0
 10
292.0775151212056
 20
210.4797392735966
 30
0.0
 10
292.0444428247924
 20
210.4768943457261
 30
0.0
 10
291.9948434839611
 20
210.4726277370418
 30
0.0
 10
291.9278493444587
 20
210.4765163520788
 30
0.0
 10
291.8798510318343
 20
210.4865734764387
 30
0.0
 10
291.8450040769051
 20
210.5063482948034
 30
0.0
 10
291.8127425435118
 20
210.5367397801382
 30
0.0
 10
291.8002789123114
 20
210.5611957562547
 30
0.0
 10
291.7919697776322
 20
210.5774998329719
 30
0.0
  0
LINE
  5
134
330
1F
100
AcDbEntity
  8
0
  6
Continuous
 62
     7
370
    15
100
AcDbLine
 10
291.7919697776
 20
210.577499833
 30
0.0
 11
291.6765069157
 21
210.8180741201
 31
0.0
  0
SPLINE
  5
135
330
1F
100
AcDbEntity
  8
0
  6
Continuous
 62
     7
370
    15
100
AcDbSpline
210
0.0
220
0.0
230
1.0
 70
     8
 71
     3
 72
    13
 73
     9
 74
     0
 42
0.00000001
 43
0.00000001
 12
1.0
 22
0.0
 32
0.0
 13
1.0
 23
0.0
 33
0.0
 40
0.0
 40
0.0
 40
0.0
 40
0.0
 40
0.2503407739083032
 40
0.3872670275361672
 40
0.5003675824766699
 40
0.6249444354024896
 40
0.749989065087549
 40
1.0
 40
1.0
 40
1.0
 40
1.0
 10
291.676506545018
 20
210.8180748327368
 30
0.0
 10
291.6701736164271
 20
210.8323885929845
 30
0.0
 10
291.6603768326562
 20
210.8545313997573
 30
0.0
 10
291.6631938552297
 20
210.8828972212814
 30
0.0
 10
291.6778524221533
 20
210.9034376223474
 30
0.0
 10
291.7108562640902
 20
210.9195928285633
 30
0.0
 10
291.7698562657113
 20
210.9350921591034
 30
0.0
 10
291.8201206674278
 20
210.9411697064428
 30
0.0
 10
291.8536267695954
 20
210.9452209816023
 30
0.0
  0
LINE
  5
136
330
1F
100
AcDbEntity
  8
0
  6
Continuous
 62
     7
370
    15
100
AcDbLine
 10
291.8536267696
 20
210.9452209816
 30
0.0
 11
291.9530226703
 21
210.9554960155
 31
0.0
  0
LINE
  5
137
330
1F
100
AcDbEntity
  8
0
  6
Continuous
 62
     7
370
    15
100
AcDbLine
 10
291.9530227748
 20
210.9554960263
 30
0.0
 11
292.0339330388
 21
210.8748208227
 31
0.0
  0
LINE
  5
138
330
1F
100
AcDbEntity
  8
0
  6
Continuous
 62
     7
370
    15
100
AcDbLine
 10
292.0339330388
 20
210.8748208227
 30
0.0
 11
291.8242266802
 21
210.8528383855
 31
0.0
  0
SPLINE
  5
139
330
1F
100
AcDbEntity
  8
0
  6
Continuous
 62
     7
370
    15
100
AcDbSpline
210
0.0
220
0.0
230
1.0
 70
     8
 71
     3
 72
    12
 73
     8
 74
     0
 42
0.00000001
 43
0.00000001
 12
1.0
 22
0.0
 32
0.0
 13
1.0
 23
0.0
 33
0.0
 40
0.0
 40
0.0
 40
0.0
 40
0.0
 40
0.0304717459517324
 40
0.0888135668585855
 40
0.392555617548812
 40
0.6962774394174193
 40
1.0
 40
1.0
 40
1.0
 40
1.0
 10
293.4947756174074
 20
210.5290976556453
 30
0.0
 10
293.4939237730824
 20
210.5310402126777
 30
0.0
 10
293.4914409703893
 20
210.5367020286809
 30
0.0
 10
293.479071262992
 20
210.5613963595463
 30
0.0
 10
293.4499245465104
 20
210.6007587281217
 30
0.0
 10
293.3959390716391
 20
210.6438232215657
 30
0.0
 10
293.3543554673862
 20
210.6578502713142
 30
0.0
 10
293.3335636399749
 20
210.6648638047177
 30
0.0
  0
SPLINE
  5
13A
330
1F
100
AcDbEntity
  8
0
  6
Continuous
 62
     7
370
    15
100
AcDbSpline
210
0.0
220
0.0
230
1.0
 70
     8
 71
     3
 72
    11
 73
     7
 74
     0
 42
0.00000001
 43
0.00000001
 12
1.0
 22
0.0
 32
0.0
 13
1.0
 23
0.0
 33
0.0
 40
0.0
 40
0.0
 40
0.0
 40
0.0
 40
0.3704320937880428
 40
0.7442498469289662
 40
0.9442480537680291
 40
1.0
 40
1.0
 40
1.0
 40
1.0
 10
293.328850525877
 20
210.6687914490798
 30
0.0
 10
293.3291484391089
 20
210.6682340363683
 30
0.0
 10
293.3297469884274
 20
210.6671141163287
 30
0.0
 10
293.3312004244916
 20
210.6657737380195
 30
0.0
 10
293.3327050394649
 20
210.6650907590285
 30
0.0
 10
293.3334099695836
 20
210.6649044244906
 30
0.0
 10
293.3335636399749
 20
210.6648638047177
 30
0.0
  0
SPLINE
  5
13B
330
1F
100
AcDbEntity
  8
0
  6
Continuous
 62
     7
370
    15
100
AcDbSpline
210
0.0
220
0.0
230
1.0
 70
     8
 71
     3
 72
    12
 73
     8
 74
     0
 42
0.00000001
 43
0.00000001
 12
1.0
 22
0.0
 32
0.0
 13
1.0
 23
0.0
 33
0.0
 40
0.0
 40
0.0
 40
0.0
 40
0.0
 40
0.0304717459458594
 40
0.0888135668585274
 40
0.392555617548756
 40
0.6962774394174238
 40
0.9999999999999999
 40
0.9999999999999999
 40
0.9999999999999999
 40
0.9999999999999999
 10
297.3348771106322
 20
202.2939734279653
 30
0.0
 10
297.3358176406749
 20
202.2920722257626
 30
0.0
 10
297.3385589285543
 20
202.2865309433811
 30
0.0
 10
297.3495247888371
 20
202.2611819878566
 30
0.0
 10
297.3609429643377
 20
202.2135526648522
 30
0.0
 10
297.359231085885
 20
202.1445160690146
 30
0.0
 10
297.3432470038185
 20
202.103644766273
 30
0.0
 10
297.3352549530661
 20
202.0832090900504
 30
0.0
  0
SPLINE
  5
13C
330
1F
100
AcDbEntity
  8
0
  6
Continuous
 62
     7
370
    15
100
AcDbSpline
210
0.0
220
0.0
230
1.0
 70
     8
 71
     3
 72
    10
 73
     6
 74
     0
 42
0.00000001
 43
0.00000001
 12
1.0
 22
0.0
 32
0.0
 13
1.0
 23
0.0
 33
0.0
 40
0.0
 40
0.0
 40
0.0
 40
0.0
 40
0.2117958997076273
 40
0.488006909469819
 40
1.0
 40
1.0
 40
1.0
 40
1.0
 10
297.3352549530661
 20
202.0832090900504
 30
0.0
 10
297.3350319522915
 20
202.0826610463012
 30
0.0
 10
297.3345181278079
 20
202.0813982780576
 30
0.0
 10
297.334437331937
 20
202.0791649664257
 30
0.0
 10
297.3349203913514
 20
202.0778973794718
 30
0.0
 10
297.3352341718589
 20
202.0770739940546
 30
0.0
  0
LINE
  5
13D
330
1F
100
AcDbEntity
  8
0
  6
Continuous
 62
     7
370
    15
100
AcDbLine
 10
292.5883990185
 20
210.5332074433
 30
0.0
 11
292.5883713587
 21
210.5315091895
 31
0.0
  0
SPLINE
  5
13E
330
1F
100
AcDbEntity
  8
0
  6
Continuous
 62
     7
370
    15
100
AcDbSpline
210
0.0
220
0.0
230
1.0
 70
     8
 71
     3
 72
    12
 73
     8
 74
     0
 42
0.00000001
 43
0.00000001
 12
1.0
 22
0.0
 32
0.0
 13
1.0
 23
0.0
 33
0.0
 40
0.0
 40
0.0
 40
0.0
 40
0.0
 40
0.2238925571852843
 40
0.4477848984200023
 40
0.6716824862031043
 40
0.8955821585468999
 40
0.9999999999999999
 40
0.9999999999999999
 40
0.9999999999999999
 40
0.9999999999999999
 10
293.0698813735539
 20
211.5406380214608
 30
0.0
 10
293.0643078213277
 20
211.5405709227102
 30
0.0
 10
293.0531607222512
 20
211.5404367252736
 30
0.0
 10
293.0387684290458
 20
211.5403160427958
 30
0.0
 10
293.0282899355198
 20
211.5402503046348
 30
0.0
 10
293.023622866671
 20
211.5402314669385
 30
0.0
 10
293.0232331344848
 20
211.5402334773982
 30
0.0
 10
293.0231091843696
 20
211.5402341168032
 30
0.0
  0
LINE
  5
13F
330
1F
100
AcDbEntity
  8
0
  6
Continuous
 62
     7
370
    15
100
AcDbLine
 10
293.0698813736
 20
211.5406380215
 30
0.0
 11
296.8888474787
 21
211.5822555298
 31
0.0
  0
LINE
  5
140
330
1F
100
AcDbEntity
  8
0
  6
Continuous
 62
     7
370
    15
100
AcDbLine
 10
296.8888474787
 20
211.5822555298
 30
0.0
 11
297.1845747501
 21
211.5859312925
 31
0.0
  0
LINE
  5
141
330
1F
100
AcDbEntity
  8
0
  6
Continuous
 62
     7
370
    15
100
AcDbLine
 10
292.4882963959
 20
210.9224548801
 30
0.0
 11
292.4883239181
 21
210.9206382881
 31
0.0
  0
LINE
  5
142
330
1F
100
AcDbEntity
  8
0
  6
Continuous
 62
     7
370
    15
100
AcDbLine
 10
292.0339330388
 20
210.8748208227
 30
0.0
 11
292.0339598692
 21
210.8730057144
 31
0.0
  0
LINE
  5
143
330
1F
100
AcDbEntity
  8
0
  6
Continuous
 62
     7
370
    15
100
AcDbLine
 10
292.2380960239
 20
210.9851288299
 30
0.0
 11
292.2381353636
 21
210.9832868951
 31
0.0
  0
LINE
  5
144
330
1F
100
AcDbEntity
  8
0
  6
Continuous
 62
     7
370
    15
100
AcDbLine
 10
292.2436395534
 20
210.8967993461
 30
0.0
 11
292.2436666972
 21
210.8949835654
 31
0.0
  0
LINE
  5
145
330
1F
100
AcDbEntity
  8
0
  6
Continuous
 62
     7
370
    15
100
AcDbLine
 10
297.6414375921
 20
210.8852249729
 30
0.0
 11
300.2731094019
 21
205.2415865641
 31
0.0
  0
LINE
  5
146
330
1F
100
AcDbEntity
  8
0
  6
Continuous
 62
     7
370
    15
100
AcDbLine
 10
297.3687656619
 20
211.4699718143
 30
0.0
 11
297.6414375921
 21
210.8852249729
 31
0.0
  0
SPLINE
  5
147
330
1F
100
AcDbEntity
  8
0
  6
Continuous
 62
     7
370
    15
100
AcDbSpline
210
0.0
220
0.0
230
1.0
 70
     8
 71
     3
 72
    11
 73
     7
 74
     0
 42
0.00000001
 43
0.00000001
 12
1.0
 22
0.0
 32
0.0
 13
1.0
 23
0.0
 33
0.0
 40
0.0
 40
0.0
 40
0.0
 40
0.0
 40
0.2933118760928808
 40
0.5865991201419297
 40
0.8805021461502898
 40
1.0
 40
1.0
 40
1.0
 40
1.0
 10
297.1845747500765
 20
211.58593129252
 30
0.0
 10
297.2071149238135
 20
211.5839972076476
 30
0.0
 10
297.252193378386
 20
211.5801292003253
 30
0.0
 10
297.3123446743273
 20
211.546288325761
 30
0.0
 10
297.3500342862465
 20
211.5061682303418
 30
0.0
 10
297.3645653156364
 20
211.4780885422219
 30
0.0
 10
297.3687656618643
 20
211.4699718142936
 30
0.0
  0
LINE
  5
148
330
1F
100
AcDbEntity
  8
0
  6
Continuous
 62
     7
370
    15
100
AcDbLine
 10
300.2731094019
 20
205.2415865641
 30
0.0
 11
300.5508329405
 21
204.6460065137
 31
0.0
  0
SPLINE
  5
149
330
1F
100
AcDbEntity
  8
0
  6
Continuous
 62
     7
370
    15
100
AcDbSpline
210
0.0
220
0.0
230
1.0
 70
     8
 71
     3
 72
    13
 73
     9
 74
     0
 42
0.00000001
 43
0.00000001
 12
1.0
 22
0.0
 32
0.0
 13
1.0
 23
0.0
 33
0.0
 40
0.0
 40
0.0
 40
0.0
 40
0.0
 40
0.1251249532273052
 40
0.2500775928990973
 40
0.3738632671809246
 40
0.4999999146441391
 40
0.7494986643534295
 40
1.0
 40
1.0
 40
1.0
 40
1.0
 10
296.9908327353719
 20
200.4171065620241
 30
0.0
 10
296.9910680982474
 20
200.41855352003
 30
0.0
 10
296.9915384998727
 20
200.4214454433898
 30
0.0
 10
297.0023941753375
 20
200.4369649570045
 30
0.0
 10
297.0218855297126
 20
200.4613228820147
 30
0.0
 10
297.0569809206811
 20
200.5023315195596
 30
0.0
 10
297.1093169383863
 20
200.5603727530799
 30
0.0
 10
297.1523470232062
 20
200.6063423738426
 30
0.0
 10
297.1739052069667
 20
200.6293732727114
 30
0.0
  0
SPLINE
  5
14A
330
1F
100
AcDbEntity
  8
0
  6
Continuous
 62
     7
370
    15
100
AcDbSpline
210
0.0
220
0.0
230
1.0
 70
     8
 71
     3
 72
    13
 73
     9
 74
     0
 42
0.00000001
 43
0.00000001
 12
1.0
 22
0.0
 32
0.0
 13
1.0
 23
0.0
 33
0.0
 40
0.0
 40
0.0
 40
0.0
 40
0.0
 40
0.2505102605956334
 40
0.5001152999063673
 40
0.6261385938063181
 40
0.7500167354089279
 40
0.8748719395880257
 40
1.0
 40
1.0
 40
1.0
 40
1.0
 10
297.1739052069667
 20
200.6293732727114
 30
0.0
 10
297.1954271383705
 20
200.6521992130222
 30
0.0
 10
297.2383932314677
 20
200.6977686118846
 30
0.0
 10
297.2922362617833
 20
200.7527543199234
 30
0.0
 10
297.330227223506
 20
200.7896197836407
 30
0.0
 10
297.3531755969456
 20
200.8104895712374
 30
0.0
 10
297.3664558009157
 20
200.820580625946
 30
0.0
 10
297.3683650250953
 20
200.8202081609103
 30
0.0
 10
297.3693206791424
 20
200.82002172512
 30
0.0
  0
SPLINE
  5
14B
330
1F
100
AcDbEntity
  8
0
  6
Continuous
 62
     7
370
    15
100
AcDbSpline
210
0.0
220
0.0
230
1.0
 70
     8
 71
     3
 72
    13
 73
     9
 74
     0
 42
0.00000001
 43
0.00000001
 12
1.0
 22
0.0
 32
0.0
 13
1.0
 23
0.0
 33
0.0
 40
0.0
 40
0.0
 40
0.0
 40
0.0
 40
0.1251536994641116
 40
0.25009417887142
 40
0.3749676674078508
 40
0.5000391529946469
 40
0.7494696221487364
 40
1.0
 40
1.0
 40
1.0
 40
1.0
 10
297.3693206791424
 20
200.82002172512
 30
0.0
 10
297.3691083612446
 20
200.8186988943048
 30
0.0
 10
297.3686840871679
 20
200.8160554863358
 30
0.0
 10
297.3578410973666
 20
200.8020032376928
 30
0.0
 10
297.3378046813459
 20
200.7789255279134
 30
0.0
 10
297.3023687762841
 20
200.7398092531766
 30
0.0
 10
297.2499919789927
 20
200.6833947069939
 30
0.0
 10
297.2074210616569
 20
200.6380433463705
 30
0.0
 10
297.1860887751998
 20
200.6153177797964
 30
0.0
  0
SPLINE
  5
14C
330
1F
100
AcDbEntity
  8
0
  6
Continuous
 62
     7
370
    15
100
AcDbSpline
210
0.0
220
0.0
230
1.0
 70
     8
 71
     3
 72
     9
 73
     5
 74
     0
 42
0.00000001
 43
0.00000001
 12
1.0
 22
0.0
 32
0.0
 13
1.0
 23
0.0
 33
0.0
 40
0.0
 40
0.0
 40
0.0
 40
0.0
 40
0.5015812974767447
 40
1.0
 40
1.0
 40
1.0
 40
1.0
 10
297.1860887751998
 20
200.6153177797964
 30
0.0
 10
297.1609855583727
 20
200.5885934655907
 30
0.0
 10
297.1109374067501
 20
200.5353133406335
 30
0.0
 10
297.0649169668852
 20
200.4874515585543
 30
0.0
 10
297.0419795189582
 20
200.4635963512299
 30
0.0
  0
SPLINE
  5
14D
330
1F
100
AcDbEntity
  8
0
  6
Continuous
 62
     7
370
    15
100
AcDbSpline
210
0.0
220
0.0
230
1.0
 70
     8
 71
     3
 72
    12
 73
     8
 74
     0
 42
0.00000001
 43
0.00000001
 12
1.0
 22
0.0
 32
0.0
 13
1.0
 23
0.0
 33
0.0
 40
0.0
 40
0.0
 40
0.0
 40
0.0
 40
0.2500066011229435
 40
0.4997226159558273
 40
0.7495319830089618
 40
0.8747378593258118
 40
1.0
 40
1.0
 40
1.0
 40
1.0
 10
297.0419790799948
 20
200.4635959037012
 30
0.0
 10
297.0345795700559
 20
200.4560835957537
 30
0.0
 10
297.0197891507356
 20
200.4410677115228
 30
0.0
 10
297.0033887127061
 20
200.425346553878
 30
0.0
 10
296.995123552066
 20
200.4184596024211
 30
0.0
 10
296.9917019945302
 20
200.416580091396
 30
0.0
 10
296.9911225318143
 20
200.4169310455356
 30
0.0
 10
296.9908327353719
 20
200.4171065620241
 30
0.0
  0
SPLINE
  5
14E
330
1F
100
AcDbEntity
  8
0
  6
Continuous
 62
     7
370
    15
100
AcDbSpline
210
0.0
220
0.0
230
1.0
 70
     8
 71
     3
 72
    11
 73
     7
 74
     0
 42
0.00000001
 43
0.00000001
 12
1.0
 22
0.0
 32
0.0
 13
1.0
 23
0.0
 33
0.0
 40
0.0
 40
0.0
 40
0.0
 40
0.0
 40
0.2500151668637421
 40
0.4996999026569616
 40
0.7496483079942605
 40
1.0
 40
1.0
 40
1.0
 40
1.0
 10
297.3055949474025
 20
200.752189837831
 30
0.0
 10
297.3051694226729
 20
200.7521847303971
 30
0.0
 10
297.3043189356059
 20
200.7521745222797
 30
0.0
 10
297.2984248981329
 20
200.7472162734026
 30
0.0
 10
297.2899260041776
 20
200.7393102833484
 30
0.0
 10
297.2828579415332
 20
200.7323554845375
 30
0.0
 10
297.2793210614654
 20
200.7288752820369
 30
0.0
  0
SPLINE
  5
14F
330
1F
100
AcDbEntity
  8
0
  6
Continuous
 62
     7
370
    15
100
AcDbSpline
210
0.0
220
0.0
230
1.0
 70
     8
 71
     3
 72
     9
 73
     5
 74
     0
 42
0.00000001
 43
0.00000001
 12
1.0
 22
0.0
 32
0.0
 13
1.0
 23
0.0
 33
0.0
 40
0.0
 40
0.0
 40
0.0
 40
0.0
 40
0.4986001211987853
 40
1.0
 40
1.0
 40
1.0
 40
1.0
 10
297.2793210614654
 20
200.7288752820369
 30
0.0
 10
297.2629542699589
 20
200.712225917066
 30
0.0
 10
297.2301287835408
 20
200.6788336970021
 30
0.0
 10
297.1957322922133
 20
200.6422525278667
 30
0.0
 10
297.1784858956304
 20
200.6239107340957
 30
0.0
  0
SPLINE
  5
150
330
1F
100
AcDbEntity
  8
0
  6
Continuous
 62
     7
370
    15
100
AcDbSpline
210
0.0
220
0.0
230
1.0
 70
     8
 71
     3
 72
    12
 73
     8
 74
     0
 42
0.00000001
 43
0.00000001
 12
1.0
 22
0.0
 32
0.0
 13
1.0
 23
0.0
 33
0.0
 40
0.0
 40
0.0
 40
0.0
 40
0.0
 40
0.5005140901917654
 40
0.6257710336534474
 40
0.750854831554854
 40
0.8754985612983066
 40
1.0
 40
1.0
 40
1.0
 40
1.0
 10
297.1784858956304
 20
200.6239107340957
 30
0.0
 10
297.152997344712
 20
200.5967260962055
 30
0.0
 10
297.1211301162622
 20
200.5627383238622
 30
0.0
 10
297.0852002790858
 20
200.5229601047598
 30
0.0
 10
297.069881145353
 20
200.5053114084172
 30
0.0
 10
297.0575898481808
 20
200.4904244207614
 30
0.0
 10
297.0564842828384
 20
200.4878457012064
 30
0.0
 10
297.0559318158708
 20
200.4865570778041
 30
0.0
  0
SPLINE
  5
151
330
1F
100
AcDbEntity
  8
0
  6
Continuous
 62
     7
370
    15
100
AcDbSpline
210
0.0
220
0.0
230
1.0
 70
     8
 71
     3
 72
    13
 73
     9
 74
     0
 42
0.00000001
 43
0.00000001
 12
1.0
 22
0.0
 32
0.0
 13
1.0
 23
0.0
 33
0.0
 40
0.0
 40
0.0
 40
0.0
 40
0.0
 40
0.124543515111898
 40
0.1882780285226306
 40
0.2497238484099427
 40
0.3616625106693017
 40
0.4997987570716297
 40
1.0
 40
1.0
 40
1.0
 40
1.0
 10
297.0559318158708
 20
200.4865570778041
 30
0.0
 10
297.0568752909805
 20
200.4868734324899
 30
0.0
 10
297.0583015847018
 20
200.4873516800848
 30
0.0
 10
297.0652846443141
 20
200.4936872099159
 30
0.0
 10
297.073865975018
 20
200.5019596230284
 30
0.0
 10
297.0883702657708
 20
200.5166524868542
 30
0.0
 10
297.1263146166504
 20
200.5560149672217
 30
0.0
 10
297.1601773750191
 20
200.5920338450736
 30
0.0
 10
297.1867122317494
 20
200.6202582369847
 30
0.0
  0
SPLINE
  5
152
330
1F
100
AcDbEntity
  8
0
  6
Continuous
 62
     7
370
    15
100
AcDbSpline
210
0.0
220
0.0
230
1.0
 70
     8
 71
     3
 72
    12
 73
     8
 74
     0
 42
0.00000001
 43
0.00000001
 12
1.0
 22
0.0
 32
0.0
 13
1.0
 23
0.0
 33
0.0
 40
0.0
 40
0.0
 40
0.0
 40
0.0
 40
0.5003240729893296
 40
0.6255263234196827
 40
0.7506316743525299
 40
0.8753616000337607
 40
1.0
 40
1.0
 40
1.0
 40
1.0
 10
297.1867122317494
 20
200.6202582369847
 30
0.0
 10
297.2117147927206
 20
200.6468878485905
 30
0.0
 10
297.2429740522379
 20
200.6801813156474
 30
0.0
 10
297.2779428470034
 20
200.7184456375312
 30
0.0
 10
297.2928268085668
 20
200.7352385843131
 30
0.0
 10
297.3042020119722
 20
200.7487566597247
 30
0.0
 10
297.3051307492173
 20
200.751045725181
 30
0.0
 10
297.3055949474025
 20
200.752189837831
 30
0.0
  0
LINE
  5
153
330
1F
100
AcDbEntity
  8
0
  6
Continuous
 62
     7
370
    15
100
AcDbLine
 10
296.9908327354
 20
200.417106562
 30
0.0
 11
296.9893758918
 21
200.4184732027
 31
0.0
  0
LINE
  5
154
330
1F
100
AcDbEntity
  8
0
  6
Continuous
 62
     7
370
    15
100
AcDbLine
 10
297.173905207
 20
200.6293732727
 30
0.0
 11
297.1724500498
 21
200.6307362969
 31
0.0
  0
LINE
  5
155
330
1F
100
AcDbEntity
  8
0
  6
Continuous
 62
     7
370
    15
100
AcDbLine
 10
297.3693206791
 20
200.8200217251
 30
0.0
 11
297.3678638598
 21
200.821388314
 31
0.0
  0
SPLINE
  5
156
330
1F
100
AcDbEntity
  8
0
  6
Continuous
 62
     7
370
    15
100
AcDbSpline
210
0.0
220
0.0
230
1.0
 70
     8
 71
     3
 72
    12
 73
     8
 74
     0
 42
0.00000001
 43
0.00000001
 12
1.0
 22
0.0
 32
0.0
 13
1.0
 23
0.0
 33
0.0
 40
0.0
 40
0.0
 40
0.0
 40
0.0
 40
0.5003642248301498
 40
0.6255718542238397
 40
0.7506742410322155
 40
0.875388687083695
 40
1.0
 40
1.0
 40
1.0
 40
1.0
 10
297.1852548827079
 20
200.6216259616771
 30
0.0
 10
297.2102571887932
 20
200.6482552914617
 30
0.0
 10
297.2415158963535
 20
200.6815481577048
 30
0.0
 10
297.2764850472739
 20
200.7198125215543
 30
0.0
 10
297.2913689210657
 20
200.7366050424754
 30
0.0
 10
297.3027447406066
 20
200.7501233004938
 30
0.0
 10
297.3036737912854
 20
200.7524123719673
 30
0.0
 10
297.3041381244748
 20
200.7535564342688
 30
0.0
  0
SPLINE
  5
157
330
1F
100
AcDbEntity
  8
0
  6
Continuous
 62
     7
370
    15
100
AcDbSpline
210
0.0
220
0.0
230
1.0
 70
     8
 71
     3
 72
    13
 73
     9
 74
     0
 42
0.00000001
 43
0.00000001
 12
1.0
 22
0.0
 32
0.0
 13
1.0
 23
0.0
 33
0.0
 40
0.0
 40
0.0
 40
0.0
 40
0.0
 40
0.1245166140732919
 40
0.1882412551806382
 40
0.249681380197522
 40
0.3616187085985987
 40
0.4997610915771111
 40
1.0
 40
1.0
 40
1.0
 40
1.0
 10
297.0544749906466
 20
200.4879236791668
 30
0.0
 10
297.0554184573738
 20
200.4882402259371
 30
0.0
 10
297.0568447679289
 20
200.4887187738146
 30
0.0
 10
297.0638277442475
 20
200.4950545709898
 30
0.0
 10
297.0724092448664
 20
200.5033274163981
 30
0.0
 10
297.0869135330728
 20
200.5180205253641
 30
0.0
 10
297.1248579711828
 20
200.5573834149646
 30
0.0
 10
297.1587202356868
 20
200.5934017817032
 30
0.0
 10
297.1852548827079
 20
200.6216259616771
 30
0.0
  0
LINE
  5
158
330
1F
100
AcDbEntity
  8
0
  6
Continuous
 62
     7
370
    15
100
AcDbLine
 10
296.4729133756
 20
199.8547823715
 30
0.0
 11
296.4877239374
 21
199.8695454306
 31
0.0
  0
LWPOLYLINE
  5
159
330
1F
100
AcDbEntity
  8
0
  6
Continuous
 62
     7
370
    15
100
AcDbPolyline
 90
       11
 70
   128
 43
0.0
 10
296.8701015376
 20
200.2767618753
 10
296.883492916
 20
200.2920786337
 10
296.8657721842
 20
200.2772663802
 10
296.8182648713
 20
200.2323389655
 10
296.7491478139
 20
200.1635687491
 10
296.6695933616
 20
200.0806662059
 10
296.5920802056
 20
199.9960567084
 10
296.5279954356
 20
199.9228785954
 10
296.4865283151
 20
199.8731400546
 10
296.4729133756
 20
199.8547823715
 10
296.4729133756
 20
199.8547823715
  0
LINE
  5
15A
330
1F
100
AcDbEntity
  8
0
  6
Continuous
 62
     7
370
    15
100
AcDbLine
 10
297.0544749906
 20
200.4879236792
 30
0.0
 11
297.0559318159
 21
200.4865570778
 31
0.0
  0
LINE
  5
15B
330
1F
100
AcDbEntity
  8
0
  6
Continuous
 62
     7
370
    15
100
AcDbLine
 10
297.3041381245
 20
200.7535564343
 30
0.0
 11
297.3055949474
 21
200.7521898378
 31
0.0
  0
LINE
  5
15C
330
1F
100
AcDbEntity
  8
0
  6
Continuous
 62
     7
370
    15
100
AcDbLine
 10
297.0390166373
 20
200.457353598
 30
0.0
 11
297.3723886411
 21
200.8140778438
 31
0.0
  0
LINE
  5
15D
330
1F
100
AcDbEntity
  8
0
  6
Continuous
 62
     7
370
    15
100
AcDbLine
 10
297.0390166373
 20
200.457353598
 30
0.0
 11
297.0375587457
 21
200.4587224862
 31
0.0
  0
LINE
  5
15E
330
1F
100
AcDbEntity
  8
0
  6
Continuous
 62
     7
370
    15
100
AcDbLine
 10
297.003030213
 20
200.4190212825
 30
0.0
 11
297.0390165651
 21
200.4573535212
 31
0.0
  0
LINE
  5
15F
330
1F
100
AcDbEntity
  8
0
  6
Continuous
 62
     7
370
    15
100
AcDbLine
 10
297.003030213
 20
200.4190212825
 30
0.0
 11
297.0015723204
 21
200.420390173
 31
0.0
  0
LINE
  5
160
330
1F
100
AcDbEntity
  8
0
  6
Continuous
 62
     7
370
    15
100
AcDbLine
 10
290.6098838426
 20
209.8742698081
 30
0.0
 11
294.9788771887
 21
200.5049333417
 31
0.0
  0
SPLINE
  5
161
330
1F
100
AcDbEntity
  8
0
  6
Continuous
 62
     7
370
    15
100
AcDbSpline
210
0.0
220
0.0
230
1.0
 70
    24
 71
     3
 72
    11
 73
     7
 74
     0
 42
0.00000001
 43
0.00000001
 12
1.0
 22
0.0
 32
0.0
 13
1.0
 23
0.0
 33
0.0
 40
0.0
 40
0.0
 40
0.0
 40
0.0
 40
0.1499516226907035
 40
0.433174957825343
 40
0.7165923401616956
 40
0.9999999999999999
 40
0.9999999999999999
 40
0.9999999999999999
 40
0.9999999999999999
 10
295.2923111529146
 20
199.8327720362891
 30
0.0
 10
295.2722864878157
 20
199.8757150691747
 30
0.0
 10
295.2144399416825
 20
199.9997673876847
 30
0.0
 10
295.1231723204736
 20
200.1954914329859
 30
0.0
 10
295.0316190233631
 20
200.3918281122347
 30
0.0
 10
294.9964575991979
 20
200.467232029692
 30
0.0
 10
294.9788771886694
 20
200.5049333417357
 30
0.0
  0
SPLINE
  5
162
330
1F
100
AcDbEntity
  8
0
  6
Continuous
 62
     7
370
    15
100
AcDbSpline
210
0.0
220
0.0
230
1.0
 70
    24
 71
     3
 72
    11
 73
     7
 74
     0
 42
0.00000001
 43
0.00000001
 12
1.0
 22
0.0
 32
0.0
 13
1.0
 23
0.0
 33
0.0
 40
0.0
 40
0.0
 40
0.0
 40
0.0
 40
0.1499515950756998
 40
0.4331749432232093
 40
0.7165923323727712
 40
1.0
 40
1.0
 40
1.0
 40
1.0
 10
290.6098838425712
 20
209.8742698081033
 30
0.0
 10
290.6014521394893
 20
209.8923516537141
 30
0.0
 10
290.5770949294047
 20
209.944585859305
 30
0.0
 10
290.5111076276243
 20
210.0860960846386
 30
0.0
 10
290.4104420168122
 20
210.3019741836826
 30
0.0
 10
290.334446823361
 20
210.464946401964
 30
0.0
 10
290.2964498783259
 20
210.54643111355
 30
0.0
  0
LINE
  5
163
330
1F
100
AcDbEntity
  8
0
  6
Continuous
 62
     7
370
    15
100
AcDbLine
 10
287.671600794
 20
213.8339845541
 30
0.0
 11
287.7547357383
 21
213.8675732519
 31
0.0
  0
SPLINE
  5
164
330
1F
100
AcDbEntity
  8
0
  6
Continuous
 62
     7
370
    15
100
AcDbSpline
210
0.0
220
0.0
230
1.0
 70
     8
 71
     3
 72
    14
 73
    10
 74
     0
 42
0.00000001
 43
0.00000001
 12
1.0
 22
0.0
 32
0.0
 13
1.0
 23
0.0
 33
0.0
 40
0.0
 40
0.0
 40
0.0
 40
0.0
 40
0.0000064140457932
 40
0.0730558909548147
 40
0.2154935957733585
 40
0.4037789030075473
 40
0.5887468703998078
 40
0.8882363243877068
 40
1.0
 40
1.0
 40
1.0
 40
1.0
 10
287.7547357383384
 20
213.8675732518728
 30
0.0
 10
287.7547394463323
 20
213.8675747499732
 30
0.0
 10
287.7969734450566
 20
213.8846380921211
 30
0.0
 10
287.9271764318138
 20
213.9218665164393
 30
0.0
 10
288.1827626125583
 20
213.9230395765642
 30
0.0
 10
288.4970850071313
 20
213.8282318974427
 30
0.0
 10
288.8354192257762
 20
213.56686552149
 30
0.0
 10
289.0339827282363
 20
213.2445484345278
 30
0.0
 10
289.1450082108066
 20
213.0137286275702
 30
0.0
 10
289.1751809076825
 20
212.9510001808474
 30
0.0
  0
SPLINE
  5
165
330
1F
100
AcDbEntity
  8
0
  6
Continuous
 62
     7
370
    15
100
AcDbSpline
210
0.0
220
0.0
230
1.0
 70
     8
 71
     3
 72
    15
 73
    11
 74
     0
 42
0.00000001
 43
0.00000001
 12
1.0
 22
0.0
 32
0.0
 13
1.0
 23
0.0
 33
0.0
 40
0.0
 40
0.0
 40
0.0
 40
0.0
 40
0.0125258353877477
 40
0.2274813526119085
 40
0.4424404199769029
 40
0.4999991763206987
 40
0.7148755009569479
 40
0.9297495265588381
 40
0.9874741646146598
 40
1.0
 40
1.0
 40
1.0
 40
1.0
 10
287.8404174078954
 20
213.47195866161
 30
0.0
 10
287.8393768825222
 20
213.4743501491957
 30
0.0
 10
287.8204799297851
 20
213.517781889589
 30
0.0
 10
287.7831817592262
 20
213.6023847031469
 30
0.0
 10
287.7462353773477
 20
213.6839282655102
 30
0.0
 10
287.7147160703167
 20
213.751920546861
 30
0.0
 10
287.6887515998916
 20
213.8060929059575
 30
0.0
 10
287.6750610206573
 20
213.83104535828
 30
0.0
 10
287.6720623984351
 20
213.8340552880731
 30
0.0
 10
287.6716714786346
 20
213.8339955945923
 30
0.0
 10
287.6716017766549
 20
213.8339849510951
 30
0.0
  0
SPLINE
  5
166
330
1F
100
AcDbEntity
  8
0
  6
Continuous
 62
     7
370
    15
100
AcDbSpline
210
0.0
220
0.0
230
1.0
 70
     8
 71
     3
 72
     9
 73
     5
 74
     0
 42
0.00000001
 43
0.00000001
 12
1.0
 22
0.0
 32
0.0
 13
1.0
 23
0.0
 33
0.0
 40
0.0
 40
0.0
 40
0.0
 40
0.0
 40
0.0000220488581531
 40
1.0
 40
1.0
 40
1.0
 40
1.0
 10
297.6814349087802
 20
194.7092796078818
 30
0.0
 10
297.6814365992524
 20
194.7092759826501
 30
0.0
 10
297.7581059764282
 20
194.5448578690608
 30
0.0
 10
297.8162935885708
 20
194.3726390204517
 30
0.0
 10
297.874479917743
 20
194.2004239690714
 30
0.0
  0
LINE
  5
167
330
1F
100
AcDbEntity
  8
0
  6
Continuous
 62
     7
370
    15
100
AcDbLine
 10
287.671600794
 20
213.8339845541
 30
0.0
 11
287.6618901112
 21
213.8300611835
 31
0.0
  0
LINE
  5
168
330
1F
100
AcDbEntity
  8
0
  6
Continuous
 62
     7
370
    15
100
AcDbLine
 10
289.1751809077
 20
212.9510001808
 30
0.0
 11
290.2964498783
 21
210.5464311135
 31
0.0
  0
LINE
  5
169
330
1F
100
AcDbEntity
  8
0
  6
Continuous
 62
     7
370
    15
100
AcDbLine
 10
295.2923111529
 20
199.8327720363
 30
0.0
 11
297.6814349088
 21
194.7092796079
 31
0.0
  0
SPLINE
  5
16A
330
1F
100
AcDbEntity
  8
0
  6
Continuous
 62
     7
370
    15
100
AcDbSpline
210
0.0
220
0.0
230
1.0
 70
     8
 71
     3
 72
    20
 73
    16
 74
     0
 42
0.00000001
 43
0.00000001
 12
1.0
 22
0.0
 32
0.0
 13
1.0
 23
0.0
 33
0.0
 40
0.0
 40
0.0
 40
0.0
 40
0.0
 40
0.2070577373168236
 40
0.4203770502760676
 40
0.7011163025568282
 40
0.883452798843101
 40
0.9282286404934967
 40
0.9524788585968876
 40
0.9675018207221441
 40
0.9773827146382318
 40
0.984093855368536
 40
0.988739363909938
 40
0.9919933949590751
 40
0.9977340800222556
 40
1.0
 40
1.0
 40
1.0
 40
1.0
 10
297.874479917743
 20
194.2004239690715
 30
0.0
 10
297.8954529844657
 20
194.1026010746195
 30
0.0
 10
297.9380333586085
 20
193.9039970506786
 30
0.0
 10
297.8983470968836
 20
193.5622455533105
 30
0.0
 10
297.7715297180837
 20
193.3028827889852
 30
0.0
 10
297.6373790149626
 20
193.1493453636077
 30
0.0
 10
297.5553086648623
 20
193.085040140266
 30
0.0
 10
297.5262120649761
 20
193.0650210444315
 30
0.0
 10
297.5086328368929
 20
193.0538467278418
 30
0.0
 10
297.4970978804614
 20
193.0468923812078
 30
0.0
 10
297.4892476207379
 20
193.0423292343976
 30
0.0
 10
297.4837996149515
 20
193.0392423351977
 30
0.0
 10
297.478682545098
 20
193.036395676266
 30
0.0
 10
297.474431064703
 20
193.0340769228376
 30
0.0
 10
297.4713874295104
 20
193.0324531918771
 30
0.0
 10
297.4705260614583
 20
193.031993665723
 30
0.0
  0
SPLINE
  5
16B
330
1F
100
AcDbEntity
  8
0
  6
Continuous
 62
     7
370
    15
100
AcDbSpline
210
0.0
220
0.0
230
1.0
 70
     8
 71
     3
 72
    10
 73
     6
 74
     0
 42
0.00000001
 43
0.00000001
 12
1.0
 22
0.0
 32
0.0
 13
1.0
 23
0.0
 33
0.0
 40
0.0
 40
0.0
 40
0.0
 40
0.0
 40
0.4527378322258415
 40
0.9055954617465009
 40
1.0
 40
1.0
 40
1.0
 40
1.0
 10
297.8988962661799
 20
193.6410395891036
 30
0.0
 10
297.9004208755496
 20
193.6515394739114
 30
0.0
 10
297.9034704977101
 20
193.672542021863
 30
0.0
 10
297.9281427011778
 20
193.7690757936588
 30
0.0
 10
297.919738594736
 20
193.8643649497507
 30
0.0
 10
297.9182888585131
 20
193.8808026450843
 30
0.0
  0
SPLINE
  5
16C
330
1F
100
AcDbEntity
  8
0
  6
Continuous
 62
     7
370
    15
100
AcDbSpline
210
0.0
220
0.0
230
1.0
 70
     8
 71
     3
 72
    12
 73
     8
 74
     0
 42
0.00000001
 43
0.00000001
 12
1.0
 22
0.0
 32
0.0
 13
1.0
 23
0.0
 33
0.0
 40
0.0
 40
0.0
 40
0.0
 40
0.0
 40
0.461690627605682
 40
0.7307729957157846
 40
0.9175829515525972
 40
0.9719359527205379
 40
1.0
 40
1.0
 40
1.0
 40
1.0
 10
297.8702697688646
 20
194.215501128831
 30
0.0
 10
297.8642670102863
 20
194.2372130968353
 30
0.0
 10
297.8547657260786
 20
194.2715792263443
 30
0.0
 10
297.8404410499627
 20
194.3163990251541
 30
0.0
 10
297.8321428041907
 20
194.3412727751362
 30
0.0
 10
297.8276453602198
 20
194.3544070957366
 30
0.0
 10
297.8262565210699
 20
194.358424676605
 30
0.0
 10
297.8257836037754
 20
194.3597927136988
 30
0.0
  0
LINE
  5
16D
330
1F
100
AcDbEntity
  8
0
  6
Continuous
 62
     7
370
    15
100
AcDbLine
 10
288.9012129397
 20
213.4032290505
 30
0.0
 11
288.812090395
 21
213.550206854
 31
0.0
  0
LINE
  5
16E
330
1F
100
AcDbEntity
  8
0
  6
Continuous
 62
     7
370
    15
100
AcDbLine
 10
297.6906712582
 20
194.6893705158
 30
0.0
 11
297.6822644667
 21
194.7074998135
 31
0.0
  0
SPLINE
  5
16F
330
1F
100
AcDbEntity
  8
0
  6
Continuous
 62
     7
370
    15
100
AcDbSpline
210
0.0
220
0.0
230
1.0
 70
     8
 71
     3
 72
     9
 73
     5
 74
     0
 42
0.00000001
 43
0.00000001
 12
1.0
 22
0.0
 32
0.0
 13
1.0
 23
0.0
 33
0.0
 40
0.0
 40
0.0
 40
0.0
 40
0.0
 40
0.5000138394957055
 40
1.0
 40
1.0
 40
1.0
 40
1.0
 10
297.7842326262148
 20
194.4718434595493
 30
0.0
 10
297.7706387437273
 20
194.5055868586092
 30
0.0
 10
297.7434517312612
 20
194.5730717888143
 30
0.0
 10
297.7082644245687
 20
194.6506049887905
 30
0.0
 10
297.6906712581969
 20
194.6893705157581
 30
0.0
  0
SPLINE
  5
170
330
1F
100
AcDbEntity
  8
0
  6
Continuous
 62
     7
370
    15
100
AcDbSpline
210
0.0
220
0.0
230
1.0
 70
     8
 71
     3
 72
    13
 73
     9
 74
     0
 42
0.00000001
 43
0.00000001
 12
1.0
 22
0.0
 32
0.0
 13
1.0
 23
0.0
 33
0.0
 40
0.0
 40
0.0
 40
0.0
 40
0.0
 40
0.1254648118065503
 40
0.250243578881635
 40
0.3760698054095784
 40
0.5019139201694135
 40
0.7508310514861691
 40
1.0
 40
1.0
 40
1.0
 40
1.0
 10
288.8120903948893
 20
213.5502068541037
 30
0.0
 10
288.7945550004313
 20
213.5696613097768
 30
0.0
 10
288.759580095491
 20
213.6084638436722
 30
0.0
 10
288.7048436890549
 20
213.6603438711221
 30
0.0
 10
288.6514435636498
 20
213.7050383048009
 30
0.0
 10
288.5864717605078
 20
213.7527330556074
 30
0.0
 10
288.5199344925595
 20
213.7922452226942
 30
0.0
 10
288.5093515545725
 20
213.797638062737
 30
0.0
 10
288.504057410373
 20
213.8003358459865
 30
0.0
  0
SPLINE
  5
171
330
1F
100
AcDbEntity
  8
0
  6
Continuous
 62
     7
370
    15
100
AcDbSpline
210
0.0
220
0.0
230
1.0
 70
     8
 71
     3
 72
     9
 73
     5
 74
     0
 42
0.00000001
 43
0.00000001
 12
1.0
 22
0.0
 32
0.0
 13
1.0
 23
0.0
 33
0.0
 40
0.0
 40
0.0
 40
0.0
 40
0.0
 40
0.8821747881014251
 40
1.0
 40
1.0
 40
1.0
 40
1.0
 10
297.9221233657462
 20
193.839266865849
 30
0.0
 10
297.9235260568912
 20
193.8414054663147
 30
0.0
 10
297.9251160945616
 20
193.8438297029791
 30
0.0
 10
297.921176414238
 20
193.8938983160848
 30
0.0
 10
297.920712220569
 20
193.8997976610335
 30
0.0
  0
SPLINE
  5
172
330
1F
100
AcDbEntity
  8
0
  6
Continuous
 62
     7
370
    15
100
AcDbSpline
210
0.0
220
0.0
230
1.0
 70
     8
 71
     3
 72
     9
 73
     5
 74
     0
 42
0.00000001
 43
0.00000001
 12
1.0
 22
0.0
 32
0.0
 13
1.0
 23
0.0
 33
0.0
 40
0.0
 40
0.0
 40
0.0
 40
0.0
 40
0.1164892876072244
 40
1.0
 40
1.0
 40
1.0
 40
1.0
 10
297.8766884482275
 20
194.1857924606265
 30
0.0
 10
297.8750107049236
 20
194.1945248954234
 30
0.0
 10
297.8606081505055
 20
194.2694883103117
 30
0.0
 10
297.820058593878
 20
194.3769234036754
 30
0.0
 10
297.7842326262148
 20
194.4718434595493
 30
0.0
  0
LINE
  5
173
330
1F
100
AcDbEntity
  8
0
  6
Continuous
 62
     7
370
    15
100
AcDbLine
 10
297.8257836038
 20
194.3597927136
 30
0.0
 11
297.7919627729
 21
194.4488119669
 31
0.0
  0
LINE
  5
174
330
1F
100
AcDbEntity
  8
0
  6
Continuous
 62
     7
370
    15
100
AcDbLine
 10
292.0873720967
 20
204.3869084708
 30
0.0
 11
292.0692459409
 21
204.3784561055
 31
0.0
  0
LINE
  5
175
330
1F
100
AcDbEntity
  8
0
  6
Continuous
 62
     7
370
    15
100
AcDbLine
 10
292.0873720967
 20
204.3869084708
 30
0.0
 11
294.115939753
 21
200.036631093
 31
0.0
  0
LINE
  5
176
330
1F
100
AcDbEntity
  8
0
  6
Continuous
 62
     7
370
    15
100
AcDbLine
 10
294.115939753
 20
200.036631093
 30
0.0
 11
294.0978135973
 21
200.0281787277
 31
0.0
  0
LINE
  5
177
330
1F
100
AcDbEntity
  8
0
  6
Continuous
 62
     7
370
    15
100
AcDbLine
 10
293.9216395851
 20
200.5006331794
 30
0.0
 11
293.9850323244
 21
200.3646870113
 31
0.0
  0
LINE
  5
178
330
1F
100
AcDbEntity
  8
0
  6
Continuous
 62
     7
370
    15
100
AcDbLine
 10
293.9850323244
 20
200.3646870113
 30
0.0
 11
293.9669061686
 21
200.3562346461
 31
0.0
  0
LINE
  5
179
330
1F
100
AcDbEntity
  8
0
  6
Continuous
 62
     7
370
    15
100
AcDbLine
 10
292.2734283643
 20
204.0352335488
 30
0.0
 11
293.9216395851
 21
200.5006331794
 31
0.0
  0
LINE
  5
17A
330
1F
100
AcDbEntity
  8
0
  6
Continuous
 62
     7
370
    15
100
AcDbLine
 10
292.2522974512
 20
204.0805489382
 30
0.0
 11
292.2734283643
 21
204.0352335488
 31
0.0
  0
LINE
  5
17B
330
1F
100
AcDbEntity
  8
0
  6
Continuous
 62
     7
370
    15
100
AcDbLine
 10
279.1036525553
 20
174.8485213773
 30
0.0
 11
279.1575514395
 21
174.7204283401
 31
0.0
  0
LINE
  5
17C
330
1F
100
AcDbEntity
  8
0
  6
Continuous
 62
     7
370
    15
100
AcDbLine
 10
279.8102205056
 20
87.8775905687
 30
0.0
 11
279.8102205056
 21
87.4775905687
 31
0.0
  0
LINE
  5
17D
330
1F
100
AcDbEntity
  8
0
  6
Continuous
 62
     7
370
    15
100
AcDbLine
 10
279.8102205056
 20
87.4775905687
 30
0.0
 11
279.2102205056
 21
87.4775905687
 31
0.0
  0
LINE
  5
17E
330
1F
100
AcDbEntity
  8
0
  6
Continuous
 62
     7
370
    15
100
AcDbLine
 10
279.2102205056
 20
87.4775905687
 30
0.0
 11
279.2102205056
 21
87.8775905687
 31
0.0
  0
LINE
  5
17F
330
1F
100
AcDbEntity
  8
0
  6
Continuous
 62
     7
370
    15
100
AcDbLine
 10
279.8102205056
 20
95.0775905687
 30
0.0
 11
279.8102205056
 21
87.8775905687
 31
0.0
  0
LINE
  5
180
330
1F
100
AcDbEntity
  8
0
  6
Continuous
 62
     7
370
    15
100
AcDbLine
 10
279.2102205056
 20
95.0775905687
 30
0.0
 11
279.2102205056
 21
87.8775905687
 31
0.0
  0
LINE
  5
181
330
1F
100
AcDbEntity
  8
0
  6
Continuous
 62
     7
370
    15
100
AcDbLine
 10
279.2102205056
 20
95.4775905687
 30
0.0
 11
279.8102205056
 21
95.4775905687
 31
0.0
  0
LINE
  5
182
330
1F
100
AcDbEntity
  8
0
  6
Continuous
 62
     7
370
    15
100
AcDbLine
 10
279.8102205056
 20
95.4775905687
 30
0.0
 11
279.8102205056
 21
95.0775905687
 31
0.0
  0
LINE
  5
183
330
1F
100
AcDbEntity
  8
0
  6
Continuous
 62
     7
370
    15
100
AcDbLine
 10
279.2102205056
 20
95.0775905687
 30
0.0
 11
279.2102205056
 21
95.4775905687
 31
0.0
  0
LINE
  5
184
330
1F
100
AcDbEntity
  8
0
  6
Continuous
 62
     7
370
    15
100
AcDbLine
 10
280.4368075093
 20
91.4775905687
 30
0.0
 11
279.8102205056
 21
91.4775905687
 31
0.0
  0
LINE
  5
185
330
1F
100
AcDbEntity
  8
0
  6
Continuous
 62
     7
370
    15
100
AcDbLine
 10
279.8154828304
 20
87.9775905687
 30
0.0
 11
280.4368075093
 21
87.9775905687
 31
0.0
  0
LINE
  5
186
330
1F
100
AcDbEntity
  8
0
  6
Continuous
 62
     7
370
    15
100
AcDbLine
 10
285.2036525553
 20
180.7704283401
 30
0.0
 11
285.2036525553
 21
180.1704283401
 31
0.0
  0
LINE
  5
187
330
1F
100
AcDbEntity
  8
0
  6
Continuous
 62
     7
370
    15
100
AcDbLine
 10
285.2036525553
 20
180.1704283401
 30
0.0
 11
284.8036525553
 21
180.1704283401
 31
0.0
  0
LINE
  5
188
330
1F
100
AcDbEntity
  8
0
  6
Continuous
 62
     7
370
    15
100
AcDbLine
 10
284.8036525553
 20
180.7704283401
 30
0.0
 11
285.2036525553
 21
180.7704283401
 31
0.0
  0
ARC
  5
189
330
1F
100
AcDbEntity
  8
0
  6
Continuous
 62
     7
370
    15
100
AcDbCircle
 10
280.6036525553
 20
179.3704283401
 30
0.0
 40
1.400000000000006
100
AcDbArc
 50
90.0
 51
180.0
  0
ARC
  5
18A
330
1F
100
AcDbEntity
  8
0
  6
Continuous
 62
     7
370
    15
100
AcDbCircle
 10
280.6036525553
 20
179.3704283401
 30
0.0
 40
0.8000000000000114
100
AcDbArc
 50
90.0
 51
180.0
  0
LINE
  5
18B
330
1F
100
AcDbEntity
  8
0
  6
Continuous
 62
     7
370
    15
100
AcDbLine
 10
280.6036525553
 20
180.7704283401
 30
0.0
 11
284.8036525553
 21
180.7704283401
 31
0.0
  0
LINE
  5
18C
330
1F
100
AcDbEntity
  8
0
  6
Continuous
 62
     7
370
    15
100
AcDbLine
 10
280.6036525553
 20
180.1704283401
 30
0.0
 11
284.8036525553
 21
180.1704283401
 31
0.0
  0
LINE
  5
18D
330
1F
100
AcDbEntity
  8
0
  6
Continuous
 62
     7
370
    15
100
AcDbLine
 10
279.8036525553
 20
167.2704283401
 30
0.0
 11
279.2036525553
 21
167.2704283401
 31
0.0
  0
LINE
  5
18E
330
1F
100
AcDbEntity
  8
0
  6
Continuous
 62
     7
370
    15
100
AcDbLine
 10
279.2036525553
 20
167.2704283401
 30
0.0
 11
279.2036525553
 21
167.6704283401
 31
0.0
  0
LINE
  5
18F
330
1F
100
AcDbEntity
  8
0
  6
Continuous
 62
     7
370
    15
100
AcDbLine
 10
279.8036525553
 20
167.6704283401
 30
0.0
 11
279.8036525553
 21
167.2704283401
 31
0.0
  0
LINE
  5
190
330
1F
100
AcDbEntity
  8
0
  6
Continuous
 62
     7
370
    15
100
AcDbLine
 10
279.2036525553
 20
179.3704283401
 30
0.0
 11
279.2036525553
 21
167.6704283401
 31
0.0
  0
LINE
  5
191
330
1F
100
AcDbEntity
  8
0
  6
Continuous
 62
     7
370
    15
100
AcDbLine
 10
279.8036525553
 20
179.3704283401
 30
0.0
 11
279.8036525553
 21
167.6704283401
 31
0.0
  0
LINE
  5
192
330
1F
100
AcDbEntity
  8
0
  6
Continuous
 62
     7
370
    15
100
AcDbLine
 10
280.4368075093
 20
171.2704283401
 30
0.0
 11
279.8036525553
 21
171.2704283401
 31
0.0
  0
LINE
  5
193
330
1F
100
AcDbEntity
  8
0
  6
Continuous
 62
     7
370
    15
100
AcDbLine
 10
279.8089148764
 20
167.7704283401
 30
0.0
 11
280.4368075093
 21
167.7704283401
 31
0.0
  0
LINE
  5
194
330
1F
100
AcDbEntity
  8
0
  6
Continuous
 62
     7
370
    15
100
AcDbLine
 10
279.1168075093
 20
133.8170703104
 30
0.0
 11
279.1168075093
 21
131.817052293
 31
0.0
  0
LINE
  5
195
330
1F
100
AcDbEntity
  8
0
  6
Continuous
 62
     7
370
    15
100
AcDbLine
 10
279.1168075093
 20
135.817052293
 30
0.0
 11
279.1168075093
 21
133.8170703104
 31
0.0
  0
ARC
  5
196
330
1F
100
AcDbEntity
  8
0
  6
Continuous
 62
     7
370
    15
100
AcDbCircle
 10
283.8660512803
 20
89.8775905687
 30
0.0
 40
0.3300002009669082
100
AcDbArc
 50
270.0632328581
 51
89.9367671419
  0
ARC
  5
197
330
1F
100
AcDbEntity
  8
0
  6
Continuous
 62
     7
370
    15
100
AcDbCircle
 10
286.028906622
 20
92.7778165405
 30
0.0
 40
0.3297741058182195
100
AcDbArc
 50
359.9607390874
 51
89.9606852078
  0
ARC
  5
198
330
1F
100
AcDbEntity
  8
0
  6
Continuous
 62
     7
370
    15
100
AcDbCircle
 10
286.028906622
 20
92.7773645969
 30
0.0
 40
0.3297741058182195
100
AcDbArc
 50
270.0393147922
 51
0.0392609126
  0
ARC
  5
199
330
1F
100
AcDbEntity
  8
0
  6
Continuous
 62
     7
370
    15
100
AcDbCircle
 10
282.034388483
 20
92.7778165405
 30
0.0
 40
0.3297741058181555
100
AcDbArc
 50
359.9607390873
 51
89.9606852078
  0
ARC
  5
19A
330
1F
100
AcDbEntity
  8
0
  6
Continuous
 62
     7
370
    15
100
AcDbCircle
 10
282.034388483
 20
92.7773645969
 30
0.0
 40
0.3297741058181555
100
AcDbArc
 50
270.0393147922
 51
0.0392609127
  0
ARC
  5
19B
330
1F
100
AcDbEntity
  8
0
  6
Continuous
 62
     7
370
    15
100
AcDbCircle
 10
283.8346209576
 20
89.8775905687
 30
0.0
 40
0.3300233367675575
100
AcDbArc
 50
273.7052469063
 51
86.2947530926
  0
ARC
  5
19C
330
1F
100
AcDbEntity
  8
0
  6
Continuous
 62
     7
370
    15
100
AcDbCircle
 10
285.9974807136
 20
92.7778067532
 30
0.0
 40
0.3297984339292186
100
AcDbArc
 50
359.9624423303
 51
86.3162655599
  0
ARC
  5
19D
330
1F
100
AcDbEntity
  8
0
  6
Continuous
 62
     7
370
    15
100
AcDbCircle
 10
285.997480714
 20
92.777374384
 30
0.0
 40
0.3297984334803733
100
AcDbArc
 50
273.6836679535
 51
0.0375577012
  0
LINE
  5
19E
330
1F
100
AcDbEntity
  8
0
  6
Continuous
 62
     7
370
    15
100
AcDbLine
 10
283.8598475253
 20
170.0004283401
 30
0.0
 11
283.8831524351
 21
169.9996021383
 31
0.0
  0
ARC
  5
19F
330
1F
100
AcDbEntity
  8
0
  6
Continuous
 62
     7
370
    15
100
AcDbCircle
 10
283.8594972828
 20
169.6702455799
 30
0.0
 40
0.3298929062481792
100
AcDbArc
 50
288.8024321677
 51
358.3471538219
  0
LINE
  5
1A0
330
1F
100
AcDbEntity
  8
0
  6
Continuous
 62
     7
370
    15
100
AcDbLine
 10
283.9218064419
 20
169.3463133161
 30
0.0
 11
283.8598475253
 21
169.3404283401
 31
0.0
  0
LWPOLYLINE
  5
1A1
330
1F
100
AcDbEntity
  8
0
  6
Continuous
 62
     7
370
    15
100
AcDbPolyline
 90
        3
 70
   128
 43
0.0
 10
286.3521127001
 20
172.5704283401
 10
286.3270273716
 20
172.6967138728
 10
286.2558433841
 20
172.8035199712
  0
LWPOLYLINE
  5
1A2
330
1F
100
AcDbEntity
  8
0
  6
Continuous
 62
     7
370
    15
100
AcDbPolyline
 90
        3
 70
   128
 43
0.0
 10
286.2815695349
 20
172.3663882036
 10
286.3270273716
 20
172.4441428074
 10
286.3521127001
 20
172.5704283401
  0
ARC
  5
1A3
330
1F
100
AcDbEntity
  8
0
  6
Continuous
 62
     7
370
    15
100
AcDbCircle
 10
283.8280486497
 20
169.6704283393
 30
0.0
 40
0.3300268436794287
100
AcDbArc
 50
274.2583299944
 51
85.741949687
  0
ARC
  5
1A4
330
1F
100
AcDbEntity
  8
0
  6
Continuous
 62
     7
370
    15
100
AcDbCircle
 10
285.9909088958
 20
172.5706429643
 30
0.0
 40
0.3298023003507246
100
AcDbArc
 50
359.9627138407
 51
85.7444790884
  0
ARC
  5
1A5
330
1F
100
AcDbEntity
  8
0
  6
Continuous
 62
     7
370
    15
100
AcDbCircle
 10
285.9909088958
 20
172.5702137159
 30
0.0
 40
0.3298023003506455
100
AcDbArc
 50
274.25552091
 51
0.0372861593
  0
ARC
  5
1A6
330
1F
100
AcDbEntity
  8
0
  6
Continuous
 62
     7
370
    15
100
AcDbCircle
 10
290.4326114722
 20
157.4865310033
 30
0.0
 40
0.0999999999999963
100
AcDbArc
 50
272.4048581936
 51
330.0
  0
ARC
  5
1A7
330
1F
100
AcDbEntity
  8
0
  6
Continuous
 62
     7
370
    15
100
AcDbCircle
 10
290.4326114722
 20
165.4867071482
 30
0.0
 40
0.0999999999999679
100
AcDbArc
 50
30.0
 51
87.5951418064
  0
SPLINE
  5
1A8
330
1F
100
AcDbEntity
  8
0
  6
Continuous
 62
     7
370
    15
100
AcDbSpline
210
0.0
220
0.0
230
1.0
 70
     8
 71
     3
 72
     9
 73
     5
 74
     0
 42
0.00000001
 43
0.00000001
 12
1.0
 22
0.0
 32
0.0
 13
1.0
 23
0.0
 33
0.0
 40
0.0
 40
0.0
 40
0.0
 40
0.0
 40
0.4999928052376688
 40
1.0
 40
1.0
 40
1.0
 40
1.0
 10
290.8234100496642
 20
157.9634139949755
 30
0.0
 10
290.8249978056935
 20
157.9668231034501
 30
0.0
 10
290.828173363447
 20
157.9736414185118
 30
0.0
 10
290.8249978361566
 20
157.9822931484941
 30
0.0
 10
290.8234100496642
 20
157.9866190757323
 30
0.0
  0
LINE
  5
1A9
330
1F
100
AcDbEntity
  8
0
  6
Continuous
 62
     7
370
    15
100
AcDbLine
 10
290.8234100497
 20
157.963413995
 30
0.0
 11
290.5192140126
 21
157.4365310033
 31
0.0
  0
LINE
  5
1AA
330
1F
100
AcDbEntity
  8
0
  6
Continuous
 62
     7
370
    15
100
AcDbLine
 10
290.8234100497
 20
165.0098241565
 30
0.0
 11
290.5192140126
 21
165.5367071482
 31
0.0
  0
SPLINE
  5
1AB
330
1F
100
AcDbEntity
  8
0
  6
Continuous
 62
     7
370
    15
100
AcDbSpline
210
0.0
220
0.0
230
1.0
 70
     8
 71
     3
 72
     9
 73
     5
 74
     0
 42
0.00000001
 43
0.00000001
 12
1.0
 22
0.0
 32
0.0
 13
1.0
 23
0.0
 33
0.0
 40
0.0
 40
0.0
 40
0.0
 40
0.0
 40
0.4999928052376687
 40
1.0
 40
1.0
 40
1.0
 40
1.0
 10
290.8234100496643
 20
164.9866190757323
 30
0.0
 10
290.8249978056936
 20
164.990944875578
 30
0.0
 10
290.828173363447
 20
164.9995965997635
 30
0.0
 10
290.8249978361566
 20
165.0064149382098
 30
0.0
 10
290.8234100496643
 20
165.0098241564892
 30
0.0
  0
LINE
  5
1AC
330
1F
100
AcDbEntity
  8
0
  6
Continuous
 62
     7
370
    15
100
AcDbLine
 10
290.8368075093
 20
164.9598241565
 30
0.0
 11
290.8368075093
 21
158.013413995
 31
0.0
  0
SPLINE
  5
1AD
330
1F
100
AcDbEntity
  8
0
  6
Continuous
 62
     7
370
    15
100
AcDbSpline
210
0.0
220
0.0
230
1.0
 70
     8
 71
     3
 72
    12
 73
     8
 74
     0
 42
0.00000001
 43
0.00000001
 12
1.0
 22
0.0
 32
0.0
 13
1.0
 23
0.0
 33
0.0
 40
0.0
 40
0.0
 40
0.0
 40
0.0
 40
0.1571577297866157
 40
0.2505951270622128
 40
0.5008887538711781
 40
0.7473664047632461
 40
1.0
 40
1.0
 40
1.0
 40
1.0
 10
290.8368075092857
 20
158.0134139949754
 30
0.0
 10
290.8367586952996
 20
158.0113782761341
 30
0.0
 10
290.8366808591849
 20
158.008132230124
 30
0.0
 10
290.8359366437855
 20
158.0016933146997
 30
0.0
 10
290.8343146774963
 20
157.9945370666634
 30
0.0
 10
290.8304163971283
 20
157.9875704428264
 30
0.0
 10
290.8257646235195
 20
157.9869387949723
 30
0.0
 10
290.8234100496642
 20
157.9866190757323
 30
0.0
  0
SPLINE
  5
1AE
330
1F
100
AcDbEntity
  8
0
  6
Continuous
 62
     7
370
    15
100
AcDbSpline
210
0.0
220
0.0
230
1.0
 70
     8
 71
     3
 72
    12
 73
     8
 74
     0
 42
0.00000001
 43
0.00000001
 12
1.0
 22
0.0
 32
0.0
 13
1.0
 23
0.0
 33
0.0
 40
0.0
 40
0.0
 40
0.0
 40
0.0
 40
0.1571230726072154
 40
0.250595132031153
 40
0.5008887571805524
 40
0.747366406438358
 40
1.0
 40
1.0
 40
1.0
 40
1.0
 10
290.8368075092858
 20
164.9598241564892
 30
0.0
 10
290.8367587144133
 20
164.9618594196819
 30
0.0
 10
290.8366808916127
 20
164.9651054550351
 30
0.0
 10
290.8359367384625
 20
164.9715444221867
 30
0.0
 10
290.8343146777033
 20
164.9787010827683
 30
0.0
 10
290.8304163970755
 20
164.985667709158
 30
0.0
 10
290.8257646235018
 20
164.986299356667
 30
0.0
 10
290.8234100496643
 20
164.9866190757323
 30
0.0
  0
SPLINE
  5
1AF
330
1F
100
AcDbEntity
  8
0
  6
Continuous
 62
     7
370
    15
100
AcDbSpline
210
0.0
220
0.0
230
1.0
 70
     8
 71
     3
 72
    12
 73
     8
 74
     0
 42
0.00000001
 43
0.00000001
 12
1.0
 22
0.0
 32
0.0
 13
1.0
 23
0.0
 33
0.0
 40
0.0
 40
0.0
 40
0.0
 40
0.0
 40
0.2526335935620225
 40
0.4991112428197897
 40
0.7494048679688986
 40
0.8428769273823176
 40
1.0
 40
1.0
 40
1.0
 40
1.0
 10
290.8234100496642
 20
157.9634139949754
 30
0.0
 10
290.8257646235018
 20
157.9679634841109
 30
0.0
 10
290.8304163970754
 20
157.9769516045923
 30
0.0
 10
290.8343146777033
 20
157.9901591834507
 30
0.0
 10
290.8359367384623
 20
157.999457841519
 30
0.0
 10
290.8366808916127
 20
158.0071571290223
 30
0.0
 10
290.8367587144132
 20
158.0110027756767
 30
0.0
 10
290.8368075092857
 20
158.0134139949754
 30
0.0
  0
SPLINE
  5
1B0
330
1F
100
AcDbEntity
  8
0
  6
Continuous
 62
     7
370
    15
100
AcDbSpline
210
0.0
220
0.0
230
1.0
 70
     8
 71
     3
 72
    12
 73
     8
 74
     0
 42
0.00000001
 43
0.00000001
 12
1.0
 22
0.0
 32
0.0
 13
1.0
 23
0.0
 33
0.0
 40
0.0
 40
0.0
 40
0.0
 40
0.0
 40
0.1571577280894016
 40
0.2505951270624719
 40
0.5008887538714176
 40
0.747366404763219
 40
1.0
 40
1.0
 40
1.0
 40
1.0
 10
290.8368075092858
 20
164.9598241564892
 30
0.0
 10
290.8367586953006
 20
164.9622359024173
 30
0.0
 10
290.8366808591867
 20
164.966081540711
 30
0.0
 10
290.8359366437902
 20
164.9737808613813
 30
0.0
 10
290.8343146774965
 20
164.9830789660942
 30
0.0
 10
290.8304163971284
 20
164.9962865473631
 30
0.0
 10
290.8257646235196
 20
165.0052746675187
 30
0.0
 10
290.8234100496643
 20
165.0098241564892
 30
0.0
  0
ARC
  5
1B1
330
1F
100
AcDbEntity
  8
0
  6
Continuous
 62
     7
370
    15
100
AcDbCircle
 10
281.6768075093
 20
132.0175905687
 30
0.0
 40
0.3299999999999982
100
AcDbArc
 50
180.0
 51
252.9455168012
  0
LINE
  5
1B2
330
1F
100
AcDbEntity
  8
0
  6
Continuous
 62
     7
370
    15
100
AcDbLine
 10
281.3524521648
 20
132.27836565
 30
0.0
 11
281.3468075093
 21
132.2175905687
 31
0.0
  0
LINE
  5
1B3
330
1F
100
AcDbEntity
  8
0
  6
Continuous
 62
     7
370
    15
100
AcDbLine
 10
281.3468075093
 20
132.2175905687
 30
0.0
 11
281.3468075093
 21
132.0175905687
 31
0.0
  0
ARC
  5
1B4
330
1F
100
AcDbEntity
  8
0
  6
Continuous
 62
     7
370
    15
100
AcDbCircle
 10
281.6767739649
 20
165.0233567132
 30
0.0
 40
0.3299291499083722
100
AcDbArc
 50
179.9796044732
 51
260.5951853125
  0
LINE
  5
1B5
330
1F
100
AcDbEntity
  8
0
  6
Continuous
 62
     7
370
    15
100
AcDbLine
 10
281.3541451526
 20
165.2805310427
 30
0.0
 11
281.3469119246
 21
165.2119418688
 31
0.0
  0
LINE
  5
1B6
330
1F
100
AcDbEntity
  8
0
  6
Continuous
 62
     7
370
    15
100
AcDbLine
 10
281.3469119246
 20
165.2119418688
 30
0.0
 11
281.3468448359
 21
165.0234741577
 31
0.0
  0
ARC
  5
1B7
330
1F
100
AcDbEntity
  8
0
  6
Continuous
 62
     7
370
    15
100
AcDbCircle
 10
281.6768345635
 20
99.0222396075
 30
0.0
 40
0.3300570830943547
100
AcDbArc
 50
180.0162567282
 51
258.8974339472
  0
LINE
  5
1B8
330
1F
100
AcDbEntity
  8
0
  6
Continuous
 62
     7
370
    15
100
AcDbLine
 10
281.3535642126
 20
99.2797916511
 30
0.0
 11
281.3467233852
 21
99.2128478816
 31
0.0
  0
LINE
  5
1B9
330
1F
100
AcDbEntity
  8
0
  6
Continuous
 62
     7
370
    15
100
AcDbLine
 10
281.3467233852
 20
99.2128478816
 30
0.0
 11
281.3467774937
 21
99.0221459593
 31
0.0
  0
LINE
  5
1BA
330
1F
100
AcDbEntity
  8
0
  6
Continuous
 62
     7
370
    15
100
AcDbLine
 10
281.3503246999
 20
132.011314784
 30
0.0
 11
281.3468075093
 21
132.1118180301
 31
0.0
  0
ARC
  5
1BB
330
1F
100
AcDbEntity
  8
0
  6
Continuous
 62
     7
370
    15
100
AcDbCircle
 10
281.6801228089
 20
132.0228563297
 30
0.0
 40
0.3300000000000043
100
AcDbArc
 50
182.0042931651
 51
260.0051001592
  0
LINE
  5
1BC
330
1F
100
AcDbEntity
  8
0
  6
Continuous
 62
     7
370
    15
100
AcDbLine
 10
281.3468075093
 20
99.0227983366
 30
0.0
 11
281.3468075093
 21
99.2123828008
 31
0.0
  0
LINE
  5
1BD
330
1F
100
AcDbEntity
  8
0
  6
Continuous
 62
     7
370
    15
100
AcDbLine
 10
280.4368075093
 20
85.2145905687
 30
0.0
 11
283.4325459693
 21
85.2145905687
 31
0.0
  0
LINE
  5
1BE
330
1F
100
AcDbEntity
  8
0
  6
Continuous
 62
     7
370
    15
100
AcDbLine
 10
283.4325459693
 20
85.2145905687
 30
0.0
 11
283.4325459693
 21
89.0575905687
 31
0.0
  0
LINE
  5
1BF
330
1F
100
AcDbEntity
  8
0
  6
Continuous
 62
     7
370
    15
100
AcDbLine
 10
280.4368075093
 20
89.0575905687
 30
0.0
 11
280.4368075093
 21
85.2145905687
 31
0.0
  0
LINE
  5
1C0
330
1F
100
AcDbEntity
  8
0
  6
Continuous
 62
     7
370
    15
100
AcDbLine
 10
287.593815378
 20
85.4326734574
 30
0.0
 11
283.4325459693
 21
85.2145905687
 31
0.0
  0
LINE
  5
1C1
330
1F
100
AcDbEntity
  8
0
  6
Continuous
 62
     7
370
    15
100
AcDbLine
 10
283.4325459693
 20
89.0575905687
 30
0.0
 11
283.4325459693
 21
175.0575905687
 31
0.0
  0
CIRCLE
  5
1C2
330
1F
100
AcDbEntity
  8
0
  6
Continuous
 62
     7
370
    15
100
AcDbCircle
 10
281.6368075093
 20
132.0575905687
 30
0.0
 40
0.3599999999999852
  0
CIRCLE
  5
1C3
330
1F
100
AcDbEntity
  8
0
  6
Continuous
 62
     7
370
    15
100
AcDbCircle
 10
281.6368075093
 20
165.0575905687
 30
0.0
 40
0.3599999999999852
  0
CIRCLE
  5
1C4
330
1F
100
AcDbEntity
  8
0
  6
Continuous
 62
     7
370
    15
100
AcDbCircle
 10
281.6368075093
 20
99.0575905687
 30
0.0
 40
0.3599999999999994
  0
ELLIPSE
  5
1C5
330
1F
100
AcDbEntity
  8
0
  6
Continuous
 62
     7
370
    15
100
AcDbEllipse
 10
282.0412711817
 20
172.5704283401
 30
0.0
 11
-0.3304528741793433
 21
0.0
 31
0.0
210
0.0
220
0.0
230
1.0
 40
0.9986295348
 41
0.0
 42
6.283185307179586
  0
ELLIPSE
  5
1C6
330
1F
100
AcDbEntity
  8
0
  6
Continuous
 62
     7
370
    15
100
AcDbEllipse
 10
282.0412711817
 20
92.7775905687
 30
0.0
 11
-0.3304528741793433
 21
0.0
 31
0.0
210
0.0
220
0.0
230
1.0
 40
0.9986295348
 41
0.0
 42
6.283185307179586
  0
LINE
  5
1C7
330
1F
100
AcDbEntity
  8
0
  6
Continuous
 62
     7
370
    15
100
AcDbLine
 10
280.4368075093
 20
175.0575905687
 30
0.0
 11
280.4368075093
 21
89.0575905687
 31
0.0
  0
CIRCLE
  5
1C8
330
1F
100
AcDbEntity
  8
0
  6
Continuous
 62
     7
370
    15
100
AcDbCircle
 10
286.039309869
 20
172.570543641
 30
0.0
 40
0.3298379927344529
  0
CIRCLE
  5
1C9
330
1F
100
AcDbEntity
  8
0
  6
Continuous
 62
     7
370
    15
100
AcDbCircle
 10
283.8765924407
 20
169.670543641
 30
0.0
 40
0.329837992734396
  0
CIRCLE
  5
1CA
330
1F
100
AcDbEntity
  8
0
  6
Continuous
 62
     7
370
    15
100
AcDbCircle
 10
286.039309869
 20
92.7777058696
 30
0.0
 40
0.3298379927345097
  0
CIRCLE
  5
1CB
330
1F
100
AcDbEntity
  8
0
  6
Continuous
 62
     7
370
    15
100
AcDbCircle
 10
283.8765924407
 20
89.8777058696
 30
0.0
 40
0.3298379927344529
  0
LINE
  5
1CC
330
1F
100
AcDbEntity
  8
0
  6
Continuous
 62
     7
370
    15
100
AcDbLine
 10
280.4368075093
 20
178.9005905687
 30
0.0
 11
283.4325459693
 21
178.9005905687
 31
0.0
  0
LINE
  5
1CD
330
1F
100
AcDbEntity
  8
0
  6
Continuous
 62
     7
370
    15
100
AcDbLine
 10
283.4325459693
 20
175.0575905687
 30
0.0
 11
283.4325459693
 21
178.9005905687
 31
0.0
  0
LINE
  5
1CE
330
1F
100
AcDbEntity
  8
0
  6
Continuous
 62
     7
370
    15
100
AcDbLine
 10
280.4368075093
 20
178.9005905687
 30
0.0
 11
280.4368075093
 21
175.0575905687
 31
0.0
  0
ARC
  5
1CF
330
1F
100
AcDbEntity
  8
0
  6
Continuous
 62
     7
370
    15
100
AcDbCircle
 10
282.0343884829
 20
172.5702023683
 30
0.0
 40
0.3297741058181555
100
AcDbArc
 50
270.0393147922
 51
0.0392609127
  0
ARC
  5
1D0
330
1F
100
AcDbEntity
  8
0
  6
Continuous
 62
     7
370
    15
100
AcDbCircle
 10
282.0343884829
 20
172.5706543119
 30
0.0
 40
0.3297741058182053
100
AcDbArc
 50
359.9607390874
 51
89.9606852078
  0
LINE
  5
1D1
330
1F
100
AcDbEntity
  8
0
  6
Continuous
 62
     7
370
    15
100
AcDbLine
 10
287.593815378
 20
178.68250768
 30
0.0
 11
283.4325459693
 21
178.9005905687
 31
0.0
  0
ARC
  5
1D2
330
1F
100
AcDbEntity
  8
0
  6
Continuous
 62
     7
370
    15
100
AcDbCircle
 10
283.8661891936
 20
169.6702023683
 30
0.0
 40
0.32977410581812
100
AcDbArc
 50
270.0393147922
 51
0.0392609127
  0
ARC
  5
1D3
330
1F
100
AcDbEntity
  8
0
  6
Continuous
 62
     7
370
    15
100
AcDbCircle
 10
283.8661891936
 20
169.6706543119
 30
0.0
 40
0.3297741058180986
100
AcDbArc
 50
359.9607390873
 51
89.9606852078
  0
ARC
  5
1D4
330
1F
100
AcDbEntity
  8
0
  6
Continuous
 62
     7
370
    15
100
AcDbCircle
 10
283.8661891936
 20
89.8773645969
 30
0.0
 40
0.32977410581812
100
AcDbArc
 50
270.0393147922
 51
0.0392609127
  0
ARC
  5
1D5
330
1F
100
AcDbEntity
  8
0
  6
Continuous
 62
     7
370
    15
100
AcDbCircle
 10
283.8661891936
 20
89.8778165405
 30
0.0
 40
0.3297741058181626
100
AcDbArc
 50
359.9607390874
 51
89.9606852078
  0
ARC
  5
1D6
330
1F
100
AcDbEntity
  8
0
  6
Continuous
 62
     7
370
    15
100
AcDbCircle
 10
286.0288969661
 20
172.5702062454
 30
0.0
 40
0.329783759055453
100
AcDbArc
 50
271.4956441013
 51
0.0385861577
  0
ARC
  5
1D7
330
1F
100
AcDbEntity
  8
0
  6
Continuous
 62
     7
370
    15
100
AcDbCircle
 10
286.028906622
 20
172.5706543119
 30
0.0
 40
0.3297741058182337
100
AcDbArc
 50
359.9607390874
 51
89.9606852078
  0
LINE
  5
1D8
330
1F
100
AcDbEntity
  8
0
  6
Continuous
 62
     7
370
    15
100
AcDbLine
 10
290.4368075093
 20
89.0575905687
 30
0.0
 11
290.4368075093
 21
88.4285620617
 31
0.0
  0
ARC
  5
1D9
330
1F
100
AcDbEntity
  8
0
  6
Continuous
 62
     7
370
    15
100
AcDbCircle
 10
287.4368075093
 20
88.4285620617
 30
0.0
 40
3.000000000000016
100
AcDbArc
 50
273.0
 51
360.0
  0
LINE
  5
1DA
330
1F
100
AcDbEntity
  8
0
  6
Continuous
 62
     7
370
    15
100
AcDbLine
 10
290.4368075093
 20
175.0575905687
 30
0.0
 11
290.4368075093
 21
89.0575905687
 31
0.0
  0
ARC
  5
1DB
330
1F
100
AcDbEntity
  8
0
  6
Continuous
 62
     7
370
    15
100
AcDbCircle
 10
287.4368075093
 20
175.6866190757
 30
0.0
 40
3.0
100
AcDbArc
 50
360.0
 51
87.0
  0
LINE
  5
1DC
330
1F
100
AcDbEntity
  8
0
  6
Continuous
 62
     7
370
    15
100
AcDbLine
 10
290.4368075093
 20
175.6866190757
 30
0.0
 11
290.4368075093
 21
175.0575905687
 31
0.0
  0
ELLIPSE
  5
1DD
330
1F
100
AcDbEntity
  8
0
  6
Continuous
 62
     7
370
    15
100
AcDbEllipse
 10
156.6825901724
 20
244.2973364661
 30
0.0
 11
2.006869438764198
 21
0.5372535883447256
 31
0.0
210
0.0
220
0.0
230
1.0
 40
0.0563780447
 41
0.0
 42
6.283185307179586
  0
ELLIPSE
  5
1DE
330
1F
100
AcDbEntity
  8
0
  6
Continuous
 62
     7
370
    15
100
AcDbEllipse
 10
156.6825901724
 20
244.2973364661
 30
0.0
 11
1.739286846928991
 21
0.4656197765654327
 31
0.0
210
0.0
220
0.0
230
1.0
 40
0.0563780447
 41
0.0
 42
6.283185307179586
  0
SPLINE
  5
1DF
330
1F
100
AcDbEntity
  8
0
  6
Continuous
 62
     7
370
    15
100
AcDbSpline
210
0.0
220
0.0
230
1.0
 70
    11
 71
     3
 72
    26
 73
    22
 74
     0
 42
0.00000001
 43
0.00000001
 12
1.0
 22
0.0
 32
0.0
 13
1.0
 23
0.0
 33
0.0
 40
0.0
 40
0.0
 40
0.0
 40
0.0
 40
0.0533464188814297
 40
0.1066807142060113
 40
0.1603291212007836
 40
0.2141866126096588
 40
0.2677051290819947
 40
0.3208700782126472
 40
0.3742081029158812
 40
0.4279803237755804
 40
0.4817782714627477
 40
0.5351422787201566
 40
0.5882927010765321
 40
0.6417797002450366
 40
0.6956302021613263
 40
0.7493066921429443
 40
0.8025476027472176
 40
0.8557654765287092
 40
0.9094040150923425
 40
0.9632639232924154
 40
1.0
 40
1.0
 40
1.0
 40
1.0
 10
137.2844413270179
 20
232.2531078319989
 30
0.0
 10
137.2854090310108
 20
232.2760394305594
 30
0.0
 10
137.2873442190753
 20
232.3218974162241
 30
0.0
 10
137.301900040616
 20
232.3830123317075
 30
0.0
 10
137.3218743301041
 20
232.4297621437882
 30
0.0
 10
137.3444438249309
 20
232.4567331317002
 30
0.0
 10
137.3656301778702
 20
232.4607110715302
 30
0.0
 10
137.382924684856
 20
232.4415144411511
 30
0.0
 10
137.3952854686635
 20
232.4013898547476
 30
0.0
 10
137.4027852966827
 20
232.344482594779
 30
0.0
 10
137.4059942715384
 20
232.277137472531
 30
0.0
 10
137.4054022915484
 20
232.2073200392171
 30
0.0
 10
137.4009569595083
 20
232.1428530552554
 30
0.0
 10
137.3920513779257
 20
232.0905392819065
 30
0.0
 10
137.378068453165
 20
232.0562666934443
 30
0.0
 10
137.359277236165
 20
232.0442059727479
 30
0.0
 10
137.3374062493887
 20
232.0555829121209
 30
0.0
 10
137.3153055981597
 20
232.0888831195151
 30
0.0
 10
137.2967818391787
 20
232.1405973186629
 30
0.0
 10
137.2860413882774
 20
232.1985318985631
 30
0.0
 10
137.2849029544542
 20
232.2373623422012
 30
0.0
 10
137.2844413270179
 20
232.2531078319989
 30
0.0
  0
LINE
  5
1E0
330
1F
100
AcDbEntity
  8
0
  6
Continuous
 62
     7
370
    15
100
AcDbLine
 10
137.9254310934
 20
231.253107832
 30
0.0
 11
133.9254310934
 21
231.253107832
 31
0.0
  0
SPLINE
  5
1E1
330
1F
100
AcDbEntity
  8
0
  6
Continuous
 62
     7
370
    15
100
AcDbSpline
210
0.0
220
0.0
230
1.0
 70
    24
 71
     3
 72
    11
 73
     7
 74
     0
 42
0.00000001
 43
0.00000001
 12
1.0
 22
0.0
 32
0.0
 13
1.0
 23
0.0
 33
0.0
 40
0.0
 40
0.0
 40
0.0
 40
0.0
 40
0.267661395131833
 40
0.5513556034091369
 40
0.846844099162906
 40
1.0
 40
1.0
 40
1.0
 40
1.0
 10
290.5629485553584
 20
212.1045042811906
 30
0.0
 10
290.5692533570974
 20
212.0909835902289
 30
0.0
 10
290.5822406157399
 20
212.0631323241919
 30
0.0
 10
290.6620472100125
 20
211.8919865304719
 30
0.0
 10
290.760852223223
 20
211.680098495861
 30
0.0
 10
290.8496352557231
 20
211.4897026682406
 30
0.0
 10
290.8799435476018
 20
211.4247063265579
 30
0.0
  0
LINE
  5
1E2
330
1F
100
AcDbEntity
  8
0
  6
Continuous
 62
     7
370
    15
100
AcDbLine
 10
294.5731933364
 20
214.1524137195
 30
0.0
 11
295.775864955
 21
211.5732761103
 31
0.0
  0
SPLINE
  5
1E3
330
1F
100
AcDbEntity
  8
0
  6
Continuous
 62
     7
370
    15
100
AcDbSpline
210
0.0
220
0.0
230
1.0
 70
     8
 71
     3
 72
    12
 73
     8
 74
     0
 42
0.00000001
 43
0.00000001
 12
1.0
 22
0.0
 32
0.0
 13
1.0
 23
0.0
 33
0.0
 40
0.0
 40
0.0
 40
0.0
 40
0.0
 40
0.1656748944078428
 40
0.3785911782740997
 40
0.6000740934521799
 40
0.8278168329107662
 40
0.9999999999999999
 40
0.9999999999999999
 40
0.9999999999999999
 40
0.9999999999999999
 10
299.1706699598541
 20
210.0018379887978
 30
0.0
 10
299.1628974103581
 20
209.9965177471373
 30
0.0
 10
299.1451360067223
 20
209.9843602228113
 30
0.0
 10
298.9984860723631
 20
209.9181469464872
 30
0.0
 10
298.7787934665479
 20
209.8017321390273
 30
0.0
 10
298.5303078448231
 20
209.6415799442021
 30
0.0
 10
298.3776852679076
 20
209.5057372056392
 30
0.0
 10
298.3119754995921
 20
209.4472517897936
 30
0.0
  0
LINE
  5
1E4
330
1F
100
AcDbEntity
  8
0
  6
Continuous
 62
     7
370
    15
100
AcDbLine
 10
299.6010871626
 20
210.468665363
 30
0.0
 11
297.6879031075
 21
214.5715018095
 31
0.0
  0
LINE
  5
1E5
330
1F
100
AcDbEntity
  8
0
  6
Continuous
 62
     7
370
    15
100
AcDbLine
 10
298.8064959277
 20
212.105745478
 30
0.0
 11
298.8031347542
 21
212.1048180262
 31
0.0
  0
LINE
  5
1E6
330
1F
100
AcDbEntity
  8
0
  6
Continuous
 62
     7
370
    15
100
AcDbLine
 10
129.8636525553
 20
164.0192348809
 30
0.0
 11
129.8636525553
 21
167.5829807831
 31
0.0
  0
LINE
  5
1E7
330
1F
100
AcDbEntity
  8
0
  6
Continuous
 62
     7
370
    15
100
AcDbLine
 10
129.0636525553
 20
164.043431472
 30
0.0
 11
129.0636525553
 21
167.558784192
 31
0.0
  0
LINE
  5
1E8
330
1F
100
AcDbEntity
  8
0
  6
Continuous
 62
     7
370
    15
100
AcDbLine
 10
129.2636525553
 20
163.8192348809
 30
0.0
 11
129.2636525553
 21
167.7829807831
 31
0.0
  0
LINE
  5
1E9
330
1F
100
AcDbEntity
  8
0
  6
Continuous
 62
     7
370
    15
100
AcDbLine
 10
129.4636525553
 20
164.0192348809
 30
0.0
 11
129.4636525553
 21
167.5829807831
 31
0.0
  0
LINE
  5
1EA
330
1F
100
AcDbEntity
  8
0
  6
Continuous
 62
     7
370
    15
100
AcDbLine
 10
129.6636525553
 20
163.8192348809
 30
0.0
 11
129.6636525553
 21
167.7829807831
 31
0.0
  0
LINE
  5
1EB
330
1F
100
AcDbEntity
  8
0
  6
Continuous
 62
     7
370
    15
100
AcDbLine
 10
128.8636525553
 20
163.8719295899
 30
0.0
 11
128.8636525553
 21
167.7302860741
 31
0.0
  0
LINE
  5
1EC
330
1F
100
AcDbEntity
  8
0
  6
Continuous
 62
     7
370
    15
100
AcDbLine
 10
128.6636525553
 20
164.1051631819
 30
0.0
 11
128.6636525553
 21
167.4970524821
 31
0.0
  0
LINE
  5
1ED
330
1F
100
AcDbEntity
  8
0
  6
Continuous
 62
     7
370
    15
100
AcDbLine
 10
128.2636525553
 20
164.1668948919
 30
0.0
 11
128.2636525553
 21
167.4353207721
 31
0.0
  0
LINE
  5
1EE
330
1F
100
AcDbEntity
  8
0
  6
Continuous
 62
     7
370
    15
100
AcDbLine
 10
128.4636525553
 20
163.9336612999
 30
0.0
 11
128.4636525553
 21
167.6685543642
 31
0.0
  0
LINE
  5
1EF
330
1F
100
AcDbEntity
  8
0
  6
Continuous
 62
     7
370
    15
100
AcDbLine
 10
128.0636525553
 20
163.9953930098
 30
0.0
 11
128.0636525553
 21
167.6068226542
 31
0.0
  0
LINE
  5
1F0
330
1F
100
AcDbEntity
  8
0
  6
Continuous
 62
     7
370
    15
100
AcDbLine
 10
127.8636525553
 20
164.2286266018
 30
0.0
 11
127.8636525553
 21
167.3735890622
 31
0.0
  0
LINE
  5
1F1
330
1F
100
AcDbEntity
  8
0
  6
Continuous
 62
     7
370
    15
100
AcDbLine
 10
127.4636525553
 20
164.2903583118
 30
0.0
 11
127.4636525553
 21
167.3118573522
 31
0.0
  0
LINE
  5
1F2
330
1F
100
AcDbEntity
  8
0
  6
Continuous
 62
     7
370
    15
100
AcDbLine
 10
127.6636525553
 20
164.0571247198
 30
0.0
 11
127.6636525553
 21
167.5450909443
 31
0.0
  0
LINE
  5
1F3
330
1F
100
AcDbEntity
  8
0
  6
Continuous
 62
     7
370
    15
100
AcDbLine
 10
127.2636525553
 20
164.1188564297
 30
0.0
 11
127.2636525553
 21
167.4833592343
 31
0.0
  0
LINE
  5
1F4
330
1F
100
AcDbEntity
  8
0
  6
Continuous
 62
     7
370
    15
100
AcDbLine
 10
127.0636525553
 20
164.3520900217
 30
0.0
 11
127.0636525553
 21
167.2501256423
 31
0.0
  0
CIRCLE
  5
1F5
330
1F
100
AcDbEntity
  8
0
  6
Continuous
 62
     7
370
    15
100
AcDbCircle
 10
133.1954310934
 20
226.453107832
 30
0.0
 40
0.4199999999999875
  0
CIRCLE
  5
1F6
330
1F
100
AcDbEntity
  8
0
  6
Continuous
 62
     7
370
    15
100
AcDbCircle
 10
211.1954310934
 20
226.453107832
 30
0.0
 40
0.4200000000000159
  0
ARC
  5
1F7
330
1F
100
AcDbEntity
  8
0
  6
Continuous
 62
     7
370
    15
100
AcDbCircle
 10
118.5254310934
 20
231.303107832
 30
0.0
 40
0.8499999999999943
100
AcDbArc
 50
180.0
 51
270.0
  0
ARC
  5
1F8
330
1F
100
AcDbEntity
  8
0
  6
Continuous
 62
     7
370
    15
100
AcDbCircle
 10
118.5254310934
 20
231.303107832
 30
0.0
 40
0.4499999999999886
100
AcDbArc
 50
180.0
 51
270.0
  0
LINE
  5
1F9
330
1F
100
AcDbEntity
  8
0
  6
Continuous
 62
     7
370
    15
100
AcDbLine
 10
117.6754310934
 20
231.303107832
 30
0.0
 11
117.6754310934
 21
233.603107832
 31
0.0
  0
LINE
  5
1FA
330
1F
100
AcDbEntity
  8
0
  6
Continuous
 62
     7
370
    15
100
AcDbLine
 10
118.0754310934
 20
231.303107832
 30
0.0
 11
118.0754310934
 21
233.603107832
 31
0.0
  0
ARC
  5
1FB
330
1F
100
AcDbEntity
  8
0
  6
Continuous
 62
     7
370
    15
100
AcDbCircle
 10
131.8254310934
 20
233.603107832
 30
0.0
 40
0.8499999999999943
100
AcDbArc
 50
0.0
 51
90.0
  0
ARC
  5
1FC
330
1F
100
AcDbEntity
  8
0
  6
Continuous
 62
     7
370
    15
100
AcDbCircle
 10
131.8254310934
 20
233.603107832
 30
0.0
 40
0.4499999999999886
100
AcDbArc
 50
0.0
 51
90.0
  0
LINE
  5
1FD
330
1F
100
AcDbEntity
  8
0
  6
Continuous
 62
     7
370
    15
100
AcDbLine
 10
132.6754310934
 20
233.603107832
 30
0.0
 11
132.6754310934
 21
231.303107832
 31
0.0
  0
LINE
  5
1FE
330
1F
100
AcDbEntity
  8
0
  6
Continuous
 62
     7
370
    15
100
AcDbLine
 10
132.2754310934
 20
233.603107832
 30
0.0
 11
132.2754310934
 21
231.303107832
 31
0.0
  0
LINE
  5
1FF
330
1F
100
AcDbEntity
  8
0
  6
Continuous
 62
     7
370
    15
100
AcDbLine
 10
120.6754310934
 20
230.853107832
 30
0.0
 11
120.6754310934
 21
230.453107832
 31
0.0
  0
LINE
  5
200
330
1F
100
AcDbEntity
  8
0
  6
Continuous
 62
     7
370
    15
100
AcDbLine
 10
120.6754310934
 20
230.853107832
 30
0.0
 11
118.5254310934
 21
230.853107832
 31
0.0
  0
LINE
  5
201
330
1F
100
AcDbEntity
  8
0
  6
Continuous
 62
     7
370
    15
100
AcDbLine
 10
120.6754310934
 20
230.453107832
 30
0.0
 11
118.5254310934
 21
230.453107832
 31
0.0
  0
ARC
  5
202
330
1F
100
AcDbEntity
  8
0
  6
Continuous
 62
     7
370
    15
100
AcDbCircle
 10
118.5254310934
 20
233.603107832
 30
0.0
 40
0.8499999999999943
100
AcDbArc
 50
90.0
 51
180.0
  0
ARC
  5
203
330
1F
100
AcDbEntity
  8
0
  6
Continuous
 62
     7
370
    15
100
AcDbCircle
 10
118.5254310934
 20
233.603107832
 30
0.0
 40
0.4499999999999886
100
AcDbArc
 50
90.0
 51
180.0
  0
LINE
  5
204
330
1F
100
AcDbEntity
  8
0
  6
Continuous
 62
     7
370
    15
100
AcDbLine
 10
118.5254310934
 20
234.453107832
 30
0.0
 11
131.8254310934
 21
234.453107832
 31
0.0
  0
LINE
  5
205
330
1F
100
AcDbEntity
  8
0
  6
Continuous
 62
     7
370
    15
100
AcDbLine
 10
118.5254310934
 20
234.053107832
 30
0.0
 11
131.8254310934
 21
234.053107832
 31
0.0
  0
ARC
  5
206
330
1F
100
AcDbEntity
  8
0
  6
Continuous
 62
     7
370
    15
100
AcDbCircle
 10
292.3847221831
 20
222.2539625687
 30
0.0
 40
2.399999999999979
100
AcDbArc
 50
295.0
 51
335.0
  0
ARC
  5
207
330
1F
100
AcDbEntity
  8
0
  6
Continuous
 62
     7
370
    15
100
AcDbCircle
 10
292.3847221831
 20
222.2539625687
 30
0.0
 40
1.999999999999963
100
AcDbArc
 50
295.0
 51
335.0
  0
LINE
  5
208
330
1F
100
AcDbEntity
  8
0
  6
Continuous
 62
     7
370
    15
100
AcDbLine
 10
297.4505697823
 20
227.4388240038
 30
0.0
 11
294.559860872
 21
221.2396787405
 31
0.0
  0
LINE
  5
209
330
1F
100
AcDbEntity
  8
0
  6
Continuous
 62
     7
370
    15
100
AcDbLine
 10
297.0880466675
 20
227.6078713085
 30
0.0
 11
294.1973377572
 21
221.4087260452
 31
0.0
  0
LINE
  5
20A
330
1F
100
AcDbEntity
  8
0
  6
Continuous
 62
     7
370
    15
100
AcDbLine
 10
289.3509613781
 20
218.6325408344
 30
0.0
 11
289.5200086828
 21
218.2700177195
 31
0.0
  0
LINE
  5
20B
330
1F
100
AcDbEntity
  8
0
  6
Continuous
 62
     7
370
    15
100
AcDbLine
 10
293.3990060113
 20
220.0788238798
 30
0.0
 11
289.5200086828
 21
218.2700177195
 31
0.0
  0
LINE
  5
20C
330
1F
100
AcDbEntity
  8
0
  6
Continuous
 62
     7
370
    15
100
AcDbLine
 10
293.2299587066
 20
220.4413469946
 30
0.0
 11
289.3509613781
 21
218.6325408344
 31
0.0
  0
LINE
  5
20D
330
1F
100
AcDbEntity
  8
0
  6
Continuous
 62
     7
370
    15
100
AcDbLine
 10
133.1254310934
 20
230.853107832
 30
0.0
 11
295.2754310934
 21
230.853107832
 31
0.0
  0
LINE
  5
20E
330
1F
100
AcDbEntity
  8
0
  6
Continuous
 62
     7
370
    15
100
AcDbLine
 10
133.1254310934
 20
230.453107832
 30
0.0
 11
295.2754310934
 21
230.453107832
 31
0.0
  0
ARC
  5
20F
330
1F
100
AcDbEntity
  8
0
  6
Continuous
 62
     7
370
    15
100
AcDbCircle
 10
295.2754310934
 20
228.453107832
 30
0.0
 40
2.400000000000006
100
AcDbArc
 50
335.0
 51
90.0
  0
ARC
  5
210
330
1F
100
AcDbEntity
  8
0
  6
Continuous
 62
     7
370
    15
100
AcDbCircle
 10
295.2754310934
 20
228.453107832
 30
0.0
 40
2.000000000000027
100
AcDbArc
 50
335.0
 51
90.0
  0
ARC
  5
211
330
1F
100
AcDbEntity
  8
0
  6
Continuous
 62
     7
370
    15
100
AcDbCircle
 10
133.1254310934
 20
231.303107832
 30
0.0
 40
0.4499999999999886
100
AcDbArc
 50
180.0
 51
270.0
  0
ARC
  5
212
330
1F
100
AcDbEntity
  8
0
  6
Continuous
 62
     7
370
    15
100
AcDbCircle
 10
133.1254310934
 20
231.303107832
 30
0.0
 40
0.8499999999999943
100
AcDbArc
 50
180.0
 51
270.0
  0
LINE
  5
213
330
1F
100
AcDbEntity
  8
0
  6
Continuous
 62
     7
370
    15
100
AcDbLine
 10
118.4754310934
 20
234.001107832
 30
0.0
 11
131.7754310934
 21
234.001107832
 31
0.0
  0
LINE
  5
214
330
1F
100
AcDbEntity
  8
0
  6
Continuous
 62
     7
370
    15
100
AcDbLine
 10
120.6754310932
 20
230.871107832
 30
0.0
 11
118.4754310934
 21
230.871107832
 31
0.0
  0
ARC
  5
215
330
1F
100
AcDbEntity
  8
0
  6
Continuous
 62
     7
370
    15
100
AcDbCircle
 10
118.4754310934
 20
231.271107832
 30
0.0
 40
0.4000000000000057
100
AcDbArc
 50
180.0
 51
270.0
  0
LINE
  5
216
330
1F
100
AcDbEntity
  8
0
  6
Continuous
 62
     7
370
    15
100
AcDbLine
 10
118.0754310934
 20
231.271107832
 30
0.0
 11
118.0754310934
 21
233.601107832
 31
0.0
  0
ARC
  5
217
330
1F
100
AcDbEntity
  8
0
  6
Continuous
 62
     7
370
    15
100
AcDbCircle
 10
118.4754310934
 20
233.601107832
 30
0.0
 40
0.4000000000000057
100
AcDbArc
 50
90.0
 51
180.0
  0
ARC
  5
218
330
1F
100
AcDbEntity
  8
0
  6
Continuous
 62
     7
370
    15
100
AcDbCircle
 10
131.7754310934
 20
233.601107832
 30
0.0
 40
0.4000000000000057
100
AcDbArc
 50
0.0
 51
90.0
  0
LINE
  5
219
330
1F
100
AcDbEntity
  8
0
  6
Continuous
 62
     7
370
    15
100
AcDbLine
 10
132.1754310934
 20
233.601107832
 30
0.0
 11
132.1754310934
 21
230.921107832
 31
0.0
  0
LINE
  5
21A
330
1F
100
AcDbEntity
  8
0
  6
Continuous
 62
     7
370
    15
100
AcDbLine
 10
120.6754310932
 20
230.921107832
 30
0.0
 11
120.6754310932
 21
230.871107832
 31
0.0
  0
LINE
  5
21B
330
1F
100
AcDbEntity
  8
0
  6
Continuous
 62
     7
370
    15
100
AcDbLine
 10
118.4754310934
 20
234.001107832
 30
0.0
 11
118.4754310934
 21
233.541107832
 31
0.0
  0
LINE
  5
21C
330
1F
100
AcDbEntity
  8
0
  6
Continuous
 62
     7
370
    15
100
AcDbLine
 10
131.7754310934
 20
233.541107832
 30
0.0
 11
131.7754310934
 21
234.001107832
 31
0.0
  0
LINE
  5
21D
330
1F
100
AcDbEntity
  8
0
  6
Continuous
 62
     7
370
    15
100
AcDbLine
 10
132.1754310934
 20
230.921107832
 30
0.0
 11
132.1754310934
 21
230.461107832
 31
0.0
  0
LINE
  5
21E
330
1F
100
AcDbEntity
  8
0
  6
Continuous
 62
     7
370
    15
100
AcDbLine
 10
132.1754310934
 20
230.461107832
 30
0.0
 11
120.6754310932
 21
230.461107832
 31
0.0
  0
LINE
  5
21F
330
1F
100
AcDbEntity
  8
0
  6
Continuous
 62
     7
370
    15
100
AcDbLine
 10
120.6754310932
 20
230.853107832
 30
0.0
 11
120.6754310932
 21
230.871107832
 31
0.0
  0
LINE
  5
220
330
1F
100
AcDbEntity
  8
0
  6
Continuous
 62
     7
370
    15
100
AcDbLine
 10
132.1754310934
 20
230.613107832
 30
0.0
 11
132.1954310934
 21
230.613107832
 31
0.0
  0
LINE
  5
221
330
1F
100
AcDbEntity
  8
0
  6
Continuous
 62
     7
370
    15
100
AcDbLine
 10
132.1954310934
 20
230.613107832
 30
0.0
 11
132.1954310934
 21
230.461107832
 31
0.0
  0
LINE
  5
222
330
1F
100
AcDbEntity
  8
0
  6
Continuous
 62
     7
370
    15
100
AcDbLine
 10
132.1954310934
 20
230.613107832
 30
0.0
 11
132.1954310934
 21
230.913107832
 31
0.0
  0
LINE
  5
223
330
1F
100
AcDbEntity
  8
0
  6
Continuous
 62
     7
370
    15
100
AcDbLine
 10
120.6754310932
 20
230.863107832
 30
0.0
 11
118.4954310934
 21
230.863107832
 31
0.0
  0
ARC
  5
224
330
1F
100
AcDbEntity
  8
0
  6
Continuous
 62
     7
370
    15
100
AcDbCircle
 10
118.4954310934
 20
231.263107832
 30
0.0
 40
0.4000000000000388
100
AcDbArc
 50
246.6556752537
 51
270.0
  0
LWPOLYLINE
  5
225
330
1F
100
AcDbEntity
  8
0
  6
Continuous
 62
     7
370
    15
100
AcDbPolyline
 90
        3
 70
   128
 43
0.0
 10
132.165721734
 20
233.7443851982
 10
132.1877452056
 20
233.6711439608
 10
132.1954310934
 20
233.593107832
  0
LINE
  5
226
330
1F
100
AcDbEntity
  8
0
  6
Continuous
 62
     7
370
    15
100
AcDbLine
 10
132.1954310934
 20
233.593107832
 30
0.0
 11
132.1954310934
 21
230.913107832
 31
0.0
  0
LINE
  5
227
330
1F
100
AcDbEntity
  8
0
  6
Continuous
 62
     7
370
    15
100
AcDbLine
 10
123.6754312741
 20
236.753107832
 30
0.0
 11
126.6754310934
 21
236.753107832
 31
0.0
  0
LINE
  5
228
330
1F
100
AcDbEntity
  8
0
  6
Continuous
 62
     7
370
    15
100
AcDbLine
 10
278.9436525553
 20
181.1968685189
 30
0.0
 11
278.9436525553
 21
181.1784770785
 31
0.0
  0
LWPOLYLINE
  5
229
330
1F
100
AcDbEntity
  8
0
  6
Continuous
 62
     7
370
    15
100
AcDbPolyline
 90
        3
 70
   128
 43
0.0
 10
130.1411334569
 20
181.0877525934
 10
130.1357845897
 20
181.0932398664
 10
130.1155231985
 20
181.1117279879
  0
LINE
  5
22A
330
1F
100
AcDbEntity
  8
0
  6
Continuous
 62
     7
370
    15
100
AcDbLine
 10
293.2299587066
 20
220.4493469946
 30
0.0
 11
286.1513015123
 21
217.1485149354
 31
0.0
  0
SPLINE
  5
22B
330
1F
100
AcDbEntity
  8
0
  6
Continuous
 62
     7
370
    15
100
AcDbSpline
210
0.0
220
0.0
230
1.0
 70
     8
 71
     3
 72
    11
 73
     7
 74
     0
 42
0.00000001
 43
0.00000001
 12
1.0
 22
0.0
 32
0.0
 13
1.0
 23
0.0
 33
0.0
 40
0.0
 40
0.0
 40
0.0
 40
0.0
 40
0.2889759275643379
 40
0.5779517763247483
 40
0.8674414070446229
 40
1.0
 40
1.0
 40
1.0
 40
1.0
 10
286.1513015122721
 20
217.1485149354429
 30
0.0
 10
286.0905959303611
 20
217.1304598585798
 30
0.0
 10
285.9691847830935
 20
217.0943497097773
 30
0.0
 10
285.7394811876072
 20
217.1422269827116
 30
0.0
 10
285.5325696280672
 20
217.2205830384762
 30
0.0
 10
285.4071799435686
 20
217.2739522363664
 30
0.0
 10
285.3677970502976
 20
217.2907146473484
 30
0.0
  0
SPLINE
  5
22C
330
1F
100
AcDbEntity
  8
0
  6
Continuous
 62
     7
370
    15
100
AcDbSpline
210
0.0
220
0.0
230
1.0
 70
     8
 71
     3
 72
    11
 73
     7
 74
     0
 42
0.00000001
 43
0.00000001
 12
1.0
 22
0.0
 32
0.0
 13
1.0
 23
0.0
 33
0.0
 40
0.0
 40
0.0
 40
0.0
 40
0.0
 40
0.2888077077192571
 40
0.5776153362194958
 40
0.8669345414320012
 40
1.0
 40
1.0
 40
1.0
 40
1.0
 10
285.3677970502975
 20
217.2907146473484
 30
0.0
 10
285.457336655253
 20
217.2634728963772
 30
0.0
 10
285.6364158406036
 20
217.208989401907
 30
0.0
 10
285.8658481584157
 20
217.1089875364841
 30
0.0
 10
286.0008256681622
 20
217.0017373903985
 30
0.0
 10
286.0450964850521
 20
216.9219277631879
 30
0.0
 10
286.0590432900756
 20
216.8967850306184
 30
0.0
  0
LINE
  5
22D
330
1F
100
AcDbEntity
  8
0
  6
Continuous
 62
     7
370
    15
100
AcDbLine
 10
286.0590432901
 20
216.8967850306
 30
0.0
 11
286.13323435
 21
216.7376817891
 31
0.0
  0
CIRCLE
  5
22E
330
1F
100
AcDbEntity
  8
0
  6
Continuous
 62
     7
370
    15
100
AcDbCircle
 10
133.1954310934
 20
226.461107832
 30
0.0
 40
1.269532621074319
  0
CIRCLE
  5
22F
330
1F
100
AcDbEntity
  8
0
  6
Continuous
 62
     7
370
    15
100
AcDbCircle
 10
287.1954310934
 20
226.461107832
 30
0.0
 40
1.269532621074347
  0
CIRCLE
  5
230
330
1F
100
AcDbEntity
  8
0
  6
Continuous
 62
     7
370
    15
100
AcDbCircle
 10
211.1954310934
 20
226.461107832
 30
0.0
 40
1.269532621074319
  0
ARC
  5
231
330
1F
100
AcDbEntity
  8
0
  6
Continuous
 62
     7
370
    15
100
AcDbCircle
 10
292.3847221831
 20
222.2619625687
 30
0.0
 40
2.000000000000052
100
AcDbArc
 50
295.0
 51
335.0
  0
SPLINE
  5
232
330
1F
100
AcDbEntity
  8
0
  6
Continuous
 62
     7
370
    15
100
AcDbSpline
210
0.0
220
0.0
230
1.0
 70
     8
 71
     3
 72
    11
 73
     7
 74
     0
 42
0.00000001
 43
0.00000001
 12
1.0
 22
0.0
 32
0.0
 13
1.0
 23
0.0
 33
0.0
 40
0.0
 40
0.0
 40
0.0
 40
0.0
 40
0.2889759275644291
 40
0.5779517763249495
 40
0.867441407044929
 40
1.0
 40
1.0
 40
1.0
 40
1.0
 10
278.643652555315
 20
181.481107832013
 30
0.0
 10
278.7133304583493
 20
181.4184594852109
 30
0.0
 10
278.8526862454167
 20
181.2931628086911
 30
0.0
 10
279.0184103436361
 20
181.1052144612559
 30
0.0
 10
279.0952873845997
 20
180.950803603701
 30
0.0
 10
279.1016531654291
 20
180.8597167538688
 30
0.0
 10
279.1036525553151
 20
180.831107832013
 30
0.0
  0
LINE
  5
233
330
1F
100
AcDbEntity
  8
0
  6
Continuous
 62
     7
370
    15
100
AcDbLine
 10
279.1036525553
 20
85.0225220456
 30
0.0
 11
279.1036525553
 21
180.831107832
 31
0.0
  0
SPLINE
  5
234
330
1F
100
AcDbEntity
  8
0
  6
Continuous
 62
     7
370
    15
100
AcDbSpline
210
0.0
220
0.0
230
1.0
 70
     8
 71
     3
 72
    12
 73
     8
 74
     0
 42
0.00000001
 43
0.00000001
 12
1.0
 22
0.0
 32
0.0
 13
1.0
 23
0.0
 33
0.0
 40
0.0
 40
0.0
 40
0.0
 40
0.0
 40
0.209682100152868
 40
0.4420453733185995
 40
0.674433296668122
 40
0.9068208701180489
 40
1.0
 40
1.0
 40
1.0
 40
1.0
 10
279.1036525553151
 20
85.02252204557546
 30
0.0
 10
279.0987845612813
 20
85.04337908716096
 30
0.0
 10
279.088522005544
 20
85.08734926261832
 30
0.0
 10
279.0043358881583
 20
85.1545428885949
 30
0.0
 10
278.8739779925791
 20
85.22392394227825
 30
0.0
 10
278.7440897847586
 20
85.27959927472483
 30
0.0
 10
278.6660018013373
 20
85.31187136696914
 30
0.0
 10
278.643652555315
 20
85.32110783201308
 30
0.0
  0
SPLINE
  5
235
330
1F
100
AcDbEntity
  8
0
  6
Continuous
 62
     7
370
    15
100
AcDbSpline
210
0.0
220
0.0
230
1.0
 70
     8
 71
     3
 72
    14
 73
    10
 74
     0
 42
0.00000001
 43
0.00000001
 12
1.0
 22
0.0
 32
0.0
 13
1.0
 23
0.0
 33
0.0
 40
0.0
 40
0.0
 40
0.0
 40
0.0
 40
0.0773022203762852
 40
0.2420616783293315
 40
0.4022017123941896
 40
0.5669611445855111
 40
0.7274490511774483
 40
0.8925876546305028
 40
1.0
 40
1.0
 40
1.0
 40
1.0
 10
279.2936525553146
 20
181.0274999465065
 30
0.0
 10
279.2769035812894
 20
181.0289378637442
 30
0.0
 10
279.2244563845194
 20
181.0334405113805
 30
0.0
 10
279.1372956947346
 20
181.0678242470467
 30
0.0
 10
279.031209934682
 20
181.127538275073
 30
0.0
 10
278.9260206671252
 20
181.2075773392986
 30
0.0
 10
278.8197817055782
 20
181.3032428903316
 30
0.0
 10
278.7259161042741
 20
181.396659099984
 30
0.0
 10
278.6669077509278
 20
181.4572349039977
 30
0.0
 10
278.643652555315
 20
181.481107832013
 30
0.0
  0
ARC
  5
236
330
1F
100
AcDbEntity
  8
0
  6
Continuous
 62
     7
370
    15
100
AcDbCircle
 10
295.2754310934
 20
228.461107832
 30
0.0
 40
2.0
100
AcDbArc
 50
335.0
 51
0.0
  0
SPLINE
  5
237
330
1F
100
AcDbEntity
  8
0
  6
Continuous
 62
     7
370
    15
100
AcDbSpline
210
0.0
220
0.0
230
1.0
 70
     8
 71
     3
 72
    12
 73
     8
 74
     0
 42
0.00000001
 43
0.00000001
 12
1.0
 22
0.0
 32
0.0
 13
1.0
 23
0.0
 33
0.0
 40
0.0
 40
0.0
 40
0.0
 40
0.0
 40
0.2096821001528693
 40
0.4420453733185906
 40
0.6744332966681263
 40
0.9068208701180662
 40
1.0
 40
1.0
 40
1.0
 40
1.0
 10
278.643652555315
 20
85.32110783201308
 30
0.0
 10
278.6645095969005
 20
85.27064164041802
 30
0.0
 10
278.7084797723579
 20
85.1642503629206
 30
0.0
 10
278.7756733983345
 20
85.01997407695761
 30
0.0
 10
278.8450544520179
 20
84.91130229016035
 30
0.0
 10
278.9007297844644
 20
84.86557792213166
 30
0.0
 10
278.9330018767087
 20
84.86210251440681
 30
0.0
 10
278.9422383417527
 20
84.86110783201309
 30
0.0
  0
SPLINE
  5
238
330
1F
100
AcDbEntity
  8
0
  6
Continuous
 62
     7
370
    15
100
AcDbSpline
210
0.0
220
0.0
230
1.0
 70
     8
 71
     3
 72
    11
 73
     7
 74
     0
 42
0.00000001
 43
0.00000001
 12
1.0
 22
0.0
 32
0.0
 13
1.0
 23
0.0
 33
0.0
 40
0.0
 40
0.0
 40
0.0
 40
0.0
 40
0.2543211584721111
 40
0.5088664984542078
 40
0.7634130007197121
 40
1.0
 40
1.0
 40
1.0
 40
1.0
 10
278.643652555315
 20
85.32110783201308
 30
0.0
 10
278.6689687768721
 20
85.28111279398524
 30
0.0
 10
278.7196235359777
 20
85.201087462711
 30
0.0
 10
278.7956124698747
 20
85.10076271189189
 30
0.0
 10
278.869857496209
 20
85.03354966252012
 30
0.0
 10
278.9187068251427
 20
85.02515275769798
 30
0.0
 10
278.9422383417527
 20
85.0211078320131
 30
0.0
  0
LINE
  5
239
330
1F
100
AcDbEntity
  8
0
  6
Continuous
 62
     7
370
    15
100
AcDbLine
 10
278.9422383418
 20
84.861107832
 30
0.0
 11
278.9422383418
 21
85.021107832
 31
0.0
  0
LINE
  5
23A
330
1F
100
AcDbEntity
  8
0
  6
Continuous
 62
     7
370
    15
100
AcDbLine
 10
278.9422383418
 20
84.861107832
 30
0.0
 11
130.207400825
 21
84.861107832
 31
0.0
  0
SPLINE
  5
23B
330
1F
100
AcDbEntity
  8
0
  6
Continuous
 62
     7
370
    15
100
AcDbSpline
210
0.0
220
0.0
230
1.0
 70
     8
 71
     3
 72
    12
 73
     8
 74
     0
 42
0.00000001
 43
0.00000001
 12
1.0
 22
0.0
 32
0.0
 13
1.0
 23
0.0
 33
0.0
 40
0.0
 40
0.0
 40
0.0
 40
0.0
 40
0.2096821001528661
 40
0.4420453733186066
 40
0.6744332966681168
 40
0.9068208701180445
 40
1.0
 40
1.0
 40
1.0
 40
1.0
 10
130.2074008249805
 20
84.86110783201309
 30
0.0
 10
130.228257866566
 20
84.8659758260468
 30
0.0
 10
130.2722280420234
 20
84.87623838178418
 30
0.0
 10
130.3394216679999
 20
84.96042449916992
 30
0.0
 10
130.4088027216833
 20
85.09078239474903
 30
0.0
 10
130.4644780541299
 20
85.22067060256954
 30
0.0
 10
130.4967501463742
 20
85.2987585859908
 30
0.0
 10
130.5059866114181
 20
85.32110783201308
 30
0.0
  0
LINE
  5
23C
330
1F
100
AcDbEntity
  8
0
  6
Continuous
 62
     7
370
    15
100
AcDbLine
 10
294.1973377572
 20
221.4167260452
 30
0.0
 11
297.0880466675
 21
227.6158713085
 31
0.0
  0
LINE
  5
23D
330
1F
100
AcDbEntity
  8
0
  6
Continuous
 62
     7
370
    15
100
AcDbLine
 10
279.1036525553
 20
85.0225220456
 30
0.0
 11
278.9436525553
 21
85.0225220456
 31
0.0
  0
SPLINE
  5
23E
330
1F
100
AcDbEntity
  8
0
  6
Continuous
 62
     7
370
    15
100
AcDbSpline
210
0.0
220
0.0
230
1.0
 70
     8
 71
     3
 72
    11
 73
     7
 74
     0
 42
0.00000001
 43
0.00000001
 12
1.0
 22
0.0
 32
0.0
 13
1.0
 23
0.0
 33
0.0
 40
0.0
 40
0.0
 40
0.0
 40
0.0
 40
0.2543211584721385
 40
0.5088664984542391
 40
0.7634130007197241
 40
1.0
 40
1.0
 40
1.0
 40
1.0
 10
278.9436525553151
 20
85.02252204557546
 30
0.0
 10
278.9389817429112
 20
85.04783826713255
 30
0.0
 10
278.92963600083
 20
85.09849302623807
 30
0.0
 10
278.857858477591
 20
85.17448196013517
 30
0.0
 10
278.7580138817331
 20
85.24872698646935
 30
0.0
 10
278.6808322184141
 20
85.29757631540318
 30
0.0
 10
278.643652555315
 20
85.32110783201308
 30
0.0
  0
SPLINE
  5
23F
330
1F
100
AcDbEntity
  8
0
  6
Continuous
 62
     7
370
    15
100
AcDbSpline
210
0.0
220
0.0
230
1.0
 70
     8
 71
     3
 72
    12
 73
     8
 74
     0
 42
0.00000001
 43
0.00000001
 12
1.0
 22
0.0
 32
0.0
 13
1.0
 23
0.0
 33
0.0
 40
0.0
 40
0.0
 40
0.0
 40
0.0
 40
0.209682100152891
 40
0.4420453733185992
 40
0.6744332966681066
 40
0.9068208701180759
 40
1.0
 40
1.0
 40
1.0
 40
1.0
 10
117.6859866114189
 20
230.2996936184507
 30
0.0
 10
117.6908546054526
 20
230.2788365768652
 30
0.0
 10
117.7011171611901
 20
230.2348664014079
 30
0.0
 10
117.7853032785758
 20
230.1676727754312
 30
0.0
 10
117.9156611741549
 20
230.098291721748
 30
0.0
 10
118.0455493819754
 20
230.0426163893013
 30
0.0
 10
118.1236373653966
 20
230.010344297057
 30
0.0
 10
118.1459866114189
 20
230.0011078320131
 30
0.0
  0
LINE
  5
240
330
1F
100
AcDbEntity
  8
0
  6
Continuous
 62
     7
370
    15
100
AcDbLine
 10
117.6859866114
 20
230.2996936185
 30
0.0
 11
117.8459866114
 21
230.2996936185
 31
0.0
  0
SPLINE
  5
241
330
1F
100
AcDbEntity
  8
0
  6
Continuous
 62
     7
370
    15
100
AcDbSpline
210
0.0
220
0.0
230
1.0
 70
     8
 71
     3
 72
    11
 73
     7
 74
     0
 42
0.00000001
 43
0.00000001
 12
1.0
 22
0.0
 32
0.0
 13
1.0
 23
0.0
 33
0.0
 40
0.0
 40
0.0
 40
0.0
 40
0.0
 40
0.2543211584721319
 40
0.5088664984543048
 40
0.7634130007197633
 40
1.0
 40
1.0
 40
1.0
 40
1.0
 10
117.8459866114189
 20
230.2996936184507
 30
0.0
 10
117.8506574238227
 20
230.2743773968936
 30
0.0
 10
117.8600031659039
 20
230.2237226377881
 30
0.0
 10
117.931780689143
 20
230.147733703891
 30
0.0
 10
118.0316252850008
 20
230.0734886775568
 30
0.0
 10
118.1088069483199
 20
230.0246393486231
 30
0.0
 10
118.1459866114189
 20
230.0011078320131
 30
0.0
  0
SPLINE
  5
242
330
1F
100
AcDbEntity
  8
0
  6
Continuous
 62
     7
370
    15
100
AcDbSpline
210
0.0
220
0.0
230
1.0
 70
     8
 71
     3
 72
    12
 73
     8
 74
     0
 42
0.00000001
 43
0.00000001
 12
1.0
 22
0.0
 32
0.0
 13
1.0
 23
0.0
 33
0.0
 40
0.0
 40
0.0
 40
0.0
 40
0.0
 40
0.2096821001528573
 40
0.4420453733185816
 40
0.6744332966681548
 40
0.9068208701180811
 40
1.0
 40
1.0
 40
1.0
 40
1.0
 10
118.1459866114189
 20
181.481107832013
 30
0.0
 10
118.0955204198239
 20
181.4602507904275
 30
0.0
 10
117.9891291423264
 20
181.4162806149702
 30
0.0
 10
117.8448528563635
 20
181.3490869889935
 30
0.0
 10
117.7361810695662
 20
181.2797059353102
 30
0.0
 10
117.6904567015375
 20
181.2240306028636
 30
0.0
 10
117.6869812938126
 20
181.1917585106193
 30
0.0
 10
117.6859866114189
 20
181.1825220455754
 30
0.0
  0
SPLINE
  5
243
330
1F
100
AcDbEntity
  8
0
  6
Continuous
 62
     7
370
    15
100
AcDbSpline
210
0.0
220
0.0
230
1.0
 70
     8
 71
     3
 72
    11
 73
     7
 74
     0
 42
0.00000001
 43
0.00000001
 12
1.0
 22
0.0
 32
0.0
 13
1.0
 23
0.0
 33
0.0
 40
0.0
 40
0.0
 40
0.0
 40
0.0
 40
0.2543211584721821
 40
0.5088664984542713
 40
0.763413000719745
 40
0.9999999999999999
 40
0.9999999999999999
 40
0.9999999999999999
 40
0.9999999999999999
 10
118.1459866114189
 20
181.481107832013
 30
0.0
 10
118.105991573391
 20
181.4557916104559
 30
0.0
 10
118.0259662421168
 20
181.4051368513503
 30
0.0
 10
117.9256414912977
 20
181.3291479174533
 30
0.0
 10
117.858428441926
 20
181.2549028911191
 30
0.0
 10
117.8500315371038
 20
181.2060535621852
 30
0.0
 10
117.8459866114189
 20
181.1825220455754
 30
0.0
  0
LINE
  5
244
330
1F
100
AcDbEntity
  8
0
  6
Continuous
 62
     7
370
    15
100
AcDbLine
 10
117.6859866114
 20
181.1825220456
 30
0.0
 11
117.8459866114
 21
181.1825220456
 31
0.0
  0
LINE
  5
245
330
1F
100
AcDbEntity
  8
0
  6
Continuous
 62
     7
370
    15
100
AcDbLine
 10
117.6859866114
 20
230.2996936185
 30
0.0
 11
117.6859866114
 21
181.1825220456
 31
0.0
  0
SPLINE
  5
246
330
1F
100
AcDbEntity
  8
0
  6
Continuous
 62
     7
370
    15
100
AcDbSpline
210
0.0
220
0.0
230
1.0
 70
     8
 71
     3
 72
    12
 73
     8
 74
     0
 42
0.00000001
 43
0.00000001
 12
1.0
 22
0.0
 32
0.0
 13
1.0
 23
0.0
 33
0.0
 40
0.0
 40
0.0
 40
0.0
 40
0.0
 40
0.2096821001529163
 40
0.4420453733185652
 40
0.6744332966681106
 40
0.906820870118059
 40
1.0
 40
1.0
 40
1.0
 40
1.0
 10
118.1459866114189
 20
230.0011078320131
 30
0.0
 10
118.1251295698334
 20
230.0515740236082
 30
0.0
 10
118.0811593943761
 20
230.1579653011056
 30
0.0
 10
118.0139657683995
 20
230.3022415870686
 30
0.0
 10
117.9445847147161
 20
230.4109133738658
 30
0.0
 10
117.8889093822695
 20
230.4566377418945
 30
0.0
 10
117.8566372900252
 20
230.4601131496193
 30
0.0
 10
117.8474008249813
 20
230.4611078320131
 30
0.0
  0
LINE
  5
247
330
1F
100
AcDbEntity
  8
0
  6
Continuous
 62
     7
370
    15
100
AcDbLine
 10
117.847400825
 20
230.461107832
 30
0.0
 11
118.4090867768
 21
230.461107832
 31
0.0
  0
LINE
  5
248
330
1F
100
AcDbEntity
  8
0
  6
Continuous
 62
     7
370
    15
100
AcDbLine
 10
132.1754310934
 20
230.461107832
 30
0.0
 11
133.0090867768
 21
230.461107832
 31
0.0
  0
LINE
  5
249
330
1F
100
AcDbEntity
  8
0
  6
Continuous
 62
     7
370
    15
100
AcDbLine
 10
130.207400825
 20
84.861107832
 30
0.0
 11
130.207400825
 21
85.021107832
 31
0.0
  0
SPLINE
  5
24A
330
1F
100
AcDbEntity
  8
0
  6
Continuous
 62
     7
370
    15
100
AcDbSpline
210
0.0
220
0.0
230
1.0
 70
     8
 71
     3
 72
    11
 73
     7
 74
     0
 42
0.00000001
 43
0.00000001
 12
1.0
 22
0.0
 32
0.0
 13
1.0
 23
0.0
 33
0.0
 40
0.0
 40
0.0
 40
0.0
 40
0.0
 40
0.2543211584721741
 40
0.5088664984542646
 40
0.7634130007196923
 40
1.0
 40
1.0
 40
1.0
 40
1.0
 10
130.2074008249805
 20
85.0211078320131
 30
0.0
 10
130.2327170465376
 20
85.02577864441689
 30
0.0
 10
130.2833718056432
 20
85.03512438649805
 30
0.0
 10
130.3593607395402
 20
85.10690190973713
 30
0.0
 10
130.4336057658744
 20
85.20674650559502
 30
0.0
 10
130.4824550948082
 20
85.28392816891406
 30
0.0
 10
130.5059866114181
 20
85.32110783201308
 30
0.0
  0
SPLINE
  5
24B
330
1F
100
AcDbEntity
  8
0
  6
Continuous
 62
     7
370
    15
100
AcDbSpline
210
0.0
220
0.0
230
1.0
 70
     8
 71
     3
 72
    12
 73
     8
 74
     0
 42
0.00000001
 43
0.00000001
 12
1.0
 22
0.0
 32
0.0
 13
1.0
 23
0.0
 33
0.0
 40
0.0
 40
0.0
 40
0.0
 40
0.0
 40
0.2096821001529045
 40
0.4420453733186235
 40
0.6744332966681672
 40
0.9068208701180622
 40
0.9999999999999999
 40
0.9999999999999999
 40
0.9999999999999999
 40
0.9999999999999999
 10
130.5059866114181
 20
85.32110783201307
 30
0.0
 10
130.455520419823
 20
85.30025079042757
 30
0.0
 10
130.3491291423256
 20
85.25628061497022
 30
0.0
 10
130.2048528563627
 20
85.18908698899364
 30
0.0
 10
130.0961810695653
 20
85.11970593531031
 30
0.0
 10
130.0504567015368
 20
85.06403060286371
 30
0.0
 10
130.0469812938119
 20
85.0317585106194
 30
0.0
 10
130.0459866114181
 20
85.02252204557546
 30
0.0
  0
LINE
  5
24C
330
1F
100
AcDbEntity
  8
0
  6
Continuous
 62
     7
370
    15
100
AcDbLine
 10
130.0459866114
 20
180.831107832
 30
0.0
 11
130.0459866114
 21
85.0225220456
 31
0.0
  0
SPLINE
  5
24D
330
1F
100
AcDbEntity
  8
0
  6
Continuous
 62
     7
370
    15
100
AcDbSpline
210
0.0
220
0.0
230
1.0
 70
     8
 71
     3
 72
    11
 73
     7
 74
     0
 42
0.00000001
 43
0.00000001
 12
1.0
 22
0.0
 32
0.0
 13
1.0
 23
0.0
 33
0.0
 40
0.0
 40
0.0
 40
0.0
 40
0.0
 40
0.2889759275644713
 40
0.5779517763250347
 40
0.8674414070449749
 40
1.0
 40
1.0
 40
1.0
 40
1.0
 10
130.0459866114181
 20
180.831107832013
 30
0.0
 10
130.0552784421668
 20
180.8937561788151
 30
0.0
 10
130.0738621011303
 20
181.0190528553349
 30
0.0
 10
130.2143305806527
 20
181.2070012027702
 30
0.0
 10
130.3727898877805
 20
181.3614120603251
 30
0.0
 10
130.4741507779192
 20
181.4524989101572
 30
0.0
 10
130.5059866114181
 20
181.481107832013
 30
0.0
  0
SPLINE
  5
24E
330
1F
100
AcDbEntity
  8
0
  6
Continuous
 62
     7
370
    15
100
AcDbSpline
210
0.0
220
0.0
230
1.0
 70
     8
 71
     3
 72
    11
 73
     7
 74
     0
 42
0.00000001
 43
0.00000001
 12
1.0
 22
0.0
 32
0.0
 13
1.0
 23
0.0
 33
0.0
 40
0.0
 40
0.0
 40
0.0
 40
0.0
 40
0.2543211584721147
 40
0.508866498454217
 40
0.7634130007198093
 40
1.0
 40
1.0
 40
1.0
 40
1.0
 10
118.1459866114189
 20
230.0011078320131
 30
0.0
 10
118.1206703898618
 20
230.0411028700409
 30
0.0
 10
118.0700156307563
 20
230.1211282013152
 30
0.0
 10
117.9940266968592
 20
230.2214529521343
 30
0.0
 10
117.919781670525
 20
230.2886660015061
 30
0.0
 10
117.8709323415912
 20
230.2970629063282
 30
0.0
 10
117.8474008249813
 20
230.3011078320131
 30
0.0
  0
LINE
  5
24F
330
1F
100
AcDbEntity
  8
0
  6
Continuous
 62
     7
370
    15
100
AcDbLine
 10
117.847400825
 20
230.461107832
 30
0.0
 11
117.847400825
 21
230.301107832
 31
0.0
  0
LINE
  5
250
330
1F
100
AcDbEntity
  8
0
  6
Continuous
 62
     7
370
    15
100
AcDbLine
 10
117.847400825
 20
181.021107832
 30
0.0
 11
129.8559866114
 21
181.021107832
 31
0.0
  0
SPLINE
  5
251
330
1F
100
AcDbEntity
  8
0
  6
Continuous
 62
     7
370
    15
100
AcDbSpline
210
0.0
220
0.0
230
1.0
 70
     8
 71
     3
 72
    15
 73
    11
 74
     0
 42
0.00000001
 43
0.00000001
 12
1.0
 22
0.0
 32
0.0
 13
1.0
 23
0.0
 33
0.0
 40
0.0
 40
0.0
 40
0.0
 40
0.0
 40
0.2091619226109803
 40
0.3238069365708163
 40
0.4417755067865907
 40
0.556432409515473
 40
0.6744139442039052
 40
0.7890706737779922
 40
0.9070520280981844
 40
1.0
 40
1.0
 40
1.0
 40
1.0
 10
117.8474008249813
 20
181.021107832013
 30
0.0
 10
117.8682821403086
 20
181.0257767462997
 30
0.0
 10
117.9006088404236
 20
181.0330047676021
 30
0.0
 10
117.9445266289999
 20
181.0778642784875
 30
0.0
 10
117.9790788980029
 20
181.1251032969931
 30
0.0
 10
118.0139535486268
 20
181.1850430400757
 30
0.0
 10
118.0485032489312
 20
181.2541514699853
 30
0.0
 10
118.0833790085807
 20
181.3314894382588
 30
0.0
 10
118.115773628994
 20
181.4079950858344
 30
0.0
 10
118.1367452648003
 20
181.4587445902722
 30
0.0
 10
118.1459866114189
 20
181.481107832013
 30
0.0
  0
SPLINE
  5
252
330
1F
100
AcDbEntity
  8
0
  6
Continuous
 62
     7
370
    15
100
AcDbSpline
210
0.0
220
0.0
230
1.0
 70
     8
 71
     3
 72
    14
 73
    10
 74
     0
 42
0.00000001
 43
0.00000001
 12
1.0
 22
0.0
 32
0.0
 13
1.0
 23
0.0
 33
0.0
 40
0.0
 40
0.0
 40
0.0
 40
0.0
 40
0.1424979789612205
 40
0.2891107491290607
 40
0.4316087267218098
 40
0.5782214232938221
 40
0.7209671108986044
 40
0.8678498166736865
 40
1.0
 40
1.0
 40
1.0
 40
1.0
 10
130.5059866114181
 20
181.481107832013
 30
0.0
 10
130.4751133413231
 20
181.446788140285
 30
0.0
 10
130.4124753003466
 20
181.3771577366985
 30
0.0
 10
130.3189473559876
 20
181.2784507573956
 30
0.0
 10
130.2245504559788
 20
181.1893458664748
 30
0.0
 10
130.1309664129689
 20
181.1157822621014
 30
0.0
 10
130.0364579197692
 20
181.0608277834445
 30
0.0
 10
129.9450547776164
 20
181.0271024457708
 30
0.0
 10
129.8846122414134
 20
181.0230344417404
 30
0.0
 10
129.8559866114182
 20
181.021107832013
 30
0.0
  0
LINE
  5
253
330
1F
100
AcDbEntity
  8
0
  6
Continuous
 62
     7
370
    15
100
AcDbLine
 10
117.847400825
 20
181.021107832
 30
0.0
 11
117.847400825
 21
181.181107832
 31
0.0
  0
SPLINE
  5
254
330
1F
100
AcDbEntity
  8
0
  6
Continuous
 62
     7
370
    15
100
AcDbSpline
210
0.0
220
0.0
230
1.0
 70
     8
 71
     3
 72
    11
 73
     7
 74
     0
 42
0.00000001
 43
0.00000001
 12
1.0
 22
0.0
 32
0.0
 13
1.0
 23
0.0
 33
0.0
 40
0.0
 40
0.0
 40
0.0
 40
0.0
 40
0.2543211584721078
 40
0.5088664984542288
 40
0.7634130007196942
 40
1.0
 40
1.0
 40
1.0
 40
1.0
 10
117.8474008249813
 20
181.181107832013
 30
0.0
 10
117.8727170465383
 20
181.1857786444168
 30
0.0
 10
117.9233718056439
 20
181.195124386498
 30
0.0
 10
117.999360739541
 20
181.266901909737
 30
0.0
 10
118.0736057658751
 20
181.366746505595
 30
0.0
 10
118.122455094809
 20
181.443928168914
 30
0.0
 10
118.1459866114189
 20
181.481107832013
 30
0.0
  0
SPLINE
  5
255
330
1F
100
AcDbEntity
  8
0
  6
Continuous
 62
     7
370
    15
100
AcDbSpline
210
0.0
220
0.0
230
1.0
 70
     8
 71
     3
 72
    11
 73
     7
 74
     0
 42
0.00000001
 43
0.00000001
 12
1.0
 22
0.0
 32
0.0
 13
1.0
 23
0.0
 33
0.0
 40
0.0
 40
0.0
 40
0.0
 40
0.0
 40
0.2543211584722094
 40
0.5088664984542712
 40
0.7634130007198014
 40
1.0
 40
1.0
 40
1.0
 40
1.0
 10
130.5059866114181
 20
85.32110783201307
 30
0.0
 10
130.4659915733903
 20
85.295791610456
 30
0.0
 10
130.385966242116
 20
85.24513685135048
 30
0.0
 10
130.2856414912969
 20
85.16914791745336
 30
0.0
 10
130.2184284419252
 20
85.09490289111919
 30
0.0
 10
130.210031537103
 20
85.04605356218536
 30
0.0
 10
130.2059866114181
 20
85.02252204557546
 30
0.0
  0
LINE
  5
256
330
1F
100
AcDbEntity
  8
0
  6
Continuous
 62
     7
370
    15
100
AcDbLine
 10
130.0459866114
 20
85.0225220456
 30
0.0
 11
130.2059866114
 21
85.0225220456
 31
0.0
  0
CIRCLE
  5
257
330
1F
100
AcDbEntity
  8
0
  6
Continuous
 62
     7
370
    15
100
AcDbCircle
 10
211.1954310934
 20
226.461107832
 30
0.0
 40
0.539999999999992
  0
CIRCLE
  5
258
330
1F
100
AcDbEntity
  8
0
  6
Continuous
 62
     7
370
    15
100
AcDbCircle
 10
287.1954310934
 20
226.461107832
 30
0.0
 40
0.5400000000000489
  0
CIRCLE
  5
259
330
1F
100
AcDbEntity
  8
0
  6
Continuous
 62
     7
370
    15
100
AcDbCircle
 10
133.1954310934
 20
226.461107832
 30
0.0
 40
0.5400000000000205
  0
LINE
  5
25A
330
1F
100
AcDbEntity
  8
0
  6
Continuous
 62
     7
370
    15
100
AcDbLine
 10
279.2036525553
 20
89.6065499333
 30
0.0
 11
279.2036525553
 21
88.0204283401
 31
0.0
  0
LINE
  5
25B
330
1F
100
AcDbEntity
  8
0
  6
Continuous
 62
     7
370
    15
100
AcDbLine
 10
279.2036525553
 20
89.7204283401
 30
0.0
 11
279.2036525553
 21
89.6065499333
 31
0.0
  0
LINE
  5
25C
330
1F
100
AcDbEntity
  8
0
  6
Continuous
 62
     7
370
    15
100
AcDbLine
 10
279.2036525553
 20
94.6065499333
 30
0.0
 11
279.2036525553
 21
93.0204283401
 31
0.0
  0
LINE
  5
25D
330
1F
100
AcDbEntity
  8
0
  6
Continuous
 62
     7
370
    15
100
AcDbLine
 10
279.2036525553
 20
94.7204283401
 30
0.0
 11
279.2036525553
 21
94.6065499333
 31
0.0
  0
LINE
  5
25E
330
1F
100
AcDbEntity
  8
0
  6
Continuous
 62
     7
370
    15
100
AcDbLine
 10
117.6859866114
 20
181.1745220456
 30
0.0
 11
117.6859866114
 21
181.1825220456
 31
0.0
  0
LINE
  5
25F
330
1F
100
AcDbEntity
  8
0
  6
Continuous
 62
     7
370
    15
100
AcDbLine
 10
117.8424487052
 20
181.1745220456
 30
0.0
 11
117.6859866114
 21
181.1745220456
 31
0.0
  0
LINE
  5
260
330
1F
100
AcDbEntity
  8
0
  6
Continuous
 62
     7
370
    15
100
AcDbLine
 10
118.2459866114
 20
181.013107832
 30
0.0
 11
122.2986525553
 21
181.013107832
 31
0.0
  0
LINE
  5
261
330
1F
100
AcDbEntity
  8
0
  6
Continuous
 62
     7
370
    15
100
AcDbLine
 10
129.8559866114
 20
181.021107832
 30
0.0
 11
129.8559866114
 21
181.013107832
 31
0.0
  0
LINE
  5
262
330
1F
100
AcDbEntity
  8
0
  6
Continuous
 62
     7
370
    15
100
AcDbLine
 10
128.9486525553
 20
181.013107832
 30
0.0
 11
129.8559866114
 21
181.013107832
 31
0.0
  0
LINE
  5
263
330
1F
100
AcDbEntity
  8
0
  6
Continuous
 62
     7
370
    15
100
AcDbLine
 10
117.847400825
 20
181.013107832
 30
0.0
 11
118.2459866114
 21
181.013107832
 31
0.0
  0
LINE
  5
264
330
1F
100
AcDbEntity
  8
0
  6
Continuous
 62
     7
370
    15
100
AcDbLine
 10
117.847400825
 20
181.021107832
 30
0.0
 11
117.847400825
 21
181.013107832
 31
0.0
  0
LINE
  5
265
330
1F
100
AcDbEntity
  8
0
  6
Continuous
 62
     7
370
    15
100
AcDbLine
 10
279.1036525553
 20
85.0145220456
 30
0.0
 11
279.1036525553
 21
85.0225220456
 31
0.0
  0
LINE
  5
266
330
1F
100
AcDbEntity
  8
0
  6
Continuous
 62
     7
370
    15
100
AcDbLine
 10
278.9436525553
 20
85.0145220456
 30
0.0
 11
279.1036525553
 21
85.0145220456
 31
0.0
  0
LINE
  5
267
330
1F
100
AcDbEntity
  8
0
  6
Continuous
 62
     7
370
    15
100
AcDbLine
 10
278.9436525553
 20
85.0145220456
 30
0.0
 11
278.9436525553
 21
85.0225220456
 31
0.0
  0
LINE
  5
268
330
1F
100
AcDbEntity
  8
0
  6
Continuous
 62
     7
370
    15
100
AcDbLine
 10
130.0459866114
 20
85.0225220456
 30
0.0
 11
130.0459866114
 21
85.0145220456
 31
0.0
  0
LINE
  5
269
330
1F
100
AcDbEntity
  8
0
  6
Continuous
 62
     7
370
    15
100
AcDbLine
 10
130.2059866114
 20
85.0145220456
 30
0.0
 11
130.0459866114
 21
85.0145220456
 31
0.0
  0
LINE
  5
26A
330
1F
100
AcDbEntity
  8
0
  6
Continuous
 62
     7
370
    15
100
AcDbLine
 10
130.2059866114
 20
85.0274989935
 30
0.0
 11
130.2059866114
 21
85.0145220456
 31
0.0
  0
LINE
  5
26B
330
1F
100
AcDbEntity
  8
0
  6
Continuous
 62
     7
370
    15
100
AcDbLine
 10
130.6059866114
 20
84.853107832
 30
0.0
 11
131.1159549996
 21
84.853107832
 31
0.0
  0
LINE
  5
26C
330
1F
100
AcDbEntity
  8
0
  6
Continuous
 62
     7
370
    15
100
AcDbLine
 10
133.251350111
 20
84.853107832
 30
0.0
 11
139.1924711575
 21
84.853107832
 31
0.0
  0
LINE
  5
26D
330
1F
100
AcDbEntity
  8
0
  6
Continuous
 62
     7
370
    15
100
AcDbLine
 10
152.4148339532
 20
84.853107832
 30
0.0
 11
254.9924711575
 21
84.853107832
 31
0.0
  0
LINE
  5
26E
330
1F
100
AcDbEntity
  8
0
  6
Continuous
 62
     7
370
    15
100
AcDbLine
 10
268.2148339532
 20
84.853107832
 30
0.0
 11
278.5436525553
 21
84.853107832
 31
0.0
  0
LINE
  5
26F
330
1F
100
AcDbEntity
  8
0
  6
Continuous
 62
     7
370
    15
100
AcDbLine
 10
278.9422383418
 20
84.861107832
 30
0.0
 11
278.9422383418
 21
84.853107832
 31
0.0
  0
LINE
  5
270
330
1F
100
AcDbEntity
  8
0
  6
Continuous
 62
     7
370
    15
100
AcDbLine
 10
278.5436525553
 20
84.853107832
 30
0.0
 11
278.9422383418
 21
84.853107832
 31
0.0
  0
LINE
  5
271
330
1F
100
AcDbEntity
  8
0
  6
Continuous
 62
     7
370
    15
100
AcDbLine
 10
130.207400825
 20
84.861107832
 30
0.0
 11
130.207400825
 21
84.853107832
 31
0.0
  0
LINE
  5
272
330
1F
100
AcDbEntity
  8
0
  6
Continuous
 62
     7
370
    15
100
AcDbLine
 10
130.207400825
 20
84.853107832
 30
0.0
 11
130.6059866114
 21
84.853107832
 31
0.0
  0
LINE
  5
273
330
1F
100
AcDbEntity
  8
0
  6
Continuous
 62
     7
370
    15
100
AcDbLine
 10
289.2656235509
 20
218.592747152
 30
0.0
 11
289.3509613781
 21
218.6325408344
 31
0.0
  0
LINE
  5
274
330
1F
100
AcDbEntity
  8
0
  6
Continuous
 62
     7
370
    15
100
AcDbLine
 10
290.5110353455
 20
219.1734922094
 30
0.0
 11
290.5079711677
 21
219.1800633598
 31
0.0
  0
LINE
  5
275
330
1F
100
AcDbEntity
  8
0
  6
Continuous
 62
     7
370
    15
100
AcDbLine
 10
287.2984739979
 20
217.6754502507
 30
0.0
 11
287.2954098201
 21
217.6820214011
 31
0.0
  0
LINE
  5
276
330
1F
100
AcDbEntity
  8
0
  6
Continuous
 62
     7
370
    15
100
AcDbLine
 10
287.1029246887
 20
217.5842641103
 30
0.0
 11
287.0998605109
 21
217.5908352607
 31
0.0
  0
LINE
  5
277
330
1F
100
AcDbEntity
  8
0
  6
Continuous
 62
     7
370
    15
100
AcDbLine
 10
286.2771837343
 20
217.1992147796
 30
0.0
 11
286.3506892254
 21
217.233490953
 31
0.0
  0
LINE
  5
278
330
1F
100
AcDbEntity
  8
0
  6
Continuous
 62
     7
370
    15
100
AcDbLine
 10
117.847400825
 20
230.2996936185
 30
0.0
 11
117.847400825
 21
230.301107832
 31
0.0
  0
LINE
  5
279
330
1F
100
AcDbEntity
  8
0
  6
Continuous
 62
     7
370
    15
100
AcDbLine
 10
294.1942616684
 20
221.410160449
 30
0.0
 11
294.1973377572
 21
221.4087260452
 31
0.0
  0
LINE
  5
27A
330
1F
100
AcDbEntity
  8
0
  6
Continuous
 62
     7
370
    15
100
AcDbLine
 10
293.2268945288
 20
220.447918145
 30
0.0
 11
293.2299587066
 21
220.4413469946
 31
0.0
  0
LINE
  5
27B
330
1F
100
AcDbEntity
  8
0
  6
Continuous
 62
     7
370
    15
100
AcDbLine
 10
297.0849824897
 20
227.6093001581
 30
0.0
 11
297.0880466675
 21
227.6078713085
 31
0.0
  0
ARC
  5
27C
330
1F
100
AcDbEntity
  8
0
  6
Continuous
 62
     7
370
    15
100
AcDbCircle
 10
287.1954310934
 20
226.453107832
 30
0.0
 40
0.5400000000000205
100
AcDbArc
 50
90.0
 51
179.5756024488
  0
ARC
  5
27D
330
1F
100
AcDbEntity
  8
0
  6
Continuous
 62
     7
370
    15
100
AcDbCircle
 10
287.1954310934
 20
226.453107832
 30
0.0
 40
0.5400000000000205
100
AcDbArc
 50
0.4243970789
 51
90.0
  0
SPLINE
  5
27E
330
1F
100
AcDbEntity
  8
0
  6
Continuous
 62
     7
370
    15
100
AcDbSpline
210
0.0
220
0.0
230
1.0
 70
     8
 71
     3
 72
    11
 73
     7
 74
     0
 42
0.00000001
 43
0.00000001
 12
1.0
 22
0.0
 32
0.0
 13
1.0
 23
0.0
 33
0.0
 40
0.0
 40
0.0
 40
0.0
 40
0.0
 40
0.1827174076973002
 40
0.4617054434754373
 40
0.7406947531450584
 40
1.0
 40
1.0
 40
1.0
 40
1.0
 10
130.2141265342862
 20
85.04068560992305
 30
0.0
 10
130.2176004976107
 20
85.05728052577831
 30
0.0
 10
130.2263787951881
 20
85.0992139303781
 30
0.0
 10
130.2923633196184
 20
85.1664819149581
 30
0.0
 10
130.3914915541596
 20
85.2407269968388
 30
0.0
 10
130.4687634714919
 20
85.28957631877437
 30
0.0
 10
130.5059866114177
 20
85.3131078320131
 30
0.0
  0
SPLINE
  5
27F
330
1F
100
AcDbEntity
  8
0
  6
Continuous
 62
     7
370
    15
100
AcDbSpline
210
0.0
220
0.0
230
1.0
 70
     8
 71
     3
 72
    10
 73
     6
 74
     0
 42
0.00000001
 43
0.00000001
 12
1.0
 22
0.0
 32
0.0
 13
1.0
 23
0.0
 33
0.0
 40
0.0
 40
0.0
 40
0.0
 40
0.0
 40
0.2202329016294004
 40
0.7550876331320717
 40
1.0
 40
1.0
 40
1.0
 40
1.0
 10
278.9419876654633
 20
181.1767854472272
 30
0.0
 10
278.9678216470496
 20
181.1534983412543
 30
0.0
 10
279.0563956969125
 20
181.0736564756592
 30
0.0
 10
279.1739594695279
 20
181.0223357248758
 30
0.0
 10
279.2650442754259
 20
181.0153134242581
 30
0.0
 10
279.2936525553146
 20
181.013107832013
 30
0.0
  0
SPLINE
  5
280
330
1F
100
AcDbEntity
  8
0
  6
Continuous
 62
     7
370
    15
100
AcDbSpline
210
0.0
220
0.0
230
1.0
 70
     8
 71
     3
 72
    10
 73
     6
 74
     0
 42
0.00000001
 43
0.00000001
 12
1.0
 22
0.0
 32
0.0
 13
1.0
 23
0.0
 33
0.0
 40
0.0
 40
0.0
 40
0.0
 40
0.0
 40
0.322667776244058
 40
0.6737180464580595
 40
1.0
 40
1.0
 40
1.0
 40
1.0
 10
278.768307086674
 20
85.23101436004548
 30
0.0
 10
278.8002579562959
 20
85.2077253837173
 30
0.0
 10
278.8669701570457
 20
85.15909888677218
 30
0.0
 10
278.930945202222
 20
85.08690290128355
 30
0.0
 10
278.9395213063893
 20
85.03805356548988
 30
0.0
 10
278.9436525553146
 20
85.01452204557546
 30
0.0
  0
SPLINE
  5
281
330
1F
100
AcDbEntity
  8
0
  6
Continuous
 62
     7
370
    15
100
AcDbSpline
210
0.0
220
0.0
230
1.0
 70
     8
 71
     3
 72
    10
 73
     6
 74
     0
 42
0.00000001
 43
0.00000001
 12
1.0
 22
0.0
 32
0.0
 13
1.0
 23
0.0
 33
0.0
 40
0.0
 40
0.0
 40
0.0
 40
0.0
 40
0.34607002382507
 40
0.6924451048501022
 40
1.0
 40
1.0
 40
1.0
 40
1.0
 10
278.9422383417523
 20
85.0131078320131
 30
0.0
 10
278.9169224266806
 20
85.01787790729081
 30
0.0
 10
278.8662682808161
 20
85.02742226261893
 30
0.0
 10
278.7931146959564
 20
85.09508248799641
 30
0.0
 10
278.7452775283099
 20
85.16166761975448
 30
0.0
 10
278.7227788577858
 20
85.1929837911528
 30
0.0
  0
SPLINE
  5
282
330
1F
100
AcDbEntity
  8
0
  6
Continuous
 62
     7
370
    15
100
AcDbSpline
210
0.0
220
0.0
230
1.0
 70
     8
 71
     3
 72
    11
 73
     7
 74
     0
 42
0.00000001
 43
0.00000001
 12
1.0
 22
0.0
 32
0.0
 13
1.0
 23
0.0
 33
0.0
 40
0.0
 40
0.0
 40
0.0
 40
0.0
 40
0.2543211584721761
 40
0.5088664984542534
 40
0.7634130007196803
 40
1.0
 40
1.0
 40
1.0
 40
1.0
 10
130.5059866114177
 20
85.3131078320131
 30
0.0
 10
130.4806703898606
 20
85.27311279398523
 30
0.0
 10
130.4300156307551
 20
85.19308746271102
 30
0.0
 10
130.354026696858
 20
85.09276271189188
 30
0.0
 10
130.2797816705238
 20
85.02554966252012
 30
0.0
 10
130.23093234159
 20
85.01715275769799
 30
0.0
 10
130.2074008249801
 20
85.01310783201309
 30
0.0
  0
LINE
  5
283
330
1F
100
AcDbEntity
  8
0
  6
Continuous
 62
     7
370
    15
100
AcDbLine
 10
129.0249860248
 20
176.201107832
 30
0.0
 11
129.0249860248
 21
177.281107832
 31
0.0
  0
LINE
  5
284
330
1F
100
AcDbEntity
  8
0
  6
Continuous
 62
     7
370
    15
100
AcDbLine
 10
125.6263210651
 20
176.201107832
 30
0.0
 11
125.6263210651
 21
177.281107832
 31
0.0
  0
LINE
  5
285
330
1F
100
AcDbEntity
  8
0
  6
Continuous
 62
     7
370
    15
100
AcDbLine
 10
129.0249860248
 20
176.201107832
 30
0.0
 11
125.6263210651
 21
176.201107832
 31
0.0
  0
LINE
  5
286
330
1F
100
AcDbEntity
  8
0
  6
Continuous
 62
     7
370
    15
100
AcDbLine
 10
129.0249860248
 20
177.281107832
 30
0.0
 11
125.6263210651
 21
177.281107832
 31
0.0
  0
LINE
  5
287
330
1F
100
AcDbEntity
  8
0
  6
Continuous
 62
     7
370
    15
100
AcDbLine
 10
128.854464862
 20
180.261107832
 30
0.0
 11
128.854464862
 21
181.021107832
 31
0.0
  0
LINE
  5
288
330
1F
100
AcDbEntity
  8
0
  6
Continuous
 62
     7
370
    15
100
AcDbLine
 10
125.717838797
 20
180.261107832
 30
0.0
 11
125.717838797
 21
181.021107832
 31
0.0
  0
LINE
  5
289
330
1F
100
AcDbEntity
  8
0
  6
Continuous
 62
     7
370
    15
100
AcDbLine
 10
128.854464862
 20
180.261107832
 30
0.0
 11
125.717838797
 21
180.261107832
 31
0.0
  0
LINE
  5
28A
330
1F
100
AcDbEntity
  8
0
  6
Continuous
 62
     7
370
    15
100
AcDbLine
 10
128.5464882931
 20
178.601107832
 30
0.0
 11
122.2486525553
 21
178.601107832
 31
0.0
  0
LINE
  5
28B
330
1F
100
AcDbEntity
  8
0
  6
Continuous
 62
     7
370
    15
100
AcDbLine
 10
128.9986525553
 20
178.601107832
 30
0.0
 11
128.5464882931
 21
178.601107832
 31
0.0
  0
LINE
  5
28C
330
1F
100
AcDbEntity
  8
0
  6
Continuous
 62
     7
370
    15
100
AcDbLine
 10
127.4639565384
 20
174.411107832
 30
0.0
 11
123.4986525553
 21
174.411107832
 31
0.0
  0
LINE
  5
28D
330
1F
100
AcDbEntity
  8
0
  6
Continuous
 62
     7
370
    15
100
AcDbLine
 10
127.7486525553
 20
174.411107832
 30
0.0
 11
127.4639565384
 21
174.411107832
 31
0.0
  0
LINE
  5
28E
330
1F
100
AcDbEntity
  8
0
  6
Continuous
 62
     7
370
    15
100
AcDbLine
 10
128.3689530853
 20
179.671107832
 30
0.0
 11
122.4536525553
 21
179.671107832
 31
0.0
  0
LINE
  5
28F
330
1F
100
AcDbEntity
  8
0
  6
Continuous
 62
     7
370
    15
100
AcDbLine
 10
128.7936525553
 20
179.671107832
 30
0.0
 11
128.3689530853
 21
179.671107832
 31
0.0
  0
LINE
  5
290
330
1F
100
AcDbEntity
  8
0
  6
Continuous
 62
     7
370
    15
100
AcDbLine
 10
122.2249875956
 20
176.201107832
 30
0.0
 11
122.2249875956
 21
177.281107832
 31
0.0
  0
LINE
  5
291
330
1F
100
AcDbEntity
  8
0
  6
Continuous
 62
     7
370
    15
100
AcDbLine
 10
125.6263210651
 20
176.201107832
 30
0.0
 11
122.2249875956
 21
176.201107832
 31
0.0
  0
LINE
  5
292
330
1F
100
AcDbEntity
  8
0
  6
Continuous
 62
     7
370
    15
100
AcDbLine
 10
125.6263210651
 20
177.281107832
 30
0.0
 11
122.2249875956
 21
177.281107832
 31
0.0
  0
LINE
  5
293
330
1F
100
AcDbEntity
  8
0
  6
Continuous
 62
     7
370
    15
100
AcDbLine
 10
125.5294663136
 20
180.261107832
 30
0.0
 11
125.5294663136
 21
181.021107832
 31
0.0
  0
LINE
  5
294
330
1F
100
AcDbEntity
  8
0
  6
Continuous
 62
     7
370
    15
100
AcDbLine
 10
125.717838797
 20
180.261107832
 30
0.0
 11
125.5294663136
 21
180.261107832
 31
0.0
  0
LINE
  5
295
330
1F
100
AcDbEntity
  8
0
  6
Continuous
 62
     7
370
    15
100
AcDbLine
 10
122.392838797
 20
180.261107832
 30
0.0
 11
122.392838797
 21
181.021107832
 31
0.0
  0
LINE
  5
296
330
1F
100
AcDbEntity
  8
0
  6
Continuous
 62
     7
370
    15
100
AcDbLine
 10
125.5294663136
 20
180.261107832
 30
0.0
 11
122.392838797
 21
180.261107832
 31
0.0
  0
LINE
  5
297
330
1F
100
AcDbEntity
  8
0
  6
Continuous
 62
     7
370
    15
100
AcDbLine
 10
128.9486525553
 20
180.261107832
 30
0.0
 11
128.9486525553
 21
181.021107832
 31
0.0
  0
LINE
  5
298
330
1F
100
AcDbEntity
  8
0
  6
Continuous
 62
     7
370
    15
100
AcDbLine
 10
128.9486525553
 20
180.261107832
 30
0.0
 11
128.854464862
 21
180.261107832
 31
0.0
  0
LINE
  5
299
330
1F
100
AcDbEntity
  8
0
  6
Continuous
 62
     7
370
    15
100
AcDbLine
 10
122.2986525553
 20
180.261107832
 30
0.0
 11
122.2986525553
 21
181.021107832
 31
0.0
  0
LINE
  5
29A
330
1F
100
AcDbEntity
  8
0
  6
Continuous
 62
     7
370
    15
100
AcDbLine
 10
122.392838797
 20
180.261107832
 30
0.0
 11
122.2986525553
 21
180.261107832
 31
0.0
  0
LINE
  5
29B
330
1F
100
AcDbEntity
  8
0
  6
Continuous
 62
     7
370
    15
100
AcDbLine
 10
122.2223190858
 20
176.201107832
 30
0.0
 11
122.2223190858
 21
177.281107832
 31
0.0
  0
LINE
  5
29C
330
1F
100
AcDbEntity
  8
0
  6
Continuous
 62
     7
370
    15
100
AcDbLine
 10
122.2249875956
 20
176.201107832
 30
0.0
 11
122.2223190858
 21
176.201107832
 31
0.0
  0
LINE
  5
29D
330
1F
100
AcDbEntity
  8
0
  6
Continuous
 62
     7
370
    15
100
AcDbLine
 10
122.2249875956
 20
177.281107832
 30
0.0
 11
122.2223190858
 21
177.281107832
 31
0.0
  0
LWPOLYLINE
  5
29E
330
1F
100
AcDbEntity
  8
0
  6
Continuous
 62
     7
370
    15
100
AcDbPolyline
 90
        3
 70
   128
 43
0.0
 10
278.7273255112
 20
85.186930419
 10
278.7532719631
 20
85.2114884242
 10
278.7705180011
 20
85.2294073151
  0
SPLINE
  5
29F
330
1F
100
AcDbEntity
  8
0
  6
Continuous
 62
     7
370
    15
100
AcDbSpline
210
0.0
220
0.0
230
1.0
 70
     8
 71
     3
 72
    13
 73
     9
 74
     0
 42
0.00000001
 43
0.00000001
 12
1.0
 22
0.0
 32
0.0
 13
1.0
 23
0.0
 33
0.0
 40
0.0
 40
0.0
 40
0.0
 40
0.0
 40
0.169541105060195
 40
0.3386458383075532
 40
0.5184804584264796
 40
0.7277236211483183
 40
0.9924537768849699
 40
1.0
 40
1.0
 40
1.0
 40
1.0
 10
131.5292202018743
 20
82.49110783201397
 30
0.0
 10
131.5291129646521
 20
82.4960300614713
 30
0.0
 10
131.5288987662193
 20
82.50586185135096
 30
0.0
 10
131.5272771830655
 20
82.51908901002707
 30
0.0
 10
131.5248441076881
 20
82.53022333064794
 30
0.0
 10
131.5213733622412
 20
82.53876708650238
 30
0.0
 10
131.5185834311467
 20
82.54108421842486
 30
0.0
 10
131.5170324109535
 20
82.54110719520546
 30
0.0
 10
131.5169894239544
 20
82.54110783201396
 30
0.0
  0
LINE
  5
2A0
330
1F
100
AcDbEntity
  8
0
  6
Continuous
 62
     7
370
    15
100
AcDbLine
 10
131.516989424
 20
82.541107832
 30
0.0
 11
133.0176245706
 21
82.541107832
 31
0.0
  0
SPLINE
  5
2A1
330
1F
100
AcDbEntity
  8
0
  6
Continuous
 62
     7
370
    15
100
AcDbSpline
210
0.0
220
0.0
230
1.0
 70
     8
 71
     3
 72
    13
 73
     9
 74
     0
 42
0.00000001
 43
0.00000001
 12
1.0
 22
0.0
 32
0.0
 13
1.0
 23
0.0
 33
0.0
 40
0.0
 40
0.0
 40
0.0
 40
0.0
 40
0.0075462231152774
 40
0.2722763788511846
 40
0.4815195415732672
 40
0.6613541616922476
 40
0.8304588949398146
 40
1.0
 40
1.0
 40
1.0
 40
1.0
 10
131.5169894239544
 20
82.30110783201397
 30
0.0
 10
131.5170324109535
 20
82.30110846882248
 30
0.0
 10
131.5185834311467
 20
82.30113144560309
 30
0.0
 10
131.5213733622412
 20
82.30344857752557
 30
0.0
 10
131.5248441076881
 20
82.31199233337998
 30
0.0
 10
131.5272771830655
 20
82.32312665400086
 30
0.0
 10
131.5288987662193
 20
82.33635381267696
 30
0.0
 10
131.5291129646521
 20
82.34618560255663
 30
0.0
 10
131.5292202018743
 20
82.35110783201397
 30
0.0
  0
LINE
  5
2A2
330
1F
100
AcDbEntity
  8
0
  6
Continuous
 62
     7
370
    15
100
AcDbLine
 10
133.0821761344
 20
82.301107832
 30
0.0
 11
131.516989424
 21
82.301107832
 31
0.0
  0
LINE
  5
2A3
330
1F
100
AcDbEntity
  8
0
  6
Continuous
 62
     7
370
    15
100
AcDbLine
 10
131.5292202019
 20
82.491107832
 30
0.0
 11
131.5292202019
 21
82.351107832
 31
0.0
  0
SPLINE
  5
2A4
330
1F
100
AcDbEntity
  8
0
  6
Continuous
 62
     7
370
    15
100
AcDbSpline
210
0.0
220
0.0
230
1.0
 70
     8
 71
     3
 72
    12
 73
     8
 74
     0
 42
0.00000001
 43
0.00000001
 12
1.0
 22
0.0
 32
0.0
 13
1.0
 23
0.0
 33
0.0
 40
0.0
 40
0.0
 40
0.0
 40
0.0
 40
0.2028202020467191
 40
0.4049472449427058
 40
0.6098312030741331
 40
0.822693924182726
 40
1.0
 40
1.0
 40
1.0
 40
1.0
 10
130.38956454843
 20
82.59110783201389
 30
0.0
 10
130.3918077969365
 20
82.5596796639068
 30
0.0
 10
130.3962866274142
 20
82.49693073672829
 30
0.0
 10
130.4310987609688
 20
82.41285148663442
 30
0.0
 10
130.4829076536259
 20
82.34743577954647
 30
0.0
 10
130.5453098099369
 20
82.3077939262933
 30
0.0
 10
130.5895810233833
 20
82.30319688510889
 30
0.0
 10
130.6096993803347
 20
82.30110783201393
 30
0.0
  0
SPLINE
  5
2A5
330
1F
100
AcDbEntity
  8
0
  6
Continuous
 62
     7
370
    15
100
AcDbSpline
210
0.0
220
0.0
230
1.0
 70
     8
 71
     3
 72
    12
 73
     8
 74
     0
 42
0.00000001
 43
0.00000001
 12
1.0
 22
0.0
 32
0.0
 13
1.0
 23
0.0
 33
0.0
 40
0.0
 40
0.0
 40
0.0
 40
0.0
 40
0.2289440738516016
 40
0.4594214300241301
 40
0.6825355698157848
 40
0.8947175231628818
 40
1.0
 40
1.0
 40
1.0
 40
1.0
 10
131.472492290319
 20
82.30110783201393
 30
0.0
 10
131.4492826585842
 20
82.30457472892944
 30
0.0
 10
131.4027079557646
 20
82.31153174123328
 30
0.0
 10
131.3409303182881
 20
82.36630571039574
 30
0.0
 10
131.2963564939379
 20
82.4457130172923
 30
0.0
 10
131.2763066389248
 20
82.52588821516287
 30
0.0
 10
131.2746012423038
 20
82.57486529378028
 30
0.0
 10
131.274035672233
 20
82.59110783201392
 30
0.0
  0
LINE
  5
2A6
330
1F
100
AcDbEntity
  8
0
  6
Continuous
 62
     7
370
    15
100
AcDbLine
 10
131.4724922903
 20
82.301107832
 30
0.0
 11
130.6096993803
 21
82.301107832
 31
0.0
  0
LINE
  5
2A7
330
1F
100
AcDbEntity
  8
0
  6
Continuous
 62
     7
370
    15
100
AcDbLine
 10
130.4335372937
 20
83.661107832
 30
0.0
 11
131.2963302037
 21
83.661107832
 31
0.0
  0
LINE
  5
2A8
330
1F
100
AcDbEntity
  8
0
  6
Continuous
 62
     7
370
    15
100
AcDbLine
 10
131.2963302037
 20
83.661107832
 30
0.0
 11
131.3987706881
 21
83.661107832
 31
0.0
  0
LINE
  5
2A9
330
1F
100
AcDbEntity
  8
0
  6
Continuous
 62
     7
370
    15
100
AcDbLine
 10
131.516989424
 20
82.301107832
 30
0.0
 11
131.4724922903
 21
82.301107832
 31
0.0
  0
LINE
  5
2AA
330
1F
100
AcDbEntity
  8
0
  6
Continuous
 62
     7
370
    15
100
AcDbLine
 10
131.4724922903
 20
82.541107832
 30
0.0
 11
131.516989424
 21
82.541107832
 31
0.0
  0
LINE
  5
2AB
330
1F
100
AcDbEntity
  8
0
  6
Continuous
 62
     7
370
    15
100
AcDbLine
 10
130.3835372937
 20
82.591107832
 30
0.0
 11
130.3895645484
 21
82.591107832
 31
0.0
  0
LINE
  5
2AC
330
1F
100
AcDbEntity
  8
0
  6
Continuous
 62
     7
370
    15
100
AcDbLine
 10
130.6096993803
 20
82.301107832
 30
0.0
 11
130.4936525553
 21
82.301107832
 31
0.0
  0
LINE
  5
2AD
330
1F
100
AcDbEntity
  8
0
  6
Continuous
 62
     7
370
    15
100
AcDbLine
 10
133.8313273325
 20
83.661107832
 30
0.0
 11
133.9337678169
 21
83.661107832
 31
0.0
  0
LINE
  5
2AE
330
1F
100
AcDbEntity
  8
0
  6
Continuous
 62
     7
370
    15
100
AcDbLine
 10
133.2839162169
 20
83.661107832
 30
0.0
 11
133.8313273325
 21
83.661107832
 31
0.0
  0
SPLINE
  5
2AF
330
1F
100
AcDbEntity
  8
0
  6
Continuous
 62
     7
370
    15
100
AcDbSpline
210
0.0
220
0.0
230
1.0
 70
     8
 71
     3
 72
    13
 73
     9
 74
     0
 42
0.00000001
 43
0.00000001
 12
1.0
 22
0.0
 32
0.0
 13
1.0
 23
0.0
 33
0.0
 40
0.0
 40
0.0
 40
0.0
 40
0.0
 40
0.0075462231152917
 40
0.2722763788511871
 40
0.4815195415732662
 40
0.6613541616922388
 40
0.8304588949398165
 40
1.0
 40
1.0
 40
1.0
 40
1.0
 10
133.0023167211945
 20
82.78110783201387
 30
0.0
 10
133.0022953313407
 20
82.78110719520538
 30
0.0
 10
133.001523560898
 20
82.78108421842477
 30
0.0
 10
133.0001205302866
 20
82.77876708650227
 30
0.0
 10
132.9983466769203
 20
82.77022333064787
 30
0.0
 10
132.9970898349475
 20
82.75908901002697
 30
0.0
 10
132.9962459052935
 20
82.7458618513509
 30
0.0
 10
132.9961340093445
 20
82.73603006147123
 30
0.0
 10
132.9960779892767
 20
82.73110783201388
 30
0.0
  0
LINE
  5
2B0
330
1F
100
AcDbEntity
  8
0
  6
Continuous
 62
     7
370
    15
100
AcDbLine
 10
131.4487706881
 20
82.781107832
 30
0.0
 11
133.0023167212
 21
82.781107832
 31
0.0
  0
SPLINE
  5
2B1
330
1F
100
AcDbEntity
  8
0
  6
Continuous
 62
     7
370
    15
100
AcDbSpline
210
0.0
220
0.0
230
1.0
 70
     8
 71
     3
 72
    13
 73
     9
 74
     0
 42
0.00000001
 43
0.00000001
 12
1.0
 22
0.0
 32
0.0
 13
1.0
 23
0.0
 33
0.0
 40
0.0
 40
0.0
 40
0.0
 40
0.0
 40
0.1695411050601978
 40
0.3386458383075585
 40
0.5184804584264776
 40
0.7277236211483006
 40
0.992453776884978
 40
1.0
 40
1.0
 40
1.0
 40
1.0
 10
132.9960779892766
 20
82.59110783201388
 30
0.0
 10
132.9961340093445
 20
82.58618560255654
 30
0.0
 10
132.9962459052934
 20
82.57635381267687
 30
0.0
 10
132.9970898349474
 20
82.56312665400075
 30
0.0
 10
132.9983466769204
 20
82.5519923333799
 30
0.0
 10
133.0001205302863
 20
82.54344857752548
 30
0.0
 10
133.0015235608987
 20
82.54113144560297
 30
0.0
 10
133.0022953313406
 20
82.54110846882239
 30
0.0
 10
133.0023167211945
 20
82.54110783201388
 30
0.0
  0
LINE
  5
2B2
330
1F
100
AcDbEntity
  8
0
  6
Continuous
 62
     7
370
    15
100
AcDbLine
 10
133.0023167212
 20
82.541107832
 30
0.0
 11
131.516989424
 21
82.541107832
 31
0.0
  0
LINE
  5
2B3
330
1F
100
AcDbEntity
  8
0
  6
Continuous
 62
     7
370
    15
100
AcDbLine
 10
132.9960779893
 20
82.591107832
 30
0.0
 11
132.9960779893
 21
82.731107832
 31
0.0
  0
SPLINE
  5
2B4
330
1F
100
AcDbEntity
  8
0
  6
Continuous
 62
     7
370
    15
100
AcDbSpline
210
0.0
220
0.0
230
1.0
 70
     8
 71
     3
 72
    12
 73
     8
 74
     0
 42
0.00000001
 43
0.00000001
 12
1.0
 22
0.0
 32
0.0
 13
1.0
 23
0.0
 33
0.0
 40
0.0
 40
0.0
 40
0.0
 40
0.0
 40
0.2028202020467179
 40
0.4049472449426982
 40
0.6098312030741254
 40
0.8226939241827401
 40
1.0
 40
1.0
 40
1.0
 40
1.0
 10
134.0658732371747
 20
82.49110783201397
 30
0.0
 10
134.063428633337
 20
82.52253600012105
 30
0.0
 10
134.0585477803499
 20
82.58528492729955
 30
0.0
 10
134.0206175390836
 20
82.66936417739343
 30
0.0
 10
133.9641915079297
 20
82.73477988448138
 30
0.0
 10
133.8962624154242
 20
82.77442173773456
 30
0.0
 10
133.848112885889
 20
82.77901877891895
 30
0.0
 10
133.8262320891632
 20
82.7811078320139
 30
0.0
  0
SPLINE
  5
2B5
330
1F
100
AcDbEntity
  8
0
  6
Continuous
 62
     7
370
    15
100
AcDbSpline
210
0.0
220
0.0
230
1.0
 70
     8
 71
     3
 72
    12
 73
     8
 74
     0
 42
0.00000001
 43
0.00000001
 12
1.0
 22
0.0
 32
0.0
 13
1.0
 23
0.0
 33
0.0
 40
0.0
 40
0.0
 40
0.0
 40
0.0
 40
0.2289440738516053
 40
0.4594214300241279
 40
0.6825355698157847
 40
0.894717523162882
 40
1.0
 40
1.0
 40
1.0
 40
1.0
 10
133.0511953665503
 20
82.7811078320139
 30
0.0
 10
133.0769712818159
 20
82.7776409350984
 30
0.0
 10
133.1286957385894
 20
82.77068392279457
 30
0.0
 10
133.1972179092882
 20
82.7159099536321
 30
0.0
 10
133.246629970677
 20
82.63650264673552
 30
0.0
 10
133.2688468418276
 20
82.55632744886498
 30
0.0
 10
133.2707365392979
 20
82.50735037024758
 30
0.0
 10
133.271363230074
 20
82.49110783201392
 30
0.0
  0
LINE
  5
2B6
330
1F
100
AcDbEntity
  8
0
  6
Continuous
 62
     7
370
    15
100
AcDbLine
 10
133.0511953666
 20
82.781107832
 30
0.0
 11
133.8262320892
 21
82.781107832
 31
0.0
  0
LINE
  5
2B7
330
1F
100
AcDbEntity
  8
0
  6
Continuous
 62
     7
370
    15
100
AcDbLine
 10
134.0197403773
 20
81.421107832
 30
0.0
 11
133.2447036547
 21
81.421107832
 31
0.0
  0
LINE
  5
2B8
330
1F
100
AcDbEntity
  8
0
  6
Continuous
 62
     7
370
    15
100
AcDbLine
 10
133.2447036547
 20
81.421107832
 30
0.0
 11
133.1321761344
 21
81.421107832
 31
0.0
  0
LINE
  5
2B9
330
1F
100
AcDbEntity
  8
0
  6
Continuous
 62
     7
370
    15
100
AcDbLine
 10
133.0023167212
 20
82.781107832
 30
0.0
 11
133.0511953666
 21
82.781107832
 31
0.0
  0
LINE
  5
2BA
330
1F
100
AcDbEntity
  8
0
  6
Continuous
 62
     7
370
    15
100
AcDbLine
 10
133.0511953666
 20
82.541107832
 30
0.0
 11
133.0023167212
 21
82.541107832
 31
0.0
  0
LINE
  5
2BB
330
1F
100
AcDbEntity
  8
0
  6
Continuous
 62
     7
370
    15
100
AcDbLine
 10
134.0697403773
 20
82.491107832
 30
0.0
 11
134.0658732372
 21
82.491107832
 31
0.0
  0
LINE
  5
2BC
330
1F
100
AcDbEntity
  8
0
  6
Continuous
 62
     7
370
    15
100
AcDbLine
 10
133.8262320892
 20
82.781107832
 30
0.0
 11
133.8736525553
 21
82.781107832
 31
0.0
  0
SPLINE
  5
2BD
330
1F
100
AcDbEntity
  8
0
  6
Continuous
 62
     7
370
    15
100
AcDbSpline
210
0.0
220
0.0
230
1.0
 70
     8
 71
     3
 72
    10
 73
     6
 74
     0
 42
0.00000001
 43
0.00000001
 12
1.0
 22
0.0
 32
0.0
 13
1.0
 23
0.0
 33
0.0
 40
0.0
 40
0.0
 40
0.0
 40
0.0
 40
0.3816828359346364
 40
0.7620612310504634
 40
1.0
 40
1.0
 40
1.0
 40
1.0
 10
130.3014318734569
 20
82.49110783201387
 30
0.0
 10
130.3040031495207
 20
82.52235802654297
 30
0.0
 10
130.3091369140448
 20
82.58475161480874
 30
0.0
 10
130.3405319209544
 20
82.66034178473623
 30
0.0
 10
130.3715868416718
 20
82.69288778937268
 30
0.0
 10
130.3835372936967
 20
82.70541203538664
 30
0.0
  0
LINE
  5
2BE
330
1F
100
AcDbEntity
  8
0
  6
Continuous
 62
     7
370
    15
100
AcDbLine
 10
130.4600922536
 20
81.421107832
 30
0.0
 11
130.3475647333
 21
81.421107832
 31
0.0
  0
LINE
  5
2BF
330
1F
100
AcDbEntity
  8
0
  6
Continuous
 62
     7
370
    15
100
AcDbLine
 10
131.1203113649
 20
81.421107832
 30
0.0
 11
130.4600922536
 21
81.421107832
 31
0.0
  0
LINE
  5
2C0
330
1F
100
AcDbEntity
  8
0
  6
Continuous
 62
     7
370
    15
100
AcDbLine
 10
131.0833888937
 20
83.7317914345
 30
0.0
 11
131.5101658059
 21
83.821107832
 31
0.0
  0
SPLINE
  5
2C1
330
1F
100
AcDbEntity
  8
0
  6
Continuous
 62
     7
370
    15
100
AcDbSpline
210
0.0
220
0.0
230
1.0
 70
     8
 71
     3
 72
     9
 73
     5
 74
     0
 42
0.00000001
 43
0.00000001
 12
1.0
 22
0.0
 32
0.0
 13
1.0
 23
0.0
 33
0.0
 40
0.0
 40
0.0
 40
0.0
 40
0.0
 40
0.0702005767034288
 40
1.0
 40
1.0
 40
1.0
 40
1.0
 10
131.5101658058618
 20
83.82110783201392
 30
0.0
 10
131.520282943893
 20
83.8210186087604
 30
0.0
 10
131.6644005353185
 20
83.81974763268434
 30
0.0
 10
131.805628778748
 20
83.77416973630524
 30
0.0
 10
131.9369427180418
 20
83.73179143453689
 30
0.0
  0
LINE
  5
2C2
330
1F
100
AcDbEntity
  8
0
  6
Continuous
 62
     7
370
    15
100
AcDbLine
 10
131.936942718
 20
83.7317914345
 30
0.0
 11
131.936942718
 21
82.8704242295
 31
0.0
  0
SPLINE
  5
2C3
330
1F
100
AcDbEntity
  8
0
  6
Continuous
 62
     7
370
    15
100
AcDbSpline
210
0.0
220
0.0
230
1.0
 70
     8
 71
     3
 72
     9
 73
     5
 74
     0
 42
0.00000001
 43
0.00000001
 12
1.0
 22
0.0
 32
0.0
 13
1.0
 23
0.0
 33
0.0
 40
0.0
 40
0.0
 40
0.0
 40
0.0
 40
0.0702005767034381
 40
0.9999999999999999
 40
0.9999999999999999
 40
0.9999999999999999
 40
0.9999999999999999
 10
131.5101658058618
 20
82.78110783201392
 30
0.0
 10
131.520282943893
 20
82.78119705526744
 30
0.0
 10
131.6644005353186
 20
82.78246803134353
 30
0.0
 10
131.8056287787481
 20
82.82804592772261
 30
0.0
 10
131.9369427180419
 20
82.87042422949096
 30
0.0
  0
LINE
  5
2C4
330
1F
100
AcDbEntity
  8
0
  6
Continuous
 62
     7
370
    15
100
AcDbLine
 10
131.4487706881
 20
82.7939566778
 30
0.0
 11
131.5101658059
 21
82.781107832
 31
0.0
  0
LINE
  5
2C5
330
1F
100
AcDbEntity
  8
0
  6
Continuous
 62
     7
370
    15
100
AcDbLine
 10
131.0833888937
 20
83.7317914345
 30
0.0
 11
131.0833888937
 21
83.661107832
 31
0.0
  0
SPLINE
  5
2C6
330
1F
100
AcDbEntity
  8
0
  6
Continuous
 62
     7
370
    15
100
AcDbSpline
210
0.0
220
0.0
230
1.0
 70
     8
 71
     3
 72
     9
 73
     5
 74
     0
 42
0.00000001
 43
0.00000001
 12
1.0
 22
0.0
 32
0.0
 13
1.0
 23
0.0
 33
0.0
 40
0.0
 40
0.0
 40
0.0
 40
0.0
 40
0.2686336050555077
 40
0.9999999999999999
 40
0.9999999999999999
 40
0.9999999999999999
 40
0.9999999999999999
 10
132.4870745488589
 20
83.82110783201392
 30
0.0
 10
132.437052171737
 20
83.81978204149702
 30
0.0
 10
132.2508417491374
 20
83.81484673000976
 30
0.0
 10
132.0695404185743
 20
83.76687577728977
 30
0.0
 10
131.9369427180418
 20
83.73179143453689
 30
0.0
  0
LINE
  5
2C7
330
1F
100
AcDbEntity
  8
0
  6
Continuous
 62
     7
370
    15
100
AcDbLine
 10
132.4870745489
 20
83.821107832
 30
0.0
 11
131.5101658059
 21
83.821107832
 31
0.0
  0
SPLINE
  5
2C8
330
1F
100
AcDbEntity
  8
0
  6
Continuous
 62
     7
370
    15
100
AcDbSpline
210
0.0
220
0.0
230
1.0
 70
     8
 71
     3
 72
     9
 73
     5
 74
     0
 42
0.00000001
 43
0.00000001
 12
1.0
 22
0.0
 32
0.0
 13
1.0
 23
0.0
 33
0.0
 40
0.0
 40
0.0
 40
0.0
 40
0.0
 40
0.2686336050556081
 40
1.0
 40
1.0
 40
1.0
 40
1.0
 10
132.4870745488589
 20
82.7811078320139
 30
0.0
 10
132.4370521717371
 20
82.78243362253082
 30
0.0
 10
132.2508417491374
 20
82.78736893401808
 30
0.0
 10
132.0695404185743
 20
82.83533988673808
 30
0.0
 10
131.9369427180419
 20
82.87042422949096
 30
0.0
  0
SPLINE
  5
2C9
330
1F
100
AcDbEntity
  8
0
  6
Continuous
 62
     7
370
    15
100
AcDbSpline
210
0.0
220
0.0
230
1.0
 70
     8
 71
     3
 72
     9
 73
     5
 74
     0
 42
0.00000001
 43
0.00000001
 12
1.0
 22
0.0
 32
0.0
 13
1.0
 23
0.0
 33
0.0
 40
0.0
 40
0.0
 40
0.0
 40
0.0
 40
0.2575513451037595
 40
1.0
 40
1.0
 40
1.0
 40
1.0
 10
133.037206379676
 20
83.73179143453687
 30
0.0
 10
132.9910218566648
 20
83.74527447909185
 30
0.0
 10
132.8117002422014
 20
83.79762537848065
 30
0.0
 10
132.6253959327859
 20
83.81110207603916
 30
0.0
 10
132.4870745488589
 20
83.82110783201392
 30
0.0
  0
LINE
  5
2CA
330
1F
100
AcDbEntity
  8
0
  6
Continuous
 62
     7
370
    15
100
AcDbLine
 10
133.0372063797
 20
83.7317914345
 30
0.0
 11
133.0372063797
 21
82.8704242295
 31
0.0
  0
SPLINE
  5
2CB
330
1F
100
AcDbEntity
  8
0
  6
Continuous
 62
     7
370
    15
100
AcDbSpline
210
0.0
220
0.0
230
1.0
 70
     8
 71
     3
 72
     9
 73
     5
 74
     0
 42
0.00000001
 43
0.00000001
 12
1.0
 22
0.0
 32
0.0
 13
1.0
 23
0.0
 33
0.0
 40
0.0
 40
0.0
 40
0.0
 40
0.0
 40
0.2575513451038096
 40
1.0
 40
1.0
 40
1.0
 40
1.0
 10
133.037206379676
 20
82.87042422949096
 30
0.0
 10
132.9910218566647
 20
82.85694118493599
 30
0.0
 10
132.8117002422014
 20
82.80459028554719
 30
0.0
 10
132.6253959327859
 20
82.79111358798869
 30
0.0
 10
132.4870745488589
 20
82.7811078320139
 30
0.0
  0
LINE
  5
2CC
330
1F
100
AcDbEntity
  8
0
  6
Continuous
 62
     7
370
    15
100
AcDbLine
 10
133.0372063797
 20
83.7317914345
 30
0.0
 11
133.1605612983
 21
83.821107832
 31
0.0
  0
LINE
  5
2CD
330
1F
100
AcDbEntity
  8
0
  6
Continuous
 62
     7
370
    15
100
AcDbLine
 10
132.4870745489
 20
83.821107832
 30
0.0
 11
133.1605612983
 21
83.821107832
 31
0.0
  0
LINE
  5
2CE
330
1F
100
AcDbEntity
  8
0
  6
Continuous
 62
     7
370
    15
100
AcDbLine
 10
133.0372063797
 20
82.8704242295
 30
0.0
 11
133.1605612983
 21
82.781107832
 31
0.0
  0
LINE
  5
2CF
330
1F
100
AcDbEntity
  8
0
  6
Continuous
 62
     7
370
    15
100
AcDbLine
 10
131.1601307988
 20
83.7912838158
 30
0.0
 11
131.0833888937
 21
83.7317914345
 31
0.0
  0
LINE
  5
2D0
330
1F
100
AcDbEntity
  8
0
  6
Continuous
 62
     7
370
    15
100
AcDbLine
 10
131.1836525553
 20
83.821107832
 30
0.0
 11
131.5101658059
 21
83.821107832
 31
0.0
  0
SPLINE
  5
2D1
330
1F
100
AcDbEntity
  8
0
  6
Continuous
 62
     7
370
    15
100
AcDbSpline
210
0.0
220
0.0
230
1.0
 70
     8
 71
     3
 72
     9
 73
     5
 74
     0
 42
0.00000001
 43
0.00000001
 12
1.0
 22
0.0
 32
0.0
 13
1.0
 23
0.0
 33
0.0
 40
0.0
 40
0.0
 40
0.0
 40
0.0
 40
0.0702005767034129
 40
1.0
 40
1.0
 40
1.0
 40
1.0
 10
133.1605612983129
 20
83.82110783201392
 30
0.0
 10
133.163485539768
 20
83.8210186087604
 30
0.0
 10
133.2051410587454
 20
83.81974763268431
 30
0.0
 10
133.2459614451822
 20
83.77416973630523
 30
0.0
 10
133.2839162169498
 20
83.73179143453687
 30
0.0
  0
LINE
  5
2D2
330
1F
100
AcDbEntity
  8
0
  6
Continuous
 62
     7
370
    15
100
AcDbLine
 10
133.2839162169
 20
83.7317914345
 30
0.0
 11
133.2839162169
 21
82.8704242295
 31
0.0
  0
LINE
  5
2D3
330
1F
100
AcDbEntity
  8
0
  6
Continuous
 62
     7
370
    15
100
AcDbLine
 10
133.2071743118
 20
82.8109318483
 30
0.0
 11
133.2839162169
 21
82.8704242295
 31
0.0
  0
LINE
  5
2D4
330
1F
100
AcDbEntity
  8
0
  6
Continuous
 62
     7
370
    15
100
AcDbLine
 10
133.1605612983
 20
83.821107832
 30
0.0
 11
133.1836525553
 21
83.821107832
 31
0.0
  0
LINE
  5
2D5
330
1F
100
AcDbEntity
  8
0
  6
Continuous
 62
     7
370
    15
100
AcDbLine
 10
131.2621369466
 20
82.2117914345
 30
0.0
 11
131.7938075419
 21
82.301107832
 31
0.0
  0
SPLINE
  5
2D6
330
1F
100
AcDbEntity
  8
0
  6
Continuous
 62
     7
370
    15
100
AcDbSpline
210
0.0
220
0.0
230
1.0
 70
     8
 71
     3
 72
     9
 73
     5
 74
     0
 42
0.00000001
 43
0.00000001
 12
1.0
 22
0.0
 32
0.0
 13
1.0
 23
0.0
 33
0.0
 40
0.0
 40
0.0
 40
0.0
 40
0.0
 40
0.0702005767034387
 40
1.0
 40
1.0
 40
1.0
 40
1.0
 10
131.7938075418654
 20
82.30110783201393
 30
0.0
 10
131.8064112808342
 20
82.3010186087604
 30
0.0
 10
131.9859502470463
 20
82.29974763268432
 30
0.0
 10
132.1618897182408
 20
82.25416973630523
 30
0.0
 10
132.3254781370926
 20
82.21179143453688
 30
0.0
  0
LINE
  5
2D7
330
1F
100
AcDbEntity
  8
0
  6
Continuous
 62
     7
370
    15
100
AcDbLine
 10
132.3254781371
 20
82.2117914345
 30
0.0
 11
132.3254781371
 21
81.3504242295
 31
0.0
  0
SPLINE
  5
2D8
330
1F
100
AcDbEntity
  8
0
  6
Continuous
 62
     7
370
    15
100
AcDbSpline
210
0.0
220
0.0
230
1.0
 70
     8
 71
     3
 72
     9
 73
     5
 74
     0
 42
0.00000001
 43
0.00000001
 12
1.0
 22
0.0
 32
0.0
 13
1.0
 23
0.0
 33
0.0
 40
0.0
 40
0.0
 40
0.0
 40
0.0
 40
0.0702005767034369
 40
1.0
 40
1.0
 40
1.0
 40
1.0
 10
131.7938075418654
 20
81.26110783201393
 30
0.0
 10
131.8064112808342
 20
81.26119705526743
 30
0.0
 10
131.9859502470461
 20
81.26246803134352
 30
0.0
 10
132.1618897182408
 20
81.3080459277226
 30
0.0
 10
132.3254781370926
 20
81.35042422949095
 30
0.0
  0
LINE
  5
2D9
330
1F
100
AcDbEntity
  8
0
  6
Continuous
 62
     7
370
    15
100
AcDbLine
 10
131.2621369466
 20
81.3504242295
 30
0.0
 11
131.7938075419
 21
81.261107832
 31
0.0
  0
LINE
  5
2DA
330
1F
100
AcDbEntity
  8
0
  6
Continuous
 62
     7
370
    15
100
AcDbLine
 10
131.2621369466
 20
82.2117914345
 30
0.0
 11
131.2621369466
 21
81.3504242295
 31
0.0
  0
SPLINE
  5
2DB
330
1F
100
AcDbEntity
  8
0
  6
Continuous
 62
     7
370
    15
100
AcDbSpline
210
0.0
220
0.0
230
1.0
 70
     8
 71
     3
 72
     9
 73
     5
 74
     0
 42
0.00000001
 43
0.00000001
 12
1.0
 22
0.0
 32
0.0
 13
1.0
 23
0.0
 33
0.0
 40
0.0
 40
0.0
 40
0.0
 40
0.0
 40
0.2686336050555119
 40
1.0
 40
1.0
 40
1.0
 40
1.0
 10
132.7862359414314
 20
82.30110783201393
 30
0.0
 10
132.7443401641661
 20
82.29978204149701
 30
0.0
 10
132.5883813545575
 20
82.29484673000975
 30
0.0
 10
132.4365341093802
 20
82.24687577728976
 30
0.0
 10
132.3254781370926
 20
82.21179143453688
 30
0.0
  0
SPLINE
  5
2DC
330
1F
100
AcDbEntity
  8
0
  6
Continuous
 62
     7
370
    15
100
AcDbSpline
210
0.0
220
0.0
230
1.0
 70
     8
 71
     3
 72
     9
 73
     5
 74
     0
 42
0.00000001
 43
0.00000001
 12
1.0
 22
0.0
 32
0.0
 13
1.0
 23
0.0
 33
0.0
 40
0.0
 40
0.0
 40
0.0
 40
0.0
 40
0.2686336050556017
 40
0.9999999999999999
 40
0.9999999999999999
 40
0.9999999999999999
 40
0.9999999999999999
 10
132.7862359414315
 20
81.26110783201392
 30
0.0
 10
132.7443401641661
 20
81.2624336225308
 30
0.0
 10
132.5883813545575
 20
81.26736893401808
 30
0.0
 10
132.4365341093802
 20
81.31533988673809
 30
0.0
 10
132.3254781370926
 20
81.35042422949095
 30
0.0
  0
LINE
  5
2DD
330
1F
100
AcDbEntity
  8
0
  6
Continuous
 62
     7
370
    15
100
AcDbLine
 10
132.7862359414
 20
81.261107832
 30
0.0
 11
131.7938075419
 21
81.261107832
 31
0.0
  0
LINE
  5
2DE
330
1F
100
AcDbEntity
  8
0
  6
Continuous
 62
     7
370
    15
100
AcDbLine
 10
133.0821761344
 20
82.2568912325
 30
0.0
 11
132.7862359414
 21
82.301107832
 31
0.0
  0
LINE
  5
2DF
330
1F
100
AcDbEntity
  8
0
  6
Continuous
 62
     7
370
    15
100
AcDbLine
 10
133.2469937458
 20
81.421107832
 30
0.0
 11
133.2469937458
 21
81.3504242295
 31
0.0
  0
SPLINE
  5
2E0
330
1F
100
AcDbEntity
  8
0
  6
Continuous
 62
     7
370
    15
100
AcDbSpline
210
0.0
220
0.0
230
1.0
 70
     8
 71
     3
 72
     9
 73
     5
 74
     0
 42
0.00000001
 43
0.00000001
 12
1.0
 22
0.0
 32
0.0
 13
1.0
 23
0.0
 33
0.0
 40
0.0
 40
0.0
 40
0.0
 40
0.0
 40
0.2575513451037995
 40
1.0
 40
1.0
 40
1.0
 40
1.0
 10
133.2469937457703
 20
81.35042422949095
 30
0.0
 10
133.2083123275627
 20
81.336941184936
 30
0.0
 10
133.0581231752138
 20
81.2845902855472
 30
0.0
 10
132.9020857315747
 20
81.27111358798868
 30
0.0
 10
132.7862359414315
 20
81.26110783201392
 30
0.0
  0
SPLINE
  5
2E1
330
1F
100
AcDbEntity
  8
0
  6
Continuous
 62
     7
370
    15
100
AcDbSpline
210
0.0
220
0.0
230
1.0
 70
     8
 71
     3
 72
     9
 73
     5
 74
     0
 42
0.00000001
 43
0.00000001
 12
1.0
 22
0.0
 32
0.0
 13
1.0
 23
0.0
 33
0.0
 40
0.0
 40
0.0
 40
0.0
 40
0.0
 40
0.0702005767034285
 40
1.0
 40
1.0
 40
1.0
 40
1.0
 10
131.1912241557498
 20
81.26110783201393
 30
0.0
 10
131.1929052084804
 20
81.26119705526744
 30
0.0
 10
131.2168516318516
 20
81.26246803134352
 30
0.0
 10
131.2403179642797
 20
81.3080459277226
 30
0.0
 10
131.2621369466381
 20
81.35042422949097
 30
0.0
  0
LINE
  5
2E2
330
1F
100
AcDbEntity
  8
0
  6
Continuous
 62
     7
370
    15
100
AcDbLine
 10
131.7938075419
 20
81.261107832
 30
0.0
 11
131.1912241557
 21
81.261107832
 31
0.0
  0
SPLINE
  5
2E3
330
1F
100
AcDbEntity
  8
0
  6
Continuous
 62
     7
370
    15
100
AcDbSpline
210
0.0
220
0.0
230
1.0
 70
     8
 71
     3
 72
     9
 73
     5
 74
     0
 42
0.00000001
 43
0.00000001
 12
1.0
 22
0.0
 32
0.0
 13
1.0
 23
0.0
 33
0.0
 40
0.0
 40
0.0
 40
0.0
 40
0.0
 40
0.0702005767033802
 40
1.0
 40
1.0
 40
1.0
 40
1.0
 10
131.1912241557498
 20
82.30110783201393
 30
0.0
 10
131.1929052084804
 20
82.3010186087604
 30
0.0
 10
131.2168516318518
 20
82.29974763268432
 30
0.0
 10
131.2403179642798
 20
82.25416973630523
 30
0.0
 10
131.2621369466382
 20
82.21179143453689
 30
0.0
  0
LINE
  5
2E4
330
1F
100
AcDbEntity
  8
0
  6
Continuous
 62
     7
370
    15
100
AcDbLine
 10
133.2469937458
 20
81.3504242295
 30
0.0
 11
133.1760809549
 21
81.261107832
 31
0.0
  0
LINE
  5
2E5
330
1F
100
AcDbEntity
  8
0
  6
Continuous
 62
     7
370
    15
100
AcDbLine
 10
132.7862359414
 20
81.261107832
 30
0.0
 11
133.183622414
 21
81.261107832
 31
0.0
  0
LINE
  5
2E6
330
1F
100
AcDbEntity
  8
0
  6
Continuous
 62
     7
370
    15
100
AcDbLine
 10
131.1203113649
 20
82.2117914345
 30
0.0
 11
131.1912241557
 21
82.301107832
 31
0.0
  0
LINE
  5
2E7
330
1F
100
AcDbEntity
  8
0
  6
Continuous
 62
     7
370
    15
100
AcDbLine
 10
131.1203113649
 20
81.3504242295
 30
0.0
 11
131.1912241557
 21
81.261107832
 31
0.0
  0
LINE
  5
2E8
330
1F
100
AcDbEntity
  8
0
  6
Continuous
 62
     7
370
    15
100
AcDbLine
 10
131.1203113649
 20
82.2117914345
 30
0.0
 11
131.1203113649
 21
81.3504242295
 31
0.0
  0
LINE
  5
2E9
330
1F
100
AcDbEntity
  8
0
  6
Continuous
 62
     7
370
    15
100
AcDbLine
 10
132.5644190931
 20
84.8217914345
 30
0.0
 11
132.7303020258
 21
84.861107832
 31
0.0
  0
LINE
  5
2EA
330
1F
100
AcDbEntity
  8
0
  6
Continuous
 62
     7
370
    15
100
AcDbLine
 10
133.1631685653
 20
84.861107832
 30
0.0
 11
133.3181028943
 21
84.8217914345
 31
0.0
  0
LINE
  5
2EB
330
1F
100
AcDbEntity
  8
0
  6
Continuous
 62
     7
370
    15
100
AcDbLine
 10
133.3181028943
 20
84.8217914345
 30
0.0
 11
133.3181028943
 21
83.9604242295
 31
0.0
  0
SPLINE
  5
2EC
330
1F
100
AcDbEntity
  8
0
  6
Continuous
 62
     7
370
    15
100
AcDbSpline
210
0.0
220
0.0
230
1.0
 70
     8
 71
     3
 72
     9
 73
     5
 74
     0
 42
0.00000001
 43
0.00000001
 12
1.0
 22
0.0
 32
0.0
 13
1.0
 23
0.0
 33
0.0
 40
0.0
 40
0.0
 40
0.0
 40
0.0
 40
0.0702005767034218
 40
1.0
 40
1.0
 40
1.0
 40
1.0
 10
132.9412609936794
 20
83.87110783201392
 30
0.0
 10
132.9501943764735
 20
83.87119705526744
 30
0.0
 10
133.0774494962124
 20
83.8724680313435
 30
0.0
 10
133.202153335975
 20
83.9180459277226
 30
0.0
 10
133.3181028942691
 20
83.96042422949095
 30
0.0
  0
LINE
  5
2ED
330
1F
100
AcDbEntity
  8
0
  6
Continuous
 62
     7
370
    15
100
AcDbLine
 10
132.5644190931
 20
83.9604242295
 30
0.0
 11
132.9412609937
 21
83.871107832
 31
0.0
  0
LINE
  5
2EE
330
1F
100
AcDbEntity
  8
0
  6
Continuous
 62
     7
370
    15
100
AcDbLine
 10
132.5644190931
 20
84.8217914345
 30
0.0
 11
132.5644190931
 21
83.9604242295
 31
0.0
  0
SPLINE
  5
2EF
330
1F
100
AcDbEntity
  8
0
  6
Continuous
 62
     7
370
    15
100
AcDbSpline
210
0.0
220
0.0
230
1.0
 70
     8
 71
     3
 72
     9
 73
     5
 74
     0
 42
0.00000001
 43
0.00000001
 12
1.0
 22
0.0
 32
0.0
 13
1.0
 23
0.0
 33
0.0
 40
0.0
 40
0.0
 40
0.0
 40
0.0
 40
0.9250528693794005
 40
1.0
 40
1.0
 40
1.0
 40
1.0
 10
132.5644190930897
 20
84.82179143453688
 30
0.0
 10
132.5172121331243
 20
84.83750217709002
 30
0.0
 10
132.4661804985789
 20
84.85448579291696
 30
0.0
 10
132.4131443502034
 20
84.86064613225598
 30
0.0
 10
132.4091694430635
 20
84.86110783201309
 30
0.0
  0
SPLINE
  5
2F0
330
1F
100
AcDbEntity
  8
0
  6
Continuous
 62
     7
370
    15
100
AcDbSpline
210
0.0
220
0.0
230
1.0
 70
     8
 71
     3
 72
     9
 73
     5
 74
     0
 42
0.00000001
 43
0.00000001
 12
1.0
 22
0.0
 32
0.0
 13
1.0
 23
0.0
 33
0.0
 40
0.0
 40
0.0
 40
0.0
 40
0.0
 40
0.2575513451037951
 40
1.0
 40
1.0
 40
1.0
 40
1.0
 10
132.5644190930896
 20
83.96042422949095
 30
0.0
 10
132.5167995545995
 20
83.946941184936
 30
0.0
 10
132.3319061754912
 20
83.8945902855472
 30
0.0
 10
132.139813139672
 20
83.8811135879887
 30
0.0
 10
131.997193923613
 20
83.87110783201393
 30
0.0
  0
LINE
  5
2F1
330
1F
100
AcDbEntity
  8
0
  6
Continuous
 62
     7
370
    15
100
AcDbLine
 10
132.9412609937
 20
83.871107832
 30
0.0
 11
131.9971939236
 21
83.871107832
 31
0.0
  0
SPLINE
  5
2F2
330
1F
100
AcDbEntity
  8
0
  6
Continuous
 62
     7
370
    15
100
AcDbSpline
210
0.0
220
0.0
230
1.0
 70
     8
 71
     3
 72
     9
 73
     5
 74
     0
 42
0.00000001
 43
0.00000001
 12
1.0
 22
0.0
 32
0.0
 13
1.0
 23
0.0
 33
0.0
 40
0.0
 40
0.0
 40
0.0
 40
0.0
 40
0.2686336050556
 40
1.0
 40
1.0
 40
1.0
 40
1.0
 10
131.997193923613
 20
83.87110783201393
 30
0.0
 10
131.9456172837039
 20
83.87243362253082
 30
0.0
 10
131.7536210518906
 20
83.87736893401808
 30
0.0
 10
131.5666864442308
 20
83.92533988673809
 30
0.0
 10
131.4299687541364
 20
83.96042422949095
 30
0.0
  0
LINE
  5
2F3
330
1F
100
AcDbEntity
  8
0
  6
Continuous
 62
     7
370
    15
100
AcDbLine
 10
131.4299687541
 20
84.8217914345
 30
0.0
 11
131.4299687541
 21
83.9604242295
 31
0.0
  0
LINE
  5
2F4
330
1F
100
AcDbEntity
  8
0
  6
Continuous
 62
     7
370
    15
100
AcDbLine
 10
131.6273604213
 20
84.861107832
 30
0.0
 11
131.4299687541
 21
84.8217914345
 31
0.0
  0
SPLINE
  5
2F5
330
1F
100
AcDbEntity
  8
0
  6
Continuous
 62
     7
370
    15
100
AcDbSpline
210
0.0
220
0.0
230
1.0
 70
     8
 71
     3
 72
     9
 73
     5
 74
     0
 42
0.00000001
 43
0.00000001
 12
1.0
 22
0.0
 32
0.0
 13
1.0
 23
0.0
 33
0.0
 40
0.0
 40
0.0
 40
0.0
 40
0.0
 40
0.0702005767034388
 40
1.0
 40
1.0
 40
1.0
 40
1.0
 10
131.2395854852494
 20
83.87110783201393
 30
0.0
 10
131.244098695208
 20
83.87119705526746
 30
0.0
 10
131.3083889072054
 20
83.87246803134353
 30
0.0
 10
131.371390194004
 20
83.91804592772262
 30
0.0
 10
131.4299687541364
 20
83.96042422949095
 30
0.0
  0
LINE
  5
2F6
330
1F
100
AcDbEntity
  8
0
  6
Continuous
 62
     7
370
    15
100
AcDbLine
 10
131.9971939236
 20
83.871107832
 30
0.0
 11
131.2395854852
 21
83.871107832
 31
0.0
  0
LINE
  5
2F7
330
1F
100
AcDbEntity
  8
0
  6
Continuous
 62
     7
370
    15
100
AcDbLine
 10
131.3516948043
 20
84.861107832
 30
0.0
 11
131.4299687541
 21
84.8217914345
 31
0.0
  0
LINE
  5
2F8
330
1F
100
AcDbEntity
  8
0
  6
Continuous
 62
     7
370
    15
100
AcDbLine
 10
131.0492022164
 20
84.8217914345
 30
0.0
 11
131.1242096494
 21
84.856980418
 31
0.0
  0
LINE
  5
2F9
330
1F
100
AcDbEntity
  8
0
  6
Continuous
 62
     7
370
    15
100
AcDbLine
 10
131.0492022164
 20
83.9604242295
 30
0.0
 11
131.2395854852
 21
83.871107832
 31
0.0
  0
LINE
  5
2FA
330
1F
100
AcDbEntity
  8
0
  6
Continuous
 62
     7
370
    15
100
AcDbLine
 10
131.0492022164
 20
84.8217914345
 30
0.0
 11
131.0492022164
 21
83.9604242295
 31
0.0
  0
LINE
  5
2FB
330
1F
100
AcDbEntity
  8
0
  6
Continuous
 62
     7
370
    15
100
AcDbLine
 10
133.3181028943
 20
84.8217914345
 30
0.0
 11
133.2430954612
 21
84.856980418
 31
0.0
  0
LINE
  5
2FC
330
1F
100
AcDbEntity
  8
0
  6
Continuous
 62
     7
370
    15
100
AcDbLine
 10
133.3181028943
 20
83.9604242295
 30
0.0
 11
133.2430954612
 21
83.925235246
 31
0.0
  0
LINE
  5
2FD
330
1F
100
AcDbEntity
  8
0
  6
Continuous
 62
     7
370
    15
100
AcDbLine
 10
133.1836525553
 20
83.871107832
 30
0.0
 11
132.9412609937
 21
83.871107832
 31
0.0
  0
LINE
  5
2FE
330
1F
100
AcDbEntity
  8
0
  6
Continuous
 62
     7
370
    15
100
AcDbLine
 10
131.2395854852
 20
83.871107832
 30
0.0
 11
131.1836525553
 21
83.871107832
 31
0.0
  0
LINE
  5
2FF
330
1F
100
AcDbEntity
  8
0
  6
Continuous
 62
     7
370
    15
100
AcDbLine
 10
261.6036525553
 20
52.461107832
 30
0.0
 11
255.9036525553
 21
52.461107832
 31
0.0
  0
LINE
  5
300
330
1F
100
AcDbEntity
  8
0
  6
Continuous
 62
     7
370
    15
100
AcDbLine
 10
267.3036525553
 20
52.461107832
 30
0.0
 11
261.6036525553
 21
52.461107832
 31
0.0
  0
LINE
  5
301
330
1F
100
AcDbEntity
  8
0
  6
Continuous
 62
     7
370
    15
100
AcDbLine
 10
261.6036525553
 20
51.261107832
 30
0.0
 11
256.3036525553
 21
51.261107832
 31
0.0
  0
LINE
  5
302
330
1F
100
AcDbEntity
  8
0
  6
Continuous
 62
     7
370
    15
100
AcDbLine
 10
266.9036525553
 20
51.261107832
 30
0.0
 11
261.6036525553
 21
51.261107832
 31
0.0
  0
LINE
  5
303
330
1F
100
AcDbEntity
  8
0
  6
Continuous
 62
     7
370
    15
100
AcDbLine
 10
151.5036525553
 20
52.461107832
 30
0.0
 11
140.1036525553
 21
52.461107832
 31
0.0
  0
LINE
  5
304
330
1F
100
AcDbEntity
  8
0
  6
Continuous
 62
     7
370
    15
100
AcDbLine
 10
151.1036525553
 20
51.261107832
 30
0.0
 11
140.5036525553
 21
51.261107832
 31
0.0
  0
LINE
  5
305
330
1F
100
AcDbEntity
  8
0
  6
Continuous
 62
     7
370
    15
100
AcDbLine
 10
261.6036525553
 20
66.061107832
 30
0.0
 11
255.4117225112
 21
66.061107832
 31
0.0
  0
LINE
  5
306
330
1F
100
AcDbEntity
  8
0
  6
Continuous
 62
     7
370
    15
100
AcDbLine
 10
267.7955825994
 20
66.061107832
 30
0.0
 11
261.6036525553
 21
66.061107832
 31
0.0
  0
LINE
  5
307
330
1F
100
AcDbEntity
  8
0
  6
Continuous
 62
     7
370
    15
100
AcDbLine
 10
151.9955825994
 20
66.061107832
 30
0.0
 11
139.6117225112
 21
66.061107832
 31
0.0
  0
ENDSEC
  0
SECTION
  2
OBJECTS
  0
DICTIONARY
  5
C
330
0
100
AcDbDictionary
281
     1
  3
ACAD_GROUP
350
D
  3
ACAD_LAYOUT
350
1A
  3
ACAD_MLINESTYLE
350
17
  3
ACAD_PLOTSETTINGS
350
19
  3
ACAD_PLOTSTYLENAME
350
E
  0
DICTIONARY
  5
D
102
{ACAD_REACTORS
330
C
102
}
330
C
100
AcDbDictionary
281
     1
  0
DICTIONARY
  5
1A
102
{ACAD_REACTORS
330
C
102
}
330
C
100
AcDbDictionary
281
     1
  3
Layout1
350
1E
  3
Layout2
350
26
  3
Model
350
22
  0
DICTIONARY
  5
17
102
{ACAD_REACTORS
330
C
102
}
330
C
100
AcDbDictionary
281
     1
  3
Standard
350
18
  0
DICTIONARY
  5
19
102
{ACAD_REACTORS
330
C
102
}
330
C
100
AcDbDictionary
281
     1
  0
ACDBDICTIONARYWDFLT
  5
E
102
{ACAD_REACTORS
330
C
102
}
330
C
100
AcDbDictionary
281
     1
  3
Normal
350
F
100
AcDbDictionaryWithDefault
340
F
  0
LAYOUT
  5
1E
102
{ACAD_REACTORS
330
1A
102
}
330
1A
100
AcDbPlotSettings
  1

  2
none_device
  4

  6

 40
0.0
 41
0.0
 42
0.0
 43
0.0
 44
0.0
 45
0.0
 46
0.0
 47
0.0
 48
0.0
 49
0.0
140
0.0
141
0.0
142
1.0
143
1.0
 70
   688
 72
     0
 73
     0
 74
     5
  7

 75
    16
147
1.0
148
0.0
149
0.0
100
AcDbLayout
  1
Layout1
 70
     1
 71
     1
 10
0.0
 20
0.0
 11
420.0
 21
297.0
 12
0.0
 22
0.0
 32
0.0
 14
1.0000000000E+20
 24
1.0000000000E+20
 34
1.0000000000E+20
 15
-1.0000000000E+20
 25
-1.0000000000E+20
 35
-1.0000000000E+20
146
0.0
 13
0.0
 23
0.0
 33
0.0
 16
1.0
 26
0.0
 36
0.0
 17
0.0
 27
1.0
 37
0.0
 76
     0
330
1B
  0
LAYOUT
  5
26
102
{ACAD_REACTORS
330
1A
102
}
330
1A
100
AcDbPlotSettings
  1

  2
none_device
  4

  6

 40
0.0
 41
0.0
 42
0.0
 43
0.0
 44
0.0
 45
0.0
 46
0.0
 47
0.0
 48
0.0
 49
0.0
140
0.0
141
0.0
142
1.0
143
1.0
 70
   688
 72
     0
 73
     0
 74
     5
  7

 75
    16
147
1.0
148
0.0
149
0.0
100
AcDbLayout
  1
Layout2
 70
     1
 71
     2
 10
0.0
 20
0.0
 11
0.0
 21
0.0
 12
0.0
 22
0.0
 32
0.0
 14
0.0
 24
0.0
 34
0.0
 15
0.0
 25
0.0
 35
0.0
146
0.0
 13
0.0
 23
0.0
 33
0.0
 16
1.0
 26
0.0
 36
0.0
 17
0.0
 27
1.0
 37
0.0
 76
     0
330
23
  0
LAYOUT
  5
22
102
{ACAD_REACTORS
330
1A
102
}
330
1A
100
AcDbPlotSettings
  1

  2
none_device
  4

  6

 40
0.0
 41
0.0
 42
0.0
 43
0.0
 44
0.0
 45
0.0
 46
0.0
 47
0.0
 48
0.0
 49
0.0
140
0.0
141
0.0
142
1.0
143
1.0
 70
  1712
 72
     0
 73
     0
 74
     0
  7

 75
     0
147
1.0
148
0.0
149
0.0
100
AcDbLayout
  1
Model
 70
     1
 71
     0
 10
0.0
 20
0.0
 11
431.8
 21
279.4
 12
0.0
 22
0.0
 32
0.0
 14
0.0
 24
0.0
 34
0.0
 15
431.8
 25
279.4
 35
0.0
146
0.0
 13
0.0
 23
0.0
 33
0.0
 16
1.0
 26
0.0
 36
0.0
 17
0.0
 27
1.0
 37
0.0
 76
     0
330
1F
331
29
  0
MLINESTYLE
  5
18
102
{ACAD_REACTORS
330
17
102
}
330
17
100
AcDbMlineStyle
  2
Standard
 70
     0
  3

 62
   256
 51
90.0
 52
90.0
 71
     2
 49
0.5
 62
   256
  6
BYLAYER
 49
-0.5
 62
   256
  6
BYLAYER
  0
ACDBPLACEHOLDER
  5
F
102
{ACAD_REACTORS
330
E
102
}
330
E
  0
ENDSEC
  0
EOF
