  0
SECTION
  2
HEADER
  9
$ACADVER
  1
AC1015
  9
$ACADMAINTVER
 70
     6
  9
$DWGCODEPAGE
  3
ANSI_1252
  9
$INSBASE
 10
0.0
 20
0.0
 30
0.0
  9
$EXTMIN
 10
0.0
 20
0.0
 30
0.0
  9
$EXTMAX
 10
431.8
 20
279.4
 30
0.0
  9
$LIMMIN
 10
0.0
 20
0.0
  9
$LIMMAX
 10
431.8
 20
279.4
  9
$ORTHOMODE
 70
     0
  9
$REGENMODE
 70
     1
  9
$FILLMODE
 70
     1
  9
$QTEXTMODE
 70
     0
  9
$MIRRTEXT
 70
     1
  9
$LTSCALE
 40
1.0
  9
$ATTMODE
 70
     1
  9
$TEXTSIZE
 40
3.5
  9
$TRACEWID
 40
1.0
  9
$TEXTSTYLE
  7
Standard
  9
$CLAYER
  8
0
  9
$CELTYPE
  6
ByLayer
  9
$CECOLOR
 62
   256
  9
$CELTSCALE
 40
1.0
  9
$DISPSILH
 70
     0
  9
$DIMSCALE
 40
1.0
  9
$DIMASZ
 40
3.302
  9
$DIMEXO
 40
1.0
  9
$DIMDLI
 40
3.75
  9
$DIMRND
 40
0.0
  9
$DIMDLE
 40
0.0
  9
$DIMEXE
 40
1.0
  9
$DIMTP
 40
0.0
  9
$DIMTM
 40
0.0
  9
$DIMTXT
 40
3.5
  9
$DIMCEN
 40
2.5
  9
$DIMTSZ
 40
0.0
  9
$DIMTOL
 70
     0
  9
$DIMLIM
 70
     0
  9
$DIMTIH
 70
     1
  9
$DIMTOH
 70
     1
  9
$DIMSE1
 70
     0
  9
$DIMSE2
 70
     0
  9
$DIMTAD
 70
     1
  9
$DIMZIN
 70
     0
  9
$DIMBLK
  1

  9
$DIMASO
 70
     1
  9
$DIMSHO
 70
     1
  9
$DIMPOST
  1

  9
$DIMAPOST
  1

  9
$DIMALT
 70
     0
  9
$DIMALTD
 70
     3
  9
$DIMALTF
 40
0.0393700787
  9
$DIMLFAC
 40
5.0
  9
$DIMTOFL
 70
     1
  9
$DIMTVP
 40
0.0
  9
$DIMTIX
 70
     0
  9
$DIMSOXD
 70
     0
  9
$DIMSAH
 70
     0
  9
$DIMBLK1
  1

  9
$DIMBLK2
  1

  9
$DIMSTYLE
  2
ISO-25
  9
$DIMCLRD
 70
     0
  9
$DIMCLRE
 70
     0
  9
$DIMCLRT
 70
     0
  9
$DIMTFAC
 40
1.0
  9
$DIMGAP
 40
1.524
  9
$DIMJUST
 70
     0
  9
$DIMSD1
 70
     0
  9
$DIMSD2
 70
     0
  9
$DIMTOLJ
 70
     0
  9
$DIMTZIN
 70
     0
  9
$DIMALTZ
 70
     0
  9
$DIMALTTZ
 70
     0
  9
$DIMUPT
 70
     0
  9
$DIMDEC
 70
     3
  9
$DIMTDEC
 70
     3
  9
$DIMALTU
 70
     2
  9
$DIMALTTD
 70
     3
  9
$DIMTXSTY
  7
Standard
  9
$DIMAUNIT
 70
     0
  9
$DIMADEC
 70
     2
  9
$DIMALTRND
 40
0.0
  9
$DIMAZIN
 70
     0
  9
$DIMDSEP
 70
    44
  9
$DIMATFIT
 70
     3
  9
$DIMFRAC
 70
     0
  9
$DIMLDRBLK
  1

  9
$DIMLUNIT
 70
     2
  9
$DIMLWD
 70
    -2
  9
$DIMLWE
 70
    -2
  9
$DIMTMOVE
 70
     0
  9
$LUNITS
 70
     2
  9
$LUPREC
 70
     8
  9
$SKETCHINC
 40
1.0
  9
$FILLETRAD
 40
10.0
  9
$AUNITS
 70
     0
  9
$AUPREC
 70
     8
  9
$MENU
  1
.
  9
$ELEVATION
 40
0.0
  9
$PELEVATION
 40
0.0
  9
$THICKNESS
 40
0.0
  9
$LIMCHECK
 70
     0
  9
$CHAMFERA
 40
10.0
  9
$CHAMFERB
 40
10.0
  9
$CHAMFERC
 40
20.0
  9
$CHAMFERD
 40
0.0
  9
$SKPOLY
 70
     0
  9
$TDCREATE
 40
2457154.584773414
  9
$TDUCREATE
 40
2457154.543106748
  9
$TDUPDATE
 40
2457154.584774132
  9
$TDUUPDATE
 40
2457154.543107465
  9
$TDINDWG
 40
0.0000000116
  9
$TDUSRTIMER
 40
0.0000000116
  9
$USRTIMER
 70
     1
  9
$ANGBASE
 50
0.0
  9
$ANGDIR
 70
     0
  9
$PDMODE
 70
     0
  9
$PDSIZE
 40
-1.0
  9
$PLINEWID
 40
0.0
  9
$SPLFRAME
 70
     0
  9
$SPLINETYPE
 70
     6
  9
$SPLINESEGS
 70
     8
  9
$HANDSEED
  5
262
  9
$SURFTAB1
 70
     6
  9
$SURFTAB2
 70
     6
  9
$SURFTYPE
 70
     6
  9
$SURFU
 70
     6
  9
$SURFV
 70
     6
  9
$UCSBASE
  2

  9
$UCSNAME
  2

  9
$UCSORG
 10
0.0
 20
0.0
 30
0.0
  9
$UCSXDIR
 10
1.0
 20
0.0
 30
0.0
  9
$UCSYDIR
 10
0.0
 20
1.0
 30
0.0
  9
$UCSORTHOREF
  2

  9
$UCSORTHOVIEW
 70
     0
  9
$UCSORGTOP
 10
0.0
 20
0.0
 30
0.0
  9
$UCSORGBOTTOM
 10
0.0
 20
0.0
 30
0.0
  9
$UCSORGLEFT
 10
0.0
 20
0.0
 30
0.0
  9
$UCSORGRIGHT
 10
0.0
 20
0.0
 30
0.0
  9
$UCSORGFRONT
 10
0.0
 20
0.0
 30
0.0
  9
$UCSORGBACK
 10
0.0
 20
0.0
 30
0.0
  9
$PUCSBASE
  2

  9
$PUCSNAME
  2

  9
$PUCSORG
 10
0.0
 20
0.0
 30
0.0
  9
$PUCSXDIR
 10
1.0
 20
0.0
 30
0.0
  9
$PUCSYDIR
 10
0.0
 20
1.0
 30
0.0
  9
$PUCSORTHOREF
  2

  9
$PUCSORTHOVIEW
 70
     0
  9
$PUCSORGTOP
 10
0.0
 20
0.0
 30
0.0
  9
$PUCSORGBOTTOM
 10
0.0
 20
0.0
 30
0.0
  9
$PUCSORGLEFT
 10
0.0
 20
0.0
 30
0.0
  9
$PUCSORGRIGHT
 10
0.0
 20
0.0
 30
0.0
  9
$PUCSORGFRONT
 10
0.0
 20
0.0
 30
0.0
  9
$PUCSORGBACK
 10
0.0
 20
0.0
 30
0.0
  9
$USERI1
 70
     0
  9
$USERI2
 70
     0
  9
$USERI3
 70
     0
  9
$USERI4
 70
     0
  9
$USERI5
 70
     0
  9
$USERR1
 40
0.0
  9
$USERR2
 40
0.0
  9
$USERR3
 40
0.0
  9
$USERR4
 40
0.0
  9
$USERR5
 40
0.0
  9
$WORLDVIEW
 70
     1
  9
$SHADEDGE
 70
     3
  9
$SHADEDIF
 70
    70
  9
$TILEMODE
 70
     1
  9
$MAXACTVP
 70
    64
  9
$PINSBASE
 10
0.0
 20
0.0
 30
0.0
  9
$PLIMCHECK
 70
     0
  9
$PEXTMIN
 10
1.0000000000E+20
 20
1.0000000000E+20
 30
1.0000000000E+20
  9
$PEXTMAX
 10
-1.0000000000E+20
 20
-1.0000000000E+20
 30
-1.0000000000E+20
  9
$PLIMMIN
 10
0.0
 20
0.0
  9
$PLIMMAX
 10
420.0
 20
297.0
  9
$UNITMODE
 70
     0
  9
$VISRETAIN
 70
     1
  9
$PLINEGEN
 70
     0
  9
$PSLTSCALE
 70
     1
  9
$TREEDEPTH
 70
  3020
  9
$CMLSTYLE
  2
Standard
  9
$CMLJUST
 70
     0
  9
$CMLSCALE
 40
20.0
  9
$PROXYGRAPHICS
 70
     1
  9
$MEASUREMENT
 70
     1
  9
$CELWEIGHT
370
    -1
  9
$ENDCAPS
280
     0
  9
$JOINSTYLE
280
     0
  9
$LWDISPLAY
290
     1
  9
$INSUNITS
 70
     4
  9
$HYPERLINKBASE
  1

  9
$STYLESHEET
  1

  9
$XEDIT
290
     1
  9
$CEPSNTYPE
380
     0
  9
$PSTYLEMODE
290
     1
  9
$FINGERPRINTGUID
  2
{D35FC298-E09E-4C72-B74F-C798716C9DD1}
  9
$VERSIONGUID
  2
{FAEB1C32-E019-11D5-929B-00C0DF256EC4}
  9
$EXTNAMES
290
     1
  9
$PSVPSCALE
 40
0.0
  9
$OLESTARTUP
290
     0
  0
ENDSEC
  0
SECTION
  2
CLASSES
  0
CLASS
  1
ACDBDICTIONARYWDFLT
  2
AcDbDictionaryWithDefault
  3
ObjectDBX Classes
 90
        0
280
     0
281
     0
  0
CLASS
  1
VISUALSTYLE
  2
AcDbVisualStyle
  3
ObjectDBX Classes
 90
     4095
280
     0
281
     0
  0
CLASS
  1
MATERIAL
  2
AcDbMaterial
  3
ObjectDBX Classes
 90
     1153
280
     0
281
     0
  0
CLASS
  1
ACDBPLACEHOLDER
  2
AcDbPlaceHolder
  3
ObjectDBX Classes
 90
        0
280
     0
281
     0
  0
CLASS
  1
LAYOUT
  2
AcDbLayout
  3
ObjectDBX Classes
 90
        0
280
     0
281
     0
  0
ENDSEC
  0
SECTION
  2
TABLES
  0
TABLE
  2
VPORT
  5
8
330
0
100
AcDbSymbolTable
 70
     1
  0
VPORT
  5
29
330
8
100
AcDbSymbolTableRecord
100
AcDbViewportTableRecord
  2
*Active
 70
     0
 10
0.0
 20
0.0
 11
1.0
 21
1.0
 12
215.9
 22
139.7
 13
0.0
 23
0.0
 14
10.0
 24
10.0
 15
10.0
 25
10.0
 16
0.0
 26
0.0
 36
1.0
 17
0.0
 27
0.0
 37
0.0
 40
279.4
 41
1.5454545455
 42
50.0
 43
0.0
 44
0.0
 50
0.0
 51
0.0
 71
     0
 72
  2000
 73
     1
 74
     3
 75
     0
 76
     0
 77
     0
 78
     0
281
     0
 65
     1
110
0.0
120
0.0
130
0.0
111
1.0
121
0.0
131
0.0
112
0.0
122
1.0
132
0.0
 79
     0
146
0.0
  0
ENDTAB
  0
TABLE
  2
LTYPE
  5
5
330
0
100
AcDbSymbolTable
 70
     6
  0
LTYPE
  5
14
330
5
100
AcDbSymbolTableRecord
100
AcDbLinetypeTableRecord
  2
ByBlock
 70
     0
  3

 72
    65
 73
     0
 40
0.0
  0
LTYPE
  5
15
330
5
100
AcDbSymbolTableRecord
100
AcDbLinetypeTableRecord
  2
ByLayer
 70
     0
  3

 72
    65
 73
     0
 40
0.0
  0
LTYPE
  5
16
330
5
100
AcDbSymbolTableRecord
100
AcDbLinetypeTableRecord
  2
Continuous
 70
     0
  3
Solid line
 72
    65
 73
     0
 40
0.0
  0
LTYPE
  5
3F
330
5
100
AcDbSymbolTableRecord
100
AcDbLinetypeTableRecord
  2
HIDDEN
 70
     0
  3
Hidden __ __ __ __ __ __ __ __ __ __ __ __ __ __
 72
    65
 73
     2
 40
1.905
 49
1.27
 74
     0
 49
-0.635
 74
     0
  0
LTYPE
  5
40
330
5
100
AcDbSymbolTableRecord
100
AcDbLinetypeTableRecord
  2
PHANTOM
 70
     0
  3
Phantom ______  __  __  ______  __  __  ______
 72
    65
 73
     6
 40
12.7
 49
6.35
 74
     0
 49
-1.27
 74
     0
 49
1.27
 74
     0
 49
-1.27
 74
     0
 49
1.27
 74
     0
 49
-1.27
 74
     0
  0
LTYPE
  5
41
330
5
100
AcDbSymbolTableRecord
100
AcDbLinetypeTableRecord
  2
CENTER
 70
     0
  3
Center ____ _ ____ _ ____ _ ____ _ ____ _ ____
 72
    65
 73
     4
 40
10.16
 49
6.35
 74
     0
 49
-1.27
 74
     0
 49
1.27
 74
     0
 49
-1.27
 74
     0
  0
LTYPE
  5
42
330
5
100
AcDbSymbolTableRecord
100
AcDbLinetypeTableRecord
  2
CENTERX2
 70
     0
  3
Center (2x) ________  __  ________  __  _____
 72
    65
 73
     4
 40
20.32
 49
12.7
 74
     0
 49
-2.54
 74
     0
 49
2.54
 74
     0
 49
-2.54
 74
     0
  0
LTYPE
  5
43
330
5
100
AcDbSymbolTableRecord
100
AcDbLinetypeTableRecord
  2
DOT2
 70
     0
  3
Dot (.5x) ........................................
 72
    65
 73
     2
 40
0.635
 49
0.0
 74
     0
 49
-0.635
 74
     0
  0
ENDTAB
  0
TABLE
  2
LAYER
  5
2
330
0
100
AcDbSymbolTable
 70
     1
  0
LAYER
  5
10
330
2
100
AcDbSymbolTableRecord
100
AcDbLayerTableRecord
  2
0
 70
     0
 62
     7
  6
Continuous
370
    -3
390
F
  0
ENDTAB
  0
TABLE
  2
STYLE
  5
3
330
0
100
AcDbSymbolTable
 70
     1
  0
STYLE
  5
11
330
3
100
AcDbSymbolTableRecord
100
AcDbTextStyleTableRecord
  2
Standard
 70
     0
 40
0.0
 41
1.0
 50
0.0
 71
     0
 42
3.5
  3
txt
  4

  0
ENDTAB
  0
TABLE
  2
VIEW
  5
6
330
0
100
AcDbSymbolTable
 70
     0
  0
ENDTAB
  0
TABLE
  2
UCS
  5
7
330
0
100
AcDbSymbolTable
 70
     0
  0
ENDTAB
  0
TABLE
  2
APPID
  5
9
330
0
100
AcDbSymbolTable
 70
     1
  0
APPID
  5
12
330
9
100
AcDbSymbolTableRecord
100
AcDbRegAppTableRecord
  2
ACAD
 70
     0
  0
ENDTAB
  0
TABLE
  2
DIMSTYLE
  5
A
330
0
100
AcDbSymbolTable
 70
     1
100
AcDbDimStyleTable
  0
DIMSTYLE
105
27
330
A
100
AcDbSymbolTableRecord
100
AcDbDimStyleTableRecord
  2
ISO-25
 70
     0
 41
2.5
 42
0.625
 43
3.75
 44
1.25
 73
     0
 74
     0
 77
     1
 78
     8
140
2.5
141
2.5
143
0.0393700787
147
0.625
171
     3
172
     1
178
     0
271
     2
272
     2
274
     3
278
    44
283
     0
284
     8
340
11
  0
ENDTAB
  0
TABLE
  2
BLOCK_RECORD
  5
1
330
0
100
AcDbSymbolTable
 70
     1
  0
BLOCK_RECORD
  5
1F
330
1
100
AcDbSymbolTableRecord
100
AcDbBlockTableRecord
  2
*Model_Space
340
22
  0
BLOCK_RECORD
  5
1B
330
1
100
AcDbSymbolTableRecord
100
AcDbBlockTableRecord
  2
*Paper_Space
340
1E
  0
BLOCK_RECORD
  5
23
330
1
100
AcDbSymbolTableRecord
100
AcDbBlockTableRecord
  2
*Paper_Space0
340
26
  0
ENDTAB
  0
ENDSEC
  0
SECTION
  2
BLOCKS
  0
BLOCK
  5
20
330
1F
100
AcDbEntity
  8
0
100
AcDbBlockBegin
  2
*Model_Space
 70
     0
 10
0.0
 20
0.0
 30
0.0
  3
*Model_Space
  1

  0
ENDBLK
  5
21
330
1F
100
AcDbEntity
  8
0
100
AcDbBlockEnd
  0
BLOCK
  5
1C
330
1B
100
AcDbEntity
 67
     1
  8
0
100
AcDbBlockBegin
  2
*Paper_Space
 70
     0
 10
0.0
 20
0.0
 30
0.0
  3
*Paper_Space
  1

  0
ENDBLK
  5
1D
330
1B
100
AcDbEntity
 67
     1
  8
0
100
AcDbBlockEnd
  0
BLOCK
  5
24
330
23
100
AcDbEntity
  8
0
100
AcDbBlockBegin
  2
*Paper_Space0
 70
     0
 10
0.0
 20
0.0
 30
0.0
  3
*Paper_Space0
  1

  0
ENDBLK
  5
25
330
23
100
AcDbEntity
  8
0
100
AcDbBlockEnd
  0
ENDSEC
  0
SECTION
  2
ENTITIES
  0
LINE
  5
44
330
1F
100
AcDbEntity
  8
0
  6
Continuous
 62
     7
370
    15
100
AcDbLine
 10
237.2621723091
 20
126.2016170249
 30
0.0
 11
237.2621723091
 21
126.2055149198
 31
0.0
  0
LINE
  5
45
330
1F
100
AcDbEntity
  8
0
  6
Continuous
 62
     7
370
    15
100
AcDbLine
 10
231.2234970817
 20
126.2019471586
 30
0.0
 11
231.2234970817
 21
126.2016170249
 31
0.0
  0
ARC
  5
46
330
1F
100
AcDbEntity
  8
0
  6
Continuous
 62
     7
370
    15
100
AcDbCircle
 10
207.6244237755
 20
216.6748926114
 30
0.0
 40
0.1500000000000057
100
AcDbArc
 50
19.4712206326
 51
90.0
  0
ARC
  5
47
330
1F
100
AcDbEntity
  8
0
  6
Continuous
 62
     7
370
    15
100
AcDbCircle
 10
216.8613673755
 20
216.6748926114
 30
0.0
 40
0.1500000000000123
100
AcDbArc
 50
90.0
 51
160.5287793674
  0
ARC
  5
48
330
1F
100
AcDbEntity
  8
0
  6
Continuous
 62
     7
370
    15
100
AcDbCircle
 10
208.1901092004
 20
216.8748926114
 30
0.0
 40
0.4499999999726838
100
AcDbArc
 50
199.4712206326
 51
270.0
  0
ARC
  5
49
330
1F
100
AcDbEntity
  8
0
  6
Continuous
 62
     7
370
    15
100
AcDbCircle
 10
216.2956819505
 20
216.8748926114
 30
0.0
 40
0.4499999999726469
100
AcDbArc
 50
270.0
 51
340.5287793674
  0
LINE
  5
4A
330
1F
100
AcDbEntity
  8
0
  6
Continuous
 62
     7
370
    15
100
AcDbLine
 10
237.2828346954
 20
126.2678812395
 30
0.0
 11
237.2828346954
 21
126.2813289772
 31
0.0
  0
LINE
  5
4B
330
1F
100
AcDbEntity
  8
0
  6
Continuous
 62
     7
370
    15
100
AcDbLine
 10
172.2428955755
 20
65.8441840845
 30
0.0
 11
209.3566872338
 21
65.8441840845
 31
0.0
  0
LINE
  5
4C
330
1F
100
AcDbEntity
  8
0
  6
Continuous
 62
     7
370
    15
100
AcDbLine
 10
215.1271656798
 20
65.8441840845
 30
0.0
 11
236.9743730408
 21
65.8441840845
 31
0.0
  0
LINE
  5
4D
330
1F
100
AcDbEntity
  8
0
  6
Continuous
 62
     7
370
    15
100
AcDbLine
 10
242.3114181101
 20
65.8441840845
 30
0.0
 11
252.2428955755
 21
65.8441840845
 31
0.0
  0
SPLINE
  5
4E
330
1F
100
AcDbEntity
  8
0
  6
Continuous
 62
     7
370
    15
100
AcDbSpline
210
0.0
220
0.0
230
1.0
 70
     8
 71
     3
 72
    10
 73
     6
 74
     0
 42
0.00000001
 43
0.00000001
 12
1.0
 22
0.0
 32
0.0
 13
1.0
 23
0.0
 33
0.0
 40
0.0
 40
0.0
 40
0.0
 40
0.0
 40
0.02807149987505
 40
0.9716250506653996
 40
1.0
 40
1.0
 40
1.0
 40
1.0
 10
214.306757578552
 20
65.47459277165649
 30
0.0
 10
214.3077159314392
 20
65.47810706275212
 30
0.0
 10
214.3408869296655
 20
65.59974549600523
 30
0.0
 10
214.4045604609632
 20
65.7251034808711
 30
0.0
 10
214.4745246453466
 20
65.84634818592647
 30
0.0
 10
214.476567213485
 20
65.84988786231479
 30
0.0
  0
SPLINE
  5
4F
330
1F
100
AcDbEntity
  8
0
  6
Continuous
 62
     7
370
    15
100
AcDbSpline
210
0.0
220
0.0
230
1.0
 70
     8
 71
     3
 72
     9
 73
     5
 74
     0
 42
0.00000001
 43
0.00000001
 12
1.0
 22
0.0
 32
0.0
 13
1.0
 23
0.0
 33
0.0
 40
0.0
 40
0.0
 40
0.0
 40
0.0
 40
0.2482902811583534
 40
1.0
 40
1.0
 40
1.0
 40
1.0
 10
210.007551752922
 20
65.8498878623148
 30
0.0
 10
210.0207513963558
 20
65.82705785274709
 30
0.0
 10
210.0739135393615
 20
65.73510898764782
 30
0.0
 10
210.1085993407235
 20
65.64278900760749
 30
0.0
 10
210.1346729947132
 20
65.57339118136787
 30
0.0
  0
ARC
  5
50
330
1F
100
AcDbEntity
  8
0
  6
Continuous
 62
     7
370
    15
100
AcDbCircle
 10
214.3698562275
 20
63.4334711112
 30
0.0
 40
0.1999999999999763
100
AcDbArc
 50
286.1036910378
 51
349.3444562998
  0
ARC
  5
51
330
1F
100
AcDbEntity
  8
0
  6
Continuous
 62
     7
370
    15
100
AcDbCircle
 10
210.1159349234
 20
63.4334711112
 30
0.0
 40
0.2000000000000102
100
AcDbArc
 50
190.6555437002
 51
253.8963089622
  0
SPLINE
  5
52
330
1F
100
AcDbEntity
  8
0
  6
Continuous
 62
     7
370
    15
100
AcDbSpline
210
0.0
220
0.0
230
1.0
 70
     8
 71
     3
 72
    17
 73
    13
 74
     0
 42
0.00000001
 43
0.00000001
 12
1.0
 22
0.0
 32
0.0
 13
1.0
 23
0.0
 33
0.0
 40
0.0
 40
0.0
 40
0.0
 40
0.0
 40
0.0568462585242029
 40
0.1651287268936465
 40
0.27318602239607
 40
0.3810465461657251
 40
0.4887964340201389
 40
0.596512020707353
 40
0.7042562858008197
 40
0.8120888674655214
 40
0.9200909108884611
 40
1.0
 40
1.0
 40
1.0
 40
1.0
 10
210.0604596139961
 20
63.2413188537216
 30
0.0
 10
210.1344142391606
 20
63.22089514161267
 30
0.0
 10
210.3492398656547
 20
63.16156772646617
 30
0.0
 10
210.7292837980991
 20
63.08172435446388
 30
0.0
 10
211.2027654833122
 20
63.01134161155105
 30
0.0
 10
211.6927052149025
 20
62.96784059704483
 30
0.0
 10
212.1908648789854
 20
62.95134232514063
 30
0.0
 10
212.6896761174546
 20
62.96216806135688
 30
0.0
 10
213.1815696046982
 20
62.99999958585248
 30
0.0
 10
213.6582208434496
 20
63.06482312309999
 30
0.0
 10
214.0751374380376
 20
63.14622203614891
 30
0.0
 10
214.3208446864334
 20
63.21294496909509
 30
0.0
 10
214.4253315369067
 20
63.24131885372164
 30
0.0
  0
SPLINE
  5
53
330
1F
100
AcDbEntity
  8
0
  6
Continuous
 62
     7
370
    15
100
AcDbSpline
210
0.0
220
0.0
230
1.0
 70
     8
 71
     3
 72
     9
 73
     5
 74
     0
 42
0.00000001
 43
0.00000001
 12
1.0
 22
0.0
 32
0.0
 13
1.0
 23
0.0
 33
0.0
 40
0.0
 40
0.0
 40
0.0
 40
0.0
 40
0.5245004331693484
 40
1.0
 40
1.0
 40
1.0
 40
1.0
 10
214.5665824804204
 20
63.39656136752084
 30
0.0
 10
214.6445279974529
 20
63.79666974295348
 30
0.0
 10
214.7931370587674
 20
64.55950681634722
 30
0.0
 10
214.9826696761033
 20
65.34046110055209
 30
0.0
 10
215.0727923535468
 20
65.71180452440603
 30
0.0
  0
SPLINE
  5
54
330
1F
100
AcDbEntity
  8
0
  6
Continuous
 62
     7
370
    15
100
AcDbSpline
210
0.0
220
0.0
230
1.0
 70
     8
 71
     3
 72
    10
 73
     6
 74
     0
 42
0.00000001
 43
0.00000001
 12
1.0
 22
0.0
 32
0.0
 13
1.0
 23
0.0
 33
0.0
 40
0.0
 40
0.0
 40
0.0
 40
0.0
 40
0.1102503612154991
 40
0.7179885112989761
 40
1.0
 40
1.0
 40
1.0
 40
1.0
 10
209.4144443174056
 20
65.71125840353912
 30
0.0
 10
209.4360808799187
 20
65.62502163643865
 30
0.0
 10
209.5769856636959
 20
65.06341796142964
 30
0.0
 10
209.750610962101
 20
64.28653329888625
 30
0.0
 10
209.873974769017
 20
63.61312029012529
 30
0.0
 10
209.9130756681055
 20
63.3996779948626
 30
0.0
  0
SPLINE
  5
55
330
1F
100
AcDbEntity
  8
0
  6
Continuous
 62
     7
370
    15
100
AcDbSpline
210
0.0
220
0.0
230
1.0
 70
     8
 71
     3
 72
     9
 73
     5
 74
     0
 42
0.00000001
 43
0.00000001
 12
1.0
 22
0.0
 32
0.0
 13
1.0
 23
0.0
 33
0.0
 40
0.0
 40
0.0
 40
0.0
 40
0.0
 40
0.1468379614399363
 40
1.0
 40
1.0
 40
1.0
 40
1.0
 10
215.0708359599415
 20
65.71175807219183
 30
0.0
 10
215.0719122610956
 20
65.71725645955875
 30
0.0
 10
215.0792421173774
 20
65.75470173129257
 30
0.0
 10
215.1065045441731
 20
65.80606590185164
 30
0.0
 10
215.1297638117942
 20
65.8498878623148
 30
0.0
  0
SPLINE
  5
56
330
1F
100
AcDbEntity
  8
0
  6
Continuous
 62
     7
370
    15
100
AcDbSpline
210
0.0
220
0.0
230
1.0
 70
     8
 71
     3
 72
     9
 73
     5
 74
     0
 42
0.00000001
 43
0.00000001
 12
1.0
 22
0.0
 32
0.0
 13
1.0
 23
0.0
 33
0.0
 40
0.0
 40
0.0
 40
0.0
 40
0.0
 40
0.2400633356354284
 40
1.0
 40
1.0
 40
1.0
 40
1.0
 10
209.3530047384365
 20
65.8498878623148
 30
0.0
 10
209.3615062032784
 20
65.83726110836984
 30
0.0
 10
209.396919627904
 20
65.78466351402454
 30
0.0
 10
209.4069275310891
 20
65.74325018136862
 30
0.0
 10
209.4145329036529
 20
65.7117786714899
 30
0.0
  0
LINE
  5
57
330
1F
100
AcDbEntity
  8
0
  6
Continuous
 62
     7
370
    15
100
AcDbLine
 10
241.8098678782
 20
228.0430939307
 30
0.0
 11
237.8210132633
 21
215.1458446557
 31
0.0
  0
LINE
  5
58
330
1F
100
AcDbEntity
  8
0
  6
Continuous
 62
     7
370
    15
100
AcDbLine
 10
240.6870686578
 20
214.259432519
 30
0.0
 11
244.6759232727
 21
227.156681794
 31
0.0
  0
LINE
  5
59
330
1F
100
AcDbEntity
  8
0
  6
Continuous
 62
     7
370
    15
100
AcDbLine
 10
238.2561598006
 20
206.399522715
 30
0.0
 11
240.6870686578
 21
214.259432519
 31
0.0
  0
LINE
  5
5A
330
1F
100
AcDbEntity
  8
0
  6
Continuous
 62
     7
370
    15
100
AcDbLine
 10
237.8210132633
 20
215.1458446557
 30
0.0
 11
235.3901044062
 21
207.2859348516
 31
0.0
  0
LINE
  5
5B
330
1F
100
AcDbEntity
  8
0
  6
Continuous
 62
     7
370
    15
100
AcDbLine
 10
236.9725520792
 20
65.8498878623
 30
0.0
 11
237.3035578831
 21
64.8130820367
 31
0.0
  0
LINE
  5
5C
330
1F
100
AcDbEntity
  8
0
  6
Continuous
 62
     7
370
    15
100
AcDbLine
 10
241.9822332678
 20
64.8130820367
 30
0.0
 11
242.3132390717
 21
65.8498878623
 31
0.0
  0
SPLINE
  5
5D
330
1F
100
AcDbEntity
  8
0
  6
Continuous
 62
     7
370
    15
100
AcDbSpline
210
0.0
220
0.0
230
1.0
 70
     8
 71
     3
 72
    10
 73
     6
 74
     0
 42
0.00000001
 43
0.00000001
 12
1.0
 22
0.0
 32
0.0
 13
1.0
 23
0.0
 33
0.0
 40
0.0
 40
0.0
 40
0.0
 40
0.0
 40
0.1888601539501233
 40
0.7042356042830128
 40
1.0
 40
1.0
 40
1.0
 40
1.0
 10
239.278284498715
 20
65.51525554279722
 30
0.0
 10
239.3273488018237
 20
65.52212343293104
 30
0.0
 10
239.5103033765488
 20
65.54773292576147
 30
0.0
 10
239.7996334280943
 20
65.54642776661694
 30
0.0
 10
240.0065766794029
 20
65.51598554090359
 30
0.0
 10
240.0820340077158
 20
65.50488544942586
 30
0.0
  0
LINE
  5
5E
330
1F
100
AcDbEntity
  8
0
  6
Continuous
 62
     7
370
    15
100
AcDbLine
 10
241.6102815757
 20
59.5717988528
 30
0.0
 11
240.8992532385
 21
64.110746323
 31
0.0
  0
LINE
  5
5F
330
1F
100
AcDbEntity
  8
0
  6
Continuous
 62
     7
370
    15
100
AcDbLine
 10
238.6296975218
 20
63.9969772094
 30
0.0
 11
238.3006505013
 21
59.4311198702
 31
0.0
  0
SPLINE
  5
60
330
1F
100
AcDbEntity
  8
0
  6
Continuous
 62
     7
370
    15
100
AcDbSpline
210
0.0
220
0.0
230
1.0
 70
     8
 71
     3
 72
    18
 73
    14
 74
     0
 42
0.00000001
 43
0.00000001
 12
1.0
 22
0.0
 32
0.0
 13
1.0
 23
0.0
 33
0.0
 40
0.0
 40
0.0
 40
0.0
 40
0.0
 40
0.0881970487695806
 40
0.1601711567910904
 40
0.2574129235492317
 40
0.3606113297734644
 40
0.4235412246618074
 40
0.485343267319251
 40
0.6073922975426472
 40
0.7130898919000639
 40
0.813058762973756
 40
0.8951747766702951
 40
1.0
 40
1.0
 40
1.0
 40
1.0
 10
238.300844643247
 20
59.43375717433977
 30
0.0
 10
238.3036371749015
 20
59.27255584977346
 30
0.0
 10
238.3087085807106
 20
58.97980452767997
 30
0.0
 10
238.4848939281259
 20
58.53947663162026
 30
0.0
 10
238.7949232595479
 20
58.14109751071909
 30
0.0
 10
239.204390938337
 20
57.88435221504129
 30
0.0
 10
239.6041194399639
 20
57.76148621643089
 30
0.0
 10
240.0538982923234
 20
57.71469599104532
 30
0.0
 10
240.5881101456287
 20
57.81400731212172
 30
0.0
 10
241.1057192614818
 20
58.1243167999738
 30
0.0
 10
241.440226047706
 20
58.54081964876227
 30
0.0
 10
241.6361226043826
 20
59.0346402734008
 30
0.0
 10
241.6199965424618
 20
59.37608217372485
 30
0.0
 10
241.6109540322637
 20
59.56754192880587
 30
0.0
  0
LINE
  5
61
330
1F
100
AcDbEntity
  8
0
  6
Continuous
 62
     7
370
    15
100
AcDbLine
 10
241.3114747734
 20
64.573822726
 30
0.0
 11
241.3428954808
 21
64.6635496888
 31
0.0
  0
SPLINE
  5
62
330
1F
100
AcDbEntity
  8
0
  6
Continuous
 62
     7
370
    15
100
AcDbSpline
210
0.0
220
0.0
230
1.0
 70
     8
 71
     3
 72
    14
 73
    10
 74
     0
 42
0.00000001
 43
0.00000001
 12
1.0
 22
0.0
 32
0.0
 13
1.0
 23
0.0
 33
0.0
 40
0.0
 40
0.0
 40
0.0
 40
0.0
 40
0.1262990495585394
 40
0.2428796407907676
 40
0.4460704178023467
 40
0.6191354344997432
 40
0.7824595757164319
 40
0.9382206864659557
 40
1.0
 40
1.0
 40
1.0
 40
1.0
 10
237.9428956700949
 20
64.66307021476565
 30
0.0
 10
237.9526529417926
 20
64.59250649745019
 30
0.0
 10
237.971416682718
 20
64.45680879921458
 30
0.0
 10
238.139618274627
 20
64.23446445622142
 30
0.0
 10
238.4449286329172
 20
64.0384268784242
 30
0.0
 10
238.8867190747297
 20
63.90148224937757
 30
0.0
 10
239.3544833984024
 20
63.83808118908465
 30
0.0
 10
239.7398063331155
 20
63.82125533041046
 30
0.0
 10
239.9458993943522
 20
63.85325090815315
 30
0.0
 10
240.0044277708104
 20
63.86233733351784
 30
0.0
  0
SPLINE
  5
63
330
1F
100
AcDbEntity
  8
0
  6
Continuous
 62
     7
370
    15
100
AcDbSpline
210
0.0
220
0.0
230
1.0
 70
     8
 71
     3
 72
    11
 73
     7
 74
     0
 42
0.00000001
 43
0.00000001
 12
1.0
 22
0.0
 32
0.0
 13
1.0
 23
0.0
 33
0.0
 40
0.0
 40
0.0
 40
0.0
 40
0.0
 40
0.1592932250290747
 40
0.4017800775144032
 40
0.6847060667237151
 40
1.0
 40
1.0
 40
1.0
 40
1.0
 10
240.1364380749913
 20
63.88019411554276
 30
0.0
 10
240.2164130695365
 20
63.88892710569909
 30
0.0
 10
240.4181313755202
 20
63.91095404037447
 30
0.0
 10
240.7164489043544
 20
64.01016175358924
 30
0.0
 10
241.0362701546312
 20
64.16002117128858
 30
0.0
 10
241.1683063416192
 20
64.30181669009886
 30
0.0
 10
241.2378964825783
 20
64.37655052153143
 30
0.0
  0
LINE
  5
64
330
1F
100
AcDbEntity
  8
0
  6
Continuous
 62
     7
370
    15
100
AcDbLine
 10
237.9428955755
 20
64.6995622633
 30
0.0
 11
237.9428955755
 21
64.6633099518
 31
0.0
  0
LINE
  5
65
330
1F
100
AcDbEntity
  8
0
  6
Continuous
 62
     7
370
    15
100
AcDbLine
 10
241.3428955755
 20
64.6633099518
 30
0.0
 11
241.3428955755
 21
64.6995622633
 31
0.0
  0
LINE
  5
66
330
1F
100
AcDbEntity
  8
0
  6
Continuous
 62
     7
370
    15
100
AcDbLine
 10
239.7802060868
 20
65.5273097359
 30
0.0
 11
239.6428955755
 21
65.5334896559
 31
0.0
  0
SPLINE
  5
67
330
1F
100
AcDbEntity
  8
0
  6
Continuous
 62
     7
370
    15
100
AcDbSpline
210
0.0
220
0.0
230
1.0
 70
     8
 71
     3
 72
    18
 73
    14
 74
     0
 42
0.00000001
 43
0.00000001
 12
1.0
 22
0.0
 32
0.0
 13
1.0
 23
0.0
 33
0.0
 40
0.0
 40
0.0
 40
0.0
 40
0.0
 40
0.1312653369652617
 40
0.183764736200428
 40
0.2698078542394279
 40
0.3570088162952794
 40
0.4486196404346287
 40
0.5421692771291652
 40
0.637056928526896
 40
0.7330941485670017
 40
0.8297683375924175
 40
0.9262873427948926
 40
1.0
 40
1.0
 40
1.0
 40
1.0
 10
239.6428955754508
 20
65.53348965588062
 30
0.0
 10
239.5330384398444
 20
65.5308507343884
 30
0.0
 10
239.3792440870383
 20
65.52715637970893
 30
0.0
 10
239.1601291663051
 20
65.5029906031688
 30
0.0
 10
238.9819838557793
 20
65.47496140086126
 30
0.0
 10
238.7843268423153
 20
65.42982757108085
 30
0.0
 10
238.5962359864456
 20
65.37127984105496
 30
0.0
 10
238.4220221882616
 20
65.29858210544361
 30
0.0
 10
238.2674986364909
 20
65.21196828551163
 30
0.0
 10
238.1357277009111
 20
65.1106062432669
 30
0.0
 10
238.0326993966267
 20
64.99223120701377
 30
0.0
 10
237.9629492807674
 20
64.86622002832436
 30
0.0
 10
237.9534471487431
 20
64.77655828960265
 30
0.0
 10
237.9493325945484
 20
64.73773352035975
 30
0.0
  0
LINE
  5
68
330
1F
100
AcDbEntity
  8
0
  6
Continuous
 62
     7
370
    15
100
AcDbLine
 10
184.4428955755
 20
207.3448926114
 30
0.0
 11
235.4083388318
 21
207.3448926114
 31
0.0
  0
LINE
  5
69
330
1F
100
AcDbEntity
  8
0
  6
Continuous
 62
     7
370
    15
100
AcDbLine
 10
238.5485433154
 20
207.3448926114
 30
0.0
 11
240.0428955755
 21
207.3448926114
 31
0.0
  0
LINE
  5
6A
330
1F
100
AcDbEntity
  8
0
  6
Continuous
 62
     7
370
    15
100
AcDbLine
 10
240.0428955755
 20
208.3048926114
 30
0.0
 11
238.8454516211
 21
208.3048926114
 31
0.0
  0
LINE
  5
6B
330
1F
100
AcDbEntity
  8
0
  6
Continuous
 62
     7
370
    15
100
AcDbLine
 10
235.7052471375
 20
208.3048926114
 30
0.0
 11
184.4428955755
 21
208.3048926114
 31
0.0
  0
LINE
  5
6C
330
1F
100
AcDbEntity
  8
0
  6
Continuous
 62
     7
370
    15
100
AcDbLine
 10
184.4428955755
 20
176.9448926114
 30
0.0
 11
240.0428955755
 21
176.9448926114
 31
0.0
  0
LINE
  5
6D
330
1F
100
AcDbEntity
  8
0
  6
Continuous
 62
     7
370
    15
100
AcDbLine
 10
240.0428955755
 20
177.9048926114
 30
0.0
 11
184.4428955755
 21
177.9048926114
 31
0.0
  0
ARC
  5
6E
330
1F
100
AcDbEntity
  8
0
  6
Continuous
 62
     7
370
    15
100
AcDbCircle
 10
207.3819907432
 20
161.0948926114
 30
0.0
 40
0.0999999999999943
100
AcDbArc
 50
0.0
 51
90.0
  0
LINE
  5
6F
330
1F
100
AcDbEntity
  8
0
  6
Continuous
 62
     7
370
    15
100
AcDbLine
 10
207.2819907432
 20
161.1948926114
 30
0.0
 11
207.3819907432
 21
161.1948926114
 31
0.0
  0
LINE
  5
70
330
1F
100
AcDbEntity
  8
0
  6
Continuous
 62
     7
370
    15
100
AcDbLine
 10
197.3919907432
 20
147.5048926114
 30
0.0
 11
197.3919907432
 21
148.4248926114
 31
0.0
  0
LINE
  5
71
330
1F
100
AcDbEntity
  8
0
  6
Continuous
 62
     7
370
    15
100
AcDbLine
 10
193.3919907432
 20
153.8248926114
 30
0.0
 11
193.3919907432
 21
148.4248926114
 31
0.0
  0
LINE
  5
72
330
1F
100
AcDbEntity
  8
0
  6
Continuous
 62
     7
370
    15
100
AcDbLine
 10
193.3919907432
 20
146.5448926114
 30
0.0
 11
193.3919907432
 21
139.9048926114
 31
0.0
  0
LINE
  5
73
330
1F
100
AcDbEntity
  8
0
  6
Continuous
 62
     7
370
    15
100
AcDbLine
 10
193.3919907432
 20
138.9448926114
 30
0.0
 11
193.3919907432
 21
132.3048926114
 31
0.0
  0
LINE
  5
74
330
1F
100
AcDbEntity
  8
0
  6
Continuous
 62
     7
370
    15
100
AcDbLine
 10
193.3919907432
 20
131.3448926114
 30
0.0
 11
193.3919907432
 21
129.4248926114
 31
0.0
  0
LINE
  5
75
330
1F
100
AcDbEntity
  8
0
  6
Continuous
 62
     7
370
    15
100
AcDbLine
 10
193.3919907432
 20
128.4248926114
 30
0.0
 11
193.3919907432
 21
124.7048926114
 31
0.0
  0
LINE
  5
76
330
1F
100
AcDbEntity
  8
0
  6
Continuous
 62
     7
370
    15
100
AcDbLine
 10
184.4428955755
 20
169.3448926114
 30
0.0
 11
240.0428955755
 21
169.3448926114
 31
0.0
  0
LINE
  5
77
330
1F
100
AcDbEntity
  8
0
  6
Continuous
 62
     7
370
    15
100
AcDbLine
 10
240.0428955755
 20
170.3048926114
 30
0.0
 11
184.4428955755
 21
170.3048926114
 31
0.0
  0
LINE
  5
78
330
1F
100
AcDbEntity
  8
0
  6
Continuous
 62
     7
370
    15
100
AcDbLine
 10
184.4428955755
 20
138.9448926114
 30
0.0
 11
240.0428955755
 21
138.9448926114
 31
0.0
  0
LINE
  5
79
330
1F
100
AcDbEntity
  8
0
  6
Continuous
 62
     7
370
    15
100
AcDbLine
 10
240.0428955755
 20
139.9048926114
 30
0.0
 11
184.4428955755
 21
139.9048926114
 31
0.0
  0
ARC
  5
7A
330
1F
100
AcDbEntity
  8
0
  6
Continuous
 62
     7
370
    15
100
AcDbCircle
 10
192.9819907432
 20
196.5548926114
 30
0.0
 40
0.0999999999999943
100
AcDbArc
 50
270.0
 51
0.0
  0
ARC
  5
7B
330
1F
100
AcDbEntity
  8
0
  6
Continuous
 62
     7
370
    15
100
AcDbCircle
 10
192.9819907432
 20
195.0948926114
 30
0.0
 40
0.1000000000000227
100
AcDbArc
 50
0.0
 51
90.0
  0
LINE
  5
7C
330
1F
100
AcDbEntity
  8
0
  6
Continuous
 62
     7
370
    15
100
AcDbLine
 10
192.9819907432
 20
196.4548926114
 30
0.0
 11
192.8819907432
 21
196.4548926114
 31
0.0
  0
LINE
  5
7D
330
1F
100
AcDbEntity
  8
0
  6
Continuous
 62
     7
370
    15
100
AcDbLine
 10
192.8819907432
 20
195.1948926114
 30
0.0
 11
192.9819907432
 21
195.1948926114
 31
0.0
  0
SPLINE
  5
7E
330
1F
100
AcDbEntity
  8
0
  6
Continuous
 62
     7
370
    15
100
AcDbSpline
210
0.0
220
0.0
230
1.0
 70
     8
 71
     3
 72
    12
 73
     8
 74
     0
 42
0.00000001
 43
0.00000001
 12
1.0
 22
0.0
 32
0.0
 13
1.0
 23
0.0
 33
0.0
 40
0.0
 40
0.0
 40
0.0
 40
0.0
 40
0.0744204181889443
 40
0.3232576892448702
 40
0.6646048682567581
 40
0.832333139074947
 40
1.0
 40
1.0
 40
1.0
 40
1.0
 10
196.2351333351774
 20
154.1448926113894
 30
0.0
 10
196.223226965162
 20
154.1159124847189
 30
0.0
 10
196.1715096306974
 20
153.9900323968413
 30
0.0
 10
195.999308725073
 20
153.7665609195585
 30
0.0
 10
195.8242281784337
 20
153.5011566119677
 30
0.0
 10
195.7104724685525
 20
153.2367676888337
 30
0.0
 10
195.6981505663054
 20
153.0955090158506
 30
0.0
 10
195.6919907432345
 20
153.0248926113894
 30
0.0
  0
SPLINE
  5
7F
330
1F
100
AcDbEntity
  8
0
  6
Continuous
 62
     7
370
    15
100
AcDbSpline
210
0.0
220
0.0
230
1.0
 70
     8
 71
     3
 72
    11
 73
     7
 74
     0
 42
0.00000001
 43
0.00000001
 12
1.0
 22
0.0
 32
0.0
 13
1.0
 23
0.0
 33
0.0
 40
0.0
 40
0.0
 40
0.0
 40
0.0
 40
0.167243218173047
 40
0.4189475567649685
 40
0.6748362223378078
 40
1.0
 40
1.0
 40
1.0
 40
1.0
 10
197.1919907432346
 20
153.0248926113894
 30
0.0
 10
197.1855771447166
 20
153.0954738997909
 30
0.0
 10
197.1695109540601
 20
153.2722814179202
 30
0.0
 10
197.0400402004663
 20
153.5323123026201
 30
0.0
 10
196.8382928599505
 20
153.8179712925291
 30
0.0
 10
196.7113399338243
 20
154.0275884089401
 30
0.0
 10
196.6402955839983
 20
154.1448926113894
 30
0.0
  0
LINE
  5
80
330
1F
100
AcDbEntity
  8
0
  6
Continuous
 62
     7
370
    15
100
AcDbLine
 10
195.6919907432
 20
153.0248926114
 30
0.0
 11
195.6919907432
 21
148.4248926114
 31
0.0
  0
LINE
  5
81
330
1F
100
AcDbEntity
  8
0
  6
Continuous
 62
     7
370
    15
100
AcDbLine
 10
195.6919907432
 20
146.5448926114
 30
0.0
 11
195.6919907432
 21
139.9048926114
 31
0.0
  0
LINE
  5
82
330
1F
100
AcDbEntity
  8
0
  6
Continuous
 62
     7
370
    15
100
AcDbLine
 10
195.6919907432
 20
138.9448926114
 30
0.0
 11
195.6919907432
 21
132.3048926114
 31
0.0
  0
LINE
  5
83
330
1F
100
AcDbEntity
  8
0
  6
Continuous
 62
     7
370
    15
100
AcDbLine
 10
195.6919907432
 20
131.3448926114
 30
0.0
 11
195.6919907432
 21
129.4248926114
 31
0.0
  0
LINE
  5
84
330
1F
100
AcDbEntity
  8
0
  6
Continuous
 62
     7
370
    15
100
AcDbLine
 10
195.6919907432
 20
128.4248926114
 30
0.0
 11
195.6919907432
 21
124.7048926114
 31
0.0
  0
LINE
  5
85
330
1F
100
AcDbEntity
  8
0
  6
Continuous
 62
     7
370
    15
100
AcDbLine
 10
195.6919907432
 20
123.7448926114
 30
0.0
 11
195.6919907432
 21
115.8248926114
 31
0.0
  0
LINE
  5
86
330
1F
100
AcDbEntity
  8
0
  6
Continuous
 62
     7
370
    15
100
AcDbLine
 10
197.1919907432
 20
115.8248926114
 30
0.0
 11
197.1919907432
 21
123.7448926114
 31
0.0
  0
LINE
  5
87
330
1F
100
AcDbEntity
  8
0
  6
Continuous
 62
     7
370
    15
100
AcDbLine
 10
197.1919907432
 20
124.7048926114
 30
0.0
 11
197.1919907432
 21
128.4248926114
 31
0.0
  0
LINE
  5
88
330
1F
100
AcDbEntity
  8
0
  6
Continuous
 62
     7
370
    15
100
AcDbLine
 10
197.1919907432
 20
129.4248926114
 30
0.0
 11
197.1919907432
 21
131.3448926114
 31
0.0
  0
LINE
  5
89
330
1F
100
AcDbEntity
  8
0
  6
Continuous
 62
     7
370
    15
100
AcDbLine
 10
197.1919907432
 20
132.3048926114
 30
0.0
 11
197.1919907432
 21
138.9448926114
 31
0.0
  0
LINE
  5
8A
330
1F
100
AcDbEntity
  8
0
  6
Continuous
 62
     7
370
    15
100
AcDbLine
 10
197.1919907432
 20
139.9048926114
 30
0.0
 11
197.1919907432
 21
146.5448926114
 31
0.0
  0
LINE
  5
8B
330
1F
100
AcDbEntity
  8
0
  6
Continuous
 62
     7
370
    15
100
AcDbLine
 10
197.1919907432
 20
148.4248926114
 30
0.0
 11
197.1919907432
 21
153.0248926114
 31
0.0
  0
ARC
  5
8C
330
1F
100
AcDbEntity
  8
0
  6
Continuous
 62
     7
370
    15
100
AcDbCircle
 10
221.7819907432
 20
161.0948926114
 30
0.0
 40
0.1000000000000227
100
AcDbArc
 50
0.0
 51
90.0
  0
LINE
  5
8D
330
1F
100
AcDbEntity
  8
0
  6
Continuous
 62
     7
370
    15
100
AcDbLine
 10
221.6819907432
 20
161.1948926114
 30
0.0
 11
221.7819907432
 21
161.1948926114
 31
0.0
  0
LINE
  5
8E
330
1F
100
AcDbEntity
  8
0
  6
Continuous
 62
     7
370
    15
100
AcDbLine
 10
184.4428955755
 20
192.1448926114
 30
0.0
 11
240.0428955755
 21
192.1448926114
 31
0.0
  0
LINE
  5
8F
330
1F
100
AcDbEntity
  8
0
  6
Continuous
 62
     7
370
    15
100
AcDbLine
 10
240.0428955755
 20
193.1048926114
 30
0.0
 11
184.4428955755
 21
193.1048926114
 31
0.0
  0
LINE
  5
90
330
1F
100
AcDbEntity
  8
0
  6
Continuous
 62
     7
370
    15
100
AcDbLine
 10
184.4428955755
 20
199.7448926114
 30
0.0
 11
240.0428955755
 21
199.7448926114
 31
0.0
  0
LINE
  5
91
330
1F
100
AcDbEntity
  8
0
  6
Continuous
 62
     7
370
    15
100
AcDbLine
 10
240.0428955755
 20
200.7048926114
 30
0.0
 11
184.4428955755
 21
200.7048926114
 31
0.0
  0
LINE
  5
92
330
1F
100
AcDbEntity
  8
0
  6
Continuous
 62
     7
370
    15
100
AcDbLine
 10
184.4428955755
 20
154.1448926114
 30
0.0
 11
240.0428955755
 21
154.1448926114
 31
0.0
  0
LINE
  5
93
330
1F
100
AcDbEntity
  8
0
  6
Continuous
 62
     7
370
    15
100
AcDbLine
 10
240.0428955755
 20
155.1048926114
 30
0.0
 11
184.4428955755
 21
155.1048926114
 31
0.0
  0
ARC
  5
94
330
1F
100
AcDbEntity
  8
0
  6
Continuous
 62
     7
370
    15
100
AcDbCircle
 10
192.9819907432
 20
161.0948926114
 30
0.0
 40
0.1000000000000227
100
AcDbArc
 50
0.0
 51
90.0
  0
LINE
  5
95
330
1F
100
AcDbEntity
  8
0
  6
Continuous
 62
     7
370
    15
100
AcDbLine
 10
192.8819907432
 20
161.1948926114
 30
0.0
 11
192.9819907432
 21
161.1948926114
 31
0.0
  0
LINE
  5
96
330
1F
100
AcDbEntity
  8
0
  6
Continuous
 62
     7
370
    15
100
AcDbLine
 10
184.4428955755
 20
161.7448926114
 30
0.0
 11
240.0428955755
 21
161.7448926114
 31
0.0
  0
LINE
  5
97
330
1F
100
AcDbEntity
  8
0
  6
Continuous
 62
     7
370
    15
100
AcDbLine
 10
240.0428955755
 20
162.7048926114
 30
0.0
 11
184.4428955755
 21
162.7048926114
 31
0.0
  0
LINE
  5
98
330
1F
100
AcDbEntity
  8
0
  6
Continuous
 62
     7
370
    15
100
AcDbLine
 10
184.4428955755
 20
123.7448926114
 30
0.0
 11
240.0428955755
 21
123.7448926114
 31
0.0
  0
LINE
  5
99
330
1F
100
AcDbEntity
  8
0
  6
Continuous
 62
     7
370
    15
100
AcDbLine
 10
240.0428955755
 20
124.7048926114
 30
0.0
 11
184.4428955755
 21
124.7048926114
 31
0.0
  0
LINE
  5
9A
330
1F
100
AcDbEntity
  8
0
  6
Continuous
 62
     7
370
    15
100
AcDbLine
 10
192.2419907432
 20
195.5248926114
 30
0.0
 11
192.8819907432
 21
195.5248926114
 31
0.0
  0
LINE
  5
9B
330
1F
100
AcDbEntity
  8
0
  6
Continuous
 62
     7
370
    15
100
AcDbLine
 10
195.4019907432
 20
195.5248926114
 30
0.0
 11
200.5919907432
 21
195.5248926114
 31
0.0
  0
LINE
  5
9C
330
1F
100
AcDbEntity
  8
0
  6
Continuous
 62
     7
370
    15
100
AcDbLine
 10
202.2919907432
 20
195.5248926114
 30
0.0
 11
207.7919907432
 21
195.5248926114
 31
0.0
  0
LINE
  5
9D
330
1F
100
AcDbEntity
  8
0
  6
Continuous
 62
     7
370
    15
100
AcDbLine
 10
209.4919907432
 20
195.5248926114
 30
0.0
 11
214.7019907432
 21
195.5248926114
 31
0.0
  0
LINE
  5
9E
330
1F
100
AcDbEntity
  8
0
  6
Continuous
 62
     7
370
    15
100
AcDbLine
 10
217.0219907432
 20
195.5248926114
 30
0.0
 11
222.1919907432
 21
195.5248926114
 31
0.0
  0
LINE
  5
9F
330
1F
100
AcDbEntity
  8
0
  6
Continuous
 62
     7
370
    15
100
AcDbLine
 10
223.8919907432
 20
195.5248926114
 30
0.0
 11
229.0819907432
 21
195.5248926114
 31
0.0
  0
LINE
  5
A0
330
1F
100
AcDbEntity
  8
0
  6
Continuous
 62
     7
370
    15
100
AcDbLine
 10
231.4019907432
 20
195.5248926114
 30
0.0
 11
232.2419907432
 21
195.5248926114
 31
0.0
  0
LINE
  5
A1
330
1F
100
AcDbEntity
  8
0
  6
Continuous
 62
     7
370
    15
100
AcDbLine
 10
232.2419907432
 20
196.1248926114
 30
0.0
 11
231.4019907432
 21
196.1248926114
 31
0.0
  0
LINE
  5
A2
330
1F
100
AcDbEntity
  8
0
  6
Continuous
 62
     7
370
    15
100
AcDbLine
 10
229.0819907432
 20
196.1248926114
 30
0.0
 11
223.8919907432
 21
196.1248926114
 31
0.0
  0
LINE
  5
A3
330
1F
100
AcDbEntity
  8
0
  6
Continuous
 62
     7
370
    15
100
AcDbLine
 10
222.1919907432
 20
196.1248926114
 30
0.0
 11
217.0219907432
 21
196.1248926114
 31
0.0
  0
LINE
  5
A4
330
1F
100
AcDbEntity
  8
0
  6
Continuous
 62
     7
370
    15
100
AcDbLine
 10
214.7019907432
 20
196.1248926114
 30
0.0
 11
209.4919907432
 21
196.1248926114
 31
0.0
  0
LINE
  5
A5
330
1F
100
AcDbEntity
  8
0
  6
Continuous
 62
     7
370
    15
100
AcDbLine
 10
207.7919907432
 20
196.1248926114
 30
0.0
 11
202.2919907432
 21
196.1248926114
 31
0.0
  0
LINE
  5
A6
330
1F
100
AcDbEntity
  8
0
  6
Continuous
 62
     7
370
    15
100
AcDbLine
 10
200.5919907432
 20
196.1248926114
 30
0.0
 11
195.4019907432
 21
196.1248926114
 31
0.0
  0
LINE
  5
A7
330
1F
100
AcDbEntity
  8
0
  6
Continuous
 62
     7
370
    15
100
AcDbLine
 10
192.8819907432
 20
196.1248926114
 30
0.0
 11
192.2419907432
 21
196.1248926114
 31
0.0
  0
LINE
  5
A8
330
1F
100
AcDbEntity
  8
0
  6
Continuous
 62
     7
370
    15
100
AcDbLine
 10
192.2419907432
 20
161.5248926114
 30
0.0
 11
192.8819907432
 21
161.5248926114
 31
0.0
  0
LINE
  5
A9
330
1F
100
AcDbEntity
  8
0
  6
Continuous
 62
     7
370
    15
100
AcDbLine
 10
195.4019907432
 20
161.5248926114
 30
0.0
 11
200.5919907432
 21
161.5248926114
 31
0.0
  0
LINE
  5
AA
330
1F
100
AcDbEntity
  8
0
  6
Continuous
 62
     7
370
    15
100
AcDbLine
 10
202.2919907432
 20
161.5248926114
 30
0.0
 11
207.2819907432
 21
161.5248926114
 31
0.0
  0
LINE
  5
AB
330
1F
100
AcDbEntity
  8
0
  6
Continuous
 62
     7
370
    15
100
AcDbLine
 10
209.8019907432
 20
161.5248926114
 30
0.0
 11
214.9919907432
 21
161.5248926114
 31
0.0
  0
LINE
  5
AC
330
1F
100
AcDbEntity
  8
0
  6
Continuous
 62
     7
370
    15
100
AcDbLine
 10
216.6919907432
 20
161.5248926114
 30
0.0
 11
221.6819907432
 21
161.5248926114
 31
0.0
  0
LINE
  5
AD
330
1F
100
AcDbEntity
  8
0
  6
Continuous
 62
     7
370
    15
100
AcDbLine
 10
224.2019907432
 20
161.5248926114
 30
0.0
 11
229.0819907432
 21
161.5248926114
 31
0.0
  0
LINE
  5
AE
330
1F
100
AcDbEntity
  8
0
  6
Continuous
 62
     7
370
    15
100
AcDbLine
 10
231.6019907432
 20
161.5248926114
 30
0.0
 11
232.2419907432
 21
161.5248926114
 31
0.0
  0
LINE
  5
AF
330
1F
100
AcDbEntity
  8
0
  6
Continuous
 62
     7
370
    15
100
AcDbLine
 10
184.4428955755
 20
184.5448926114
 30
0.0
 11
240.0428955755
 21
184.5448926114
 31
0.0
  0
LINE
  5
B0
330
1F
100
AcDbEntity
  8
0
  6
Continuous
 62
     7
370
    15
100
AcDbLine
 10
240.0428955755
 20
185.5048926114
 30
0.0
 11
184.4428955755
 21
185.5048926114
 31
0.0
  0
LINE
  5
B1
330
1F
100
AcDbEntity
  8
0
  6
Continuous
 62
     7
370
    15
100
AcDbLine
 10
184.4428955755
 20
131.3448926114
 30
0.0
 11
240.0428955755
 21
131.3448926114
 31
0.0
  0
LINE
  5
B2
330
1F
100
AcDbEntity
  8
0
  6
Continuous
 62
     7
370
    15
100
AcDbLine
 10
240.0428955755
 20
132.3048926114
 30
0.0
 11
184.4428955755
 21
132.3048926114
 31
0.0
  0
ARC
  5
B3
330
1F
100
AcDbEntity
  8
0
  6
Continuous
 62
     7
370
    15
100
AcDbCircle
 10
231.5019907432
 20
161.0948926114
 30
0.0
 40
0.0999999999999943
100
AcDbArc
 50
90.0
 51
180.0
  0
LINE
  5
B4
330
1F
100
AcDbEntity
  8
0
  6
Continuous
 62
     7
370
    15
100
AcDbLine
 10
231.5019907432
 20
161.1948926114
 30
0.0
 11
231.6019907432
 21
161.1948926114
 31
0.0
  0
LINE
  5
B5
330
1F
100
AcDbEntity
  8
0
  6
Continuous
 62
     7
370
    15
100
AcDbLine
 10
184.4428955755
 20
146.5448926114
 30
0.0
 11
240.0428955755
 21
146.5448926114
 31
0.0
  0
LINE
  5
B6
330
1F
100
AcDbEntity
  8
0
  6
Continuous
 62
     7
370
    15
100
AcDbLine
 10
240.0428955755
 20
147.5048926114
 30
0.0
 11
184.4428955755
 21
147.5048926114
 31
0.0
  0
ARC
  5
B7
330
1F
100
AcDbEntity
  8
0
  6
Continuous
 62
     7
370
    15
100
AcDbCircle
 10
189.1419907432
 20
115.6248926114
 30
0.0
 40
0.2000000000000171
100
AcDbArc
 50
90.0
 51
180.0
  0
ARC
  5
B8
330
1F
100
AcDbEntity
  8
0
  6
Continuous
 62
     7
370
    15
100
AcDbCircle
 10
203.7419907432
 20
115.6248926114
 30
0.0
 40
0.2000000000000171
100
AcDbArc
 50
0.0
 51
90.0
  0
LINE
  5
B9
330
1F
100
AcDbEntity
  8
0
  6
Continuous
 62
     7
370
    15
100
AcDbLine
 10
188.9419907432
 20
115.6248926114
 30
0.0
 11
188.9419907432
 21
114.8405896143
 31
0.0
  0
LINE
  5
BA
330
1F
100
AcDbEntity
  8
0
  6
Continuous
 62
     7
370
    15
100
AcDbLine
 10
203.9419907432
 20
114.8248926114
 30
0.0
 11
203.9419907432
 21
115.6248926114
 31
0.0
  0
LINE
  5
BB
330
1F
100
AcDbEntity
  8
0
  6
Continuous
 62
     7
370
    15
100
AcDbLine
 10
239.0428955755
 20
208.9432923884
 30
0.0
 11
239.0428955755
 21
208.3048926114
 31
0.0
  0
LINE
  5
BC
330
1F
100
AcDbEntity
  8
0
  6
Continuous
 62
     7
370
    15
100
AcDbLine
 10
239.0428955755
 20
207.3448926114
 30
0.0
 11
239.0428955755
 21
200.7048926114
 31
0.0
  0
LINE
  5
BD
330
1F
100
AcDbEntity
  8
0
  6
Continuous
 62
     7
370
    15
100
AcDbLine
 10
239.0428955755
 20
199.7448926114
 30
0.0
 11
239.0428955755
 21
193.1048926114
 31
0.0
  0
LINE
  5
BE
330
1F
100
AcDbEntity
  8
0
  6
Continuous
 62
     7
370
    15
100
AcDbLine
 10
239.0428955755
 20
192.1448926114
 30
0.0
 11
239.0428955755
 21
185.5048926114
 31
0.0
  0
LINE
  5
BF
330
1F
100
AcDbEntity
  8
0
  6
Continuous
 62
     7
370
    15
100
AcDbLine
 10
239.0428955755
 20
184.5448926114
 30
0.0
 11
239.0428955755
 21
177.9048926114
 31
0.0
  0
LINE
  5
C0
330
1F
100
AcDbEntity
  8
0
  6
Continuous
 62
     7
370
    15
100
AcDbLine
 10
239.0428955755
 20
176.9448926114
 30
0.0
 11
239.0428955755
 21
170.3048926114
 31
0.0
  0
LINE
  5
C1
330
1F
100
AcDbEntity
  8
0
  6
Continuous
 62
     7
370
    15
100
AcDbLine
 10
239.0428955755
 20
169.3448926114
 30
0.0
 11
239.0428955755
 21
162.7048926114
 31
0.0
  0
LINE
  5
C2
330
1F
100
AcDbEntity
  8
0
  6
Continuous
 62
     7
370
    15
100
AcDbLine
 10
239.0428955755
 20
161.7448926114
 30
0.0
 11
239.0428955755
 21
155.1048926114
 31
0.0
  0
LINE
  5
C3
330
1F
100
AcDbEntity
  8
0
  6
Continuous
 62
     7
370
    15
100
AcDbLine
 10
239.0428955755
 20
154.1448926114
 30
0.0
 11
239.0428955755
 21
147.5048926114
 31
0.0
  0
LINE
  5
C4
330
1F
100
AcDbEntity
  8
0
  6
Continuous
 62
     7
370
    15
100
AcDbLine
 10
239.0428955755
 20
146.5448926114
 30
0.0
 11
239.0428955755
 21
139.9048926114
 31
0.0
  0
LINE
  5
C5
330
1F
100
AcDbEntity
  8
0
  6
Continuous
 62
     7
370
    15
100
AcDbLine
 10
239.0428955755
 20
138.9448926114
 30
0.0
 11
239.0428955755
 21
132.3048926114
 31
0.0
  0
LINE
  5
C6
330
1F
100
AcDbEntity
  8
0
  6
Continuous
 62
     7
370
    15
100
AcDbLine
 10
239.0428955755
 20
131.3448926114
 30
0.0
 11
239.0428955755
 21
124.7048926114
 31
0.0
  0
LINE
  5
C7
330
1F
100
AcDbEntity
  8
0
  6
Continuous
 62
     7
370
    15
100
AcDbLine
 10
239.0428955755
 20
123.7448926114
 30
0.0
 11
239.0428955755
 21
119.4248926114
 31
0.0
  0
LINE
  5
C8
330
1F
100
AcDbEntity
  8
0
  6
Continuous
 62
     7
370
    15
100
AcDbLine
 10
240.2428955755
 20
119.4248926114
 30
0.0
 11
240.2428955755
 21
212.2248926114
 31
0.0
  0
LINE
  5
C9
330
1F
100
AcDbEntity
  8
0
  6
Continuous
 62
     7
370
    15
100
AcDbLine
 10
239.0428955755
 20
119.4248926114
 30
0.0
 11
239.0428955755
 21
118.4248926114
 31
0.0
  0
LINE
  5
CA
330
1F
100
AcDbEntity
  8
0
  6
Continuous
 62
     7
370
    15
100
AcDbLine
 10
240.2428955755
 20
118.4248926114
 30
0.0
 11
240.2428955755
 21
119.4248926114
 31
0.0
  0
LINE
  5
CB
330
1F
100
AcDbEntity
  8
0
  6
Continuous
 62
     7
370
    15
100
AcDbLine
 10
185.4428955755
 20
118.4248926114
 30
0.0
 11
185.4428955755
 21
119.4248926114
 31
0.0
  0
LINE
  5
CC
330
1F
100
AcDbEntity
  8
0
  6
Continuous
 62
     7
370
    15
100
AcDbLine
 10
184.2428955755
 20
119.4248926114
 30
0.0
 11
184.2428955755
 21
118.4248926114
 31
0.0
  0
LINE
  5
CD
330
1F
100
AcDbEntity
  8
0
  6
Continuous
 62
     7
370
    15
100
AcDbLine
 10
185.4428955755
 20
212.2248926114
 30
0.0
 11
185.4428955755
 21
213.2248926114
 31
0.0
  0
LINE
  5
CE
330
1F
100
AcDbEntity
  8
0
  6
Continuous
 62
     7
370
    15
100
AcDbLine
 10
184.2428955755
 20
213.2248926114
 30
0.0
 11
184.2428955755
 21
212.2248926114
 31
0.0
  0
LINE
  5
CF
330
1F
100
AcDbEntity
  8
0
  6
Continuous
 62
     7
370
    15
100
AcDbLine
 10
240.2428955755
 20
212.2248926114
 30
0.0
 11
240.2428955755
 21
212.8232781548
 31
0.0
  0
LINE
  5
D0
330
1F
100
AcDbEntity
  8
0
  6
Continuous
 62
     7
370
    15
100
AcDbLine
 10
185.4428955755
 20
119.4248926114
 30
0.0
 11
185.4428955755
 21
123.7448926114
 31
0.0
  0
LINE
  5
D1
330
1F
100
AcDbEntity
  8
0
  6
Continuous
 62
     7
370
    15
100
AcDbLine
 10
185.4428955755
 20
124.7048926114
 30
0.0
 11
185.4428955755
 21
131.3448926114
 31
0.0
  0
LINE
  5
D2
330
1F
100
AcDbEntity
  8
0
  6
Continuous
 62
     7
370
    15
100
AcDbLine
 10
185.4428955755
 20
132.3048926114
 30
0.0
 11
185.4428955755
 21
138.9448926114
 31
0.0
  0
LINE
  5
D3
330
1F
100
AcDbEntity
  8
0
  6
Continuous
 62
     7
370
    15
100
AcDbLine
 10
185.4428955755
 20
139.9048926114
 30
0.0
 11
185.4428955755
 21
146.5448926114
 31
0.0
  0
LINE
  5
D4
330
1F
100
AcDbEntity
  8
0
  6
Continuous
 62
     7
370
    15
100
AcDbLine
 10
185.4428955755
 20
147.5048926114
 30
0.0
 11
185.4428955755
 21
154.1448926114
 31
0.0
  0
LINE
  5
D5
330
1F
100
AcDbEntity
  8
0
  6
Continuous
 62
     7
370
    15
100
AcDbLine
 10
185.4428955755
 20
155.1048926114
 30
0.0
 11
185.4428955755
 21
161.7448926114
 31
0.0
  0
LINE
  5
D6
330
1F
100
AcDbEntity
  8
0
  6
Continuous
 62
     7
370
    15
100
AcDbLine
 10
185.4428955755
 20
162.7048926114
 30
0.0
 11
185.4428955755
 21
169.3448926114
 31
0.0
  0
LINE
  5
D7
330
1F
100
AcDbEntity
  8
0
  6
Continuous
 62
     7
370
    15
100
AcDbLine
 10
185.4428955755
 20
170.3048926114
 30
0.0
 11
185.4428955755
 21
176.9448926114
 31
0.0
  0
LINE
  5
D8
330
1F
100
AcDbEntity
  8
0
  6
Continuous
 62
     7
370
    15
100
AcDbLine
 10
185.4428955755
 20
177.9048926114
 30
0.0
 11
185.4428955755
 21
184.5448926114
 31
0.0
  0
LINE
  5
D9
330
1F
100
AcDbEntity
  8
0
  6
Continuous
 62
     7
370
    15
100
AcDbLine
 10
185.4428955755
 20
185.5048926114
 30
0.0
 11
185.4428955755
 21
192.1448926114
 31
0.0
  0
LINE
  5
DA
330
1F
100
AcDbEntity
  8
0
  6
Continuous
 62
     7
370
    15
100
AcDbLine
 10
185.4428955755
 20
193.1048926114
 30
0.0
 11
185.4428955755
 21
199.7448926114
 31
0.0
  0
LINE
  5
DB
330
1F
100
AcDbEntity
  8
0
  6
Continuous
 62
     7
370
    15
100
AcDbLine
 10
185.4428955755
 20
200.7048926114
 30
0.0
 11
185.4428955755
 21
207.3448926114
 31
0.0
  0
LINE
  5
DC
330
1F
100
AcDbEntity
  8
0
  6
Continuous
 62
     7
370
    15
100
AcDbLine
 10
185.4428955755
 20
208.3048926114
 30
0.0
 11
185.4428955755
 21
212.2248926114
 31
0.0
  0
LINE
  5
DD
330
1F
100
AcDbEntity
  8
0
  6
Continuous
 62
     7
370
    15
100
AcDbLine
 10
184.2428955755
 20
212.2248926114
 30
0.0
 11
184.2428955755
 21
119.4248926114
 31
0.0
  0
LINE
  5
DE
330
1F
100
AcDbEntity
  8
0
  6
Continuous
 62
     7
370
    15
100
AcDbLine
 10
186.4428955755
 20
213.8248926114
 30
0.0
 11
184.8428955755
 21
213.8248926114
 31
0.0
  0
LINE
  5
DF
330
1F
100
AcDbEntity
  8
0
  6
Continuous
 62
     7
370
    15
100
AcDbLine
 10
185.4428955755
 20
212.6248926114
 30
0.0
 11
186.4428955755
 21
212.6248926114
 31
0.0
  0
LINE
  5
E0
330
1F
100
AcDbEntity
  8
0
  6
Continuous
 62
     7
370
    15
100
AcDbLine
 10
186.4428955755
 20
212.6248926114
 30
0.0
 11
237.0413345131
 21
212.6248926114
 31
0.0
  0
LINE
  5
E1
330
1F
100
AcDbEntity
  8
0
  6
Continuous
 62
     7
370
    15
100
AcDbLine
 10
237.4124698952
 20
213.8248926114
 30
0.0
 11
186.4428955755
 21
213.8248926114
 31
0.0
  0
ARC
  5
E2
330
1F
100
AcDbEntity
  8
0
  6
Continuous
 62
     7
370
    15
100
AcDbCircle
 10
219.4419907432
 20
130.2748926114
 30
0.0
 40
4.450000000000017
100
AcDbArc
 50
180.0
 51
0.0
  0
ARC
  5
E3
330
1F
100
AcDbEntity
  8
0
  6
Continuous
 62
     7
370
    15
100
AcDbCircle
 10
219.4419907432
 20
130.2748926114
 30
0.0
 40
2.75
100
AcDbArc
 50
180.0
 51
0.0
  0
ARC
  5
E4
330
1F
100
AcDbEntity
  8
0
  6
Continuous
 62
     7
370
    15
100
AcDbCircle
 10
197.8419907432
 20
201.3748926114
 30
0.0
 40
4.450000000000017
100
AcDbArc
 50
0.0
 51
180.0
  0
ARC
  5
E5
330
1F
100
AcDbEntity
  8
0
  6
Continuous
 62
     7
370
    15
100
AcDbCircle
 10
197.8419907432
 20
201.3748926114
 30
0.0
 40
2.750000000000028
100
AcDbArc
 50
0.0
 51
180.0
  0
LINE
  5
E6
330
1F
100
AcDbEntity
  8
0
  6
Continuous
 62
     7
370
    15
100
AcDbLine
 10
202.2419907432
 20
120.8248926114
 30
0.0
 11
226.6419907432
 21
120.8248926114
 31
0.0
  0
LINE
  5
E7
330
1F
100
AcDbEntity
  8
0
  6
Continuous
 62
     7
370
    15
100
AcDbLine
 10
226.6419907432
 20
122.5248926114
 30
0.0
 11
202.2419907432
 21
122.5248926114
 31
0.0
  0
LINE
  5
E8
330
1F
100
AcDbEntity
  8
0
  6
Continuous
 62
     7
370
    15
100
AcDbLine
 10
195.0919907432
 20
115.8248926114
 30
0.0
 11
195.0919907432
 21
123.7448926114
 31
0.0
  0
LINE
  5
E9
330
1F
100
AcDbEntity
  8
0
  6
Continuous
 62
     7
370
    15
100
AcDbLine
 10
193.3919907432
 20
123.7448926114
 30
0.0
 11
193.3919907432
 21
115.8248926114
 31
0.0
  0
LINE
  5
EA
330
1F
100
AcDbEntity
  8
0
  6
Continuous
 62
     7
370
    15
100
AcDbLine
 10
231.0919907432
 20
125.2748926114
 30
0.0
 11
231.0919907432
 21
131.3448926114
 31
0.0
  0
LINE
  5
EB
330
1F
100
AcDbEntity
  8
0
  6
Continuous
 62
     7
370
    15
100
AcDbLine
 10
231.0919907432
 20
132.3048926114
 30
0.0
 11
231.0919907432
 21
138.9448926114
 31
0.0
  0
LINE
  5
EC
330
1F
100
AcDbEntity
  8
0
  6
Continuous
 62
     7
370
    15
100
AcDbLine
 10
231.0919907432
 20
139.9048926114
 30
0.0
 11
231.0919907432
 21
146.5448926114
 31
0.0
  0
LINE
  5
ED
330
1F
100
AcDbEntity
  8
0
  6
Continuous
 62
     7
370
    15
100
AcDbLine
 10
231.0919907432
 20
147.5048926114
 30
0.0
 11
231.0919907432
 21
154.1448926114
 31
0.0
  0
LINE
  5
EE
330
1F
100
AcDbEntity
  8
0
  6
Continuous
 62
     7
370
    15
100
AcDbLine
 10
231.0919907432
 20
155.1048926114
 30
0.0
 11
231.0919907432
 21
160.7248926114
 31
0.0
  0
LINE
  5
EF
330
1F
100
AcDbEntity
  8
0
  6
Continuous
 62
     7
370
    15
100
AcDbLine
 10
231.0919907432
 20
162.9248926114
 30
0.0
 11
231.0919907432
 21
169.3448926114
 31
0.0
  0
LINE
  5
F0
330
1F
100
AcDbEntity
  8
0
  6
Continuous
 62
     7
370
    15
100
AcDbLine
 10
231.0919907432
 20
170.3048926114
 30
0.0
 11
231.0919907432
 21
176.9448926114
 31
0.0
  0
LINE
  5
F1
330
1F
100
AcDbEntity
  8
0
  6
Continuous
 62
     7
370
    15
100
AcDbLine
 10
231.0919907432
 20
177.9048926114
 30
0.0
 11
231.0919907432
 21
184.5448926114
 31
0.0
  0
LINE
  5
F2
330
1F
100
AcDbEntity
  8
0
  6
Continuous
 62
     7
370
    15
100
AcDbLine
 10
231.0919907432
 20
185.5048926114
 30
0.0
 11
231.0919907432
 21
192.1448926114
 31
0.0
  0
LINE
  5
F3
330
1F
100
AcDbEntity
  8
0
  6
Continuous
 62
     7
370
    15
100
AcDbLine
 10
231.0919907432
 20
193.1048926114
 30
0.0
 11
231.0919907432
 21
194.3248926114
 31
0.0
  0
LINE
  5
F4
330
1F
100
AcDbEntity
  8
0
  6
Continuous
 62
     7
370
    15
100
AcDbLine
 10
231.0919907432
 20
197.3248926114
 30
0.0
 11
231.0919907432
 21
199.7448926114
 31
0.0
  0
LINE
  5
F5
330
1F
100
AcDbEntity
  8
0
  6
Continuous
 62
     7
370
    15
100
AcDbLine
 10
231.0919907432
 20
200.7048926114
 30
0.0
 11
231.0919907432
 21
201.3748926114
 31
0.0
  0
LINE
  5
F6
330
1F
100
AcDbEntity
  8
0
  6
Continuous
 62
     7
370
    15
100
AcDbLine
 10
229.3919907432
 20
201.3748926114
 30
0.0
 11
229.3919907432
 21
200.7048926114
 31
0.0
  0
LINE
  5
F7
330
1F
100
AcDbEntity
  8
0
  6
Continuous
 62
     7
370
    15
100
AcDbLine
 10
229.3919907432
 20
199.7448926114
 30
0.0
 11
229.3919907432
 21
197.3248926114
 31
0.0
  0
LINE
  5
F8
330
1F
100
AcDbEntity
  8
0
  6
Continuous
 62
     7
370
    15
100
AcDbLine
 10
229.3919907432
 20
194.3248926114
 30
0.0
 11
229.3919907432
 21
193.1048926114
 31
0.0
  0
LINE
  5
F9
330
1F
100
AcDbEntity
  8
0
  6
Continuous
 62
     7
370
    15
100
AcDbLine
 10
229.3919907432
 20
192.1448926114
 30
0.0
 11
229.3919907432
 21
185.5048926114
 31
0.0
  0
LINE
  5
FA
330
1F
100
AcDbEntity
  8
0
  6
Continuous
 62
     7
370
    15
100
AcDbLine
 10
229.3919907432
 20
184.5448926114
 30
0.0
 11
229.3919907432
 21
177.9048926114
 31
0.0
  0
LINE
  5
FB
330
1F
100
AcDbEntity
  8
0
  6
Continuous
 62
     7
370
    15
100
AcDbLine
 10
229.3919907432
 20
176.9448926114
 30
0.0
 11
229.3919907432
 21
170.3048926114
 31
0.0
  0
LINE
  5
FC
330
1F
100
AcDbEntity
  8
0
  6
Continuous
 62
     7
370
    15
100
AcDbLine
 10
229.3919907432
 20
169.3448926114
 30
0.0
 11
229.3919907432
 21
162.9248926114
 31
0.0
  0
LINE
  5
FD
330
1F
100
AcDbEntity
  8
0
  6
Continuous
 62
     7
370
    15
100
AcDbLine
 10
229.3919907432
 20
160.7248926114
 30
0.0
 11
229.3919907432
 21
155.1048926114
 31
0.0
  0
LINE
  5
FE
330
1F
100
AcDbEntity
  8
0
  6
Continuous
 62
     7
370
    15
100
AcDbLine
 10
229.3919907432
 20
154.1448926114
 30
0.0
 11
229.3919907432
 21
147.5048926114
 31
0.0
  0
LINE
  5
FF
330
1F
100
AcDbEntity
  8
0
  6
Continuous
 62
     7
370
    15
100
AcDbLine
 10
229.3919907432
 20
146.5448926114
 30
0.0
 11
229.3919907432
 21
139.9048926114
 31
0.0
  0
LINE
  5
100
330
1F
100
AcDbEntity
  8
0
  6
Continuous
 62
     7
370
    15
100
AcDbLine
 10
229.3919907432
 20
138.9448926114
 30
0.0
 11
229.3919907432
 21
132.3048926114
 31
0.0
  0
LINE
  5
101
330
1F
100
AcDbEntity
  8
0
  6
Continuous
 62
     7
370
    15
100
AcDbLine
 10
229.3919907432
 20
131.3448926114
 30
0.0
 11
229.3919907432
 21
125.2748926114
 31
0.0
  0
ARC
  5
102
330
1F
100
AcDbEntity
  8
0
  6
Continuous
 62
     7
370
    15
100
AcDbCircle
 10
202.2419907432
 20
118.0748926114
 30
0.0
 40
4.450000000000017
100
AcDbArc
 50
90.0
 51
180.0
  0
ARC
  5
103
330
1F
100
AcDbEntity
  8
0
  6
Continuous
 62
     7
370
    15
100
AcDbCircle
 10
202.2419907432
 20
118.0748926114
 30
0.0
 40
2.75
100
AcDbArc
 50
90.0
 51
180.0
  0
ARC
  5
104
330
1F
100
AcDbEntity
  8
0
  6
Continuous
 62
     7
370
    15
100
AcDbCircle
 10
226.6419907432
 20
125.2748926114
 30
0.0
 40
4.450000000000003
100
AcDbArc
 50
270.0
 51
339.8902054699
  0
LINE
  5
105
330
1F
100
AcDbEntity
  8
0
  6
Continuous
 62
     7
370
    15
100
AcDbLine
 10
231.055334147
 20
124.7048926114
 30
0.0
 11
231.0919907432
 21
125.2748926114
 31
0.0
  0
LWPOLYLINE
  5
106
330
1F
100
AcDbEntity
  8
0
  6
Continuous
 62
     7
370
    15
100
AcDbPolyline
 90
        3
 70
   128
 43
0.0
 10
229.3919907432
 20
125.2748926114
 10
229.350212064
 20
124.7973601228
 10
229.3322695392
 20
124.7048926114
  0
ARC
  5
107
330
1F
100
AcDbEntity
  8
0
  6
Continuous
 62
     7
370
    15
100
AcDbCircle
 10
226.6419907432
 20
125.2748926114
 30
0.0
 40
2.75
100
AcDbArc
 50
270.0
 51
326.195309882
  0
LINE
  5
108
330
1F
100
AcDbEntity
  8
0
  6
Continuous
 62
     7
370
    15
100
AcDbLine
 10
199.4919907432
 20
115.8248926114
 30
0.0
 11
199.4919907432
 21
118.0748926114
 31
0.0
  0
LINE
  5
109
330
1F
100
AcDbEntity
  8
0
  6
Continuous
 62
     7
370
    15
100
AcDbLine
 10
197.7919907432
 20
118.0748926114
 30
0.0
 11
197.7919907432
 21
115.8248926114
 31
0.0
  0
LINE
  5
10A
330
1F
100
AcDbEntity
  8
0
  6
Continuous
 62
     7
370
    15
100
AcDbLine
 10
202.2919907432
 20
130.2748926114
 30
0.0
 11
202.2919907432
 21
131.3448926114
 31
0.0
  0
LINE
  5
10B
330
1F
100
AcDbEntity
  8
0
  6
Continuous
 62
     7
370
    15
100
AcDbLine
 10
202.2919907432
 20
132.3048926114
 30
0.0
 11
202.2919907432
 21
138.9448926114
 31
0.0
  0
LINE
  5
10C
330
1F
100
AcDbEntity
  8
0
  6
Continuous
 62
     7
370
    15
100
AcDbLine
 10
202.2919907432
 20
139.9048926114
 30
0.0
 11
202.2919907432
 21
146.5448926114
 31
0.0
  0
LINE
  5
10D
330
1F
100
AcDbEntity
  8
0
  6
Continuous
 62
     7
370
    15
100
AcDbLine
 10
202.2919907432
 20
147.5048926114
 30
0.0
 11
202.2919907432
 21
154.1448926114
 31
0.0
  0
LINE
  5
10E
330
1F
100
AcDbEntity
  8
0
  6
Continuous
 62
     7
370
    15
100
AcDbLine
 10
202.2919907432
 20
155.1048926114
 30
0.0
 11
202.2919907432
 21
161.7448926114
 31
0.0
  0
LINE
  5
10F
330
1F
100
AcDbEntity
  8
0
  6
Continuous
 62
     7
370
    15
100
AcDbLine
 10
202.2919907432
 20
162.7048926114
 30
0.0
 11
202.2919907432
 21
169.3448926114
 31
0.0
  0
LINE
  5
110
330
1F
100
AcDbEntity
  8
0
  6
Continuous
 62
     7
370
    15
100
AcDbLine
 10
202.2919907432
 20
170.3048926114
 30
0.0
 11
202.2919907432
 21
176.9448926114
 31
0.0
  0
LINE
  5
111
330
1F
100
AcDbEntity
  8
0
  6
Continuous
 62
     7
370
    15
100
AcDbLine
 10
202.2919907432
 20
177.9048926114
 30
0.0
 11
202.2919907432
 21
184.5448926114
 31
0.0
  0
LINE
  5
112
330
1F
100
AcDbEntity
  8
0
  6
Continuous
 62
     7
370
    15
100
AcDbLine
 10
202.2919907432
 20
185.5048926114
 30
0.0
 11
202.2919907432
 21
192.1448926114
 31
0.0
  0
LINE
  5
113
330
1F
100
AcDbEntity
  8
0
  6
Continuous
 62
     7
370
    15
100
AcDbLine
 10
202.2919907432
 20
193.1048926114
 30
0.0
 11
202.2919907432
 21
199.7448926114
 31
0.0
  0
LINE
  5
114
330
1F
100
AcDbEntity
  8
0
  6
Continuous
 62
     7
370
    15
100
AcDbLine
 10
202.2919907432
 20
200.7048926114
 30
0.0
 11
202.2919907432
 21
201.3748926114
 31
0.0
  0
LINE
  5
115
330
1F
100
AcDbEntity
  8
0
  6
Continuous
 62
     7
370
    15
100
AcDbLine
 10
200.5919907432
 20
201.3748926114
 30
0.0
 11
200.5919907432
 21
200.7048926114
 31
0.0
  0
LINE
  5
116
330
1F
100
AcDbEntity
  8
0
  6
Continuous
 62
     7
370
    15
100
AcDbLine
 10
200.5919907432
 20
199.7448926114
 30
0.0
 11
200.5919907432
 21
193.1048926114
 31
0.0
  0
LINE
  5
117
330
1F
100
AcDbEntity
  8
0
  6
Continuous
 62
     7
370
    15
100
AcDbLine
 10
200.5919907432
 20
192.1448926114
 30
0.0
 11
200.5919907432
 21
185.5048926114
 31
0.0
  0
LINE
  5
118
330
1F
100
AcDbEntity
  8
0
  6
Continuous
 62
     7
370
    15
100
AcDbLine
 10
200.5919907432
 20
184.5448926114
 30
0.0
 11
200.5919907432
 21
177.9048926114
 31
0.0
  0
LINE
  5
119
330
1F
100
AcDbEntity
  8
0
  6
Continuous
 62
     7
370
    15
100
AcDbLine
 10
200.5919907432
 20
176.9448926114
 30
0.0
 11
200.5919907432
 21
170.3048926114
 31
0.0
  0
LINE
  5
11A
330
1F
100
AcDbEntity
  8
0
  6
Continuous
 62
     7
370
    15
100
AcDbLine
 10
200.5919907432
 20
169.3448926114
 30
0.0
 11
200.5919907432
 21
162.7048926114
 31
0.0
  0
LINE
  5
11B
330
1F
100
AcDbEntity
  8
0
  6
Continuous
 62
     7
370
    15
100
AcDbLine
 10
200.5919907432
 20
161.7448926114
 30
0.0
 11
200.5919907432
 21
155.1048926114
 31
0.0
  0
LINE
  5
11C
330
1F
100
AcDbEntity
  8
0
  6
Continuous
 62
     7
370
    15
100
AcDbLine
 10
200.5919907432
 20
154.1448926114
 30
0.0
 11
200.5919907432
 21
147.5048926114
 31
0.0
  0
LINE
  5
11D
330
1F
100
AcDbEntity
  8
0
  6
Continuous
 62
     7
370
    15
100
AcDbLine
 10
200.5919907432
 20
146.5448926114
 30
0.0
 11
200.5919907432
 21
139.9048926114
 31
0.0
  0
LINE
  5
11E
330
1F
100
AcDbEntity
  8
0
  6
Continuous
 62
     7
370
    15
100
AcDbLine
 10
200.5919907432
 20
138.9448926114
 30
0.0
 11
200.5919907432
 21
132.3048926114
 31
0.0
  0
LINE
  5
11F
330
1F
100
AcDbEntity
  8
0
  6
Continuous
 62
     7
370
    15
100
AcDbLine
 10
200.5919907432
 20
131.3448926114
 30
0.0
 11
200.5919907432
 21
130.2748926114
 31
0.0
  0
ARC
  5
120
330
1F
100
AcDbEntity
  8
0
  6
Continuous
 62
     7
370
    15
100
AcDbCircle
 10
193.8019907432
 20
126.1781460588
 30
0.0
 40
1.850000000000003
100
AcDbArc
 50
345.0
 51
0.0
  0
ARC
  5
121
330
1F
100
AcDbEntity
  8
0
  6
Continuous
 62
     7
370
    15
100
AcDbCircle
 10
193.8019907432
 20
126.1781460588
 30
0.0
 40
0.1499999999999773
100
AcDbArc
 50
345.0
 51
0.0
  0
LINE
  5
122
330
1F
100
AcDbEntity
  8
0
  6
Continuous
 62
     7
370
    15
100
AcDbLine
 10
193.9468796172
 20
126.139323202
 30
0.0
 11
193.5625250988
 21
124.7048926114
 31
0.0
  0
LINE
  5
123
330
1F
100
AcDbEntity
  8
0
  6
Continuous
 62
     7
370
    15
100
AcDbLine
 10
195.3224946055
 20
124.7048926114
 30
0.0
 11
195.5889535219
 21
125.6993308254
 31
0.0
  0
ARC
  5
124
330
1F
100
AcDbEntity
  8
0
  6
Continuous
 62
     7
370
    15
100
AcDbCircle
 10
195.2419907432
 20
153.8248926114
 30
0.0
 40
1.850000000000002
100
AcDbArc
 50
180.0
 51
195.0
  0
ARC
  5
125
330
1F
100
AcDbEntity
  8
0
  6
Continuous
 62
     7
370
    15
100
AcDbCircle
 10
195.2419907432
 20
153.8248926114
 30
0.0
 40
0.1499999999999947
100
AcDbArc
 50
180.0
 51
195.0
  0
ARC
  5
126
330
1F
100
AcDbEntity
  8
0
  6
Continuous
 62
     7
370
    15
100
AcDbCircle
 10
226.6419907432
 20
201.3748926114
 30
0.0
 40
4.450000000000017
100
AcDbArc
 50
0.0
 51
180.0
  0
ARC
  5
127
330
1F
100
AcDbEntity
  8
0
  6
Continuous
 62
     7
370
    15
100
AcDbCircle
 10
226.6419907432
 20
201.3748926114
 30
0.0
 40
2.75
100
AcDbArc
 50
0.0
 51
180.0
  0
ARC
  5
128
330
1F
100
AcDbEntity
  8
0
  6
Continuous
 62
     7
370
    15
100
AcDbCircle
 10
205.0419907432
 20
130.2748926114
 30
0.0
 40
4.449999999999989
100
AcDbArc
 50
180.0
 51
0.0
  0
ARC
  5
129
330
1F
100
AcDbEntity
  8
0
  6
Continuous
 62
     7
370
    15
100
AcDbCircle
 10
205.0419907432
 20
130.2748926114
 30
0.0
 40
2.75
100
AcDbArc
 50
180.0
 51
0.0
  0
LINE
  5
12A
330
1F
100
AcDbEntity
  8
0
  6
Continuous
 62
     7
370
    15
100
AcDbLine
 10
193.9519907432
 20
151.471639164
 30
0.0
 11
193.9519907432
 21
148.4248926114
 31
0.0
  0
LINE
  5
12B
330
1F
100
AcDbEntity
  8
0
  6
Continuous
 62
     7
370
    15
100
AcDbLine
 10
193.9519907432
 20
146.5448926114
 30
0.0
 11
193.9519907432
 21
139.9048926114
 31
0.0
  0
LINE
  5
12C
330
1F
100
AcDbEntity
  8
0
  6
Continuous
 62
     7
370
    15
100
AcDbLine
 10
193.9519907432
 20
138.9448926114
 30
0.0
 11
193.9519907432
 21
132.3048926114
 31
0.0
  0
LINE
  5
12D
330
1F
100
AcDbEntity
  8
0
  6
Continuous
 62
     7
370
    15
100
AcDbLine
 10
193.9519907432
 20
131.3448926114
 30
0.0
 11
193.9519907432
 21
129.4248926114
 31
0.0
  0
LINE
  5
12E
330
1F
100
AcDbEntity
  8
0
  6
Continuous
 62
     7
370
    15
100
AcDbLine
 10
193.9519907432
 20
128.4248926114
 30
0.0
 11
193.9519907432
 21
126.1781460588
 31
0.0
  0
LINE
  5
12F
330
1F
100
AcDbEntity
  8
0
  6
Continuous
 62
     7
370
    15
100
AcDbLine
 10
195.6519907432
 20
126.1781460588
 30
0.0
 11
195.6519907432
 21
128.4248926114
 31
0.0
  0
LINE
  5
130
330
1F
100
AcDbEntity
  8
0
  6
Continuous
 62
     7
370
    15
100
AcDbLine
 10
195.6519907432
 20
129.4248926114
 30
0.0
 11
195.6519907432
 21
131.3448926114
 31
0.0
  0
LINE
  5
131
330
1F
100
AcDbEntity
  8
0
  6
Continuous
 62
     7
370
    15
100
AcDbLine
 10
195.6519907432
 20
132.3048926114
 30
0.0
 11
195.6519907432
 21
138.9448926114
 31
0.0
  0
LINE
  5
132
330
1F
100
AcDbEntity
  8
0
  6
Continuous
 62
     7
370
    15
100
AcDbLine
 10
195.6519907432
 20
139.9048926114
 30
0.0
 11
195.6519907432
 21
146.5448926114
 31
0.0
  0
LINE
  5
133
330
1F
100
AcDbEntity
  8
0
  6
Continuous
 62
     7
370
    15
100
AcDbLine
 10
195.6519907432
 20
148.4248926114
 30
0.0
 11
195.6519907432
 21
151.471639164
 31
0.0
  0
ARC
  5
134
330
1F
100
AcDbEntity
  8
0
  6
Continuous
 62
     7
370
    15
100
AcDbCircle
 10
193.8019907432
 20
151.471639164
 30
0.0
 40
1.849999999999994
100
AcDbArc
 50
0.0
 51
15.0
  0
ARC
  5
135
330
1F
100
AcDbEntity
  8
0
  6
Continuous
 62
     7
370
    15
100
AcDbCircle
 10
193.8019907432
 20
151.471639164
 30
0.0
 40
0.1500000000000057
100
AcDbArc
 50
0.0
 51
15.0
  0
LINE
  5
136
330
1F
100
AcDbEntity
  8
0
  6
Continuous
 62
     7
370
    15
100
AcDbLine
 10
193.3919907432
 20
201.3748926114
 30
0.0
 11
193.3919907432
 21
200.7048926114
 31
0.0
  0
LINE
  5
137
330
1F
100
AcDbEntity
  8
0
  6
Continuous
 62
     7
370
    15
100
AcDbLine
 10
193.3919907432
 20
199.7448926114
 30
0.0
 11
193.3919907432
 21
196.9248926114
 31
0.0
  0
LINE
  5
138
330
1F
100
AcDbEntity
  8
0
  6
Continuous
 62
     7
370
    15
100
AcDbLine
 10
193.3919907432
 20
194.7248926114
 30
0.0
 11
193.3919907432
 21
193.1048926114
 31
0.0
  0
LINE
  5
139
330
1F
100
AcDbEntity
  8
0
  6
Continuous
 62
     7
370
    15
100
AcDbLine
 10
193.3919907432
 20
192.1448926114
 30
0.0
 11
193.3919907432
 21
185.5048926114
 31
0.0
  0
LINE
  5
13A
330
1F
100
AcDbEntity
  8
0
  6
Continuous
 62
     7
370
    15
100
AcDbLine
 10
193.3919907432
 20
184.5448926114
 30
0.0
 11
193.3919907432
 21
177.9048926114
 31
0.0
  0
LINE
  5
13B
330
1F
100
AcDbEntity
  8
0
  6
Continuous
 62
     7
370
    15
100
AcDbLine
 10
193.3919907432
 20
176.9448926114
 30
0.0
 11
193.3919907432
 21
170.3048926114
 31
0.0
  0
LINE
  5
13C
330
1F
100
AcDbEntity
  8
0
  6
Continuous
 62
     7
370
    15
100
AcDbLine
 10
193.3919907432
 20
169.3448926114
 30
0.0
 11
193.3919907432
 21
162.9248926114
 31
0.0
  0
LINE
  5
13D
330
1F
100
AcDbEntity
  8
0
  6
Continuous
 62
     7
370
    15
100
AcDbLine
 10
193.3919907432
 20
160.7248926114
 30
0.0
 11
193.3919907432
 21
155.1048926114
 31
0.0
  0
LINE
  5
13E
330
1F
100
AcDbEntity
  8
0
  6
Continuous
 62
     7
370
    15
100
AcDbLine
 10
193.3919907432
 20
154.1448926114
 30
0.0
 11
193.3919907432
 21
153.8248926114
 31
0.0
  0
LINE
  5
13F
330
1F
100
AcDbEntity
  8
0
  6
Continuous
 62
     7
370
    15
100
AcDbLine
 10
195.0919907432
 20
153.8248926114
 30
0.0
 11
195.0919907432
 21
154.1448926114
 31
0.0
  0
LINE
  5
140
330
1F
100
AcDbEntity
  8
0
  6
Continuous
 62
     7
370
    15
100
AcDbLine
 10
195.0919907432
 20
155.1048926114
 30
0.0
 11
195.0919907432
 21
160.7248926114
 31
0.0
  0
LINE
  5
141
330
1F
100
AcDbEntity
  8
0
  6
Continuous
 62
     7
370
    15
100
AcDbLine
 10
195.0919907432
 20
162.9248926114
 30
0.0
 11
195.0919907432
 21
169.3448926114
 31
0.0
  0
LINE
  5
142
330
1F
100
AcDbEntity
  8
0
  6
Continuous
 62
     7
370
    15
100
AcDbLine
 10
195.0919907432
 20
170.3048926114
 30
0.0
 11
195.0919907432
 21
176.9448926114
 31
0.0
  0
LINE
  5
143
330
1F
100
AcDbEntity
  8
0
  6
Continuous
 62
     7
370
    15
100
AcDbLine
 10
195.0919907432
 20
177.9048926114
 30
0.0
 11
195.0919907432
 21
184.5448926114
 31
0.0
  0
LINE
  5
144
330
1F
100
AcDbEntity
  8
0
  6
Continuous
 62
     7
370
    15
100
AcDbLine
 10
195.0919907432
 20
185.5048926114
 30
0.0
 11
195.0919907432
 21
192.1448926114
 31
0.0
  0
LINE
  5
145
330
1F
100
AcDbEntity
  8
0
  6
Continuous
 62
     7
370
    15
100
AcDbLine
 10
195.0919907432
 20
193.1048926114
 30
0.0
 11
195.0919907432
 21
194.7248926114
 31
0.0
  0
LINE
  5
146
330
1F
100
AcDbEntity
  8
0
  6
Continuous
 62
     7
370
    15
100
AcDbLine
 10
195.0919907432
 20
196.9248926114
 30
0.0
 11
195.0919907432
 21
199.7448926114
 31
0.0
  0
LINE
  5
147
330
1F
100
AcDbEntity
  8
0
  6
Continuous
 62
     7
370
    15
100
AcDbLine
 10
195.0919907432
 20
200.7048926114
 30
0.0
 11
195.0919907432
 21
201.3748926114
 31
0.0
  0
LINE
  5
148
330
1F
100
AcDbEntity
  8
0
  6
Continuous
 62
     7
370
    15
100
AcDbLine
 10
216.6919907432
 20
130.2748926114
 30
0.0
 11
216.6919907432
 21
131.3448926114
 31
0.0
  0
LINE
  5
149
330
1F
100
AcDbEntity
  8
0
  6
Continuous
 62
     7
370
    15
100
AcDbLine
 10
216.6919907432
 20
132.3048926114
 30
0.0
 11
216.6919907432
 21
138.9448926114
 31
0.0
  0
LINE
  5
14A
330
1F
100
AcDbEntity
  8
0
  6
Continuous
 62
     7
370
    15
100
AcDbLine
 10
216.6919907432
 20
139.9048926114
 30
0.0
 11
216.6919907432
 21
146.5448926114
 31
0.0
  0
LINE
  5
14B
330
1F
100
AcDbEntity
  8
0
  6
Continuous
 62
     7
370
    15
100
AcDbLine
 10
216.6919907432
 20
147.5048926114
 30
0.0
 11
216.6919907432
 21
154.1448926114
 31
0.0
  0
LINE
  5
14C
330
1F
100
AcDbEntity
  8
0
  6
Continuous
 62
     7
370
    15
100
AcDbLine
 10
216.6919907432
 20
155.1048926114
 30
0.0
 11
216.6919907432
 21
161.7448926114
 31
0.0
  0
LINE
  5
14D
330
1F
100
AcDbEntity
  8
0
  6
Continuous
 62
     7
370
    15
100
AcDbLine
 10
216.6919907432
 20
162.7048926114
 30
0.0
 11
216.6919907432
 21
169.3448926114
 31
0.0
  0
LINE
  5
14E
330
1F
100
AcDbEntity
  8
0
  6
Continuous
 62
     7
370
    15
100
AcDbLine
 10
216.6919907432
 20
170.3048926114
 30
0.0
 11
216.6919907432
 21
176.9448926114
 31
0.0
  0
LINE
  5
14F
330
1F
100
AcDbEntity
  8
0
  6
Continuous
 62
     7
370
    15
100
AcDbLine
 10
216.6919907432
 20
177.9048926114
 30
0.0
 11
216.6919907432
 21
184.5448926114
 31
0.0
  0
LINE
  5
150
330
1F
100
AcDbEntity
  8
0
  6
Continuous
 62
     7
370
    15
100
AcDbLine
 10
216.6919907432
 20
185.5048926114
 30
0.0
 11
216.6919907432
 21
192.1448926114
 31
0.0
  0
LINE
  5
151
330
1F
100
AcDbEntity
  8
0
  6
Continuous
 62
     7
370
    15
100
AcDbLine
 10
216.6919907432
 20
193.1048926114
 30
0.0
 11
216.6919907432
 21
194.3248926114
 31
0.0
  0
LINE
  5
152
330
1F
100
AcDbEntity
  8
0
  6
Continuous
 62
     7
370
    15
100
AcDbLine
 10
216.6919907432
 20
197.3248926114
 30
0.0
 11
216.6919907432
 21
199.7448926114
 31
0.0
  0
LINE
  5
153
330
1F
100
AcDbEntity
  8
0
  6
Continuous
 62
     7
370
    15
100
AcDbLine
 10
216.6919907432
 20
200.7048926114
 30
0.0
 11
216.6919907432
 21
201.3748926114
 31
0.0
  0
LINE
  5
154
330
1F
100
AcDbEntity
  8
0
  6
Continuous
 62
     7
370
    15
100
AcDbLine
 10
214.9919907432
 20
201.3748926114
 30
0.0
 11
214.9919907432
 21
200.7048926114
 31
0.0
  0
LINE
  5
155
330
1F
100
AcDbEntity
  8
0
  6
Continuous
 62
     7
370
    15
100
AcDbLine
 10
214.9919907432
 20
199.7448926114
 30
0.0
 11
214.9919907432
 21
197.3248926114
 31
0.0
  0
LINE
  5
156
330
1F
100
AcDbEntity
  8
0
  6
Continuous
 62
     7
370
    15
100
AcDbLine
 10
214.9919907432
 20
194.3248926114
 30
0.0
 11
214.9919907432
 21
193.1048926114
 31
0.0
  0
LINE
  5
157
330
1F
100
AcDbEntity
  8
0
  6
Continuous
 62
     7
370
    15
100
AcDbLine
 10
214.9919907432
 20
192.1448926114
 30
0.0
 11
214.9919907432
 21
185.5048926114
 31
0.0
  0
LINE
  5
158
330
1F
100
AcDbEntity
  8
0
  6
Continuous
 62
     7
370
    15
100
AcDbLine
 10
214.9919907432
 20
184.5448926114
 30
0.0
 11
214.9919907432
 21
177.9048926114
 31
0.0
  0
LINE
  5
159
330
1F
100
AcDbEntity
  8
0
  6
Continuous
 62
     7
370
    15
100
AcDbLine
 10
214.9919907432
 20
176.9448926114
 30
0.0
 11
214.9919907432
 21
170.3048926114
 31
0.0
  0
LINE
  5
15A
330
1F
100
AcDbEntity
  8
0
  6
Continuous
 62
     7
370
    15
100
AcDbLine
 10
214.9919907432
 20
169.3448926114
 30
0.0
 11
214.9919907432
 21
162.7048926114
 31
0.0
  0
LINE
  5
15B
330
1F
100
AcDbEntity
  8
0
  6
Continuous
 62
     7
370
    15
100
AcDbLine
 10
214.9919907432
 20
161.7448926114
 30
0.0
 11
214.9919907432
 21
155.1048926114
 31
0.0
  0
LINE
  5
15C
330
1F
100
AcDbEntity
  8
0
  6
Continuous
 62
     7
370
    15
100
AcDbLine
 10
214.9919907432
 20
154.1448926114
 30
0.0
 11
214.9919907432
 21
147.5048926114
 31
0.0
  0
LINE
  5
15D
330
1F
100
AcDbEntity
  8
0
  6
Continuous
 62
     7
370
    15
100
AcDbLine
 10
214.9919907432
 20
146.5448926114
 30
0.0
 11
214.9919907432
 21
139.9048926114
 31
0.0
  0
LINE
  5
15E
330
1F
100
AcDbEntity
  8
0
  6
Continuous
 62
     7
370
    15
100
AcDbLine
 10
214.9919907432
 20
138.9448926114
 30
0.0
 11
214.9919907432
 21
132.3048926114
 31
0.0
  0
LINE
  5
15F
330
1F
100
AcDbEntity
  8
0
  6
Continuous
 62
     7
370
    15
100
AcDbLine
 10
214.9919907432
 20
131.3448926114
 30
0.0
 11
214.9919907432
 21
130.2748926114
 31
0.0
  0
LINE
  5
160
330
1F
100
AcDbEntity
  8
0
  6
Continuous
 62
     7
370
    15
100
AcDbLine
 10
222.1919907432
 20
201.3748926114
 30
0.0
 11
222.1919907432
 21
200.7048926114
 31
0.0
  0
LINE
  5
161
330
1F
100
AcDbEntity
  8
0
  6
Continuous
 62
     7
370
    15
100
AcDbLine
 10
222.1919907432
 20
199.7448926114
 30
0.0
 11
222.1919907432
 21
193.1048926114
 31
0.0
  0
LINE
  5
162
330
1F
100
AcDbEntity
  8
0
  6
Continuous
 62
     7
370
    15
100
AcDbLine
 10
222.1919907432
 20
192.1448926114
 30
0.0
 11
222.1919907432
 21
185.5048926114
 31
0.0
  0
LINE
  5
163
330
1F
100
AcDbEntity
  8
0
  6
Continuous
 62
     7
370
    15
100
AcDbLine
 10
222.1919907432
 20
184.5448926114
 30
0.0
 11
222.1919907432
 21
177.9048926114
 31
0.0
  0
LINE
  5
164
330
1F
100
AcDbEntity
  8
0
  6
Continuous
 62
     7
370
    15
100
AcDbLine
 10
222.1919907432
 20
176.9448926114
 30
0.0
 11
222.1919907432
 21
170.3048926114
 31
0.0
  0
LINE
  5
165
330
1F
100
AcDbEntity
  8
0
  6
Continuous
 62
     7
370
    15
100
AcDbLine
 10
222.1919907432
 20
169.3448926114
 30
0.0
 11
222.1919907432
 21
162.9248926114
 31
0.0
  0
LINE
  5
166
330
1F
100
AcDbEntity
  8
0
  6
Continuous
 62
     7
370
    15
100
AcDbLine
 10
222.1919907432
 20
160.7248926114
 30
0.0
 11
222.1919907432
 21
155.1048926114
 31
0.0
  0
LINE
  5
167
330
1F
100
AcDbEntity
  8
0
  6
Continuous
 62
     7
370
    15
100
AcDbLine
 10
222.1919907432
 20
154.1448926114
 30
0.0
 11
222.1919907432
 21
147.5048926114
 31
0.0
  0
LINE
  5
168
330
1F
100
AcDbEntity
  8
0
  6
Continuous
 62
     7
370
    15
100
AcDbLine
 10
222.1919907432
 20
146.5448926114
 30
0.0
 11
222.1919907432
 21
139.9048926114
 31
0.0
  0
LINE
  5
169
330
1F
100
AcDbEntity
  8
0
  6
Continuous
 62
     7
370
    15
100
AcDbLine
 10
222.1919907432
 20
138.9448926114
 30
0.0
 11
222.1919907432
 21
132.3048926114
 31
0.0
  0
LINE
  5
16A
330
1F
100
AcDbEntity
  8
0
  6
Continuous
 62
     7
370
    15
100
AcDbLine
 10
222.1919907432
 20
131.3448926114
 30
0.0
 11
222.1919907432
 21
130.2748926114
 31
0.0
  0
LINE
  5
16B
330
1F
100
AcDbEntity
  8
0
  6
Continuous
 62
     7
370
    15
100
AcDbLine
 10
223.8919907432
 20
130.2748926114
 30
0.0
 11
223.8919907432
 21
131.3448926114
 31
0.0
  0
LINE
  5
16C
330
1F
100
AcDbEntity
  8
0
  6
Continuous
 62
     7
370
    15
100
AcDbLine
 10
223.8919907432
 20
132.3048926114
 30
0.0
 11
223.8919907432
 21
138.9448926114
 31
0.0
  0
LINE
  5
16D
330
1F
100
AcDbEntity
  8
0
  6
Continuous
 62
     7
370
    15
100
AcDbLine
 10
223.8919907432
 20
139.9048926114
 30
0.0
 11
223.8919907432
 21
146.5448926114
 31
0.0
  0
LINE
  5
16E
330
1F
100
AcDbEntity
  8
0
  6
Continuous
 62
     7
370
    15
100
AcDbLine
 10
223.8919907432
 20
147.5048926114
 30
0.0
 11
223.8919907432
 21
154.1448926114
 31
0.0
  0
LINE
  5
16F
330
1F
100
AcDbEntity
  8
0
  6
Continuous
 62
     7
370
    15
100
AcDbLine
 10
223.8919907432
 20
155.1048926114
 30
0.0
 11
223.8919907432
 21
160.7248926114
 31
0.0
  0
LINE
  5
170
330
1F
100
AcDbEntity
  8
0
  6
Continuous
 62
     7
370
    15
100
AcDbLine
 10
223.8919907432
 20
162.9248926114
 30
0.0
 11
223.8919907432
 21
169.3448926114
 31
0.0
  0
LINE
  5
171
330
1F
100
AcDbEntity
  8
0
  6
Continuous
 62
     7
370
    15
100
AcDbLine
 10
223.8919907432
 20
170.3048926114
 30
0.0
 11
223.8919907432
 21
176.9448926114
 31
0.0
  0
LINE
  5
172
330
1F
100
AcDbEntity
  8
0
  6
Continuous
 62
     7
370
    15
100
AcDbLine
 10
223.8919907432
 20
177.9048926114
 30
0.0
 11
223.8919907432
 21
184.5448926114
 31
0.0
  0
LINE
  5
173
330
1F
100
AcDbEntity
  8
0
  6
Continuous
 62
     7
370
    15
100
AcDbLine
 10
223.8919907432
 20
185.5048926114
 30
0.0
 11
223.8919907432
 21
192.1448926114
 31
0.0
  0
LINE
  5
174
330
1F
100
AcDbEntity
  8
0
  6
Continuous
 62
     7
370
    15
100
AcDbLine
 10
223.8919907432
 20
193.1048926114
 30
0.0
 11
223.8919907432
 21
199.7448926114
 31
0.0
  0
LINE
  5
175
330
1F
100
AcDbEntity
  8
0
  6
Continuous
 62
     7
370
    15
100
AcDbLine
 10
223.8919907432
 20
200.7048926114
 30
0.0
 11
223.8919907432
 21
201.3748926114
 31
0.0
  0
LINE
  5
176
330
1F
100
AcDbEntity
  8
0
  6
Continuous
 62
     7
370
    15
100
AcDbLine
 10
207.7919907432
 20
201.3748926114
 30
0.0
 11
207.7919907432
 21
200.7048926114
 31
0.0
  0
LINE
  5
177
330
1F
100
AcDbEntity
  8
0
  6
Continuous
 62
     7
370
    15
100
AcDbLine
 10
207.7919907432
 20
199.7448926114
 30
0.0
 11
207.7919907432
 21
193.1048926114
 31
0.0
  0
LINE
  5
178
330
1F
100
AcDbEntity
  8
0
  6
Continuous
 62
     7
370
    15
100
AcDbLine
 10
207.7919907432
 20
192.1448926114
 30
0.0
 11
207.7919907432
 21
185.5048926114
 31
0.0
  0
LINE
  5
179
330
1F
100
AcDbEntity
  8
0
  6
Continuous
 62
     7
370
    15
100
AcDbLine
 10
207.7919907432
 20
184.5448926114
 30
0.0
 11
207.7919907432
 21
177.9048926114
 31
0.0
  0
LINE
  5
17A
330
1F
100
AcDbEntity
  8
0
  6
Continuous
 62
     7
370
    15
100
AcDbLine
 10
207.7919907432
 20
176.9448926114
 30
0.0
 11
207.7919907432
 21
170.3048926114
 31
0.0
  0
LINE
  5
17B
330
1F
100
AcDbEntity
  8
0
  6
Continuous
 62
     7
370
    15
100
AcDbLine
 10
207.7919907432
 20
169.3448926114
 30
0.0
 11
207.7919907432
 21
162.9248926114
 31
0.0
  0
LINE
  5
17C
330
1F
100
AcDbEntity
  8
0
  6
Continuous
 62
     7
370
    15
100
AcDbLine
 10
207.7919907432
 20
160.7248926114
 30
0.0
 11
207.7919907432
 21
155.1048926114
 31
0.0
  0
LINE
  5
17D
330
1F
100
AcDbEntity
  8
0
  6
Continuous
 62
     7
370
    15
100
AcDbLine
 10
207.7919907432
 20
154.1448926114
 30
0.0
 11
207.7919907432
 21
147.5048926114
 31
0.0
  0
LINE
  5
17E
330
1F
100
AcDbEntity
  8
0
  6
Continuous
 62
     7
370
    15
100
AcDbLine
 10
207.7919907432
 20
146.5448926114
 30
0.0
 11
207.7919907432
 21
139.9048926114
 31
0.0
  0
LINE
  5
17F
330
1F
100
AcDbEntity
  8
0
  6
Continuous
 62
     7
370
    15
100
AcDbLine
 10
207.7919907432
 20
138.9448926114
 30
0.0
 11
207.7919907432
 21
132.3048926114
 31
0.0
  0
LINE
  5
180
330
1F
100
AcDbEntity
  8
0
  6
Continuous
 62
     7
370
    15
100
AcDbLine
 10
207.7919907432
 20
131.3448926114
 30
0.0
 11
207.7919907432
 21
130.2748926114
 31
0.0
  0
LINE
  5
181
330
1F
100
AcDbEntity
  8
0
  6
Continuous
 62
     7
370
    15
100
AcDbLine
 10
209.4919907432
 20
130.2748926114
 30
0.0
 11
209.4919907432
 21
131.3448926114
 31
0.0
  0
LINE
  5
182
330
1F
100
AcDbEntity
  8
0
  6
Continuous
 62
     7
370
    15
100
AcDbLine
 10
209.4919907432
 20
132.3048926114
 30
0.0
 11
209.4919907432
 21
138.9448926114
 31
0.0
  0
LINE
  5
183
330
1F
100
AcDbEntity
  8
0
  6
Continuous
 62
     7
370
    15
100
AcDbLine
 10
209.4919907432
 20
139.9048926114
 30
0.0
 11
209.4919907432
 21
146.5448926114
 31
0.0
  0
LINE
  5
184
330
1F
100
AcDbEntity
  8
0
  6
Continuous
 62
     7
370
    15
100
AcDbLine
 10
209.4919907432
 20
147.5048926114
 30
0.0
 11
209.4919907432
 21
154.1448926114
 31
0.0
  0
LINE
  5
185
330
1F
100
AcDbEntity
  8
0
  6
Continuous
 62
     7
370
    15
100
AcDbLine
 10
209.4919907432
 20
155.1048926114
 30
0.0
 11
209.4919907432
 21
160.7248926114
 31
0.0
  0
LINE
  5
186
330
1F
100
AcDbEntity
  8
0
  6
Continuous
 62
     7
370
    15
100
AcDbLine
 10
209.4919907432
 20
162.9248926114
 30
0.0
 11
209.4919907432
 21
169.3448926114
 31
0.0
  0
LINE
  5
187
330
1F
100
AcDbEntity
  8
0
  6
Continuous
 62
     7
370
    15
100
AcDbLine
 10
209.4919907432
 20
170.3048926114
 30
0.0
 11
209.4919907432
 21
176.9448926114
 31
0.0
  0
LINE
  5
188
330
1F
100
AcDbEntity
  8
0
  6
Continuous
 62
     7
370
    15
100
AcDbLine
 10
209.4919907432
 20
177.9048926114
 30
0.0
 11
209.4919907432
 21
184.5448926114
 31
0.0
  0
LINE
  5
189
330
1F
100
AcDbEntity
  8
0
  6
Continuous
 62
     7
370
    15
100
AcDbLine
 10
209.4919907432
 20
185.5048926114
 30
0.0
 11
209.4919907432
 21
192.1448926114
 31
0.0
  0
LINE
  5
18A
330
1F
100
AcDbEntity
  8
0
  6
Continuous
 62
     7
370
    15
100
AcDbLine
 10
209.4919907432
 20
193.1048926114
 30
0.0
 11
209.4919907432
 21
199.7448926114
 31
0.0
  0
LINE
  5
18B
330
1F
100
AcDbEntity
  8
0
  6
Continuous
 62
     7
370
    15
100
AcDbLine
 10
209.4919907432
 20
200.7048926114
 30
0.0
 11
209.4919907432
 21
201.3748926114
 31
0.0
  0
ARC
  5
18C
330
1F
100
AcDbEntity
  8
0
  6
Continuous
 62
     7
370
    15
100
AcDbCircle
 10
212.2419907432
 20
201.3748926114
 30
0.0
 40
4.450000000000017
100
AcDbArc
 50
0.0
 51
180.0
  0
ARC
  5
18D
330
1F
100
AcDbEntity
  8
0
  6
Continuous
 62
     7
370
    15
100
AcDbCircle
 10
212.2419907432
 20
201.3748926114
 30
0.0
 40
2.75
100
AcDbArc
 50
0.0
 51
180.0
  0
LINE
  5
18E
330
1F
100
AcDbEntity
  8
0
  6
Continuous
 62
     7
370
    15
100
AcDbLine
 10
193.4550279646
 20
153.3460773779
 30
0.0
 11
193.9468796172
 21
151.5104620207
 31
0.0
  0
LINE
  5
18F
330
1F
100
AcDbEntity
  8
0
  6
Continuous
 62
     7
370
    15
100
AcDbLine
 10
195.5889535219
 20
151.9504543974
 30
0.0
 11
195.0971018693
 21
153.7860697546
 31
0.0
  0
LINE
  5
190
330
1F
100
AcDbEntity
  8
0
  6
Continuous
 62
     7
370
    15
100
AcDbLine
 10
197.3919907432
 20
128.4248926114
 30
0.0
 11
197.3919907432
 21
129.4248926114
 31
0.0
  0
LINE
  5
191
330
1F
100
AcDbEntity
  8
0
  6
Continuous
 62
     7
370
    15
100
AcDbLine
 10
172.2428955755
 20
65.8498878623
 30
0.0
 11
252.2428955755
 21
65.8498878623
 31
0.0
  0
ARC
  5
192
330
1F
100
AcDbEntity
  8
0
  6
Continuous
 62
     7
370
    15
100
AcDbCircle
 10
234.2437032106
 20
126.205469384
 30
0.0
 40
3.018469098786108
100
AcDbArc
 50
0.0008643494
 51
45.1169830241
  0
ARC
  5
193
330
1F
100
AcDbEntity
  8
0
  6
Continuous
 62
     7
370
    15
100
AcDbCircle
 10
234.2433102146
 20
126.201603978
 30
0.0
 40
3.0187772115019
100
AcDbArc
 50
330.2774473954
 51
90.0090252594
  0
ARC
  5
194
330
1F
100
AcDbEntity
  8
0
  6
Continuous
 62
     7
370
    15
100
AcDbCircle
 10
234.2428346954
 20
126.2026290426
 30
0.0
 40
3.019781408639104
100
AcDbArc
 50
234.4766623822
 51
305.5233376178
  0
ARC
  5
195
330
1F
100
AcDbEntity
  8
0
  6
Continuous
 62
     7
370
    15
100
AcDbCircle
 10
234.2423591761
 20
126.201603978
 30
0.0
 40
3.018777211501893
100
AcDbArc
 50
89.9909747406
 51
209.7225526046
  0
ARC
  5
196
330
1F
100
AcDbEntity
  8
0
  6
Continuous
 62
     7
370
    15
100
AcDbCircle
 10
234.2431864955
 20
126.2016616674
 30
0.0
 40
1.899594508080461
100
AcDbArc
 50
308.0064587461
 51
90.0106110359
  0
ARC
  5
197
330
1F
100
AcDbEntity
  8
0
  6
Continuous
 62
     7
370
    15
100
AcDbCircle
 10
234.2424959616
 20
126.2016571661
 30
0.0
 40
1.899599007016939
100
AcDbArc
 50
89.9897830995
 51
231.9931471185
  0
ARC
  5
198
330
1F
100
AcDbEntity
  8
0
  6
Continuous
 62
     7
370
    15
100
AcDbCircle
 10
234.2432414652
 20
126.3186371807
 30
0.0
 40
1.899595739440139
100
AcDbArc
 50
301.8404999231
 51
358.1614605287
  0
ARC
  5
199
330
1F
100
AcDbEntity
  8
0
  6
Continuous
 62
     7
370
    15
100
AcDbCircle
 10
234.2424279255
 20
126.3186371807
 30
0.0
 40
1.899595739440408
100
AcDbArc
 50
181.838539476
 51
238.1595000769
  0
LINE
  5
19A
330
1F
100
AcDbEntity
  8
0
  6
Continuous
 62
     7
370
    15
100
AcDbLine
 10
189.4428955755
 20
216.8248926114
 30
0.0
 11
235.0428955755
 21
216.8248926114
 31
0.0
  0
LINE
  5
19B
330
1F
100
AcDbEntity
  8
0
  6
Continuous
 62
     7
370
    15
100
AcDbLine
 10
181.4428955755
 20
208.8248926114
 30
0.0
 11
181.4428955755
 21
122.8248926114
 31
0.0
  0
LINE
  5
19C
330
1F
100
AcDbEntity
  8
0
  6
Continuous
 62
     7
370
    15
100
AcDbLine
 10
189.4428955755
 20
114.8248926114
 30
0.0
 11
235.0428955755
 21
114.8248926114
 31
0.0
  0
LINE
  5
19D
330
1F
100
AcDbEntity
  8
0
  6
Continuous
 62
     7
370
    15
100
AcDbLine
 10
243.0428955755
 20
122.8248926114
 30
0.0
 11
243.0428955755
 21
208.8248926114
 31
0.0
  0
ARC
  5
19E
330
1F
100
AcDbEntity
  8
0
  6
Continuous
 62
     7
370
    15
100
AcDbCircle
 10
189.4428955755
 20
208.8248926114
 30
0.0
 40
8.0
100
AcDbArc
 50
90.0
 51
180.0
  0
ARC
  5
19F
330
1F
100
AcDbEntity
  8
0
  6
Continuous
 62
     7
370
    15
100
AcDbCircle
 10
189.4428955755
 20
122.8248926114
 30
0.0
 40
7.999999999999986
100
AcDbArc
 50
180.0
 51
270.0
  0
ARC
  5
1A0
330
1F
100
AcDbEntity
  8
0
  6
Continuous
 62
     7
370
    15
100
AcDbCircle
 10
235.0428955755
 20
122.8248926114
 30
0.0
 40
8.0
100
AcDbArc
 50
270.0
 51
0.0
  0
ARC
  5
1A1
330
1F
100
AcDbEntity
  8
0
  6
Continuous
 62
     7
370
    15
100
AcDbCircle
 10
235.0428955755
 20
208.8248926114
 30
0.0
 40
8.0
100
AcDbArc
 50
67.1727799001
 51
90.0
  0
ARC
  5
1A2
330
1F
100
AcDbEntity
  8
0
  6
Continuous
 62
     7
370
    15
100
AcDbCircle
 10
235.0428955755
 20
208.8248926114
 30
0.0
 40
8.000000000000028
100
AcDbArc
 50
0.0
 51
44.5653224552
  0
LINE
  5
1A3
330
1F
100
AcDbEntity
  8
0
  6
Continuous
 62
     7
370
    15
100
AcDbLine
 10
208.2744237755
 20
216.4248926114
 30
0.0
 11
216.2113673755
 21
216.4248926114
 31
0.0
  0
LINE
  5
1A4
330
1F
100
AcDbEntity
  8
0
  6
Continuous
 62
     7
370
    15
100
AcDbLine
 10
208.1901092004
 20
216.4248926114
 30
0.0
 11
208.2744237755
 21
216.4248926114
 31
0.0
  0
LINE
  5
1A5
330
1F
100
AcDbEntity
  8
0
  6
Continuous
 62
     7
370
    15
100
AcDbLine
 10
216.2113673755
 20
216.4248926114
 30
0.0
 11
216.2956819505
 21
216.4248926114
 31
0.0
  0
ARC
  5
1A6
330
1F
100
AcDbEntity
  8
0
  6
Continuous
 62
     7
370
    15
100
AcDbCircle
 10
234.2427973169
 20
126.2025406342
 30
0.0
 40
3.019687736767564
100
AcDbArc
 50
234.4762649364
 51
270.0007092222
  0
ARC
  5
1A7
330
1F
100
AcDbEntity
  8
0
  6
Continuous
 62
     7
370
    15
100
AcDbCircle
 10
234.2428346954
 20
126.2015543594
 30
0.0
 40
3.01916558168774
100
AcDbArc
 50
330.2827392946
 51
209.7172607054
  0
ARC
  5
1A8
330
1F
100
AcDbEntity
  8
0
  6
Continuous
 62
     7
370
    15
100
AcDbCircle
 10
234.2428663686
 20
126.202558445
 30
0.0
 40
3.019705547529026
100
AcDbArc
 50
269.999399033
 51
305.5236268085
  0
LINE
  5
1A9
330
1F
100
AcDbEntity
  8
0
  6
Continuous
 62
     7
370
    15
100
AcDbLine
 10
181.1428955755
 20
121.905176892
 30
0.0
 11
181.1428955755
 21
187.3425838605
 31
0.0
  0
LINE
  5
1AA
330
1F
100
AcDbEntity
  8
0
  6
Continuous
 62
     7
370
    15
100
AcDbLine
 10
236.0100884117
 20
114.5248926114
 30
0.0
 11
188.4856932411
 21
114.5248926114
 31
0.0
  0
LINE
  5
1AB
330
1F
100
AcDbEntity
  8
0
  6
Continuous
 62
     7
370
    15
100
AcDbLine
 10
187.8506582681
 20
216.9092965954
 30
0.0
 11
236.6351328828
 21
216.9092965954
 31
0.0
  0
ARC
  5
1AC
330
1F
100
AcDbEntity
  8
0
  6
Continuous
 62
     7
370
    15
100
AcDbCircle
 10
234.343103336
 20
126.1362970649
 30
0.0
 40
2.999731365271994
100
AcDbArc
 50
0.0035959716
 51
90.0051311177
  0
ARC
  5
1AD
330
1F
100
AcDbEntity
  8
0
  6
Continuous
 62
     7
370
    15
100
AcDbCircle
 10
234.3428346954
 20
126.1372840843
 30
0.0
 40
3.000346402725898
100
AcDbArc
 50
232.8798512081
 51
307.1201487919
  0
ARC
  5
1AE
330
1F
100
AcDbEntity
  8
0
  6
Continuous
 62
     7
370
    15
100
AcDbCircle
 10
234.3424577273
 20
126.1364707459
 30
0.0
 40
2.999557695952801
100
AcDbArc
 50
89.9927993787
 51
208.5068012786
  0
ARC
  5
1AF
330
1F
100
AcDbEntity
  8
0
  6
Continuous
 62
     7
370
    15
100
AcDbCircle
 10
234.2428198026
 20
126.597019466
 30
0.0
 40
1.759923828346856
100
AcDbArc
 50
165.1793727907
 51
307.8583793909
  0
ARC
  5
1B0
330
1F
100
AcDbEntity
  8
0
  6
Continuous
 62
     7
370
    15
100
AcDbCircle
 10
234.2433413013
 20
126.596870887
 30
0.0
 40
1.759486500048473
100
AcDbArc
 50
307.8479408861
 51
14.8294003651
  0
ARC
  5
1B1
330
1F
100
AcDbEntity
  8
0
  6
Continuous
 62
     7
370
    15
100
AcDbCircle
 10
234.2428346954
 20
126.6302604865
 30
0.0
 40
1.760000019950077
100
AcDbArc
 50
180.0086268661
 51
359.9913731338
  0
ARC
  5
1B2
330
1F
100
AcDbEntity
  8
0
  6
Continuous
 62
     7
370
    15
100
AcDbCircle
 10
234.2439414142
 20
126.267881858
 30
0.0
 40
3.038892559564693
100
AcDbArc
 50
341.2368560886
 51
21.7465111571
  0
ARC
  5
1B3
330
1F
100
AcDbEntity
  8
0
  6
Continuous
 62
     7
370
    15
100
AcDbCircle
 10
234.2428346954
 20
126.946805
 30
0.0
 40
2.02030940810874
100
AcDbArc
 50
237.9634333869
 51
302.036566574
  0
LINE
  5
1B4
330
1F
100
AcDbEntity
  8
0
  6
Continuous
 62
     7
370
    15
100
AcDbLine
 10
252.2428955755
 20
65.8441840845
 30
0.0
 11
252.2428955755
 21
65.8498878623
 31
0.0
  0
LINE
  5
1B5
330
1F
100
AcDbEntity
  8
0
  6
Continuous
 62
     7
370
    15
100
AcDbLine
 10
172.2428955755
 20
65.8441840845
 30
0.0
 11
172.2428955755
 21
65.8498878623
 31
0.0
  0
ARC
  5
1B6
330
1F
100
AcDbEntity
  8
0
  6
Continuous
 62
     7
370
    15
100
AcDbCircle
 10
216.4520671171
 20
64.7466325271
 30
0.0
 40
2.274563768911874
100
AcDbArc
 50
159.9581675297
 51
197.7084809908
  0
ARC
  5
1B7
330
1F
100
AcDbEntity
  8
0
  6
Continuous
 62
     7
370
    15
100
AcDbCircle
 10
208.0214609681
 20
64.7473168134
 30
0.0
 40
2.286523309653642
100
AcDbArc
 50
341.0816364259
 51
22.7581991796
  0
LWPOLYLINE
  5
1B8
330
1F
100
AcDbEntity
  8
0
  6
Continuous
 62
     7
370
    15
100
AcDbPolyline
 90
        9
 70
   128
 43
0.0
 10
211.9428955755
 20
63.1311433688
 10
211.9657317157
 20
63.0826246667
 10
212.0307635411
 20
63.0414924972
 10
212.1280905457
 20
63.0140088602
 10
212.2428955755
 20
63.0043578903
 10
212.3577006052
 20
63.0140088602
 10
212.4550276098
 20
63.0414924972
 10
212.5200594352
 20
63.0826246667
 10
212.5428955755
 20
63.1311433688
  0
LINE
  5
1B9
330
1F
100
AcDbEntity
  8
0
  6
Continuous
 62
     7
370
    15
100
AcDbLine
 10
211.9428955755
 20
65.8498878623
 30
0.0
 11
211.9428955755
 21
63.1311433688
 31
0.0
  0
LINE
  5
1BA
330
1F
100
AcDbEntity
  8
0
  6
Continuous
 62
     7
370
    15
100
AcDbLine
 10
212.5428955755
 20
63.1311433688
 30
0.0
 11
212.5428955755
 21
65.8498878623
 31
0.0
  0
LINE
  5
1BB
330
1F
100
AcDbEntity
  8
0
  6
Continuous
 62
     7
370
    15
100
AcDbLine
 10
209.9193836111
 20
63.3964902829
 30
0.0
 11
209.9187553352
 21
63.4001596586
 31
0.0
  0
LINE
  5
1BC
330
1F
100
AcDbEntity
  8
0
  6
Continuous
 62
     7
370
    15
100
AcDbLine
 10
197.0121256636
 20
129.5333518645
 30
0.0
 11
196.3412422872
 21
129.5333518645
 31
0.0
  0
LINE
  5
1BD
330
1F
100
AcDbEntity
  8
0
  6
Continuous
 62
     7
370
    15
100
AcDbLine
 10
197.0121256636
 20
122.1333518645
 30
0.0
 11
196.3412422872
 21
122.1333518645
 31
0.0
  0
ARC
  5
1BE
330
1F
100
AcDbEntity
  8
0
  6
Continuous
 62
     7
370
    15
100
AcDbCircle
 10
243.2428955755
 20
227.5998878624
 30
0.0
 40
1.500000000000023
100
AcDbArc
 50
342.8142345243
 51
162.8142345243
  0
ELLIPSE
  5
1BF
330
1F
100
AcDbEntity
  8
0
  6
Continuous
 62
     7
370
    15
100
AcDbEllipse
 10
236.8231321034
 20
206.8427287833
 30
0.0
 11
0.6054307484432968
 21
1.957552238729221
 31
0.0
210
0.0
220
0.0
230
1.0
 40
0.7320508076
 41
1.570796326794928
 42
3.141592653589854
  0
ELLIPSE
  5
1C0
330
1F
100
AcDbEntity
  8
0
  6
Continuous
 62
     7
370
    15
100
AcDbEllipse
 10
236.8231321034
 20
206.8427287833
 30
0.0
 11
0.6054307484432968
 21
1.957552238729221
 31
0.0
210
0.0
220
0.0
230
1.0
 40
0.7320508076
 41
3.14159265358983
 42
4.712388980384779
  0
ARC
  5
1C1
330
1F
100
AcDbEntity
  8
0
  6
Continuous
 62
     7
370
    15
100
AcDbCircle
 10
243.2428955755
 20
227.5998878624
 30
0.0
 40
2.0
100
AcDbArc
 50
301.4046124152
 51
0.0
  0
ARC
  5
1C2
330
1F
100
AcDbEntity
  8
0
  6
Continuous
 62
     7
370
    15
100
AcDbCircle
 10
243.2428955755
 20
227.5998878624
 30
0.0
 40
2.000000000000024
100
AcDbArc
 50
0.0
 51
204.2238566337
  0
LWPOLYLINE
  5
1C3
330
1F
100
AcDbEntity
  8
0
  6
Continuous
 62
     7
370
    15
100
AcDbPolyline
 90
        7
 70
   128
 43
0.0
 10
237.718259194
 20
64.3688764254
 10
237.633062391
 20
64.4232633943
 10
237.4486163084
 20
64.5787075383
 10
237.3308422909
 20
64.7453260611
 10
237.2833188425
 20
64.9180563431
 10
237.3074899392
 20
65.0916500621
 10
237.333993129
 20
65.1539841559
  0
ARC
  5
1C4
330
1F
100
AcDbEntity
  8
0
  6
Continuous
 62
     7
370
    15
100
AcDbCircle
 10
241.2546827644
 20
65.0958320827
 30
0.0
 40
0.7805621842103052
100
AcDbArc
 50
301.7532076464
 51
338.7622369959
  0
LWPOLYLINE
  5
1C5
330
1F
100
AcDbEntity
  8
0
  6
Continuous
 62
     7
370
    15
100
AcDbPolyline
 90
        3
 70
   128
 43
0.0
 10
241.3428955755
 20
64.6633099518
 10
241.3057464967
 20
64.5139355803
 10
241.2473967435
 20
64.425899276
  0
LINE
  5
1C6
330
1F
100
AcDbEntity
  8
0
  6
Continuous
 62
     7
370
    15
100
AcDbLine
 10
241.3428955755
 20
64.6995622633
 30
0.0
 11
241.3422222561
 21
64.679343469
 31
0.0
  0
LINE
  5
1C7
330
1F
100
AcDbEntity
  8
0
  6
Continuous
 62
     7
370
    15
100
AcDbLine
 10
237.9428955755
 20
64.6995622633
 30
0.0
 11
237.9439524596
 21
64.7248921875
 31
0.0
  0
LWPOLYLINE
  5
1C8
330
1F
100
AcDbEntity
  8
0
  6
Continuous
 62
     7
370
    15
100
AcDbPolyline
 90
       19
 70
   128
 43
0.0
 10
239.6090062297
 20
64.1965040499
 10
239.4061655211
 20
64.2166703375
 10
239.2318779508
 20
64.2649398482
 10
239.1071651721
 20
64.3354905664
 10
239.0470693865
 20
64.4198130345
 10
239.0588390327
 20
64.5077367182
 10
239.1410545178
 20
64.5886567238
 10
239.2837994408
 20
64.6528129042
 10
239.4698566574
 20
64.6924670773
 10
239.6767849212
 20
64.7028363646
 10
239.8796256298
 20
64.6826700769
 10
240.0539132001
 20
64.6344005663
 10
240.1786259788
 20
64.563849848
 10
240.2387217644
 20
64.47952738
 10
240.2269521182
 20
64.3916036962
 10
240.1447366331
 20
64.3106836907
 10
240.0019917101
 20
64.2465275102
 10
239.8159344935
 20
64.2068733371
 10
239.6090062297
 20
64.1965040499
  0
LINE
  5
1C9
330
1F
100
AcDbEntity
  8
0
  6
Continuous
 62
     7
370
    15
100
AcDbLine
 10
240.0428955755
 20
207.3448926114
 30
0.0
 11
240.0428955755
 21
208.3048926114
 31
0.0
  0
LINE
  5
1CA
330
1F
100
AcDbEntity
  8
0
  6
Continuous
 62
     7
370
    15
100
AcDbLine
 10
184.4428955755
 20
208.3048926114
 30
0.0
 11
184.4428955755
 21
207.3448926114
 31
0.0
  0
LINE
  5
1CB
330
1F
100
AcDbEntity
  8
0
  6
Continuous
 62
     7
370
    15
100
AcDbLine
 10
184.4428955755
 20
177.9048926114
 30
0.0
 11
184.4428955755
 21
176.9448926114
 31
0.0
  0
LINE
  5
1CC
330
1F
100
AcDbEntity
  8
0
  6
Continuous
 62
     7
370
    15
100
AcDbLine
 10
240.0428955755
 20
176.9448926114
 30
0.0
 11
240.0428955755
 21
177.9048926114
 31
0.0
  0
LINE
  5
1CD
330
1F
100
AcDbEntity
  8
0
  6
Continuous
 62
     7
370
    15
100
AcDbLine
 10
209.8019907432
 20
160.7248926114
 30
0.0
 11
209.8019907432
 21
161.7448926114
 31
0.0
  0
LINE
  5
1CE
330
1F
100
AcDbEntity
  8
0
  6
Continuous
 62
     7
370
    15
100
AcDbLine
 10
209.8019907432
 20
162.7048926114
 30
0.0
 11
209.8019907432
 21
162.9248926114
 31
0.0
  0
LINE
  5
1CF
330
1F
100
AcDbEntity
  8
0
  6
Continuous
 62
     7
370
    15
100
AcDbLine
 10
207.4819907432
 20
162.9248926114
 30
0.0
 11
207.4819907432
 21
162.7048926114
 31
0.0
  0
LINE
  5
1D0
330
1F
100
AcDbEntity
  8
0
  6
Continuous
 62
     7
370
    15
100
AcDbLine
 10
207.4819907432
 20
161.7448926114
 30
0.0
 11
207.4819907432
 21
160.7248926114
 31
0.0
  0
LINE
  5
1D1
330
1F
100
AcDbEntity
  8
0
  6
Continuous
 62
     7
370
    15
100
AcDbLine
 10
207.4819907432
 20
162.9248926114
 30
0.0
 11
209.8019907432
 21
162.9248926114
 31
0.0
  0
LINE
  5
1D2
330
1F
100
AcDbEntity
  8
0
  6
Continuous
 62
     7
370
    15
100
AcDbLine
 10
207.4819907432
 20
160.7248926114
 30
0.0
 11
209.8019907432
 21
160.7248926114
 31
0.0
  0
LINE
  5
1D3
330
1F
100
AcDbEntity
  8
0
  6
Continuous
 62
     7
370
    15
100
AcDbLine
 10
207.2819907432
 20
161.7448926114
 30
0.0
 11
207.2819907432
 21
161.1948926114
 31
0.0
  0
LINE
  5
1D4
330
1F
100
AcDbEntity
  8
0
  6
Continuous
 62
     7
370
    15
100
AcDbLine
 10
193.8116044079
 20
148.4248926114
 30
0.0
 11
193.8116044079
 21
147.5048926114
 31
0.0
  0
LINE
  5
1D5
330
1F
100
AcDbEntity
  8
0
  6
Continuous
 62
     7
370
    15
100
AcDbLine
 10
193.8116044079
 20
148.4248926114
 30
0.0
 11
194.9076157432
 21
148.4248926114
 31
0.0
  0
LINE
  5
1D6
330
1F
100
AcDbEntity
  8
0
  6
Continuous
 62
     7
370
    15
100
AcDbLine
 10
194.9076157432
 20
148.4248926114
 30
0.0
 11
196.5013657432
 21
148.4248926114
 31
0.0
  0
LINE
  5
1D7
330
1F
100
AcDbEntity
  8
0
  6
Continuous
 62
     7
370
    15
100
AcDbLine
 10
197.3919907432
 20
148.4248926114
 30
0.0
 11
196.5013657432
 21
148.4248926114
 31
0.0
  0
LINE
  5
1D8
330
1F
100
AcDbEntity
  8
0
  6
Continuous
 62
     7
370
    15
100
AcDbLine
 10
192.9919930962
 20
147.5048926114
 30
0.0
 11
192.9919930962
 21
148.4248926114
 31
0.0
  0
LINE
  5
1D9
330
1F
100
AcDbEntity
  8
0
  6
Continuous
 62
     7
370
    15
100
AcDbLine
 10
192.9919930962
 20
148.4248926114
 30
0.0
 11
193.8116044079
 21
148.4248926114
 31
0.0
  0
LINE
  5
1DA
330
1F
100
AcDbEntity
  8
0
  6
Continuous
 62
     7
370
    15
100
AcDbLine
 10
196.5419907432
 20
155.1048926114
 30
0.0
 11
196.5419907432
 21
155.4248926114
 31
0.0
  0
LINE
  5
1DB
330
1F
100
AcDbEntity
  8
0
  6
Continuous
 62
     7
370
    15
100
AcDbLine
 10
196.3419907432
 20
155.1048926114
 30
0.0
 11
196.3419907432
 21
155.4248926114
 31
0.0
  0
LINE
  5
1DC
330
1F
100
AcDbEntity
  8
0
  6
Continuous
 62
     7
370
    15
100
AcDbLine
 10
196.5419907432
 20
155.4248926114
 30
0.0
 11
196.3419907432
 21
155.4248926114
 31
0.0
  0
LINE
  5
1DD
330
1F
100
AcDbEntity
  8
0
  6
Continuous
 62
     7
370
    15
100
AcDbLine
 10
240.0428955755
 20
169.3448926114
 30
0.0
 11
240.0428955755
 21
170.3048926114
 31
0.0
  0
LINE
  5
1DE
330
1F
100
AcDbEntity
  8
0
  6
Continuous
 62
     7
370
    15
100
AcDbLine
 10
184.4428955755
 20
170.3048926114
 30
0.0
 11
184.4428955755
 21
169.3448926114
 31
0.0
  0
LINE
  5
1DF
330
1F
100
AcDbEntity
  8
0
  6
Continuous
 62
     7
370
    15
100
AcDbLine
 10
240.0428955755
 20
138.9448926114
 30
0.0
 11
240.0428955755
 21
139.9048926114
 31
0.0
  0
LINE
  5
1E0
330
1F
100
AcDbEntity
  8
0
  6
Continuous
 62
     7
370
    15
100
AcDbLine
 10
184.4428955755
 20
139.9048926114
 30
0.0
 11
184.4428955755
 21
138.9448926114
 31
0.0
  0
LINE
  5
1E1
330
1F
100
AcDbEntity
  8
0
  6
Continuous
 62
     7
370
    15
100
AcDbLine
 10
195.4019907432
 20
194.7248926114
 30
0.0
 11
195.4019907432
 21
196.9248926114
 31
0.0
  0
LINE
  5
1E2
330
1F
100
AcDbEntity
  8
0
  6
Continuous
 62
     7
370
    15
100
AcDbLine
 10
193.0819907432
 20
196.9248926114
 30
0.0
 11
193.0819907432
 21
194.7248926114
 31
0.0
  0
LINE
  5
1E3
330
1F
100
AcDbEntity
  8
0
  6
Continuous
 62
     7
370
    15
100
AcDbLine
 10
193.0819907432
 20
196.9248926114
 30
0.0
 11
195.4019907432
 21
196.9248926114
 31
0.0
  0
LINE
  5
1E4
330
1F
100
AcDbEntity
  8
0
  6
Continuous
 62
     7
370
    15
100
AcDbLine
 10
193.0819907432
 20
194.7248926114
 30
0.0
 11
195.4019907432
 21
194.7248926114
 31
0.0
  0
LINE
  5
1E5
330
1F
100
AcDbEntity
  8
0
  6
Continuous
 62
     7
370
    15
100
AcDbLine
 10
192.8819907432
 20
195.8248926114
 30
0.0
 11
192.8819907432
 21
195.1948926114
 31
0.0
  0
LINE
  5
1E6
330
1F
100
AcDbEntity
  8
0
  6
Continuous
 62
     7
370
    15
100
AcDbLine
 10
192.8819907432
 20
196.4548926114
 30
0.0
 11
192.8819907432
 21
195.8248926114
 31
0.0
  0
SPLINE
  5
1E7
330
1F
100
AcDbEntity
  8
0
  6
Continuous
 62
     7
370
    15
100
AcDbSpline
210
0.0
220
0.0
230
1.0
 70
     8
 71
     3
 72
    11
 73
     7
 74
     0
 42
0.00000001
 43
0.00000001
 12
1.0
 22
0.0
 32
0.0
 13
1.0
 23
0.0
 33
0.0
 40
0.0
 40
0.0
 40
0.0
 40
0.0
 40
0.2126158808164621
 40
0.446219475645904
 40
0.7049906112901345
 40
0.9999999999999999
 40
0.9999999999999999
 40
0.9999999999999999
 40
0.9999999999999999
 10
196.9723208291245
 20
153.0248926113894
 30
0.0
 10
196.9639195736723
 20
153.1173966251525
 30
0.0
 10
196.9462877590203
 20
153.3115358980892
 30
0.0
 10
196.8439857313612
 20
153.568745773099
 30
0.0
 10
196.7209098577666
 20
153.8329499948572
 30
0.0
 10
196.6466882893215
 20
154.0364723778318
 30
0.0
 10
196.6071490520729
 20
154.1448926113894
 30
0.0
  0
SPLINE
  5
1E8
330
1F
100
AcDbEntity
  8
0
  6
Continuous
 62
     7
370
    15
100
AcDbSpline
210
0.0
220
0.0
230
1.0
 70
     8
 71
     3
 72
    11
 73
     7
 74
     0
 42
0.00000001
 43
0.00000001
 12
1.0
 22
0.0
 32
0.0
 13
1.0
 23
0.0
 33
0.0
 40
0.0
 40
0.0
 40
0.0
 40
0.0
 40
0.1983069299863841
 40
0.4629308996554314
 40
0.7477924066964284
 40
0.9999999999999999
 40
0.9999999999999999
 40
0.9999999999999999
 40
0.9999999999999999
 10
196.2738993156702
 20
154.1448926113894
 30
0.0
 10
196.2492695245192
 20
154.0701765275919
 30
0.0
 10
196.1917733423301
 20
153.8957580950467
 30
0.0
 10
196.0746668143565
 20
153.6457538314776
 30
0.0
 10
195.9489997042866
 20
153.3659805242048
 30
0.0
 10
195.9235920766317
 20
153.1338847586153
 30
0.0
 10
195.9116606573446
 20
153.0248926113894
 30
0.0
  0
LINE
  5
1E9
330
1F
100
AcDbEntity
  8
0
  6
Continuous
 62
     7
370
    15
100
AcDbLine
 10
224.2019907432
 20
160.7248926114
 30
0.0
 11
224.2019907432
 21
161.7448926114
 31
0.0
  0
LINE
  5
1EA
330
1F
100
AcDbEntity
  8
0
  6
Continuous
 62
     7
370
    15
100
AcDbLine
 10
224.2019907432
 20
162.7048926114
 30
0.0
 11
224.2019907432
 21
162.9248926114
 31
0.0
  0
LINE
  5
1EB
330
1F
100
AcDbEntity
  8
0
  6
Continuous
 62
     7
370
    15
100
AcDbLine
 10
221.8819907432
 20
160.7248926114
 30
0.0
 11
224.2019907432
 21
160.7248926114
 31
0.0
  0
LINE
  5
1EC
330
1F
100
AcDbEntity
  8
0
  6
Continuous
 62
     7
370
    15
100
AcDbLine
 10
221.8819907432
 20
162.9248926114
 30
0.0
 11
221.8819907432
 21
162.7048926114
 31
0.0
  0
LINE
  5
1ED
330
1F
100
AcDbEntity
  8
0
  6
Continuous
 62
     7
370
    15
100
AcDbLine
 10
221.8819907432
 20
161.7448926114
 30
0.0
 11
221.8819907432
 21
160.7248926114
 31
0.0
  0
LINE
  5
1EE
330
1F
100
AcDbEntity
  8
0
  6
Continuous
 62
     7
370
    15
100
AcDbLine
 10
221.8819907432
 20
162.9248926114
 30
0.0
 11
224.2019907432
 21
162.9248926114
 31
0.0
  0
LINE
  5
1EF
330
1F
100
AcDbEntity
  8
0
  6
Continuous
 62
     7
370
    15
100
AcDbLine
 10
221.6819907432
 20
161.7448926114
 30
0.0
 11
221.6819907432
 21
161.1948926114
 31
0.0
  0
LINE
  5
1F0
330
1F
100
AcDbEntity
  8
0
  6
Continuous
 62
     7
370
    15
100
AcDbLine
 10
229.0819907432
 20
197.3248926114
 30
0.0
 11
229.0819907432
 21
194.3248926114
 31
0.0
  0
LINE
  5
1F1
330
1F
100
AcDbEntity
  8
0
  6
Continuous
 62
     7
370
    15
100
AcDbLine
 10
231.4019907432
 20
197.3248926114
 30
0.0
 11
229.0819907432
 21
197.3248926114
 31
0.0
  0
LINE
  5
1F2
330
1F
100
AcDbEntity
  8
0
  6
Continuous
 62
     7
370
    15
100
AcDbLine
 10
231.4019907432
 20
194.3248926114
 30
0.0
 11
231.4019907432
 21
197.3248926114
 31
0.0
  0
LINE
  5
1F3
330
1F
100
AcDbEntity
  8
0
  6
Continuous
 62
     7
370
    15
100
AcDbLine
 10
231.4019907432
 20
194.3248926114
 30
0.0
 11
229.0819907432
 21
194.3248926114
 31
0.0
  0
LINE
  5
1F4
330
1F
100
AcDbEntity
  8
0
  6
Continuous
 62
     7
370
    15
100
AcDbLine
 10
214.7019907432
 20
194.3248926114
 30
0.0
 11
214.7019907432
 21
197.3248926114
 31
0.0
  0
LINE
  5
1F5
330
1F
100
AcDbEntity
  8
0
  6
Continuous
 62
     7
370
    15
100
AcDbLine
 10
217.0219907432
 20
194.3248926114
 30
0.0
 11
217.0219907432
 21
197.3248926114
 31
0.0
  0
LINE
  5
1F6
330
1F
100
AcDbEntity
  8
0
  6
Continuous
 62
     7
370
    15
100
AcDbLine
 10
217.0219907432
 20
197.3248926114
 30
0.0
 11
214.7019907432
 21
197.3248926114
 31
0.0
  0
LINE
  5
1F7
330
1F
100
AcDbEntity
  8
0
  6
Continuous
 62
     7
370
    15
100
AcDbLine
 10
217.0219907432
 20
194.3248926114
 30
0.0
 11
214.7019907432
 21
194.3248926114
 31
0.0
  0
LINE
  5
1F8
330
1F
100
AcDbEntity
  8
0
  6
Continuous
 62
     7
370
    15
100
AcDbLine
 10
228.8519907432
 20
197.3248926114
 30
0.0
 11
228.8519907432
 21
196.1248926114
 31
0.0
  0
LINE
  5
1F9
330
1F
100
AcDbEntity
  8
0
  6
Continuous
 62
     7
370
    15
100
AcDbLine
 10
228.8519907432
 20
195.5248926114
 30
0.0
 11
228.8519907432
 21
194.3248926114
 31
0.0
  0
LINE
  5
1FA
330
1F
100
AcDbEntity
  8
0
  6
Continuous
 62
     7
370
    15
100
AcDbLine
 10
229.0819907432
 20
197.3248926114
 30
0.0
 11
228.8519907432
 21
197.3248926114
 31
0.0
  0
LINE
  5
1FB
330
1F
100
AcDbEntity
  8
0
  6
Continuous
 62
     7
370
    15
100
AcDbLine
 10
229.0819907432
 20
194.3248926114
 30
0.0
 11
228.8519907432
 21
194.3248926114
 31
0.0
  0
LINE
  5
1FC
330
1F
100
AcDbEntity
  8
0
  6
Continuous
 62
     7
370
    15
100
AcDbLine
 10
217.2519907432
 20
194.3248926114
 30
0.0
 11
217.2519907432
 21
195.5248926114
 31
0.0
  0
LINE
  5
1FD
330
1F
100
AcDbEntity
  8
0
  6
Continuous
 62
     7
370
    15
100
AcDbLine
 10
217.2519907432
 20
196.1248926114
 30
0.0
 11
217.2519907432
 21
197.3248926114
 31
0.0
  0
LINE
  5
1FE
330
1F
100
AcDbEntity
  8
0
  6
Continuous
 62
     7
370
    15
100
AcDbLine
 10
217.2519907432
 20
197.3248926114
 30
0.0
 11
217.0219907432
 21
197.3248926114
 31
0.0
  0
LINE
  5
1FF
330
1F
100
AcDbEntity
  8
0
  6
Continuous
 62
     7
370
    15
100
AcDbLine
 10
217.2519907432
 20
194.3248926114
 30
0.0
 11
217.0219907432
 21
194.3248926114
 31
0.0
  0
LINE
  5
200
330
1F
100
AcDbEntity
  8
0
  6
Continuous
 62
     7
370
    15
100
AcDbLine
 10
228.8519907432
 20
194.3248926114
 30
0.0
 11
228.8518756898
 21
194.3248926114
 31
0.0
  0
LINE
  5
201
330
1F
100
AcDbEntity
  8
0
  6
Continuous
 62
     7
370
    15
100
AcDbLine
 10
217.2521057967
 20
194.3248926114
 30
0.0
 11
217.2519907432
 21
194.3248926114
 31
0.0
  0
LINE
  5
202
330
1F
100
AcDbEntity
  8
0
  6
Continuous
 62
     7
370
    15
100
AcDbLine
 10
240.0428955755
 20
192.1448926114
 30
0.0
 11
240.0428955755
 21
193.1048926114
 31
0.0
  0
LINE
  5
203
330
1F
100
AcDbEntity
  8
0
  6
Continuous
 62
     7
370
    15
100
AcDbLine
 10
184.4428955755
 20
193.1048926114
 30
0.0
 11
184.4428955755
 21
192.1448926114
 31
0.0
  0
LINE
  5
204
330
1F
100
AcDbEntity
  8
0
  6
Continuous
 62
     7
370
    15
100
AcDbLine
 10
184.4428955755
 20
200.7048926114
 30
0.0
 11
184.4428955755
 21
199.7448926114
 31
0.0
  0
LINE
  5
205
330
1F
100
AcDbEntity
  8
0
  6
Continuous
 62
     7
370
    15
100
AcDbLine
 10
240.0428955755
 20
199.7448926114
 30
0.0
 11
240.0428955755
 21
200.7048926114
 31
0.0
  0
LINE
  5
206
330
1F
100
AcDbEntity
  8
0
  6
Continuous
 62
     7
370
    15
100
AcDbLine
 10
240.0428955755
 20
154.1448926114
 30
0.0
 11
240.0428955755
 21
155.1048926114
 31
0.0
  0
LINE
  5
207
330
1F
100
AcDbEntity
  8
0
  6
Continuous
 62
     7
370
    15
100
AcDbLine
 10
184.4428955755
 20
155.1048926114
 30
0.0
 11
184.4428955755
 21
154.1448926114
 31
0.0
  0
LINE
  5
208
330
1F
100
AcDbEntity
  8
0
  6
Continuous
 62
     7
370
    15
100
AcDbLine
 10
195.4019907432
 20
160.7248926114
 30
0.0
 11
195.4019907432
 21
161.7448926114
 31
0.0
  0
LINE
  5
209
330
1F
100
AcDbEntity
  8
0
  6
Continuous
 62
     7
370
    15
100
AcDbLine
 10
195.4019907432
 20
162.7048926114
 30
0.0
 11
195.4019907432
 21
162.9248926114
 31
0.0
  0
LINE
  5
20A
330
1F
100
AcDbEntity
  8
0
  6
Continuous
 62
     7
370
    15
100
AcDbLine
 10
193.0819907432
 20
162.9248926114
 30
0.0
 11
193.0819907432
 21
162.7048926114
 31
0.0
  0
LINE
  5
20B
330
1F
100
AcDbEntity
  8
0
  6
Continuous
 62
     7
370
    15
100
AcDbLine
 10
193.0819907432
 20
161.7448926114
 30
0.0
 11
193.0819907432
 21
160.7248926114
 31
0.0
  0
LINE
  5
20C
330
1F
100
AcDbEntity
  8
0
  6
Continuous
 62
     7
370
    15
100
AcDbLine
 10
193.0819907432
 20
160.7248926114
 30
0.0
 11
195.4019907432
 21
160.7248926114
 31
0.0
  0
LINE
  5
20D
330
1F
100
AcDbEntity
  8
0
  6
Continuous
 62
     7
370
    15
100
AcDbLine
 10
193.0819907432
 20
162.9248926114
 30
0.0
 11
195.4019907432
 21
162.9248926114
 31
0.0
  0
LINE
  5
20E
330
1F
100
AcDbEntity
  8
0
  6
Continuous
 62
     7
370
    15
100
AcDbLine
 10
192.8819907432
 20
161.7448926114
 30
0.0
 11
192.8819907432
 21
161.1948926114
 31
0.0
  0
LINE
  5
20F
330
1F
100
AcDbEntity
  8
0
  6
Continuous
 62
     7
370
    15
100
AcDbLine
 10
240.0428955755
 20
161.7448926114
 30
0.0
 11
240.0428955755
 21
162.7048926114
 31
0.0
  0
LINE
  5
210
330
1F
100
AcDbEntity
  8
0
  6
Continuous
 62
     7
370
    15
100
AcDbLine
 10
184.4428955755
 20
162.7048926114
 30
0.0
 11
184.4428955755
 21
161.7448926114
 31
0.0
  0
LINE
  5
211
330
1F
100
AcDbEntity
  8
0
  6
Continuous
 62
     7
370
    15
100
AcDbLine
 10
240.0428955755
 20
123.7448926114
 30
0.0
 11
240.0428955755
 21
124.7048926114
 31
0.0
  0
LINE
  5
212
330
1F
100
AcDbEntity
  8
0
  6
Continuous
 62
     7
370
    15
100
AcDbLine
 10
184.4428955755
 20
124.7048926114
 30
0.0
 11
184.4428955755
 21
123.7448926114
 31
0.0
  0
LINE
  5
213
330
1F
100
AcDbEntity
  8
0
  6
Continuous
 62
     7
370
    15
100
AcDbLine
 10
192.2419907432
 20
196.1248926114
 30
0.0
 11
192.2419907432
 21
195.5248926114
 31
0.0
  0
LINE
  5
214
330
1F
100
AcDbEntity
  8
0
  6
Continuous
 62
     7
370
    15
100
AcDbLine
 10
232.2419907432
 20
195.5248926114
 30
0.0
 11
232.2419907432
 21
196.1248926114
 31
0.0
  0
LINE
  5
215
330
1F
100
AcDbEntity
  8
0
  6
Continuous
 62
     7
370
    15
100
AcDbLine
 10
232.2419907432
 20
161.5248926114
 30
0.0
 11
232.2419907432
 21
161.7448926114
 31
0.0
  0
LINE
  5
216
330
1F
100
AcDbEntity
  8
0
  6
Continuous
 62
     7
370
    15
100
AcDbLine
 10
192.2419907432
 20
161.7448926114
 30
0.0
 11
192.2419907432
 21
161.5248926114
 31
0.0
  0
LINE
  5
217
330
1F
100
AcDbEntity
  8
0
  6
Continuous
 62
     7
370
    15
100
AcDbLine
 10
184.4428955755
 20
185.5048926114
 30
0.0
 11
184.4428955755
 21
184.5448926114
 31
0.0
  0
LINE
  5
218
330
1F
100
AcDbEntity
  8
0
  6
Continuous
 62
     7
370
    15
100
AcDbLine
 10
240.0428955755
 20
184.5448926114
 30
0.0
 11
240.0428955755
 21
185.5048926114
 31
0.0
  0
LINE
  5
219
330
1F
100
AcDbEntity
  8
0
  6
Continuous
 62
     7
370
    15
100
AcDbLine
 10
240.0428955755
 20
131.3448926114
 30
0.0
 11
240.0428955755
 21
132.3048926114
 31
0.0
  0
LINE
  5
21A
330
1F
100
AcDbEntity
  8
0
  6
Continuous
 62
     7
370
    15
100
AcDbLine
 10
184.4428955755
 20
132.3048926114
 30
0.0
 11
184.4428955755
 21
131.3448926114
 31
0.0
  0
LINE
  5
21B
330
1F
100
AcDbEntity
  8
0
  6
Continuous
 62
     7
370
    15
100
AcDbLine
 10
231.4019907432
 20
160.7248926114
 30
0.0
 11
231.4019907432
 21
161.7448926114
 31
0.0
  0
LINE
  5
21C
330
1F
100
AcDbEntity
  8
0
  6
Continuous
 62
     7
370
    15
100
AcDbLine
 10
231.4019907432
 20
162.7048926114
 30
0.0
 11
231.4019907432
 21
162.9248926114
 31
0.0
  0
LINE
  5
21D
330
1F
100
AcDbEntity
  8
0
  6
Continuous
 62
     7
370
    15
100
AcDbLine
 10
229.0819907432
 20
162.9248926114
 30
0.0
 11
229.0819907432
 21
162.7048926114
 31
0.0
  0
LINE
  5
21E
330
1F
100
AcDbEntity
  8
0
  6
Continuous
 62
     7
370
    15
100
AcDbLine
 10
229.0819907432
 20
161.7448926114
 30
0.0
 11
229.0819907432
 21
160.7248926114
 31
0.0
  0
LINE
  5
21F
330
1F
100
AcDbEntity
  8
0
  6
Continuous
 62
     7
370
    15
100
AcDbLine
 10
229.0819907432
 20
160.7248926114
 30
0.0
 11
231.4019907432
 21
160.7248926114
 31
0.0
  0
LINE
  5
220
330
1F
100
AcDbEntity
  8
0
  6
Continuous
 62
     7
370
    15
100
AcDbLine
 10
231.4019907432
 20
162.9248926114
 30
0.0
 11
229.0819907432
 21
162.9248926114
 31
0.0
  0
LINE
  5
221
330
1F
100
AcDbEntity
  8
0
  6
Continuous
 62
     7
370
    15
100
AcDbLine
 10
231.6019907432
 20
161.1948926114
 30
0.0
 11
231.6019907432
 21
161.7448926114
 31
0.0
  0
LINE
  5
222
330
1F
100
AcDbEntity
  8
0
  6
Continuous
 62
     7
370
    15
100
AcDbLine
 10
184.4428955755
 20
147.5048926114
 30
0.0
 11
184.4428955755
 21
146.5448926114
 31
0.0
  0
LINE
  5
223
330
1F
100
AcDbEntity
  8
0
  6
Continuous
 62
     7
370
    15
100
AcDbLine
 10
240.0428955755
 20
146.5448926114
 30
0.0
 11
240.0428955755
 21
147.5048926114
 31
0.0
  0
LINE
  5
224
330
1F
100
AcDbEntity
  8
0
  6
Continuous
 62
     7
370
    15
100
AcDbLine
 10
189.1419907432
 20
115.8248926114
 30
0.0
 11
203.7419907432
 21
115.8248926114
 31
0.0
  0
LINE
  5
225
330
1F
100
AcDbEntity
  8
0
  6
Continuous
 62
     7
370
    15
100
AcDbLine
 10
188.9419907432
 20
114.8248926114
 30
0.0
 11
189.4428955755
 21
114.8248926114
 31
0.0
  0
ARC
  5
226
330
1F
100
AcDbEntity
  8
0
  6
Continuous
 62
     7
370
    15
100
AcDbCircle
 10
239.6428955755
 20
118.4248926114
 30
0.0
 40
0.6000000000000227
100
AcDbArc
 50
180.0
 51
360.0
  0
ARC
  5
227
330
1F
100
AcDbEntity
  8
0
  6
Continuous
 62
     7
370
    15
100
AcDbCircle
 10
184.8428955755
 20
118.4248926114
 30
0.0
 40
0.6000000000000227
100
AcDbArc
 50
180.0
 51
0.0
  0
ARC
  5
228
330
1F
100
AcDbEntity
  8
0
  6
Continuous
 62
     7
370
    15
100
AcDbCircle
 10
184.8428955755
 20
213.2248926114
 30
0.0
 40
0.6000000000000227
100
AcDbArc
 50
360.0
 51
180.0
  0
LINE
  5
229
330
1F
100
AcDbEntity
  8
0
  6
Continuous
 62
     7
370
    15
100
AcDbLine
 10
194.9076157432
 20
128.4248926114
 30
0.0
 11
193.8116044079
 21
128.4248926114
 31
0.0
  0
LINE
  5
22A
330
1F
100
AcDbEntity
  8
0
  6
Continuous
 62
     7
370
    15
100
AcDbLine
 10
193.8116044079
 20
129.4248926114
 30
0.0
 11
193.8116044079
 21
128.4248926114
 31
0.0
  0
LINE
  5
22B
330
1F
100
AcDbEntity
  8
0
  6
Continuous
 62
     7
370
    15
100
AcDbLine
 10
193.8116044079
 20
129.4248926114
 30
0.0
 11
194.9076157432
 21
129.4248926114
 31
0.0
  0
LINE
  5
22C
330
1F
100
AcDbEntity
  8
0
  6
Continuous
 62
     7
370
    15
100
AcDbLine
 10
196.5013657432
 20
128.4248926114
 30
0.0
 11
194.9076157432
 21
128.4248926114
 31
0.0
  0
LINE
  5
22D
330
1F
100
AcDbEntity
  8
0
  6
Continuous
 62
     7
370
    15
100
AcDbLine
 10
194.9076157432
 20
129.4248926114
 30
0.0
 11
196.5013657432
 21
129.4248926114
 31
0.0
  0
LINE
  5
22E
330
1F
100
AcDbEntity
  8
0
  6
Continuous
 62
     7
370
    15
100
AcDbLine
 10
196.5013657432
 20
128.4248926114
 30
0.0
 11
197.3919907432
 21
128.4248926114
 31
0.0
  0
LINE
  5
22F
330
1F
100
AcDbEntity
  8
0
  6
Continuous
 62
     7
370
    15
100
AcDbLine
 10
197.3919907432
 20
129.4248926114
 30
0.0
 11
196.5013657432
 21
129.4248926114
 31
0.0
  0
LINE
  5
230
330
1F
100
AcDbEntity
  8
0
  6
Continuous
 62
     7
370
    15
100
AcDbLine
 10
192.9919930962
 20
128.4248926114
 30
0.0
 11
192.9919930962
 21
129.4248926114
 31
0.0
  0
LINE
  5
231
330
1F
100
AcDbEntity
  8
0
  6
Continuous
 62
     7
370
    15
100
AcDbLine
 10
193.8116044079
 20
128.4248926114
 30
0.0
 11
192.9919930962
 21
128.4248926114
 31
0.0
  0
LINE
  5
232
330
1F
100
AcDbEntity
  8
0
  6
Continuous
 62
     7
370
    15
100
AcDbLine
 10
192.9919930962
 20
129.4248926114
 30
0.0
 11
193.8116044079
 21
129.4248926114
 31
0.0
  0
LINE
  5
233
330
1F
100
AcDbEntity
  8
0
  6
Continuous
 62
     7
370
    15
100
AcDbLine
 10
172.2428955755
 20
245.8498878623
 30
0.0
 11
172.2428955755
 21
244.9998878623
 31
0.0
  0
LINE
  5
234
330
1F
100
AcDbEntity
  8
0
  6
Continuous
 62
     7
370
    15
100
AcDbLine
 10
172.2428955755
 20
245.8498878623
 30
0.0
 11
252.2428955755
 21
245.8498878623
 31
0.0
  0
LINE
  5
235
330
1F
100
AcDbEntity
  8
0
  6
Continuous
 62
     7
370
    15
100
AcDbLine
 10
252.2428955755
 20
245.8498878623
 30
0.0
 11
252.2428955755
 21
244.9998878623
 31
0.0
  0
LINE
  5
236
330
1F
100
AcDbEntity
  8
0
  6
Continuous
 62
     7
370
    15
100
AcDbLine
 10
172.2428955755
 20
244.9998878623
 30
0.0
 11
172.2428955755
 21
231.6998878623
 31
0.0
  0
LINE
  5
237
330
1F
100
AcDbEntity
  8
0
  6
Continuous
 62
     7
370
    15
100
AcDbLine
 10
252.2428955755
 20
244.9998878623
 30
0.0
 11
252.2428955755
 21
231.6998878623
 31
0.0
  0
LINE
  5
238
330
1F
100
AcDbEntity
  8
0
  6
Continuous
 62
     7
370
    15
100
AcDbLine
 10
172.2428955755
 20
230.8498878623
 30
0.0
 11
252.2428955755
 21
230.8498878623
 31
0.0
  0
LINE
  5
239
330
1F
100
AcDbEntity
  8
0
  6
Continuous
 62
     7
370
    15
100
AcDbLine
 10
252.2428955755
 20
231.6998878623
 30
0.0
 11
252.2428955755
 21
230.8498878623
 31
0.0
  0
LINE
  5
23A
330
1F
100
AcDbEntity
  8
0
  6
Continuous
 62
     7
370
    15
100
AcDbLine
 10
172.2428955755
 20
231.6998878623
 30
0.0
 11
172.2428955755
 21
230.8498878623
 31
0.0
  0
LINE
  5
23B
330
1F
100
AcDbEntity
  8
0
  6
Continuous
 62
     7
370
    15
100
AcDbLine
 10
172.2428955755
 20
230.8498878623
 30
0.0
 11
172.2428955755
 21
230.3998878623
 31
0.0
  0
LINE
  5
23C
330
1F
100
AcDbEntity
  8
0
  6
Continuous
 62
     7
370
    15
100
AcDbLine
 10
252.2428955755
 20
230.8498878623
 30
0.0
 11
252.2428955755
 21
230.3998878623
 31
0.0
  0
LINE
  5
23D
330
1F
100
AcDbEntity
  8
0
  6
Continuous
 62
     7
370
    15
100
AcDbLine
 10
185.7428955755
 20
223.3498878623
 30
0.0
 11
238.7428955755
 21
223.3498878623
 31
0.0
  0
ARC
  5
23E
330
1F
100
AcDbEntity
  8
0
  6
Continuous
 62
     7
370
    15
100
AcDbCircle
 10
238.7428955755
 20
215.3498878623
 30
0.0
 40
8.0
100
AcDbArc
 50
0.0
 51
57.0043728696
  0
ARC
  5
23F
330
1F
100
AcDbEntity
  8
0
  6
Continuous
 62
     7
370
    15
100
AcDbCircle
 10
238.7428955755
 20
215.3498878623
 30
0.0
 40
8.000000000000018
100
AcDbArc
 50
78.7005029179
 51
90.0
  0
ARC
  5
240
330
1F
100
AcDbEntity
  8
0
  6
Continuous
 62
     7
370
    15
100
AcDbCircle
 10
185.7428955755
 20
215.3498878623
 30
0.0
 40
8.000000000000028
100
AcDbArc
 50
90.0
 51
180.0
  0
LINE
  5
241
330
1F
100
AcDbEntity
  8
0
  6
Continuous
 62
     7
370
    15
100
AcDbLine
 10
177.7428955755
 20
215.3498878623
 30
0.0
 11
177.7428955755
 21
88.5498878623
 31
0.0
  0
ARC
  5
242
330
1F
100
AcDbEntity
  8
0
  6
Continuous
 62
     7
370
    15
100
AcDbCircle
 10
185.7428955755
 20
88.5498878623
 30
0.0
 40
8.000000000000028
100
AcDbArc
 50
180.0
 51
219.33330502
  0
ARC
  5
243
330
1F
100
AcDbEntity
  8
0
  6
Continuous
 62
     7
370
    15
100
AcDbCircle
 10
185.7428955755
 20
88.5498878623
 30
0.0
 40
8.000000000000023
100
AcDbArc
 50
219.33330502
 51
270.0
  0
LINE
  5
244
330
1F
100
AcDbEntity
  8
0
  6
Continuous
 62
     7
370
    15
100
AcDbLine
 10
246.7428955755
 20
215.3498878623
 30
0.0
 11
246.7428955755
 21
88.5498878623
 31
0.0
  0
ARC
  5
245
330
1F
100
AcDbEntity
  8
0
  6
Continuous
 62
     7
370
    15
100
AcDbCircle
 10
238.7428955755
 20
88.5498878623
 30
0.0
 40
7.999999999999992
100
AcDbArc
 50
270.0
 51
320.66669498
  0
ARC
  5
246
330
1F
100
AcDbEntity
  8
0
  6
Continuous
 62
     7
370
    15
100
AcDbCircle
 10
238.7428955755
 20
88.5498878623
 30
0.0
 40
8.0
100
AcDbArc
 50
320.66669498
 51
0.0
  0
LINE
  5
247
330
1F
100
AcDbEntity
  8
0
  6
Continuous
 62
     7
370
    15
100
AcDbLine
 10
172.2428955755
 20
68.2498878623
 30
0.0
 11
172.2428955755
 21
65.8498878623
 31
0.0
  0
LINE
  5
248
330
1F
100
AcDbEntity
  8
0
  6
Continuous
 62
     7
370
    15
100
AcDbLine
 10
252.2428955755
 20
68.2498878623
 30
0.0
 11
252.2428955755
 21
65.8498878623
 31
0.0
  0
LINE
  5
249
330
1F
100
AcDbEntity
  8
0
  6
Continuous
 62
     7
370
    15
100
AcDbLine
 10
172.2428955755
 20
230.3998878623
 30
0.0
 11
172.2428955755
 21
68.2498878623
 31
0.0
  0
LINE
  5
24A
330
1F
100
AcDbEntity
  8
0
  6
Continuous
 62
     7
370
    15
100
AcDbLine
 10
252.2428955755
 20
230.3998878623
 30
0.0
 11
252.2428955755
 21
68.2498878623
 31
0.0
  0
LINE
  5
24B
330
1F
100
AcDbEntity
  8
0
  6
Continuous
 62
     7
370
    15
100
AcDbLine
 10
185.7428955755
 20
80.5498878623
 30
0.0
 11
238.7428955755
 21
80.5498878623
 31
0.0
  0
ELLIPSE
  5
24C
330
1F
100
AcDbEntity
  8
0
  6
Continuous
 62
     7
370
    15
100
AcDbEllipse
 10
179.7469904576
 20
102.814668712
 30
0.0
 11
1.799999952945939
 21
-0.0114369637289542
 31
0.0
210
0.0
220
0.0
230
1.0
 40
0.0359864627
 41
3.316354232053406
 42
4.712617633646828
  0
ELLIPSE
  5
24D
330
1F
100
AcDbEntity
  8
0
  6
Continuous
 62
     7
370
    15
100
AcDbEllipse
 10
180.0643790228
 20
127.789668712
 30
0.0
 11
0.3182116838026161
 21
25.03977040281417
 31
0.0
210
0.0
220
0.0
230
1.0
 40
0.0718798391
 41
3.142049960114249
 42
3.142506120363229
  0
ELLIPSE
  5
24E
330
1F
100
AcDbEntity
  8
0
  6
Continuous
 62
     7
370
    15
100
AcDbEllipse
 10
244.4214121281
 20
127.789668712
 30
0.0
 11
-0.3182116838026161
 21
25.03977040281417
 31
0.0
210
0.0
220
0.0
230
1.0
 40
0.0718798391
 41
3.140679186816552
 42
3.141135347065532
  0
ELLIPSE
  5
24F
330
1F
100
AcDbEntity
  8
0
  6
Continuous
 62
     7
370
    15
100
AcDbEllipse
 10
244.7388006933
 20
102.814668712
 30
0.0
 11
1.79999995294591
 21
0.01143696372893999
 31
0.0
210
0.0
220
0.0
230
1.0
 40
0.0359864627
 41
4.712160327122552
 42
6.108423728718708
  0
LINE
  5
250
330
1F
100
AcDbEntity
  8
0
  6
Continuous
 62
     7
370
    15
100
AcDbLine
 10
179.747811579
 20
102.7498878623
 30
0.0
 11
244.7379795719
 21
102.7498878623
 31
0.0
  0
LINE
  5
251
330
1F
100
AcDbEntity
  8
0
  6
Continuous
 62
     7
370
    15
100
AcDbLine
 10
181.0878908264
 20
208.7848926114
 30
0.0
 11
181.0878908264
 21
122.8648926114
 31
0.0
  0
ARC
  5
252
330
1F
100
AcDbEntity
  8
0
  6
Continuous
 62
     7
370
    15
100
AcDbCircle
 10
189.4878908264
 20
122.8648926114
 30
0.0
 40
8.400000000000006
100
AcDbArc
 50
180.0
 51
270.0
  0
LINE
  5
253
330
1F
100
AcDbEntity
  8
0
  6
Continuous
 62
     7
370
    15
100
AcDbLine
 10
189.4878908264
 20
114.4648926114
 30
0.0
 11
235.0078908264
 21
114.4648926114
 31
0.0
  0
ARC
  5
254
330
1F
100
AcDbEntity
  8
0
  6
Continuous
 62
     7
370
    15
100
AcDbCircle
 10
235.0078908264
 20
122.8648926114
 30
0.0
 40
8.400000000000006
100
AcDbArc
 50
270.0
 51
0.0
  0
LINE
  5
255
330
1F
100
AcDbEntity
  8
0
  6
Continuous
 62
     7
370
    15
100
AcDbLine
 10
243.4078908264
 20
122.8648926114
 30
0.0
 11
243.4078908264
 21
208.7848926114
 31
0.0
  0
ARC
  5
256
330
1F
100
AcDbEntity
  8
0
  6
Continuous
 62
     7
370
    15
100
AcDbCircle
 10
235.0078908264
 20
208.7848926114
 30
0.0
 40
8.400000000000041
100
AcDbArc
 50
67.2940726533
 51
90.0
  0
ARC
  5
257
330
1F
100
AcDbEntity
  8
0
  6
Continuous
 62
     7
370
    15
100
AcDbCircle
 10
235.0078908264
 20
208.7848926114
 30
0.0
 40
8.400000000000052
100
AcDbArc
 50
0.0
 51
45.856129182
  0
LINE
  5
258
330
1F
100
AcDbEntity
  8
0
  6
Continuous
 62
     7
370
    15
100
AcDbLine
 10
235.0078908264
 20
217.1848926114
 30
0.0
 11
189.4878908264
 21
217.1848926114
 31
0.0
  0
ARC
  5
259
330
1F
100
AcDbEntity
  8
0
  6
Continuous
 62
     7
370
    15
100
AcDbCircle
 10
189.4878908264
 20
208.7848926114
 30
0.0
 40
8.400000000000034
100
AcDbArc
 50
90.0
 51
180.0
  0
CIRCLE
  5
25A
330
1F
100
AcDbEntity
  8
0
  6
Continuous
 62
     7
370
    15
100
AcDbCircle
 10
174.2428955755
 20
238.3498878623
 30
0.0
 40
1.899999999999977
  0
CIRCLE
  5
25B
330
1F
100
AcDbEntity
  8
0
  6
Continuous
 62
     7
370
    15
100
AcDbCircle
 10
250.2428955755
 20
238.3498878623
 30
0.0
 40
1.899999999999977
  0
LINE
  5
25C
330
1F
100
AcDbEntity
  8
0
  6
Continuous
 62
     7
370
    15
100
AcDbLine
 10
233.8507014963
 20
125.045116533
 30
0.0
 11
233.8507014963
 21
125.2451348103
 31
0.0
  0
LWPOLYLINE
  5
25D
330
1F
100
AcDbEntity
  8
0
  6
Continuous
 62
     7
370
    15
100
AcDbPolyline
 90
        3
 70
   128
 43
0.0
 10
233.8507014963
 20
125.2451348103
 10
233.3289661761
 20
125.2022068725
 10
233.2472166954
 20
125.1888522924
  0
LINE
  5
25E
330
1F
100
AcDbEntity
  8
0
  6
Continuous
 62
     7
370
    15
100
AcDbLine
 10
233.5967003256
 20
125.0326051531
 30
0.0
 11
233.8507014963
 21
125.045116533
 31
0.0
  0
ARC
  5
25F
330
1F
100
AcDbEntity
  8
0
  6
Continuous
 62
     7
370
    15
100
AcDbCircle
 10
233.9007014963
 20
121.445463772
 30
0.0
 40
3.799999999999989
100
AcDbArc
 50
72.9802551745
 51
89.246086409
  0
LINE
  5
260
330
1F
100
AcDbEntity
  8
0
  6
Continuous
 62
     7
370
    15
100
AcDbLine
 10
233.9507014963
 20
125.2451348103
 30
0.0
 11
233.9507014963
 21
125.045116533
 31
0.0
  0
LWPOLYLINE
  5
261
330
1F
100
AcDbEntity
  8
0
  6
Continuous
 62
     7
370
    15
100
AcDbPolyline
 90
        3
 70
   128
 43
0.0
 10
233.9507014963
 20
125.045116533
 10
234.479594457
 20
124.9986149002
 10
234.6468121101
 20
124.9672983723
  0
ENDSEC
  0
SECTION
  2
OBJECTS
  0
DICTIONARY
  5
C
330
0
100
AcDbDictionary
281
     1
  3
ACAD_GROUP
350
D
  3
ACAD_LAYOUT
350
1A
  3
ACAD_MLINESTYLE
350
17
  3
ACAD_PLOTSETTINGS
350
19
  3
ACAD_PLOTSTYLENAME
350
E
  0
DICTIONARY
  5
D
102
{ACAD_REACTORS
330
C
102
}
330
C
100
AcDbDictionary
281
     1
  0
DICTIONARY
  5
1A
102
{ACAD_REACTORS
330
C
102
}
330
C
100
AcDbDictionary
281
     1
  3
Layout1
350
1E
  3
Layout2
350
26
  3
Model
350
22
  0
DICTIONARY
  5
17
102
{ACAD_REACTORS
330
C
102
}
330
C
100
AcDbDictionary
281
     1
  3
Standard
350
18
  0
DICTIONARY
  5
19
102
{ACAD_REACTORS
330
C
102
}
330
C
100
AcDbDictionary
281
     1
  0
ACDBDICTIONARYWDFLT
  5
E
102
{ACAD_REACTORS
330
C
102
}
330
C
100
AcDbDictionary
281
     1
  3
Normal
350
F
100
AcDbDictionaryWithDefault
340
F
  0
LAYOUT
  5
1E
102
{ACAD_REACTORS
330
1A
102
}
330
1A
100
AcDbPlotSettings
  1

  2
none_device
  4

  6

 40
0.0
 41
0.0
 42
0.0
 43
0.0
 44
0.0
 45
0.0
 46
0.0
 47
0.0
 48
0.0
 49
0.0
140
0.0
141
0.0
142
1.0
143
1.0
 70
   688
 72
     0
 73
     0
 74
     5
  7

 75
    16
147
1.0
148
0.0
149
0.0
100
AcDbLayout
  1
Layout1
 70
     1
 71
     1
 10
0.0
 20
0.0
 11
420.0
 21
297.0
 12
0.0
 22
0.0
 32
0.0
 14
1.0000000000E+20
 24
1.0000000000E+20
 34
1.0000000000E+20
 15
-1.0000000000E+20
 25
-1.0000000000E+20
 35
-1.0000000000E+20
146
0.0
 13
0.0
 23
0.0
 33
0.0
 16
1.0
 26
0.0
 36
0.0
 17
0.0
 27
1.0
 37
0.0
 76
     0
330
1B
  0
LAYOUT
  5
26
102
{ACAD_REACTORS
330
1A
102
}
330
1A
100
AcDbPlotSettings
  1

  2
none_device
  4

  6

 40
0.0
 41
0.0
 42
0.0
 43
0.0
 44
0.0
 45
0.0
 46
0.0
 47
0.0
 48
0.0
 49
0.0
140
0.0
141
0.0
142
1.0
143
1.0
 70
   688
 72
     0
 73
     0
 74
     5
  7

 75
    16
147
1.0
148
0.0
149
0.0
100
AcDbLayout
  1
Layout2
 70
     1
 71
     2
 10
0.0
 20
0.0
 11
0.0
 21
0.0
 12
0.0
 22
0.0
 32
0.0
 14
0.0
 24
0.0
 34
0.0
 15
0.0
 25
0.0
 35
0.0
146
0.0
 13
0.0
 23
0.0
 33
0.0
 16
1.0
 26
0.0
 36
0.0
 17
0.0
 27
1.0
 37
0.0
 76
     0
330
23
  0
LAYOUT
  5
22
102
{ACAD_REACTORS
330
1A
102
}
330
1A
100
AcDbPlotSettings
  1

  2
none_device
  4

  6

 40
0.0
 41
0.0
 42
0.0
 43
0.0
 44
0.0
 45
0.0
 46
0.0
 47
0.0
 48
0.0
 49
0.0
140
0.0
141
0.0
142
1.0
143
1.0
 70
  1712
 72
     0
 73
     0
 74
     0
  7

 75
     0
147
1.0
148
0.0
149
0.0
100
AcDbLayout
  1
Model
 70
     1
 71
     0
 10
0.0
 20
0.0
 11
431.8
 21
279.4
 12
0.0
 22
0.0
 32
0.0
 14
0.0
 24
0.0
 34
0.0
 15
431.8
 25
279.4
 35
0.0
146
0.0
 13
0.0
 23
0.0
 33
0.0
 16
1.0
 26
0.0
 36
0.0
 17
0.0
 27
1.0
 37
0.0
 76
     0
330
1F
331
29
  0
MLINESTYLE
  5
18
102
{ACAD_REACTORS
330
17
102
}
330
17
100
AcDbMlineStyle
  2
Standard
 70
     0
  3

 62
   256
 51
90.0
 52
90.0
 71
     2
 49
0.5
 62
   256
  6
BYLAYER
 49
-0.5
 62
   256
  6
BYLAYER
  0
ACDBPLACEHOLDER
  5
F
102
{ACAD_REACTORS
330
E
102
}
330
E
  0
ENDSEC
  0
EOF
