  0
SECTION
  2
HEADER
  9
$ACADVER
  1
AC1015
  9
$ACADMAINTVER
 70
     6
  9
$DWGCODEPAGE
  3
ANSI_1252
  9
$INSBASE
 10
0.0
 20
0.0
 30
0.0
  9
$EXTMIN
 10
0.0
 20
0.0
 30
0.0
  9
$EXTMAX
 10
1100.0
 20
1500.0
 30
0.0
  9
$LIMMIN
 10
0.0
 20
0.0
  9
$LIMMAX
 10
1100.0
 20
1500.0
  9
$ORTHOMODE
 70
     0
  9
$REGENMODE
 70
     1
  9
$FILLMODE
 70
     1
  9
$QTEXTMODE
 70
     0
  9
$MIRRTEXT
 70
     1
  9
$LTSCALE
 40
1.0
  9
$ATTMODE
 70
     1
  9
$TEXTSIZE
 40
3.5
  9
$TRACEWID
 40
1.0
  9
$TEXTSTYLE
  7
Standard
  9
$CLAYER
  8
0
  9
$CELTYPE
  6
ByLayer
  9
$CECOLOR
 62
   256
  9
$CELTSCALE
 40
1.0
  9
$DISPSILH
 70
     0
  9
$DIMSCALE
 40
1.0
  9
$DIMASZ
 40
3.302
  9
$DIMEXO
 40
1.0
  9
$DIMDLI
 40
3.75
  9
$DIMRND
 40
0.0
  9
$DIMDLE
 40
0.0
  9
$DIMEXE
 40
1.0
  9
$DIMTP
 40
0.0
  9
$DIMTM
 40
0.0
  9
$DIMTXT
 40
3.5
  9
$DIMCEN
 40
2.5
  9
$DIMTSZ
 40
0.0
  9
$DIMTOL
 70
     0
  9
$DIMLIM
 70
     0
  9
$DIMTIH
 70
     1
  9
$DIMTOH
 70
     1
  9
$DIMSE1
 70
     0
  9
$DIMSE2
 70
     0
  9
$DIMTAD
 70
     1
  9
$DIMZIN
 70
     0
  9
$DIMBLK
  1

  9
$DIMASO
 70
     1
  9
$DIMSHO
 70
     1
  9
$DIMPOST
  1

  9
$DIMAPOST
  1

  9
$DIMALT
 70
     0
  9
$DIMALTD
 70
     3
  9
$DIMALTF
 40
0.0393700787
  9
$DIMLFAC
 40
1.0
  9
$DIMTOFL
 70
     1
  9
$DIMTVP
 40
0.0
  9
$DIMTIX
 70
     0
  9
$DIMSOXD
 70
     0
  9
$DIMSAH
 70
     0
  9
$DIMBLK1
  1

  9
$DIMBLK2
  1

  9
$DIMSTYLE
  2
ISO-25
  9
$DIMCLRD
 70
     0
  9
$DIMCLRE
 70
     0
  9
$DIMCLRT
 70
     0
  9
$DIMTFAC
 40
1.0
  9
$DIMGAP
 40
1.524
  9
$DIMJUST
 70
     0
  9
$DIMSD1
 70
     0
  9
$DIMSD2
 70
     0
  9
$DIMTOLJ
 70
     0
  9
$DIMTZIN
 70
     0
  9
$DIMALTZ
 70
     0
  9
$DIMALTTZ
 70
     0
  9
$DIMUPT
 70
     0
  9
$DIMDEC
 70
     1
  9
$DIMTDEC
 70
     1
  9
$DIMALTU
 70
     2
  9
$DIMALTTD
 70
     3
  9
$DIMTXSTY
  7
Standard
  9
$DIMAUNIT
 70
     0
  9
$DIMADEC
 70
     1
  9
$DIMALTRND
 40
0.0
  9
$DIMAZIN
 70
     0
  9
$DIMDSEP
 70
    44
  9
$DIMATFIT
 70
     3
  9
$DIMFRAC
 70
     0
  9
$DIMLDRBLK
  1

  9
$DIMLUNIT
 70
     2
  9
$DIMLWD
 70
    -2
  9
$DIMLWE
 70
    -2
  9
$DIMTMOVE
 70
     0
  9
$LUNITS
 70
     2
  9
$LUPREC
 70
     1
  9
$SKETCHINC
 40
1.0
  9
$FILLETRAD
 40
10.0
  9
$AUNITS
 70
     0
  9
$AUPREC
 70
     1
  9
$MENU
  1
.
  9
$ELEVATION
 40
0.0
  9
$PELEVATION
 40
0.0
  9
$THICKNESS
 40
0.0
  9
$LIMCHECK
 70
     0
  9
$CHAMFERA
 40
10.0
  9
$CHAMFERB
 40
10.0
  9
$CHAMFERC
 40
20.0
  9
$CHAMFERD
 40
0.0
  9
$SKPOLY
 70
     0
  9
$TDCREATE
 40
2457423.413649769
  9
$TDUCREATE
 40
2457423.413649769
  9
$TDUPDATE
 40
2457423.413650301
  9
$TDUUPDATE
 40
2457423.413650301
  9
$TDINDWG
 40
0.0000000116
  9
$TDUSRTIMER
 40
0.0000000116
  9
$USRTIMER
 70
     1
  9
$ANGBASE
 50
0.0
  9
$ANGDIR
 70
     0
  9
$PDMODE
 70
     0
  9
$PDSIZE
 40
-1.0
  9
$PLINEWID
 40
0.0
  9
$SPLFRAME
 70
     0
  9
$SPLINETYPE
 70
     6
  9
$SPLINESEGS
 70
     8
  9
$HANDSEED
  5
205
  9
$SURFTAB1
 70
     6
  9
$SURFTAB2
 70
     6
  9
$SURFTYPE
 70
     6
  9
$SURFU
 70
     6
  9
$SURFV
 70
     6
  9
$UCSBASE
  2

  9
$UCSNAME
  2

  9
$UCSORG
 10
0.0
 20
0.0
 30
0.0
  9
$UCSXDIR
 10
1.0
 20
0.0
 30
0.0
  9
$UCSYDIR
 10
0.0
 20
1.0
 30
0.0
  9
$UCSORTHOREF
  2

  9
$UCSORTHOVIEW
 70
     0
  9
$UCSORGTOP
 10
0.0
 20
0.0
 30
0.0
  9
$UCSORGBOTTOM
 10
0.0
 20
0.0
 30
0.0
  9
$UCSORGLEFT
 10
0.0
 20
0.0
 30
0.0
  9
$UCSORGRIGHT
 10
0.0
 20
0.0
 30
0.0
  9
$UCSORGFRONT
 10
0.0
 20
0.0
 30
0.0
  9
$UCSORGBACK
 10
0.0
 20
0.0
 30
0.0
  9
$PUCSBASE
  2

  9
$PUCSNAME
  2

  9
$PUCSORG
 10
0.0
 20
0.0
 30
0.0
  9
$PUCSXDIR
 10
1.0
 20
0.0
 30
0.0
  9
$PUCSYDIR
 10
0.0
 20
1.0
 30
0.0
  9
$PUCSORTHOREF
  2

  9
$PUCSORTHOVIEW
 70
     0
  9
$PUCSORGTOP
 10
0.0
 20
0.0
 30
0.0
  9
$PUCSORGBOTTOM
 10
0.0
 20
0.0
 30
0.0
  9
$PUCSORGLEFT
 10
0.0
 20
0.0
 30
0.0
  9
$PUCSORGRIGHT
 10
0.0
 20
0.0
 30
0.0
  9
$PUCSORGFRONT
 10
0.0
 20
0.0
 30
0.0
  9
$PUCSORGBACK
 10
0.0
 20
0.0
 30
0.0
  9
$USERI1
 70
     0
  9
$USERI2
 70
     0
  9
$USERI3
 70
     0
  9
$USERI4
 70
     0
  9
$USERI5
 70
     0
  9
$USERR1
 40
0.0
  9
$USERR2
 40
0.0
  9
$USERR3
 40
0.0
  9
$USERR4
 40
0.0
  9
$USERR5
 40
0.0
  9
$WORLDVIEW
 70
     1
  9
$SHADEDGE
 70
     3
  9
$SHADEDIF
 70
    70
  9
$TILEMODE
 70
     1
  9
$MAXACTVP
 70
    64
  9
$PINSBASE
 10
0.0
 20
0.0
 30
0.0
  9
$PLIMCHECK
 70
     0
  9
$PEXTMIN
 10
1.0000000000E+20
 20
1.0000000000E+20
 30
1.0000000000E+20
  9
$PEXTMAX
 10
-1.0000000000E+20
 20
-1.0000000000E+20
 30
-1.0000000000E+20
  9
$PLIMMIN
 10
0.0
 20
0.0
  9
$PLIMMAX
 10
420.0
 20
297.0
  9
$UNITMODE
 70
     0
  9
$VISRETAIN
 70
     1
  9
$PLINEGEN
 70
     0
  9
$PSLTSCALE
 70
     1
  9
$TREEDEPTH
 70
  3020
  9
$CMLSTYLE
  2
Standard
  9
$CMLJUST
 70
     0
  9
$CMLSCALE
 40
20.0
  9
$PROXYGRAPHICS
 70
     1
  9
$MEASUREMENT
 70
     1
  9
$CELWEIGHT
370
    -1
  9
$ENDCAPS
280
     0
  9
$JOINSTYLE
280
     0
  9
$LWDISPLAY
290
     1
  9
$INSUNITS
 70
     4
  9
$HYPERLINKBASE
  1

  9
$STYLESHEET
  1

  9
$XEDIT
290
     1
  9
$CEPSNTYPE
380
     0
  9
$PSTYLEMODE
290
     1
  9
$FINGERPRINTGUID
  2
{98D87D7B-28DB-4AF6-8B98-8E624A58FE20}
  9
$VERSIONGUID
  2
{FAEB1C32-E019-11D5-929B-00C0DF256EC4}
  9
$EXTNAMES
290
     1
  9
$PSVPSCALE
 40
0.0
  9
$OLESTARTUP
290
     0
  0
ENDSEC
  0
SECTION
  2
CLASSES
  0
CLASS
  1
ACDBDICTIONARYWDFLT
  2
AcDbDictionaryWithDefault
  3
ObjectDBX Classes
 90
        0
280
     0
281
     0
  0
CLASS
  1
VISUALSTYLE
  2
AcDbVisualStyle
  3
ObjectDBX Classes
 90
     4095
280
     0
281
     0
  0
CLASS
  1
MATERIAL
  2
AcDbMaterial
  3
ObjectDBX Classes
 90
     1153
280
     0
281
     0
  0
CLASS
  1
ACDBPLACEHOLDER
  2
AcDbPlaceHolder
  3
ObjectDBX Classes
 90
        0
280
     0
281
     0
  0
CLASS
  1
LAYOUT
  2
AcDbLayout
  3
ObjectDBX Classes
 90
        0
280
     0
281
     0
  0
ENDSEC
  0
SECTION
  2
TABLES
  0
TABLE
  2
VPORT
  5
8
330
0
100
AcDbSymbolTable
 70
     1
  0
VPORT
  5
29
330
8
100
AcDbSymbolTableRecord
100
AcDbViewportTableRecord
  2
*Active
 70
     0
 10
0.0
 20
0.0
 11
1.0
 21
1.0
 12
550.0
 22
750.0
 13
0.0
 23
0.0
 14
10.0
 24
10.0
 15
10.0
 25
10.0
 16
0.0
 26
0.0
 36
1.0
 17
0.0
 27
0.0
 37
0.0
 40
1500.0
 41
0.7333333333
 42
50.0
 43
0.0
 44
0.0
 50
0.0
 51
0.0
 71
     0
 72
  2000
 73
     1
 74
     3
 75
     0
 76
     0
 77
     0
 78
     0
281
     0
 65
     1
110
0.0
120
0.0
130
0.0
111
1.0
121
0.0
131
0.0
112
0.0
122
1.0
132
0.0
 79
     0
146
0.0
  0
ENDTAB
  0
TABLE
  2
LTYPE
  5
5
330
0
100
AcDbSymbolTable
 70
     6
  0
LTYPE
  5
14
330
5
100
AcDbSymbolTableRecord
100
AcDbLinetypeTableRecord
  2
ByBlock
 70
     0
  3

 72
    65
 73
     0
 40
0.0
  0
LTYPE
  5
15
330
5
100
AcDbSymbolTableRecord
100
AcDbLinetypeTableRecord
  2
ByLayer
 70
     0
  3

 72
    65
 73
     0
 40
0.0
  0
LTYPE
  5
16
330
5
100
AcDbSymbolTableRecord
100
AcDbLinetypeTableRecord
  2
Continuous
 70
     0
  3
Solid line
 72
    65
 73
     0
 40
0.0
  0
LTYPE
  5
3F
330
5
100
AcDbSymbolTableRecord
100
AcDbLinetypeTableRecord
  2
HIDDEN
 70
     0
  3
Hidden __ __ __ __ __ __ __ __ __ __ __ __ __ __
 72
    65
 73
     2
 40
1.905
 49
1.27
 74
     0
 49
-0.635
 74
     0
  0
LTYPE
  5
40
330
5
100
AcDbSymbolTableRecord
100
AcDbLinetypeTableRecord
  2
PHANTOM
 70
     0
  3
Phantom ______  __  __  ______  __  __  ______
 72
    65
 73
     6
 40
12.7
 49
6.35
 74
     0
 49
-1.27
 74
     0
 49
1.27
 74
     0
 49
-1.27
 74
     0
 49
1.27
 74
     0
 49
-1.27
 74
     0
  0
LTYPE
  5
41
330
5
100
AcDbSymbolTableRecord
100
AcDbLinetypeTableRecord
  2
CENTER
 70
     0
  3
Center ____ _ ____ _ ____ _ ____ _ ____ _ ____
 72
    65
 73
     4
 40
10.16
 49
6.35
 74
     0
 49
-1.27
 74
     0
 49
1.27
 74
     0
 49
-1.27
 74
     0
  0
LTYPE
  5
42
330
5
100
AcDbSymbolTableRecord
100
AcDbLinetypeTableRecord
  2
CENTERX2
 70
     0
  3
Center (2x) ________  __  ________  __  _____
 72
    65
 73
     4
 40
20.32
 49
12.7
 74
     0
 49
-2.54
 74
     0
 49
2.54
 74
     0
 49
-2.54
 74
     0
  0
LTYPE
  5
43
330
5
100
AcDbSymbolTableRecord
100
AcDbLinetypeTableRecord
  2
DOT2
 70
     0
  3
Dot (.5x) ........................................
 72
    65
 73
     2
 40
0.635
 49
0.0
 74
     0
 49
-0.635
 74
     0
  0
ENDTAB
  0
TABLE
  2
LAYER
  5
2
330
0
100
AcDbSymbolTable
 70
     4
  0
LAYER
  5
10
330
2
100
AcDbSymbolTableRecord
100
AcDbLayerTableRecord
  2
0
 70
     0
 62
     7
  6
Continuous
370
    -3
390
F
  0
LAYER
  5
44
330
2
100
AcDbSymbolTableRecord
100
AcDbLayerTableRecord
  2
FORMAT
 70
     0
 62
     7
  6
Continuous
370
    -3
390
F
  0
LAYER
  5
45
330
2
100
AcDbSymbolTableRecord
100
AcDbLayerTableRecord
  2
SLD-0
 70
     0
 62
     1
  6
Continuous
370
    -3
390
F
  0
LAYER
  5
46
330
2
100
AcDbSymbolTableRecord
100
AcDbLayerTableRecord
  2
WATERMARK
 70
     0
 62
     1
  6
Continuous
370
    -3
390
F
  0
ENDTAB
  0
TABLE
  2
STYLE
  5
3
330
0
100
AcDbSymbolTable
 70
     1
  0
STYLE
  5
11
330
3
100
AcDbSymbolTableRecord
100
AcDbTextStyleTableRecord
  2
Standard
 70
     0
 40
0.0
 41
1.0
 50
0.0
 71
     0
 42
3.5
  3
txt
  4

  0
ENDTAB
  0
TABLE
  2
VIEW
  5
6
330
0
100
AcDbSymbolTable
 70
     0
  0
ENDTAB
  0
TABLE
  2
UCS
  5
7
330
0
100
AcDbSymbolTable
 70
     0
  0
ENDTAB
  0
TABLE
  2
APPID
  5
9
330
0
100
AcDbSymbolTable
 70
     1
  0
APPID
  5
12
330
9
100
AcDbSymbolTableRecord
100
AcDbRegAppTableRecord
  2
ACAD
 70
     0
  0
ENDTAB
  0
TABLE
  2
DIMSTYLE
  5
A
330
0
100
AcDbSymbolTable
 70
     1
100
AcDbDimStyleTable
  0
DIMSTYLE
105
27
330
A
100
AcDbSymbolTableRecord
100
AcDbDimStyleTableRecord
  2
ISO-25
 70
     0
 41
2.5
 42
0.625
 43
3.75
 44
1.25
 73
     0
 74
     0
 77
     1
 78
     8
140
2.5
141
2.5
143
0.0393700787
147
0.625
171
     3
172
     1
178
     0
271
     2
272
     2
274
     3
278
    44
283
     0
284
     8
340
11
  0
ENDTAB
  0
TABLE
  2
BLOCK_RECORD
  5
1
330
0
100
AcDbSymbolTable
 70
     1
  0
BLOCK_RECORD
  5
1F
330
1
100
AcDbSymbolTableRecord
100
AcDbBlockTableRecord
  2
*Model_Space
340
22
  0
BLOCK_RECORD
  5
1B
330
1
100
AcDbSymbolTableRecord
100
AcDbBlockTableRecord
  2
*Paper_Space
340
1E
  0
BLOCK_RECORD
  5
23
330
1
100
AcDbSymbolTableRecord
100
AcDbBlockTableRecord
  2
*Paper_Space0
340
26
  0
ENDTAB
  0
ENDSEC
  0
SECTION
  2
BLOCKS
  0
BLOCK
  5
20
330
1F
100
AcDbEntity
  8
0
100
AcDbBlockBegin
  2
*Model_Space
 70
     0
 10
0.0
 20
0.0
 30
0.0
  3
*Model_Space
  1

  0
ENDBLK
  5
21
330
1F
100
AcDbEntity
  8
0
100
AcDbBlockEnd
  0
BLOCK
  5
1C
330
1B
100
AcDbEntity
 67
     1
  8
0
100
AcDbBlockBegin
  2
*Paper_Space
 70
     0
 10
0.0
 20
0.0
 30
0.0
  3
*Paper_Space
  1

  0
ENDBLK
  5
1D
330
1B
100
AcDbEntity
 67
     1
  8
0
100
AcDbBlockEnd
  0
BLOCK
  5
24
330
23
100
AcDbEntity
  8
0
100
AcDbBlockBegin
  2
*Paper_Space0
 70
     0
 10
0.0
 20
0.0
 30
0.0
  3
*Paper_Space0
  1

  0
ENDBLK
  5
25
330
23
100
AcDbEntity
  8
0
100
AcDbBlockEnd
  0
ENDSEC
  0
SECTION
  2
ENTITIES
  0
LINE
  5
47
330
1F
100
AcDbEntity
  8
0
  6
Continuous
 62
     7
370
    15
100
AcDbLine
 10
139.7365748057
 20
1134.4697039839
 30
0.0
 11
139.7365748057
 21
1134.1197055098
 31
0.0
  0
LINE
  5
48
330
1F
100
AcDbEntity
  8
0
  6
Continuous
 62
     7
370
    15
100
AcDbLine
 10
145.7365720639
 20
1134.1197055098
 30
0.0
 11
145.7365720639
 21
1134.4697039839
 31
0.0
  0
LINE
  5
49
330
1F
100
AcDbEntity
  8
0
  6
Continuous
 62
     7
370
    15
100
AcDbLine
 10
985.8566044936
 20
965.7034140345
 30
0.0
 11
985.83538524
 21
965.6934898611
 31
0.0
  0
LINE
  5
4A
330
1F
100
AcDbEntity
  8
0
  6
Continuous
 62
     7
370
    15
100
AcDbLine
 10
988.5401248106
 20
959.8931234595
 30
0.0
 11
988.5614036688
 21
959.9030476328
 31
0.0
  0
ARC
  5
4B
330
1F
100
AcDbEntity
  8
0
  6
Continuous
 62
     7
370
    15
100
AcDbCircle
 10
135.2365784767
 20
1145.9697044335
 30
0.0
 40
2.0
100
AcDbArc
 50
90.0
 51
180.0
  0
ARC
  5
4C
330
1F
100
AcDbEntity
  8
0
  6
Continuous
 62
     7
370
    15
100
AcDbCircle
 10
150.2365784767
 20
1145.9697044335
 30
0.0
 40
2.0
100
AcDbArc
 50
0.0
 51
90.0
  0
LINE
  5
4D
330
1F
100
AcDbEntity
  8
0
  6
Continuous
 62
     7
370
    15
100
AcDbLine
 10
152.2365777859
 20
1136.469708037
 30
0.0
 11
152.2365777859
 21
1145.9697049376
 31
0.0
  0
LINE
  5
4E
330
1F
100
AcDbEntity
  8
0
  6
Continuous
 62
     7
370
    15
100
AcDbLine
 10
133.2365690836
 20
1145.9697049376
 30
0.0
 11
133.2365690836
 21
1136.469708037
 31
0.0
  0
LINE
  5
4F
330
1F
100
AcDbEntity
  8
0
  6
Continuous
 62
     7
370
    15
100
AcDbLine
 10
979.6478866705
 20
980.9111219164
 30
0.0
 11
982.3339103827
 21
983.432547402
 31
0.0
  0
LINE
  5
50
330
1F
100
AcDbEntity
  8
0
  6
Continuous
 62
     7
370
    15
100
AcDbLine
 10
976.7131327757
 20
995.4864245173
 30
0.0
 11
973.0550169119
 21
995.0495224711
 31
0.0
  0
LINE
  5
51
330
1F
100
AcDbEntity
  8
0
  6
Continuous
 62
     7
370
    15
100
AcDbLine
 10
978.8804172644
 20
980.6084197279
 30
0.0
 11
978.9016961226
 21
980.6183439013
 31
0.0
  0
LINE
  5
52
330
1F
100
AcDbEntity
  8
0
  6
Continuous
 62
     7
370
    15
100
AcDbLine
 10
972.3510860571
 20
994.6661155936
 30
0.0
 11
972.3298668036
 21
994.6561914202
 31
0.0
  0
LINE
  5
53
330
1F
100
AcDbEntity
  8
0
  6
Continuous
 62
     7
370
    15
100
AcDbLine
 10
993.838500894
 20
948.5862713572
 30
0.0
 11
993.8172220358
 21
948.5763769862
 31
0.0
  0
LINE
  5
54
330
1F
100
AcDbEntity
  8
0
  6
Continuous
 62
     7
370
    15
100
AcDbLine
 10
998.5082863936
 20
938.5163646456
 30
0.0
 11
998.5295652518
 21
938.5262590166
 31
0.0
  0
LINE
  5
55
330
1F
100
AcDbEntity
  8
0
  6
Continuous
 62
     7
370
    15
100
AcDbLine
 10
981.6035746703
 20
974.7686844584
 30
0.0
 11
981.6247939238
 21
974.7785788294
 31
0.0
  0
LINE
  5
56
330
1F
100
AcDbEntity
  8
0
  6
Continuous
 62
     7
370
    15
100
AcDbLine
 10
120.5686449179
 20
1347.8697028276
 30
0.0
 11
120.5686449179
 21
1347.7697048601
 31
0.0
  0
LINE
  5
57
330
1F
100
AcDbEntity
  8
0
  6
Continuous
 62
     7
370
    15
100
AcDbLine
 10
113.4814440379
 20
1336.7197040733
 30
0.0
 11
113.9814376006
 21
1336.7197040733
 31
0.0
  0
LINE
  5
58
330
1F
100
AcDbEntity
  8
0
  6
Continuous
 62
     7
370
    15
100
AcDbLine
 10
113.9814376006
 20
1343.7197033581
 30
0.0
 11
113.4814440379
 21
1343.7197033581
 31
0.0
  0
LINE
  5
59
330
1F
100
AcDbEntity
  8
0
  6
Continuous
 62
     7
370
    15
100
AcDbLine
 10
113.4814440379
 20
1240.4197056111
 30
0.0
 11
113.9814376006
 21
1240.4197056111
 31
0.0
  0
LINE
  5
5A
330
1F
100
AcDbEntity
  8
0
  6
Continuous
 62
     7
370
    15
100
AcDbLine
 10
113.9814376006
 20
1247.4197048959
 30
0.0
 11
113.4814440379
 21
1247.4197048959
 31
0.0
  0
LINE
  5
5B
330
1F
100
AcDbEntity
  8
0
  6
Continuous
 62
     7
370
    15
100
AcDbLine
 10
273.7761034736
 20
772.0696788546
 30
0.0
 11
273.7761034736
 21
776.0696869608
 31
0.0
  0
LINE
  5
5C
330
1F
100
AcDbEntity
  8
0
  6
Continuous
 62
     7
370
    15
100
AcDbLine
 10
216.7760997185
 20
776.0696869608
 30
0.0
 11
216.7760997185
 21
772.0696788546
 31
0.0
  0
ARC
  5
5D
330
1F
100
AcDbEntity
  8
0
  6
Continuous
 62
     7
370
    15
100
AcDbCircle
 10
271.7761066803
 20
772.0697044335
 30
0.0
 40
2.0
100
AcDbArc
 50
270.0
 51
0.0
  0
ARC
  5
5E
330
1F
100
AcDbEntity
  8
0
  6
Continuous
 62
     7
370
    15
100
AcDbCircle
 10
218.7761066803
 20
772.0697044335
 30
0.0
 40
2.0
100
AcDbArc
 50
180.0
 51
270.0
  0
LINE
  5
5F
330
1F
100
AcDbEntity
  8
0
  6
Continuous
 62
     7
370
    15
100
AcDbLine
 10
852.7760922083
 20
772.0696788546
 30
0.0
 11
852.7760922083
 21
776.0696869608
 31
0.0
  0
LINE
  5
60
330
1F
100
AcDbEntity
  8
0
  6
Continuous
 62
     7
370
    15
100
AcDbLine
 10
795.7760810027
 20
776.0696869608
 30
0.0
 11
795.7760810027
 21
772.0696788546
 31
0.0
  0
ARC
  5
61
330
1F
100
AcDbEntity
  8
0
  6
Continuous
 62
     7
370
    15
100
AcDbCircle
 10
850.7760787304
 20
772.0697044335
 30
0.0
 40
2.0
100
AcDbArc
 50
270.0
 51
0.0
  0
ARC
  5
62
330
1F
100
AcDbEntity
  8
0
  6
Continuous
 62
     7
370
    15
100
AcDbCircle
 10
797.7760787304
 20
772.0697044335
 30
0.0
 40
2.000000000000114
100
AcDbArc
 50
180.0
 51
270.0
  0
LINE
  5
63
330
1F
100
AcDbEntity
  8
0
  6
Continuous
 62
     7
370
    15
100
AcDbLine
 10
852.5760888228
 20
776.0696869608
 30
0.0
 11
852.5760888228
 21
805.0697010275
 31
0.0
  0
LINE
  5
64
330
1F
100
AcDbEntity
  8
0
  6
Continuous
 62
     7
370
    15
100
AcDbLine
 10
795.9760843882
 20
805.0697010275
 30
0.0
 11
795.9760843882
 21
776.0696869608
 31
0.0
  0
LINE
  5
65
330
1F
100
AcDbEntity
  8
0
  6
Continuous
 62
     7
370
    15
100
AcDbLine
 10
273.5761075386
 20
776.0696869608
 30
0.0
 11
273.5761075386
 21
805.0697010275
 31
0.0
  0
LINE
  5
66
330
1F
100
AcDbEntity
  8
0
  6
Continuous
 62
     7
370
    15
100
AcDbLine
 10
216.9761031041
 20
805.0697010275
 30
0.0
 11
216.9761031041
 21
776.0696869608
 31
0.0
  0
ARC
  5
67
330
1F
100
AcDbEntity
  8
0
  6
Continuous
 62
     7
370
    15
100
AcDbCircle
 10
278.6761066803
 20
866.5697044335
 30
0.0
 40
1.5
100
AcDbArc
 50
90.0
 51
180.0
  0
ARC
  5
68
330
1F
100
AcDbEntity
  8
0
  6
Continuous
 62
     7
370
    15
100
AcDbCircle
 10
211.8761066803
 20
866.5697044335
 30
0.0
 40
1.5
100
AcDbArc
 50
0.0
 51
90.0
  0
LINE
  5
69
330
1F
100
AcDbEntity
  8
0
  6
Continuous
 62
     7
370
    15
100
AcDbLine
 10
277.1761088738
 20
811.1022573229
 30
0.0
 11
277.1761088738
 21
866.5697139021
 31
0.0
  0
LINE
  5
6A
330
1F
100
AcDbEntity
  8
0
  6
Continuous
 62
     7
370
    15
100
AcDbLine
 10
213.3761017689
 20
866.5697139021
 30
0.0
 11
213.3761017689
 21
811.1022573229
 31
0.0
  0
ARC
  5
6B
330
1F
100
AcDbEntity
  8
0
  6
Continuous
 62
     7
370
    15
100
AcDbCircle
 10
272.4761066803
 20
811.1022703792
 30
0.0
 40
4.699999999999989
100
AcDbArc
 50
350.5402980318
 51
0.0
  0
ARC
  5
6C
330
1F
100
AcDbEntity
  8
0
  6
Continuous
 62
     7
370
    15
100
AcDbCircle
 10
218.0761066803
 20
811.1022703792
 30
0.0
 40
4.700000000000037
100
AcDbArc
 50
180.0
 51
189.4597019682
  0
LINE
  5
6D
330
1F
100
AcDbEntity
  8
0
  6
Continuous
 62
     7
370
    15
100
AcDbLine
 10
213.4400128493
 20
810.329810929
 30
0.0
 11
214.3164544472
 21
805.0697010275
 31
0.0
  0
LINE
  5
6E
330
1F
100
AcDbEntity
  8
0
  6
Continuous
 62
     7
370
    15
100
AcDbLine
 10
276.2357561955
 20
805.0697010275
 30
0.0
 11
277.1121903429
 21
810.329810929
 31
0.0
  0
ARC
  5
6F
330
1F
100
AcDbEntity
  8
0
  6
Continuous
 62
     7
370
    15
100
AcDbCircle
 10
857.6760787304
 20
866.5697044335
 30
0.0
 40
1.5
100
AcDbArc
 50
90.0
 51
180.0
  0
ARC
  5
70
330
1F
100
AcDbEntity
  8
0
  6
Continuous
 62
     7
370
    15
100
AcDbCircle
 10
790.8760787304
 20
866.5697044335
 30
0.0
 40
1.5
100
AcDbArc
 50
0.0
 51
90.0
  0
ARC
  5
71
330
1F
100
AcDbEntity
  8
0
  6
Continuous
 62
     7
370
    15
100
AcDbCircle
 10
851.4760787304
 20
811.1022703792
 30
0.0
 40
4.699999999999932
100
AcDbArc
 50
350.5402980318
 51
0.0
  0
ARC
  5
72
330
1F
100
AcDbEntity
  8
0
  6
Continuous
 62
     7
370
    15
100
AcDbCircle
 10
797.0760787304
 20
811.1022703792
 30
0.0
 40
4.700000000000122
100
AcDbArc
 50
180.0
 51
189.4597019682
  0
LINE
  5
73
330
1F
100
AcDbEntity
  8
0
  6
Continuous
 62
     7
370
    15
100
AcDbLine
 10
856.1760901579
 20
811.1022573229
 30
0.0
 11
856.1760901579
 21
866.5697139021
 31
0.0
  0
LINE
  5
74
330
1F
100
AcDbEntity
  8
0
  6
Continuous
 62
     7
370
    15
100
AcDbLine
 10
792.3760830531
 20
866.5697139021
 30
0.0
 11
792.3760830531
 21
811.1022573229
 31
0.0
  0
LINE
  5
75
330
1F
100
AcDbEntity
  8
0
  6
Continuous
 62
     7
370
    15
100
AcDbLine
 10
792.4399792323
 20
810.329810929
 30
0.0
 11
793.3164357314
 21
805.0697010275
 31
0.0
  0
LINE
  5
76
330
1F
100
AcDbEntity
  8
0
  6
Continuous
 62
     7
370
    15
100
AcDbLine
 10
855.2357374796
 20
805.0697010275
 30
0.0
 11
856.1121641764
 21
810.329810929
 31
0.0
  0
LINE
  5
77
330
1F
100
AcDbEntity
  8
0
  6
Continuous
 62
     7
370
    15
100
AcDbLine
 10
134.8760842452
 20
860.0196998831
 30
0.0
 11
134.8760842452
 21
857.6197188612
 31
0.0
  0
LINE
  5
78
330
1F
100
AcDbEntity
  8
0
  6
Continuous
 62
     7
370
    15
100
AcDbLine
 10
134.8760842452
 20
853.7196975466
 30
0.0
 11
134.8760842452
 21
846.9111185786
 31
0.0
  0
LINE
  5
79
330
1F
100
AcDbEntity
  8
0
  6
Continuous
 62
     7
370
    15
100
AcDbLine
 10
156.6760807404
 20
846.9111185786
 30
0.0
 11
156.6760807404
 21
852.0696919676
 31
0.0
  0
ARC
  5
7A
330
1F
100
AcDbEntity
  8
0
  6
Continuous
 62
     7
370
    15
100
AcDbCircle
 10
154.6760787304
 20
846.9111324654
 30
0.0
 40
2.000000000000069
100
AcDbArc
 50
288.9655749888
 51
331.4768280602
  0
LWPOLYLINE
  5
7B
330
1F
100
AcDbEntity
  8
0
  6
Continuous
 62
     7
370
    15
100
AcDbPolyline
 90
        3
 70
   128
 43
0.0
 10
156.6373973259
 20
846.5196948763
 10
156.652104772
 20
846.6024261233
 10
156.6760807404
 20
846.9111185786
  0
LWPOLYLINE
  5
7C
330
1F
100
AcDbEntity
  8
0
  6
Continuous
 62
     7
370
    15
100
AcDbPolyline
 90
        3
 70
   128
 43
0.0
 10
134.8760842452
 20
846.9111185786
 10
134.9000453124
 20
846.6024261233
 10
134.9147676596
 20
846.5196948763
  0
ARC
  5
7D
330
1F
100
AcDbEntity
  8
0
  6
Continuous
 62
     7
370
    15
100
AcDbCircle
 10
136.8760787304
 20
846.9111324654
 30
0.0
 40
2.00000000000006
100
AcDbArc
 50
208.5231706433
 51
251.0344250112
  0
LINE
  5
7E
330
1F
100
AcDbEntity
  8
0
  6
Continuous
 62
     7
370
    15
100
AcDbLine
 10
155.9260754952
 20
863.2697027441
 30
0.0
 11
155.9260754952
 21
865.2196985003
 31
0.0
  0
LINE
  5
7F
330
1F
100
AcDbEntity
  8
0
  6
Continuous
 62
     7
370
    15
100
AcDbLine
 10
135.6260894904
 20
865.2196985003
 30
0.0
 11
135.6260894904
 21
860.0196998831
 31
0.0
  0
LINE
  5
80
330
1F
100
AcDbEntity
  8
0
  6
Continuous
 62
     7
370
    15
100
AcDbLine
 10
155.2010743985
 20
865.2196985003
 30
0.0
 11
155.2010743985
 21
866.5197056052
 31
0.0
  0
LINE
  5
81
330
1F
100
AcDbEntity
  8
0
  6
Continuous
 62
     7
370
    15
100
AcDbLine
 10
136.3510905871
 20
866.5197056052
 30
0.0
 11
136.3510905871
 21
865.2196985003
 31
0.0
  0
LWPOLYLINE
  5
82
330
1F
100
AcDbEntity
  8
0
  6
Continuous
 62
     7
370
    15
100
AcDbPolyline
 90
        3
 70
   128
 43
0.0
 10
134.8760842452
 20
846.5196948763
 10
134.9843262801
 20
846.2088566538
 10
135.118824161
 20
845.9561031576
  0
LWPOLYLINE
  5
83
330
1F
100
AcDbEntity
  8
0
  6
Continuous
 62
     7
370
    15
100
AcDbPolyline
 90
        3
 70
   128
 43
0.0
 10
156.4333259234
 20
845.9561031576
 10
156.5678387055
 20
846.2088566538
 10
156.6760807404
 20
846.5196948763
  0
LINE
  5
84
330
1F
100
AcDbEntity
  8
0
  6
Continuous
 62
     7
370
    15
100
AcDbLine
 10
122.3349689612
 20
1196.7329245325
 30
0.0
 11
122.2349821696
 21
1196.7329245325
 31
0.0
  0
LINE
  5
85
330
1F
100
AcDbEntity
  8
0
  6
Continuous
 62
     7
370
    15
100
AcDbLine
 10
949.3132352004
 20
1046.4371007201
 30
0.0
 11
949.2226361403
 21
1046.3948410269
 31
0.0
  0
LINE
  5
86
330
1F
100
AcDbEntity
  8
0
  6
Continuous
 62
     7
370
    15
100
AcDbLine
 10
112.5814437041
 20
1328.8888197657
 30
0.0
 11
112.4814569125
 21
1328.8888197657
 31
0.0
  0
ARC
  5
87
330
1F
100
AcDbEntity
  8
0
  6
Continuous
 62
     7
370
    15
100
AcDbCircle
 10
140.3260787304
 20
856.7197044335
 30
0.0
 40
0.2500000000000393
100
AcDbArc
 50
180.0
 51
209.4734267879
  0
LINE
  5
88
330
1F
100
AcDbEntity
  8
0
  6
Continuous
 62
     7
370
    15
100
AcDbLine
 10
140.0760828623
 20
857.4197154757
 30
0.0
 11
140.0760828623
 21
856.7197185274
 31
0.0
  0
SPLINE
  5
89
330
1F
100
AcDbEntity
  8
0
  6
Continuous
 62
     7
370
    15
100
AcDbSpline
210
0.0
220
0.0
230
1.0
 70
     8
 71
     3
 72
    13
 73
     9
 74
     0
 42
0.00000001
 43
0.00000001
 12
1.0
 22
0.0
 32
0.0
 13
1.0
 23
0.0
 33
0.0
 40
0.0
 40
0.0
 40
0.0
 40
0.0
 40
0.0547167799904357
 40
0.2134705424543472
 40
0.3745660361850894
 40
0.5445011271339278
 40
0.747541525962658
 40
1.0
 40
1.0
 40
1.0
 40
1.0
 10
152.7303575643967
 20
857.91961963142
 30
0.0
 10
152.7308474797995
 20
857.9100306662752
 30
0.0
 10
152.7327588222948
 20
857.872620541056
 30
0.0
 10
152.7187481319689
 20
857.8087751599884
 30
0.0
 10
152.6910928407449
 20
857.741394190004
 30
0.0
 10
152.6541879231571
 20
857.6937958375755
 30
0.0
 10
152.6194122851642
 20
857.6708887234074
 30
0.0
 10
152.6075853944525
 20
857.6704481702353
 30
0.0
 10
152.6010303863953
 20
857.6702039953575
 30
0.0
  0
LINE
  5
8A
330
1F
100
AcDbEntity
  8
0
  6
Continuous
 62
     7
370
    15
100
AcDbLine
 10
152.7322351107
 20
863.0196910616
 30
0.0
 11
152.7322351107
 21
857.9197090384
 31
0.0
  0
ARC
  5
8B
330
1F
100
AcDbEntity
  8
0
  6
Continuous
 62
     7
370
    15
100
AcDbCircle
 10
152.9822284801
 20
863.0197044335
 30
0.0
 40
0.25
100
AcDbArc
 50
90.0
 51
180.0
  0
ARC
  5
8C
330
1F
100
AcDbEntity
  8
0
  6
Continuous
 62
     7
370
    15
100
AcDbCircle
 10
157.6821988793
 20
863.0197044335
 30
0.0
 40
0.2500000000000284
100
AcDbArc
 50
0.0
 51
90.0
  0
LINE
  5
8D
330
1F
100
AcDbEntity
  8
0
  6
Continuous
 62
     7
370
    15
100
AcDbLine
 10
157.9322039256
 20
857.9197090384
 30
0.0
 11
157.9322039256
 21
863.0196910616
 31
0.0
  0
ARC
  5
8E
330
1F
100
AcDbEntity
  8
0
  6
Continuous
 62
     7
370
    15
100
AcDbCircle
 10
157.2260787304
 20
856.7197044335
 30
0.0
 40
0.25
100
AcDbArc
 50
270.0
 51
0.0
  0
LINE
  5
8F
330
1F
100
AcDbEntity
  8
0
  6
Continuous
 62
     7
370
    15
100
AcDbLine
 10
139.6199583182
 20
863.0196910616
 30
0.0
 11
139.6199583182
 21
857.9197090384
 31
0.0
  0
ARC
  5
90
330
1F
100
AcDbEntity
  8
0
  6
Continuous
 62
     7
370
    15
100
AcDbCircle
 10
139.8699585815
 20
863.0197044335
 30
0.0
 40
0.25
100
AcDbArc
 50
90.0
 51
180.0
  0
SPLINE
  5
91
330
1F
100
AcDbEntity
  8
0
  6
Continuous
 62
     7
370
    15
100
AcDbSpline
210
0.0
220
0.0
230
1.0
 70
     8
 71
     3
 72
    13
 73
     9
 74
     0
 42
0.00000001
 43
0.00000001
 12
1.0
 22
0.0
 32
0.0
 13
1.0
 23
0.0
 33
0.0
 40
0.0
 40
0.0
 40
0.0
 40
0.0
 40
0.0634872573950717
 40
0.2470482577332582
 40
0.4311555849369541
 40
0.6187768768637416
 40
0.831560157381289
 40
1.0
 40
1.0
 40
1.0
 40
1.0
 10
145.6669240364502
 20
857.4198048826561
 30
0.0
 10
145.6664521563372
 20
857.430030949411
 30
0.0
 10
145.6646159270752
 20
857.4698236901738
 30
0.0
 10
145.6779511894359
 20
857.5373891224158
 30
0.0
 10
145.7038941614545
 20
857.607505275412
 30
0.0
 10
145.7358823548263
 20
857.6539366678493
 30
0.0
 10
145.7588848894557
 20
857.6699882867158
 30
0.0
 10
145.7581471035006
 20
857.6692904380105
 30
0.0
 10
145.7578211197327
 20
857.6689821001395
 30
0.0
  0
ARC
  5
92
330
1F
100
AcDbEntity
  8
0
  6
Continuous
 62
     7
370
    15
100
AcDbCircle
 10
145.4151269068
 20
852.3197044335
 30
0.0
 40
0.25
100
AcDbArc
 50
270.0
 51
0.0
  0
LINE
  5
93
330
1F
100
AcDbEntity
  8
0
  6
Continuous
 62
     7
370
    15
100
AcDbLine
 10
145.6651209959
 20
852.3197036501
 30
0.0
 11
145.6651209959
 21
857.4197154757
 31
0.0
  0
ARC
  5
94
330
1F
100
AcDbEntity
  8
0
  6
Continuous
 62
     7
370
    15
100
AcDbCircle
 10
140.3584327345
 20
852.3197044335
 30
0.0
 40
0.2500000000000284
100
AcDbArc
 50
180.0
 51
270.0
  0
LINE
  5
95
330
1F
100
AcDbEntity
  8
0
  6
Continuous
 62
     7
370
    15
100
AcDbLine
 10
140.1084183821
 20
857.4197154757
 30
0.0
 11
140.1084183821
 21
852.3197036501
 31
0.0
  0
ARC
  5
96
330
1F
100
AcDbEntity
  8
0
  6
Continuous
 62
     7
370
    15
100
AcDbCircle
 10
140.3260787304
 20
858.6197044335
 30
0.0
 40
0.2500000000001137
100
AcDbArc
 50
90.0
 51
180.0
  0
ARC
  5
97
330
1F
100
AcDbEntity
  8
0
  6
Continuous
 62
     7
370
    15
100
AcDbCircle
 10
140.3260787304
 20
857.9197044335
 30
0.0
 40
0.2500000000000407
100
AcDbArc
 50
180.0
 51
232.7089330724
  0
LINE
  5
98
330
1F
100
AcDbEntity
  8
0
  6
Continuous
 62
     7
370
    15
100
AcDbLine
 10
140.0760828623
 20
858.6197059866
 30
0.0
 11
140.0760828623
 21
857.9197090384
 31
0.0
  0
ARC
  5
99
330
1F
100
AcDbEntity
  8
0
  6
Continuous
 62
     7
370
    15
100
AcDbCircle
 10
157.1937247263
 20
852.3197044335
 30
0.0
 40
0.2500000000001137
100
AcDbArc
 50
270.0
 51
0.0
  0
LINE
  5
9A
330
1F
100
AcDbEntity
  8
0
  6
Continuous
 62
     7
370
    15
100
AcDbLine
 10
157.4437289605
 20
852.3197036501
 30
0.0
 11
157.4437289605
 21
856.5966945406
 31
0.0
  0
LINE
  5
9B
330
1F
100
AcDbEntity
  8
0
  6
Continuous
 62
     7
370
    15
100
AcDbLine
 10
143.3143883118
 20
851.5362601992
 30
0.0
 11
143.7760858902
 21
851.2697082278
 31
0.0
  0
LINE
  5
9C
330
1F
100
AcDbEntity
  8
0
  6
Continuous
 62
     7
370
    15
100
AcDbLine
 10
153.7760763535
 20
851.2697082278
 30
0.0
 11
154.2377739319
 21
851.5362601992
 31
0.0
  0
LINE
  5
9D
330
1F
100
AcDbEntity
  8
0
  6
Continuous
 62
     7
370
    15
100
AcDbLine
 10
154.2377739319
 20
856.2031548735
 30
0.0
 11
153.7760763535
 21
856.4697068449
 31
0.0
  0
LINE
  5
9E
330
1F
100
AcDbEntity
  8
0
  6
Continuous
 62
     7
370
    15
100
AcDbLine
 10
154.0234654316
 20
863.9268737551
 30
0.0
 11
153.7760763535
 21
864.0697162863
 31
0.0
  0
LINE
  5
9F
330
1F
100
AcDbEntity
  8
0
  6
Continuous
 62
     7
370
    15
100
AcDbLine
 10
143.7760858902
 20
864.0697162863
 30
0.0
 11
143.5286968121
 21
863.9268737551
 31
0.0
  0
LINE
  5
A0
330
1F
100
AcDbEntity
  8
0
  6
Continuous
 62
     7
370
    15
100
AcDbLine
 10
143.5286968121
 20
859.012530398
 30
0.0
 11
143.7760858902
 21
858.8697176691
 31
0.0
  0
LINE
  5
A1
330
1F
100
AcDbEntity
  8
0
  6
Continuous
 62
     7
370
    15
100
AcDbLine
 10
143.6868279347
 20
864.3712263819
 30
0.0
 11
143.7760858902
 21
864.3196981665
 31
0.0
  0
LINE
  5
A2
330
1F
100
AcDbEntity
  8
0
  6
Continuous
 62
     7
370
    15
100
AcDbLine
 10
153.7760763535
 20
864.3196981665
 30
0.0
 11
153.865334309
 21
864.3712263819
 31
0.0
  0
LINE
  5
A3
330
1F
100
AcDbEntity
  8
0
  6
Continuous
 62
     7
370
    15
100
AcDbLine
 10
145.7760750422
 20
864.3196981665
 30
0.0
 11
145.7760750422
 21
864.0697162863
 31
0.0
  0
LINE
  5
A4
330
1F
100
AcDbEntity
  8
0
  6
Continuous
 62
     7
370
    15
100
AcDbLine
 10
151.7760723004
 20
864.0697162863
 30
0.0
 11
151.7760723004
 21
864.3196981665
 31
0.0
  0
LINE
  5
A5
330
1F
100
AcDbEntity
  8
0
  6
Continuous
 62
     7
370
    15
100
AcDbLine
 10
571.3652788767
 20
1094.9697058913
 30
0.0
 11
574.3046670327
 21
1094.9697058913
 31
0.0
  0
LINE
  5
A6
330
1F
100
AcDbEntity
  8
0
  6
Continuous
 62
     7
370
    15
100
AcDbLine
 10
570.7349746594
 20
1096.4697014805
 30
0.0
 11
574.93497125
 21
1096.4697014805
 31
0.0
  0
ARC
  5
A7
330
1F
100
AcDbEntity
  8
0
  6
Continuous
 62
     7
370
    15
100
AcDbCircle
 10
182.4849714209
 20
1120.7197044335
 30
0.0
 40
2.25
100
AcDbArc
 50
180.0
 51
270.0
  0
ARC
  5
A8
330
1F
100
AcDbEntity
  8
0
  6
Continuous
 62
     7
370
    15
100
AcDbCircle
 10
182.4849714209
 20
1120.7197044335
 30
0.0
 40
4.249999999999972
100
AcDbArc
 50
180.0
 51
270.0
  0
LINE
  5
A9
330
1F
100
AcDbEntity
  8
0
  6
Continuous
 62
     7
370
    15
100
AcDbLine
 10
182.4849664339
 20
1116.4696973082
 30
0.0
 11
993.234944261
 21
1116.4696973082
 31
0.0
  0
LINE
  5
AA
330
1F
100
AcDbEntity
  8
0
  6
Continuous
 62
     7
370
    15
100
AcDbLine
 10
182.4849664339
 20
1118.4697013613
 30
0.0
 11
993.234944261
 21
1118.4697013613
 31
0.0
  0
ARC
  5
AB
330
1F
100
AcDbEntity
  8
0
  6
Continuous
 62
     7
370
    15
100
AcDbCircle
 10
993.2349714209
 20
1106.4697044335
 30
0.0
 40
10.00000000000023
100
AcDbArc
 50
335.0
 51
90.0
  0
ARC
  5
AC
330
1F
100
AcDbEntity
  8
0
  6
Continuous
 62
     7
370
    15
100
AcDbCircle
 10
993.2349714209
 20
1106.4697044335
 30
0.0
 40
12.00000000000006
100
AcDbArc
 50
335.0
 51
90.0
  0
LINE
  5
AD
330
1F
100
AcDbEntity
  8
0
  6
Continuous
 62
     7
370
    15
100
AcDbLine
 10
1002.2980689177
 20
1102.2435289141
 30
0.0
 11
987.8444790015
 21
1071.2478023287
 31
0.0
  0
LINE
  5
AE
330
1F
100
AcDbEntity
  8
0
  6
Continuous
 62
     7
370
    15
100
AcDbLine
 10
1004.1106461653
 20
1101.3982903477
 30
0.0
 11
989.6571158537
 21
1070.4025637623
 31
0.0
  0
ARC
  5
AF
330
1F
100
AcDbEntity
  8
0
  6
Continuous
 62
     7
370
    15
100
AcDbCircle
 10
978.7814268694
 20
1075.4739781168
 30
0.0
 40
10.00000000000013
100
AcDbArc
 50
295.0
 51
335.0
  0
ARC
  5
B0
330
1F
100
AcDbEntity
  8
0
  6
Continuous
 62
     7
370
    15
100
AcDbCircle
 10
978.7814268694
 20
1075.4739781168
 30
0.0
 40
12.0
100
AcDbArc
 50
295.0
 51
335.0
  0
LINE
  5
B1
330
1F
100
AcDbEntity
  8
0
  6
Continuous
 62
     7
370
    15
100
AcDbLine
 10
120.2349781165
 20
1118.4697013613
 30
0.0
 11
120.2349781165
 21
1116.4696973082
 31
0.0
  0
LINE
  5
B2
330
1F
100
AcDbEntity
  8
0
  6
Continuous
 62
     7
370
    15
100
AcDbLine
 10
120.2349781165
 20
1116.4696973082
 30
0.0
 11
118.2349740633
 21
1116.4696973082
 31
0.0
  0
LINE
  5
B3
330
1F
100
AcDbEntity
  8
0
  6
Continuous
 62
     7
370
    15
100
AcDbLine
 10
119.8849796423
 20
1118.4697013613
 30
0.0
 11
120.2349781165
 21
1118.4697013613
 31
0.0
  0
ARC
  5
B4
330
1F
100
AcDbEntity
  8
0
  6
Continuous
 62
     7
370
    15
100
AcDbCircle
 10
109.4849714209
 20
1120.7197044335
 30
0.0
 40
4.249999999999972
100
AcDbArc
 50
180.0
 51
270.0
  0
ARC
  5
B5
330
1F
100
AcDbEntity
  8
0
  6
Continuous
 62
     7
370
    15
100
AcDbCircle
 10
109.4849714209
 20
1120.7197044335
 30
0.0
 40
2.25
100
AcDbArc
 50
180.0
 51
270.0
  0
LINE
  5
B6
330
1F
100
AcDbEntity
  8
0
  6
Continuous
 62
     7
370
    15
100
AcDbLine
 10
964.4578813681
 20
1055.5542569872
 30
0.0
 11
963.6126279005
 21
1057.3668640372
 31
0.0
  0
LWPOLYLINE
  5
B7
330
1F
100
AcDbEntity
  8
0
  6
Continuous
 62
     7
370
    15
100
AcDbPolyline
 90
        9
 70
   128
 43
0.0
 10
963.6126279005
 20
1057.3668640372
 10
963.6474370131
 20
1057.3831063029
 10
963.7506126532
 20
1057.4312072512
 10
963.918101705
 20
1057.5093191382
 10
964.1435264716
 20
1057.6144319292
 10
964.4181846747
 20
1057.7425223109
 10
964.7315858969
 20
1057.8886430975
 10
965.0716303954
 20
1058.0472063538
 10
965.4252647528
 20
1058.2121026036
  0
LWPOLYLINE
  5
B8
330
1F
100
AcDbEntity
  8
0
  6
Continuous
 62
     7
370
    15
100
AcDbPolyline
 90
        9
 70
   128
 43
0.0
 10
966.2704586157
 20
1056.3994955536
 10
965.9168242583
 20
1056.2345993039
 10
965.5768393645
 20
1056.0760360476
 10
965.2634381422
 20
1055.9299003598
 10
964.9887799391
 20
1055.8018248793
 10
964.7633551726
 20
1055.6966971871
 10
964.5958661208
 20
1055.6186002013
 10
964.4926904807
 20
1055.5704992529
 10
964.4578813681
 20
1055.5542569872
  0
ARC
  5
B9
330
1F
100
AcDbEntity
  8
0
  6
Continuous
 62
     7
370
    15
100
AcDbCircle
 10
109.4849714209
 20
1132.2197044335
 30
0.0
 40
4.250000000000227
100
AcDbArc
 50
90.0
 51
180.0
  0
ARC
  5
BA
330
1F
100
AcDbEntity
  8
0
  6
Continuous
 62
     7
370
    15
100
AcDbCircle
 10
109.4849714209
 20
1132.2197044335
 30
0.0
 40
2.25
100
AcDbArc
 50
90.0
 51
180.0
  0
LINE
  5
BB
330
1F
100
AcDbEntity
  8
0
  6
Continuous
 62
     7
370
    15
100
AcDbLine
 10
118.2349740633
 20
1116.4696973082
 30
0.0
 11
109.484982408
 21
1116.4696973082
 31
0.0
  0
LINE
  5
BC
330
1F
100
AcDbEntity
  8
0
  6
Continuous
 62
     7
370
    15
100
AcDbLine
 10
118.2349740633
 20
1118.4697013613
 30
0.0
 11
109.484982408
 21
1118.4697013613
 31
0.0
  0
LINE
  5
BD
330
1F
100
AcDbEntity
  8
0
  6
Continuous
 62
     7
370
    15
100
AcDbLine
 10
983.0076216826
 20
1066.4109003064
 30
0.0
 11
965.4252647528
 21
1058.2121026036
 31
0.0
  0
LINE
  5
BE
330
1F
100
AcDbEntity
  8
0
  6
Continuous
 62
     7
370
    15
100
AcDbLine
 10
983.8528751502
 20
1064.5982783553
 30
0.0
 11
966.2704586157
 21
1056.3994955536
 31
0.0
  0
LINE
  5
BF
330
1F
100
AcDbEntity
  8
0
  6
Continuous
 62
     7
370
    15
100
AcDbLine
 10
107.2349666724
 20
1120.7197021958
 30
0.0
 11
107.2349666724
 21
1132.2197031494
 31
0.0
  0
LINE
  5
C0
330
1F
100
AcDbEntity
  8
0
  6
Continuous
 62
     7
370
    15
100
AcDbLine
 10
105.2349626193
 20
1120.7197021958
 30
0.0
 11
105.2349626193
 21
1132.2197031494
 31
0.0
  0
LINE
  5
C1
330
1F
100
AcDbEntity
  8
0
  6
Continuous
 62
     7
370
    15
100
AcDbLine
 10
109.484982408
 20
1136.469708037
 30
0.0
 11
175.9849756131
 21
1136.469708037
 31
0.0
  0
LINE
  5
C2
330
1F
100
AcDbEntity
  8
0
  6
Continuous
 62
     7
370
    15
100
AcDbLine
 10
109.484982408
 20
1134.4697039839
 30
0.0
 11
175.9849756131
 21
1134.4697039839
 31
0.0
  0
ARC
  5
C3
330
1F
100
AcDbEntity
  8
0
  6
Continuous
 62
     7
370
    15
100
AcDbCircle
 10
175.9849714209
 20
1132.2197044335
 30
0.0
 40
4.250000000000227
100
AcDbArc
 50
0.0
 51
90.0
  0
ARC
  5
C4
330
1F
100
AcDbEntity
  8
0
  6
Continuous
 62
     7
370
    15
100
AcDbCircle
 10
175.9849714209
 20
1132.2197044335
 30
0.0
 40
2.25
100
AcDbArc
 50
0.0
 51
90.0
  0
LINE
  5
C5
330
1F
100
AcDbEntity
  8
0
  6
Continuous
 62
     7
370
    15
100
AcDbLine
 10
178.2349764475
 20
1132.2197031494
 30
0.0
 11
178.2349764475
 21
1120.7197021958
 31
0.0
  0
LINE
  5
C6
330
1F
100
AcDbEntity
  8
0
  6
Continuous
 62
     7
370
    15
100
AcDbLine
 10
180.2349655995
 20
1132.2197031494
 30
0.0
 11
180.2349655995
 21
1120.7197021958
 31
0.0
  0
LINE
  5
C7
330
1F
100
AcDbEntity
  8
0
  6
Continuous
 62
     7
370
    15
100
AcDbLine
 10
119.8849796423
 20
1118.4697013613
 30
0.0
 11
109.484982408
 21
1118.4697013613
 31
0.0
  0
ARC
  5
C8
330
1F
100
AcDbEntity
  8
0
  6
Continuous
 62
     7
370
    15
100
AcDbCircle
 10
109.4849714209
 20
1120.4697044335
 30
0.0
 40
2.0
100
AcDbArc
 50
180.0
 51
270.0
  0
ARC
  5
C9
330
1F
100
AcDbEntity
  8
0
  6
Continuous
 62
     7
370
    15
100
AcDbCircle
 10
109.4849714209
 20
1132.1197044335
 30
0.0
 40
2.0
100
AcDbArc
 50
90.0
 51
180.0
  0
LINE
  5
CA
330
1F
100
AcDbEntity
  8
0
  6
Continuous
 62
     7
370
    15
100
AcDbLine
 10
109.484982408
 20
1134.1197055098
 30
0.0
 11
109.484982408
 21
1131.2197011229
 31
0.0
  0
LINE
  5
CB
330
1F
100
AcDbEntity
  8
0
  6
Continuous
 62
     7
370
    15
100
AcDbLine
 10
175.3849654564
 20
1131.8197112795
 30
0.0
 11
175.3849654564
 21
1131.2197011229
 31
0.0
  0
LINE
  5
CC
330
1F
100
AcDbEntity
  8
0
  6
Continuous
 62
     7
370
    15
100
AcDbLine
 10
175.9849756131
 20
1131.2197011229
 30
0.0
 11
175.9849756131
 21
1134.1197055098
 31
0.0
  0
ARC
  5
CD
330
1F
100
AcDbEntity
  8
0
  6
Continuous
 62
     7
370
    15
100
AcDbCircle
 10
175.9849714209
 20
1132.1197044335
 30
0.0
 40
2.0
100
AcDbArc
 50
0.0
 51
90.0
  0
LINE
  5
CE
330
1F
100
AcDbEntity
  8
0
  6
Continuous
 62
     7
370
    15
100
AcDbLine
 10
177.984964765
 20
1132.1197014567
 30
0.0
 11
177.984964765
 21
1118.7196981427
 31
0.0
  0
LINE
  5
CF
330
1F
100
AcDbEntity
  8
0
  6
Continuous
 62
     7
370
    15
100
AcDbLine
 10
120.4849599966
 20
1118.7196981427
 30
0.0
 11
120.4849599966
 21
1119.3197082993
 31
0.0
  0
ARC
  5
D0
330
1F
100
AcDbEntity
  8
0
  6
Continuous
 62
     7
370
    15
100
AcDbCircle
 10
120.1849714198
 20
1119.3197044335
 30
0.0
 40
0.3000000000000256
100
AcDbArc
 50
0.0
 51
180.0
  0
LINE
  5
D1
330
1F
100
AcDbEntity
  8
0
  6
Continuous
 62
     7
370
    15
100
AcDbLine
 10
119.8849796423
 20
1119.3197082993
 30
0.0
 11
119.8849796423
 21
1118.4697013613
 31
0.0
  0
ARC
  5
D2
330
1F
100
AcDbEntity
  8
0
  6
Continuous
 62
     7
370
    15
100
AcDbCircle
 10
109.7849714209
 20
1131.2197044335
 30
0.0
 40
0.3000000000000256
100
AcDbArc
 50
180.0
 51
0.0
  0
LINE
  5
D3
330
1F
100
AcDbEntity
  8
0
  6
Continuous
 62
     7
370
    15
100
AcDbLine
 10
107.4849783549
 20
1120.4697054144
 30
0.0
 11
107.4849783549
 21
1132.1197014567
 31
0.0
  0
ARC
  5
D4
330
1F
100
AcDbEntity
  8
0
  6
Continuous
 62
     7
370
    15
100
AcDbCircle
 10
175.6849714209
 20
1131.2197044335
 30
0.0
 40
0.3000000000000114
100
AcDbArc
 50
180.0
 51
0.0
  0
LINE
  5
D5
330
1F
100
AcDbEntity
  8
0
  6
Continuous
 62
     7
370
    15
100
AcDbLine
 10
110.0849627623
 20
1131.2197011229
 30
0.0
 11
110.0849627623
 21
1131.8197112795
 31
0.0
  0
LINE
  5
D6
330
1F
100
AcDbEntity
  8
0
  6
Continuous
 62
     7
370
    15
100
AcDbLine
 10
110.0849627623
 20
1134.1197055098
 30
0.0
 11
175.3849654564
 21
1134.1197055098
 31
0.0
  0
LINE
  5
D7
330
1F
100
AcDbEntity
  8
0
  6
Continuous
 62
     7
370
    15
100
AcDbLine
 10
110.0849627623
 20
1131.8197112795
 30
0.0
 11
110.0849627623
 21
1134.1197055098
 31
0.0
  0
LINE
  5
D8
330
1F
100
AcDbEntity
  8
0
  6
Continuous
 62
     7
370
    15
100
AcDbLine
 10
175.3849654564
 20
1134.1197055098
 30
0.0
 11
175.3849654564
 21
1131.8197112795
 31
0.0
  0
LINE
  5
D9
330
1F
100
AcDbEntity
  8
0
  6
Continuous
 62
     7
370
    15
100
AcDbLine
 10
177.984964765
 20
1116.4197039124
 30
0.0
 11
120.4849599966
 21
1116.4197039124
 31
0.0
  0
LINE
  5
DA
330
1F
100
AcDbEntity
  8
0
  6
Continuous
 62
     7
370
    15
100
AcDbLine
 10
177.984964765
 20
1118.7196981427
 30
0.0
 11
177.984964765
 21
1116.4197039124
 31
0.0
  0
LINE
  5
DB
330
1F
100
AcDbEntity
  8
0
  6
Continuous
 62
     7
370
    15
100
AcDbLine
 10
120.4849599966
 20
1116.4197039124
 30
0.0
 11
120.4849599966
 21
1118.7196981427
 31
0.0
  0
LINE
  5
DC
330
1F
100
AcDbEntity
  8
0
  6
Continuous
 62
     7
370
    15
100
AcDbLine
 10
135.2365731368
 20
1147.9697089907
 30
0.0
 11
150.2365737328
 21
1147.9697089907
 31
0.0
  0
ARC
  5
DD
330
1F
100
AcDbEntity
  8
0
  6
Continuous
 62
     7
370
    15
100
AcDbCircle
 10
973.9059542266
 20
879.2697044335
 30
0.0
 40
10.80000000000006
100
AcDbArc
 50
270.0
 51
335.0
  0
ARC
  5
DE
330
1F
100
AcDbEntity
  8
0
  6
Continuous
 62
     7
370
    15
100
AcDbCircle
 10
973.9059542266
 20
879.2697044335
 30
0.0
 40
10.00000000000003
100
AcDbArc
 50
270.0
 51
335.0
  0
ARC
  5
DF
330
1F
100
AcDbEntity
  8
0
  6
Continuous
 62
     7
370
    15
100
AcDbCircle
 10
994.516752717
 20
923.4697044335
 30
0.0
 40
10.7999999999999
100
AcDbArc
 50
335.0
 51
25.0
  0
ARC
  5
E0
330
1F
100
AcDbEntity
  8
0
  6
Continuous
 62
     7
370
    15
100
AcDbCircle
 10
994.516752717
 20
923.4697044335
 30
0.0
 40
10.00000000000003
100
AcDbArc
 50
335.0
 51
25.0
  0
LINE
  5
E1
330
1F
100
AcDbEntity
  8
0
  6
Continuous
 62
     7
370
    15
100
AcDbLine
 10
983.6940883765
 20
874.7054200884
 30
0.0
 11
1004.3048977026
 21
918.9054232355
 31
0.0
  0
LINE
  5
E2
330
1F
100
AcDbEntity
  8
0
  6
Continuous
 62
     7
370
    15
100
AcDbLine
 10
982.9690574774
 20
875.0435274359
 30
0.0
 11
1003.5798071989
 21
919.243530583
 31
0.0
  0
LINE
  5
E3
330
1F
100
AcDbEntity
  8
0
  6
Continuous
 62
     7
370
    15
100
AcDbLine
 10
915.2766584525
 20
868.4697013613
 30
0.0
 11
973.9059328207
 21
868.4697013613
 31
0.0
  0
LINE
  5
E4
330
1F
100
AcDbEntity
  8
0
  6
Continuous
 62
     7
370
    15
100
AcDbLine
 10
915.2766584525
 20
869.2697149035
 30
0.0
 11
973.9059328207
 21
869.2697149035
 31
0.0
  0
LINE
  5
E5
330
1F
100
AcDbEntity
  8
0
  6
Continuous
 62
     7
370
    15
100
AcDbLine
 10
948.6644982466
 20
1050.3128480431
 30
0.0
 11
961.3075374731
 21
1056.2083732602
 31
0.0
  0
LINE
  5
E6
330
1F
100
AcDbEntity
  8
0
  6
Continuous
 62
     7
370
    15
100
AcDbLine
 10
949.0026353964
 20
1049.5878022429
 30
0.0
 11
961.6456150183
 21
1055.4833274599
 31
0.0
  0
LINE
  5
E7
330
1F
100
AcDbEntity
  8
0
  6
Continuous
 62
     7
370
    15
100
AcDbLine
 10
915.2766584525
 20
868.4697013613
 30
0.0
 11
913.2766842017
 21
868.4697013613
 31
0.0
  0
LINE
  5
E8
330
1F
100
AcDbEntity
  8
0
  6
Continuous
 62
     7
370
    15
100
AcDbLine
 10
913.2766842017
 20
868.4697013613
 30
0.0
 11
913.2766842017
 21
869.2697149035
 31
0.0
  0
LINE
  5
E9
330
1F
100
AcDbEntity
  8
0
  6
Continuous
 62
     7
370
    15
100
AcDbLine
 10
913.2766842017
 20
869.2697149035
 30
0.0
 11
915.2766584525
 21
869.2697149035
 31
0.0
  0
ARC
  5
EA
330
1F
100
AcDbEntity
  8
0
  6
Continuous
 62
     7
370
    15
100
AcDbCircle
 10
949.5308919247
 20
1048.4549233047
 30
0.0
 40
1.250000000000073
100
AcDbArc
 50
115.0
 51
205.0
  0
ARC
  5
EB
330
1F
100
AcDbEntity
  8
0
  6
Continuous
 62
     7
370
    15
100
AcDbCircle
 10
949.5308919247
 20
1048.4549233047
 30
0.0
 40
2.050000000000105
100
AcDbArc
 50
115.0
 51
205.0
  0
LINE
  5
EC
330
1F
100
AcDbEntity
  8
0
  6
Continuous
 62
     7
370
    15
100
AcDbLine
 10
963.1201147208
 20
1057.0536118265
 30
0.0
 11
963.4582518706
 21
1056.3285660263
 31
0.0
  0
LWPOLYLINE
  5
ED
330
1F
100
AcDbEntity
  8
0
  6
Continuous
 62
     7
370
    15
100
AcDbPolyline
 90
        9
 70
   128
 43
0.0
 10
963.4582518706
 20
1056.3285660263
 10
963.4233831534
 20
1056.3123237606
 10
963.3202671179
 20
1056.2642228123
 10
963.1527184615
 20
1056.1861258265
 10
962.9273532996
 20
1056.0809981343
 10
962.6526354918
 20
1055.9529226538
 10
962.3392938742
 20
1055.806786966
 10
961.9992493758
 20
1055.6482237097
 10
961.6456150183
 20
1055.4833274599
  0
LWPOLYLINE
  5
EE
330
1F
100
AcDbEntity
  8
0
  6
Continuous
 62
     7
370
    15
100
AcDbPolyline
 90
        9
 70
   128
 43
0.0
 10
961.3075374731
 20
1056.2083732602
 10
961.661112226
 20
1056.3732695099
 10
962.0011567244
 20
1056.5318327662
 10
962.3145579466
 20
1056.677968454
 10
962.5892161498
 20
1056.8060588356
 10
962.8146409163
 20
1056.9111716267
 10
962.9821299681
 20
1056.9892686125
 10
963.0853056082
 20
1057.0373695608
 10
963.1201147208
 20
1057.0536118265
  0
LINE
  5
EF
330
1F
100
AcDbEntity
  8
0
  6
Continuous
 62
     7
370
    15
100
AcDbLine
 10
1003.5798071989
 20
927.6958864447
 30
0.0
 11
947.6729749808
 21
1047.5885432478
 31
0.0
  0
LINE
  5
F0
330
1F
100
AcDbEntity
  8
0
  6
Continuous
 62
     7
370
    15
100
AcDbLine
 10
1004.3048977026
 20
928.0339937922
 30
0.0
 11
948.3980058798
 21
1047.9266505953
 31
0.0
  0
ARC
  5
F1
330
1F
100
AcDbEntity
  8
0
  6
Continuous
 62
     7
370
    15
100
AcDbCircle
 10
960.8634310174
 20
1057.6563646823
 30
0.0
 40
1.500000000000061
100
AcDbArc
 50
295.0
 51
313.2887754011
  0
LINE
  5
F2
330
1F
100
AcDbEntity
  8
0
  6
Continuous
 62
     7
370
    15
100
AcDbLine
 10
963.1699442038
 20
1057.1604531523
 30
0.0
 11
963.1201147208
 21
1057.0536118265
 31
0.0
  0
LWPOLYLINE
  5
F3
330
1F
100
AcDbEntity
  8
0
  6
Continuous
 62
     7
370
    15
100
AcDbPolyline
 90
        9
 70
   128
 43
0.0
 10
978.8873314032
 20
990.8237617728
 10
979.5357703337
 20
989.4331556078
 10
980.1836132178
 20
988.0439799544
 10
980.7958125243
 20
986.7310982462
 10
981.3394068846
 20
985.5652909991
 10
981.7851304182
 20
984.6094411131
 10
982.1089028487
 20
983.9150768038
 10
982.2933196196
 20
983.5195701834
 10
982.3339103827
 20
983.432547402
  0
LWPOLYLINE
  5
F4
330
1F
100
AcDbEntity
  8
0
  6
Continuous
 62
     7
370
    15
100
AcDbPolyline
 90
        7
 70
   128
 43
0.0
 10
976.7131327757
 20
995.4864245173
 10
976.7579554686
 20
995.3902226206
 10
976.9478558669
 20
994.9830334898
 10
977.2765754828
 20
994.2780595538
 10
977.7264713416
 20
993.3133285757
 10
978.2731651434
 20
992.140815806
 10
978.8873314032
 20
990.8237617728
  0
LINE
  5
F5
330
1F
100
AcDbEntity
  8
0
  6
Continuous
 62
     7
370
    15
100
AcDbLine
 10
980.9329032072
 20
976.2069147345
 30
0.0
 11
980.9541224608
 21
976.2168091055
 31
0.0
  0
LINE
  5
F6
330
1F
100
AcDbEntity
  8
0
  6
Continuous
 62
     7
370
    15
100
AcDbLine
 10
970.1561450133
 20
999.3177514788
 30
0.0
 11
970.1773642668
 21
999.3276756522
 31
0.0
  0
LINE
  5
F7
330
1F
100
AcDbEntity
  8
0
  6
Continuous
 62
     7
370
    15
100
AcDbLine
 10
968.7827347884
 20
1002.3184877154
 30
0.0
 11
968.7615155348
 21
1002.308563542
 31
0.0
  0
LINE
  5
F8
330
1F
100
AcDbEntity
  8
0
  6
Continuous
 62
     7
370
    15
100
AcDbLine
 10
969.09959308
 20
1001.583532643
 30
0.0
 11
969.1208123335
 21
1001.593427014
 31
0.0
  0
LINE
  5
F9
330
1F
100
AcDbEntity
  8
0
  6
Continuous
 62
     7
370
    15
100
AcDbLine
 10
982.0106743941
 20
973.9510577437
 30
0.0
 11
981.9894551405
 21
973.9411335703
 31
0.0
  0
LINE
  5
FA
330
1F
100
AcDbEntity
  8
0
  6
Continuous
 62
     7
370
    15
100
AcDbLine
 10
982.3275326857
 20
973.2161026713
 30
0.0
 11
982.3488115439
 21
973.2259970423
 31
0.0
  0
LINE
  5
FB
330
1F
100
AcDbEntity
  8
0
  6
Continuous
 62
     7
370
    15
100
AcDbLine
 10
969.7335480818
 20
1000.2240699049
 30
0.0
 11
969.7547673354
 21
1000.233964276
 31
0.0
  0
LINE
  5
FC
330
1F
100
AcDbEntity
  8
0
  6
Continuous
 62
     7
370
    15
100
AcDbLine
 10
981.3767789969
 20
975.3105204817
 30
0.0
 11
981.3555001387
 21
975.3005963084
 31
0.0
  0
LINE
  5
FD
330
1F
100
AcDbEntity
  8
0
  6
Continuous
 62
     7
370
    15
100
AcDbLine
 10
975.2014993796
 20
1002.2773307082
 30
0.0
 11
980.9112667212
 21
1004.9398105856
 31
0.0
  0
LINE
  5
FE
330
1F
100
AcDbEntity
  8
0
  6
Continuous
 62
     7
370
    15
100
AcDbLine
 10
981.5757393012
 20
1004.6979647395
 30
0.0
 11
992.3947571883
 21
981.4964991328
 31
0.0
  0
ARC
  5
FF
330
1F
100
AcDbEntity
  8
0
  6
Continuous
 62
     7
370
    15
100
AcDbCircle
 10
981.122576709
 20
1004.4866625649
 30
0.0
 40
0.5000000000001338
100
AcDbArc
 50
25.0
 51
115.0
  0
LINE
  5
100
330
1F
100
AcDbEntity
  8
0
  6
Continuous
 62
     7
370
    15
100
AcDbLine
 10
992.1529411444
 20
980.8320265528
 30
0.0
 11
986.4431738028
 21
978.1695466753
 31
0.0
  0
ARC
  5
101
330
1F
100
AcDbEntity
  8
0
  6
Continuous
 62
     7
370
    15
100
AcDbCircle
 10
991.9416042095
 20
981.2851832167
 30
0.0
 40
0.4999999999999827
100
AcDbArc
 50
295.0
 51
25.0
  0
LINE
  5
102
330
1F
100
AcDbEntity
  8
0
  6
Continuous
 62
     7
370
    15
100
AcDbLine
 10
973.532211698
 20
1005.857245278
 30
0.0
 11
988.112521089
 21
974.5896321055
 31
0.0
  0
ARC
  5
103
330
1F
100
AcDbEntity
  8
0
  6
Continuous
 62
     7
370
    15
100
AcDbCircle
 10
972.6258785989
 20
1005.4346189065
 30
0.0
 40
1.000000000000068
100
AcDbArc
 50
25.0
 51
115.0
  0
LINE
  5
104
330
1F
100
AcDbEntity
  8
0
  6
Continuous
 62
     7
370
    15
100
AcDbLine
 10
968.5780524382
 20
1004.6504598376
 30
0.0
 11
972.2032665381
 21
1006.3409369704
 31
0.0
  0
LINE
  5
105
330
1F
100
AcDbEntity
  8
0
  6
Continuous
 62
     7
370
    15
100
AcDbLine
 10
987.6288293967
 20
973.2606869456
 30
0.0
 11
984.0036152968
 21
971.5702098128
 31
0.0
  0
ARC
  5
106
330
1F
100
AcDbEntity
  8
0
  6
Continuous
 62
     7
370
    15
100
AcDbCircle
 10
987.2062086289
 20
974.1670002537
 30
0.0
 40
1.000000000000006
100
AcDbArc
 50
295.0
 51
25.0
  0
LINE
  5
107
330
1F
100
AcDbEntity
  8
0
  6
Continuous
 62
     7
370
    15
100
AcDbLine
 10
1001.742613233
 20
937.3146456
 30
0.0
 11
985.4536770949
 21
972.2463947054
 31
0.0
  0
LINE
  5
108
330
1F
100
AcDbEntity
  8
0
  6
Continuous
 62
     7
370
    15
100
AcDbLine
 10
1001.1352419028
 20
934.83127768
 30
0.0
 11
1002.5853037009
 21
935.507492375
 31
0.0
  0
SPLINE
  5
109
330
1F
100
AcDbEntity
  8
0
  6
Continuous
 62
     7
370
    15
100
AcDbSpline
210
0.0
220
0.0
230
1.0
 70
     8
 71
     3
 72
    11
 73
     7
 74
     0
 42
0.00000001
 43
0.00000001
 12
1.0
 22
0.0
 32
0.0
 13
1.0
 23
0.0
 33
0.0
 40
0.0
 40
0.0
 40
0.0
 40
0.0
 40
0.283276957810888
 40
0.5579965739771433
 40
0.7753949113872298
 40
0.9999999999999999
 40
0.9999999999999999
 40
0.9999999999999999
 40
0.9999999999999999
 10
1002.585303700871
 20
935.5074923750267
 30
0.0
 10
1002.569132511562
 20
935.5421830701948
 30
0.0
 10
1002.537278638584
 20
935.6105165103809
 30
0.0
 10
1002.312055338438
 20
936.0935205082518
 30
0.0
 10
1002.037209293014
 20
936.6830264305639
 30
0.0
 10
1001.841873552555
 20
937.1018297171864
 30
0.0
 10
1001.742613233037
 20
937.3146455999718
 30
0.0
  0
LINE
  5
10A
330
1F
100
AcDbEntity
  8
0
  6
Continuous
 62
     7
370
    15
100
AcDbLine
 10
986.7225407729
 20
972.8380602118
 30
0.0
 11
1002.7817010054
 21
938.399092507
 31
0.0
  0
SPLINE
  5
10B
330
1F
100
AcDbEntity
  8
0
  6
Continuous
 62
     7
370
    15
100
AcDbSpline
210
0.0
220
0.0
230
1.0
 70
     8
 71
     3
 72
    11
 73
     7
 74
     0
 42
0.00000001
 43
0.00000001
 12
1.0
 22
0.0
 32
0.0
 13
1.0
 23
0.0
 33
0.0
 40
0.0
 40
0.0
 40
0.0
 40
0.0
 40
0.25142149198226
 40
0.5021413331832973
 40
0.7628023895089779
 40
1.0
 40
1.0
 40
1.0
 40
1.0
 10
1002.781701005406
 20
938.3990925070152
 30
0.0
 10
1002.871669652758
 20
938.1628332436228
 30
0.0
 10
1003.0513558688
 20
937.6909740538559
 30
0.0
 10
1003.084401603821
 20
936.9166812855169
 30
0.0
 10
1002.945776842571
 20
936.1642441832714
 30
0.0
 10
1002.701625907071
 20
935.719421671341
 30
0.0
 10
1002.585303700871
 20
935.5074923750267
 30
0.0
  0
SPLINE
  5
10C
330
1F
100
AcDbEntity
  8
0
  6
Continuous
 62
     7
370
    15
100
AcDbSpline
210
0.0
220
0.0
230
1.0
 70
     8
 71
     3
 72
    13
 73
     9
 74
     0
 42
0.00000001
 43
0.00000001
 12
1.0
 22
0.0
 32
0.0
 13
1.0
 23
0.0
 33
0.0
 40
0.0
 40
0.0
 40
0.0
 40
0.0
 40
0.1275875393387389
 40
0.2546804043919084
 40
0.5000521538478162
 40
0.7453986499555816
 40
0.8725383727035616
 40
1.0
 40
1.0
 40
1.0
 40
1.0
 10
1001.742613233037
 20
937.3146455999718
 30
0.0
 10
1001.79890267045
 20
937.193954154611
 30
0.0
 10
1001.911263303453
 20
936.9530392010781
 30
0.0
 10
1002.122486203782
 20
936.5001124578145
 30
0.0
 10
1002.353730060518
 20
936.003971245074
 30
0.0
 10
1002.508451548507
 20
935.6725219426098
 30
0.0
 10
1002.576067407222
 20
935.5272519716515
 30
0.0
 10
1002.582222342329
 20
935.5140844566728
 30
0.0
 10
1002.585303700871
 20
935.5074923750267
 30
0.0
  0
LINE
  5
10D
330
1F
100
AcDbEntity
  8
0
  6
Continuous
 62
     7
370
    15
100
AcDbLine
 10
977.2766350874
 20
868.1947153326
 30
0.0
 11
977.2766350874
 21
868.2696979758
 31
0.0
  0
LINE
  5
10E
330
1F
100
AcDbEntity
  8
0
  6
Continuous
 62
     7
370
    15
100
AcDbLine
 10
903.2766341338
 20
868.1947153326
 30
0.0
 11
977.2766350874
 21
868.1947153326
 31
0.0
  0
LINE
  5
10F
330
1F
100
AcDbEntity
  8
0
  6
Continuous
 62
     7
370
    15
100
AcDbLine
 10
903.2766341338
 20
868.2696979758
 30
0.0
 11
977.2766350874
 21
868.2696979758
 31
0.0
  0
LINE
  5
110
330
1F
100
AcDbEntity
  8
0
  6
Continuous
 62
     7
370
    15
100
AcDbLine
 10
903.2766341338
 20
868.1947153326
 30
0.0
 11
903.2766341338
 21
868.2696979758
 31
0.0
  0
LINE
  5
111
330
1F
100
AcDbEntity
  8
0
  6
Continuous
 62
     7
370
    15
100
AcDbLine
 10
913.2766842017
 20
868.2696979758
 30
0.0
 11
913.2766842017
 21
868.4697013613
 31
0.0
  0
LINE
  5
112
330
1F
100
AcDbEntity
  8
0
  6
Continuous
 62
     7
370
    15
100
AcDbLine
 10
967.2766446242
 20
868.2696979758
 30
0.0
 11
967.2766446242
 21
868.4697013613
 31
0.0
  0
ARC
  5
113
330
1F
100
AcDbEntity
  8
0
  6
Continuous
 62
     7
370
    15
100
AcDbCircle
 10
115.7814519002
 20
1280.1697044335
 30
0.0
 40
2.300000000000106
100
AcDbArc
 50
180.0
 51
217.9821134655
  0
ARC
  5
114
330
1F
100
AcDbEntity
  8
0
  6
Continuous
 62
     7
370
    15
100
AcDbCircle
 10
115.7814519002
 20
1310.5697044335
 30
0.0
 40
2.300000000000034
100
AcDbArc
 50
142.0178865346
 51
180.0
  0
LINE
  5
115
330
1F
100
AcDbEntity
  8
0
  6
Continuous
 62
     7
370
    15
100
AcDbLine
 10
113.4814440379
 20
1238.7697037574
 30
0.0
 11
112.681460298
 21
1238.7697037574
 31
0.0
  0
LINE
  5
116
330
1F
100
AcDbEntity
  8
0
  6
Continuous
 62
     7
370
    15
100
AcDbLine
 10
112.681460298
 20
1238.7697037574
 30
0.0
 11
112.681460298
 21
1240.7697040852
 31
0.0
  0
LINE
  5
117
330
1F
100
AcDbEntity
  8
0
  6
Continuous
 62
     7
370
    15
100
AcDbLine
 10
113.4814440379
 20
1240.7697040852
 30
0.0
 11
113.4814440379
 21
1238.7697037574
 31
0.0
  0
LINE
  5
118
330
1F
100
AcDbEntity
  8
0
  6
Continuous
 62
     7
370
    15
100
AcDbLine
 10
112.681460298
 20
1343.3697048839
 30
0.0
 11
112.681460298
 21
1240.7697040852
 31
0.0
  0
LINE
  5
119
330
1F
100
AcDbEntity
  8
0
  6
Continuous
 62
     7
370
    15
100
AcDbLine
 10
113.4814440379
 20
1343.3697048839
 30
0.0
 11
113.4814440379
 21
1240.7697040852
 31
0.0
  0
LINE
  5
11A
330
1F
100
AcDbEntity
  8
0
  6
Continuous
 62
     7
370
    15
100
AcDbLine
 10
112.681460298
 20
1345.3697052118
 30
0.0
 11
113.4814440379
 21
1345.3697052118
 31
0.0
  0
LINE
  5
11B
330
1F
100
AcDbEntity
  8
0
  6
Continuous
 62
     7
370
    15
100
AcDbLine
 10
112.681460298
 20
1343.3697048839
 30
0.0
 11
112.681460298
 21
1345.3697052118
 31
0.0
  0
LINE
  5
11C
330
1F
100
AcDbEntity
  8
0
  6
Continuous
 62
     7
370
    15
100
AcDbLine
 10
113.4814440379
 20
1345.3697052118
 30
0.0
 11
113.4814440379
 21
1343.3697048839
 31
0.0
  0
LINE
  5
11D
330
1F
100
AcDbEntity
  8
0
  6
Continuous
 62
     7
370
    15
100
AcDbLine
 10
122.4349855551
 20
1235.4697075006
 30
0.0
 11
122.4349855551
 21
1137.4697100636
 31
0.0
  0
LINE
  5
11E
330
1F
100
AcDbEntity
  8
0
  6
Continuous
 62
     7
370
    15
100
AcDbLine
 10
123.234969295
 20
1235.4697075006
 30
0.0
 11
123.234969295
 21
1137.4697100636
 31
0.0
  0
LINE
  5
11F
330
1F
100
AcDbEntity
  8
0
  6
Continuous
 62
     7
370
    15
100
AcDbLine
 10
122.4349855551
 20
1136.469708037
 30
0.0
 11
122.4349855551
 21
1137.4697100636
 31
0.0
  0
LINE
  5
120
330
1F
100
AcDbEntity
  8
0
  6
Continuous
 62
     7
370
    15
100
AcDbLine
 10
123.234969295
 20
1137.4697100636
 30
0.0
 11
123.234969295
 21
1136.8082624194
 31
0.0
  0
LINE
  5
121
330
1F
100
AcDbEntity
  8
0
  6
Continuous
 62
     7
370
    15
100
AcDbLine
 10
122.4349855551
 20
1235.4697075006
 30
0.0
 11
122.4349855551
 21
1236.4697020766
 31
0.0
  0
LINE
  5
122
330
1F
100
AcDbEntity
  8
0
  6
Continuous
 62
     7
370
    15
100
AcDbLine
 10
123.234969295
 20
1236.1311402437
 30
0.0
 11
123.234969295
 21
1235.4697075006
 31
0.0
  0
LINE
  5
123
330
1F
100
AcDbEntity
  8
0
  6
Continuous
 62
     7
370
    15
100
AcDbLine
 10
123.234969295
 20
1236.4697020766
 30
0.0
 11
123.234969295
 21
1236.1311402437
 31
0.0
  0
LINE
  5
124
330
1F
100
AcDbEntity
  8
0
  6
Continuous
 62
     7
370
    15
100
AcDbLine
 10
123.234969295
 20
1136.8082624194
 30
0.0
 11
123.234969295
 21
1136.469708037
 31
0.0
  0
LINE
  5
125
330
1F
100
AcDbEntity
  8
0
  6
Continuous
 62
     7
370
    15
100
AcDbLine
 10
167.2349690566
 20
1236.4697020766
 30
0.0
 11
167.2349690566
 21
1136.469708037
 31
0.0
  0
LINE
  5
126
330
1F
100
AcDbEntity
  8
0
  6
Continuous
 62
     7
370
    15
100
AcDbLine
 10
116.2814616332
 20
1347.7697048601
 30
0.0
 11
116.2814616332
 21
1347.6697031673
 31
0.0
  0
LINE
  5
127
330
1F
100
AcDbEntity
  8
0
  6
Continuous
 62
     7
370
    15
100
AcDbLine
 10
116.2814616332
 20
1347.7697048601
 30
0.0
 11
151.2814580569
 21
1347.7697048601
 31
0.0
  0
LINE
  5
128
330
1F
100
AcDbEntity
  8
0
  6
Continuous
 62
     7
370
    15
100
AcDbLine
 10
151.2814580569
 20
1347.7697048601
 30
0.0
 11
151.2814580569
 21
1347.6697031673
 31
0.0
  0
LINE
  5
129
330
1F
100
AcDbEntity
  8
0
  6
Continuous
 62
     7
370
    15
100
AcDbLine
 10
116.2814616332
 20
1347.6697031673
 30
0.0
 11
151.2814580569
 21
1347.6697031673
 31
0.0
  0
LINE
  5
12A
330
1F
100
AcDbEntity
  8
0
  6
Continuous
 62
     7
370
    15
100
AcDbLine
 10
147.2814499506
 20
1347.8697028276
 30
0.0
 11
147.2814499506
 21
1347.7697048601
 31
0.0
  0
LINE
  5
12B
330
1F
100
AcDbEntity
  8
0
  6
Continuous
 62
     7
370
    15
100
AcDbLine
 10
145.7814543614
 20
1347.8697028276
 30
0.0
 11
147.2814499506
 21
1347.8697028276
 31
0.0
  0
LINE
  5
12C
330
1F
100
AcDbEntity
  8
0
  6
Continuous
 62
     7
370
    15
100
AcDbLine
 10
121.0686384806
 20
1347.8697028276
 30
0.0
 11
145.7814543614
 21
1347.8697028276
 31
0.0
  0
LINE
  5
12D
330
1F
100
AcDbEntity
  8
0
  6
Continuous
 62
     7
370
    15
100
AcDbLine
 10
120.5686449179
 20
1347.8697028276
 30
0.0
 11
121.0686384806
 21
1347.8697028276
 31
0.0
  0
LINE
  5
12E
330
1F
100
AcDbEntity
  8
0
  6
Continuous
 62
     7
370
    15
100
AcDbLine
 10
216.2570177683
 20
1346.8506720182
 30
0.0
 11
116.2570237288
 21
1346.8506720182
 31
0.0
  0
ARC
  5
12F
330
1F
100
AcDbEntity
  8
0
  6
Continuous
 62
     7
370
    15
100
AcDbCircle
 10
169.7227489656
 20
1238.7484780191
 30
0.0
 40
1.5
100
AcDbArc
 50
270.0
 51
328.8365047595
  0
LINE
  5
130
330
1F
100
AcDbEntity
  8
0
  6
Continuous
 62
     7
370
    15
100
AcDbLine
 10
116.2685870299
 20
1237.2484777387
 30
0.0
 11
169.7227477202
 21
1237.2484777387
 31
0.0
  0
ARC
  5
131
330
1F
100
AcDbEntity
  8
0
  6
Continuous
 62
     7
370
    15
100
AcDbCircle
 10
116.2685852032
 20
1238.7484780191
 30
0.0
 40
1.499999999924967
100
AcDbArc
 50
180.0000000001
 51
270.0
  0
LINE
  5
132
330
1F
100
AcDbEntity
  8
0
  6
Continuous
 62
     7
370
    15
100
AcDbLine
 10
114.7685765395
 20
1249.0484763202
 30
0.0
 11
114.7685765395
 21
1238.7484770533
 31
0.0
  0
LINE
  5
133
330
1F
100
AcDbEntity
  8
0
  6
Continuous
 62
     7
370
    15
100
AcDbLine
 10
113.9685927996
 20
1249.0484763202
 30
0.0
 11
114.7685765395
 21
1249.0484763202
 31
0.0
  0
LINE
  5
134
330
1F
100
AcDbEntity
  8
0
  6
Continuous
 62
     7
370
    15
100
AcDbLine
 10
113.9685927996
 20
1335.0484792408
 30
0.0
 11
113.9685927996
 21
1249.0484763202
 31
0.0
  0
LINE
  5
135
330
1F
100
AcDbEntity
  8
0
  6
Continuous
 62
     7
370
    15
100
AcDbLine
 10
114.7685765395
 20
1335.0484792408
 30
0.0
 11
113.9685927996
 21
1335.0484792408
 31
0.0
  0
LINE
  5
136
330
1F
100
AcDbEntity
  8
0
  6
Continuous
 62
     7
370
    15
100
AcDbLine
 10
114.7570132384
 20
1345.2917386111
 30
0.0
 11
114.7685765395
 21
1335.0484792408
 31
0.0
  0
ARC
  5
137
330
1F
100
AcDbEntity
  8
0
  6
Continuous
 62
     7
370
    15
100
AcDbCircle
 10
116.2689395889
 20
1345.3380837703
 30
0.0
 40
1.512636635472334
100
AcDbArc
 50
90.4517574763
 51
181.7557369266
  0
ARC
  5
138
330
1F
100
AcDbEntity
  8
0
  6
Continuous
 62
     7
370
    15
100
AcDbCircle
 10
215.5814519002
 20
1334.8697044335
 30
0.0
 40
11.99999999999994
100
AcDbArc
 50
328.717990258
 51
86.7727266533
  0
LINE
  5
139
330
1F
100
AcDbEntity
  8
0
  6
Continuous
 62
     7
370
    15
100
AcDbLine
 10
171.0062890419
 20
1237.9722569403
 30
0.0
 11
225.8369146952
 21
1328.6386944618
 31
0.0
  0
LINE
  5
13A
330
1F
100
AcDbEntity
  8
0
  6
Continuous
 62
     7
370
    15
100
AcDbLine
 10
216.2570177683
 20
1346.8506720182
 30
0.0
 11
215.5814587244
 21
1346.8697045263
 31
0.0
  0
ARC
  5
13B
330
1F
100
AcDbEntity
  8
0
  6
Continuous
 62
     7
370
    15
100
AcDbCircle
 10
215.5814519002
 20
1334.8697044335
 30
0.0
 40
12.79999999999995
100
AcDbArc
 50
328.8365047595
 51
90.0
  0
LINE
  5
13C
330
1F
100
AcDbEntity
  8
0
  6
Continuous
 62
     7
370
    15
100
AcDbLine
 10
171.7037080893
 20
1237.5794958588
 30
0.0
 11
226.5343337426
 21
1328.245935243
 31
0.0
  0
LINE
  5
13D
330
1F
100
AcDbEntity
  8
0
  6
Continuous
 62
     7
370
    15
100
AcDbLine
 10
171.0191636452
 20
1237.9934799191
 30
0.0
 11
225.8497743973
 21
1328.659921166
 31
0.0
  0
LINE
  5
13E
330
1F
100
AcDbEntity
  8
0
  6
Continuous
 62
     7
370
    15
100
AcDbLine
 10
215.5814587244
 20
1347.6697031673
 30
0.0
 11
116.2814616332
 21
1347.6697031673
 31
0.0
  0
LINE
  5
13F
330
1F
100
AcDbEntity
  8
0
  6
Continuous
 62
     7
370
    15
100
AcDbLine
 10
215.5814587244
 20
1346.8697045263
 30
0.0
 11
116.2814616332
 21
1346.8697045263
 31
0.0
  0
LINE
  5
140
330
1F
100
AcDbEntity
  8
0
  6
Continuous
 62
     7
370
    15
100
AcDbLine
 10
116.2814616332
 20
1236.4697020766
 30
0.0
 11
169.7356223235
 21
1236.4697020766
 31
0.0
  0
ARC
  5
141
330
1F
100
AcDbEntity
  8
0
  6
Continuous
 62
     7
370
    15
100
AcDbCircle
 10
169.7356156626
 20
1238.7697044335
 30
0.0
 40
2.300000000000182
100
AcDbArc
 50
270.0
 51
328.8365047595
  0
ARC
  5
142
330
1F
100
AcDbEntity
  8
0
  6
Continuous
 62
     7
370
    15
100
AcDbCircle
 10
116.2814519002
 20
1238.7697044335
 30
0.0
 40
2.300000000000182
100
AcDbArc
 50
180.0
 51
270.0
  0
LINE
  5
143
330
1F
100
AcDbEntity
  8
0
  6
Continuous
 62
     7
370
    15
100
AcDbLine
 10
113.9814376006
 20
1248.069704723
 30
0.0
 11
113.9814376006
 21
1238.7697037574
 31
0.0
  0
LINE
  5
144
330
1F
100
AcDbEntity
  8
0
  6
Continuous
 62
     7
370
    15
100
AcDbLine
 10
113.9814376006
 20
1248.069704723
 30
0.0
 11
113.9814376006
 21
1249.0484763202
 31
0.0
  0
LINE
  5
145
330
1F
100
AcDbEntity
  8
0
  6
Continuous
 62
     7
370
    15
100
AcDbLine
 10
114.7685467371
 20
1335.0697059449
 30
0.0
 11
113.9814376006
 21
1335.0697059449
 31
0.0
  0
LINE
  5
146
330
1F
100
AcDbEntity
  8
0
  6
Continuous
 62
     7
370
    15
100
AcDbLine
 10
113.9814376006
 20
1335.0697059449
 30
0.0
 11
113.9814376006
 21
1336.0697042462
 31
0.0
  0
LINE
  5
147
330
1F
100
AcDbEntity
  8
0
  6
Continuous
 62
     7
370
    15
100
AcDbLine
 10
113.9814376006
 20
1345.3697052118
 30
0.0
 11
113.9814376006
 21
1336.0697042462
 31
0.0
  0
ARC
  5
148
330
1F
100
AcDbEntity
  8
0
  6
Continuous
 62
     7
370
    15
100
AcDbCircle
 10
116.2814519002
 20
1345.3697044335
 30
0.0
 40
2.300000000000026
100
AcDbArc
 50
90.0
 51
180.0
  0
ARC
  5
149
330
1F
100
AcDbEntity
  8
0
  6
Continuous
 62
     7
370
    15
100
AcDbCircle
 10
116.2814519002
 20
1345.3697044335
 30
0.0
 40
1.500000000000056
100
AcDbArc
 50
90.0
 51
137.9039912618
  0
CIRCLE
  5
14A
330
1F
100
AcDbEntity
  8
0
  6
Continuous
 62
     7
370
    15
100
AcDbCircle
 10
952.834971421
 20
1096.4697044335
 30
0.0
 40
2.524999999999966
  0
CIRCLE
  5
14B
330
1F
100
AcDbEntity
  8
0
  6
Continuous
 62
     7
370
    15
100
AcDbCircle
 10
952.834971421
 20
1096.4697044335
 30
0.0
 40
2.099999999999716
  0
LINE
  5
14C
330
1F
100
AcDbEntity
  8
0
  6
Continuous
 62
     7
370
    15
100
AcDbLine
 10
963.6126279005
 20
1057.3668640372
 30
0.0
 11
947.6143240103
 21
1049.9067466971
 31
0.0
  0
SPLINE
  5
14D
330
1F
100
AcDbEntity
  8
0
  6
Continuous
 62
     7
370
    15
100
AcDbSpline
210
0.0
220
0.0
230
1.0
 70
     8
 71
     3
 72
    11
 73
     7
 74
     0
 42
0.00000001
 43
0.00000001
 12
1.0
 22
0.0
 32
0.0
 13
1.0
 23
0.0
 33
0.0
 40
0.0
 40
0.0
 40
0.0
 40
0.0
 40
0.288971141302646
 40
0.5779545044192612
 40
0.867438030556341
 40
1.0
 40
1.0
 40
1.0
 40
1.0
 10
947.6143240103195
 20
1049.906746697079
 30
0.0
 10
947.3108071099207
 20
1049.81647128038
 30
0.0
 10
946.7037604721072
 20
1049.635916628852
 30
0.0
 10
945.5552261266383
 20
1049.875298557665
 30
0.0
 10
944.520673642486
 20
1050.267081810011
 30
0.0
 10
943.8937284674344
 20
1050.53392640786
 30
0.0
 10
943.6968087324569
 20
1050.617740702282
 30
0.0
  0
SPLINE
  5
14E
330
1F
100
AcDbEntity
  8
0
  6
Continuous
 62
     7
370
    15
100
AcDbSpline
210
0.0
220
0.0
230
1.0
 70
     8
 71
     3
 72
    11
 73
     7
 74
     0
 42
0.00000001
 43
0.00000001
 12
1.0
 22
0.0
 32
0.0
 13
1.0
 23
0.0
 33
0.0
 40
0.0
 40
0.0
 40
0.0
 40
0.0
 40
0.2888011530317831
 40
0.577615213236556
 40
0.8669351161068003
 40
1.0
 40
1.0
 40
1.0
 40
1.0
 10
943.6968087324569
 20
1050.617740702282
 30
0.0
 10
944.1444928309651
 20
1050.481531379956
 30
0.0
 10
945.0398810359908
 20
1050.209106647804
 30
0.0
 10
946.1870521167857
 20
1049.709114269315
 30
0.0
 10
946.8619200589097
 20
1049.172846388918
 30
0.0
 10
947.08330138025
 20
1048.773813496699
 30
0.0
 10
947.1530436644027
 20
1048.648105215679
 30
0.0
  0
LINE
  5
14F
330
1F
100
AcDbEntity
  8
0
  6
Continuous
 62
     7
370
    15
100
AcDbLine
 10
947.1530436644
 20
1048.6481052157
 30
0.0
 11
1003.5539983878
 21
927.6958864447
 31
0.0
  0
SPLINE
  5
150
330
1F
100
AcDbEntity
  8
0
  6
Continuous
 62
     7
370
    15
100
AcDbSpline
210
0.0
220
0.0
230
1.0
 70
     8
 71
     3
 72
    12
 73
     8
 74
     0
 42
0.00000001
 43
0.00000001
 12
1.0
 22
0.0
 32
0.0
 13
1.0
 23
0.0
 33
0.0
 40
0.0
 40
0.0
 40
0.0
 40
0.0
 40
0.209683852221495
 40
0.4420461125005024
 40
0.6744343433540594
 40
0.9068211356145754
 40
1.0
 40
1.0
 40
1.0
 40
1.0
 10
105.2877425322006
 20
1115.662635516773
 30
0.0
 10
105.312085888611
 20
1115.558348560481
 30
0.0
 10
105.3634054630676
 20
1115.338495466765
 30
0.0
 10
105.7843376475038
 20
1115.002531591135
 30
0.0
 10
106.4361139603926
 20
1114.655612207725
 30
0.0
 10
107.0855589024222
 20
1114.377256763349
 30
0.0
 10
107.4759923446489
 20
1114.21588784151
 30
0.0
 10
107.587736762471
 20
1114.169703077923
 30
0.0
  0
LINE
  5
151
330
1F
100
AcDbEntity
  8
0
  6
Continuous
 62
     7
370
    15
100
AcDbLine
 10
105.2877425322
 20
1115.6626355168
 30
0.0
 11
106.0877560744
 21
1115.6626355168
 31
0.0
  0
SPLINE
  5
152
330
1F
100
AcDbEntity
  8
0
  6
Continuous
 62
     7
370
    15
100
AcDbSpline
210
0.0
220
0.0
230
1.0
 70
     8
 71
     3
 72
    11
 73
     7
 74
     0
 42
0.00000001
 43
0.00000001
 12
1.0
 22
0.0
 32
0.0
 13
1.0
 23
0.0
 33
0.0
 40
0.0
 40
0.0
 40
0.0
 40
0.0
 40
0.2543219577182474
 40
0.5088705845963732
 40
0.7634155928305472
 40
1.0
 40
1.0
 40
1.0
 40
1.0
 10
106.0877560743759
 20
1115.662635516773
 30
0.0
 10
106.1111082334719
 20
1115.536054310161
 30
0.0
 10
106.1578333647088
 20
1115.282779079089
 30
0.0
 10
106.5167093802086
 20
1114.902826207551
 30
0.0
 10
107.0159512384686
 20
1114.531619312345
 30
0.0
 10
107.4018456401259
 20
1114.287364355076
 30
0.0
 10
107.587736762471
 20
1114.169703077923
 30
0.0
  0
SPLINE
  5
153
330
1F
100
AcDbEntity
  8
0
  6
Continuous
 62
     7
370
    15
100
AcDbSpline
210
0.0
220
0.0
230
1.0
 70
     8
 71
     3
 72
    12
 73
     8
 74
     0
 42
0.00000001
 43
0.00000001
 12
1.0
 22
0.0
 32
0.0
 13
1.0
 23
0.0
 33
0.0
 40
0.0
 40
0.0
 40
0.0
 40
0.0
 40
0.2096812574846955
 40
0.4420474614041893
 40
0.6744348653782564
 40
0.9068213790419678
 40
0.9999999999999999
 40
0.9999999999999999
 40
0.9999999999999999
 40
0.9999999999999999
 10
107.587736762471
 20
1114.169703077923
 30
0.0
 10
107.4834574535356
 20
1114.422034901422
 30
0.0
 10
107.2636170903822
 20
1114.953997764232
 30
0.0
 10
106.9276188617191
 20
1115.675374319386
 30
0.0
 10
106.5807609284943
 20
1116.218743999991
 30
0.0
 10
106.3023702920075
 20
1116.447347318498
 30
0.0
 10
106.1410033695356
 20
1116.464724001271
 30
0.0
 10
106.0948192247818
 20
1116.469697308193
 30
0.0
  0
LINE
  5
154
330
1F
100
AcDbEntity
  8
0
  6
Continuous
 62
     7
370
    15
100
AcDbLine
 10
106.0948192248
 20
1116.4696973082
 30
0.0
 11
109.484982408
 21
1116.4696973082
 31
0.0
  0
LINE
  5
155
330
1F
100
AcDbEntity
  8
0
  6
Continuous
 62
     7
370
    15
100
AcDbLine
 10
120.2349781165
 20
1116.4696973082
 30
0.0
 11
120.4849599966
 21
1116.4696973082
 31
0.0
  0
LINE
  5
156
330
1F
100
AcDbEntity
  8
0
  6
Continuous
 62
     7
370
    15
100
AcDbLine
 10
177.984964765
 20
1116.4696973082
 30
0.0
 11
182.4849664339
 21
1116.4696973082
 31
0.0
  0
CIRCLE
  5
157
330
1F
100
AcDbEntity
  8
0
  6
Continuous
 62
     7
370
    15
100
AcDbCircle
 10
182.8349714209
 20
1096.4697044335
 30
0.0
 40
6.347663105371794
  0
CIRCLE
  5
158
330
1F
100
AcDbEntity
  8
0
  6
Continuous
 62
     7
370
    15
100
AcDbCircle
 10
952.8349714209
 20
1096.4697044335
 30
0.0
 40
6.347663105371794
  0
CIRCLE
  5
159
330
1F
100
AcDbEntity
  8
0
  6
Continuous
 62
     7
370
    15
100
AcDbCircle
 10
572.8349714209
 20
1096.4697044335
 30
0.0
 40
6.347663105371794
  0
SPLINE
  5
15A
330
1F
100
AcDbEntity
  8
0
  6
Continuous
 62
     7
370
    15
100
AcDbSpline
210
0.0
220
0.0
230
1.0
 70
     8
 71
     3
 72
    11
 73
     7
 74
     0
 42
0.00000001
 43
0.00000001
 12
1.0
 22
0.0
 32
0.0
 13
1.0
 23
0.0
 33
0.0
 40
0.0
 40
0.0
 40
0.0
 40
0.0
 40
0.2543211507104601
 40
0.5088660837741951
 40
0.7634127312500609
 40
1.0
 40
1.0
 40
1.0
 40
1.0
 10
107.587736762471
 20
1114.169703077923
 30
0.0
 10
107.4611544325624
 20
1114.369677630735
 30
0.0
 10
107.2078783903785
 20
1114.769802698037
 30
0.0
 10
106.8279426055808
 20
1115.271434287853
 30
0.0
 10
106.4567335826988
 20
1115.607507169908
 30
0.0
 10
106.2124801246275
 20
1115.649479774583
 30
0.0
 10
106.0948192247818
 20
1115.669698667179
 30
0.0
  0
LINE
  5
15B
330
1F
100
AcDbEntity
  8
0
  6
Continuous
 62
     7
370
    15
100
AcDbLine
 10
106.0948192248
 20
1116.4696973082
 30
0.0
 11
106.0948192248
 21
1115.6696986672
 31
0.0
  0
SPLINE
  5
15C
330
1F
100
AcDbEntity
  8
0
  6
Continuous
 62
     7
370
    15
100
AcDbSpline
210
0.0
220
0.0
230
1.0
 70
     8
 71
     3
 72
    12
 73
     8
 74
     0
 42
0.00000001
 43
0.00000001
 12
1.0
 22
0.0
 32
0.0
 13
1.0
 23
0.0
 33
0.0
 40
0.0
 40
0.0
 40
0.0
 40
0.0
 40
0.2096845764148584
 40
0.442042104321073
 40
0.6744328712892232
 40
0.9068209506674129
 40
1.0
 40
1.0
 40
1.0
 40
1.0
 10
107.587736762471
 20
871.5697091337547
 30
0.0
 10
107.3354056642337
 20
871.4654154730712
 30
0.0
 10
106.8034591970323
 20
871.24555099842
 30
0.0
 10
106.0820812504418
 20
870.9096027996437
 30
0.0
 10
105.5387308177174
 20
870.5626920576472
 30
0.0
 10
105.3101164657821
 20
870.284314231935
 30
0.0
 10
105.2927211611895
 20
870.1229461887094
 30
0.0
 10
105.2877425322006
 20
870.0767617937431
 30
0.0
  0
LINE
  5
15D
330
1F
100
AcDbEntity
  8
0
  6
Continuous
 62
     7
370
    15
100
AcDbLine
 10
105.2877425322
 20
1115.6626355168
 30
0.0
 11
105.2877425322
 21
870.0767617937
 31
0.0
  0
SPLINE
  5
15E
330
1F
100
AcDbEntity
  8
0
  6
Continuous
 62
     7
370
    15
100
AcDbSpline
210
0.0
220
0.0
230
1.0
 70
     8
 71
     3
 72
    11
 73
     7
 74
     0
 42
0.00000001
 43
0.00000001
 12
1.0
 22
0.0
 32
0.0
 13
1.0
 23
0.0
 33
0.0
 40
0.0
 40
0.0
 40
0.0
 40
0.0
 40
0.2543206327757604
 40
0.5088613117826211
 40
0.7634132130690352
 40
0.9999999999999999
 40
0.9999999999999999
 40
0.9999999999999999
 40
0.9999999999999999
 10
107.587736762471
 20
871.5697091337547
 30
0.0
 10
107.3877614702328
 20
871.4431267984078
 30
0.0
 10
106.9876378608277
 20
871.1898526046857
 30
0.0
 10
106.4860153123484
 20
870.8099158877509
 30
0.0
 10
106.1499503036074
 20
870.4386728653888
 30
0.0
 10
106.1079756947713
 20
870.1944206919395
 30
0.0
 10
106.0877560743759
 20
870.0767617937431
 30
0.0
  0
LINE
  5
15F
330
1F
100
AcDbEntity
  8
0
  6
Continuous
 62
     7
370
    15
100
AcDbLine
 10
105.2877425322
 20
870.0767617937
 30
0.0
 11
106.0877560744
 21
870.0767617937
 31
0.0
  0
SPLINE
  5
160
330
1F
100
AcDbEntity
  8
0
  6
Continuous
 62
     7
370
    15
100
AcDbSpline
210
0.0
220
0.0
230
1.0
 70
     8
 71
     3
 72
    12
 73
     8
 74
     0
 42
0.00000001
 43
0.00000001
 12
1.0
 22
0.0
 32
0.0
 13
1.0
 23
0.0
 33
0.0
 40
0.0
 40
0.0
 40
0.0
 40
0.0
 40
0.2096806343572097
 40
0.4420437079650555
 40
0.6744367189218817
 40
0.9068243244130689
 40
0.9999999999999999
 40
0.9999999999999999
 40
0.9999999999999999
 40
0.9999999999999999
 10
106.0948192247818
 20
869.2697149034843
 30
0.0
 10
106.1990986046523
 20
869.2940469940784
 30
0.0
 10
106.4189379039923
 20
869.3453433266261
 30
0.0
 10
106.7549368365042
 20
869.7662777023238
 30
0.0
 10
107.1018241588705
 20
870.4180917723061
 30
0.0
 10
107.3802313257579
 20
871.0675172841402
 30
0.0
 10
107.5415637017945
 20
871.4579639423479
 30
0.0
 10
107.587736762471
 20
871.5697091337547
 30
0.0
  0
LINE
  5
161
330
1F
100
AcDbEntity
  8
0
  6
Continuous
 62
     7
370
    15
100
AcDbLine
 10
106.0948192248
 20
869.2697149035
 30
0.0
 11
106.0948192248
 21
870.0696986433
 31
0.0
  0
SPLINE
  5
162
330
1F
100
AcDbEntity
  8
0
  6
Continuous
 62
     7
370
    15
100
AcDbSpline
210
0.0
220
0.0
230
1.0
 70
     8
 71
     3
 72
    11
 73
     7
 74
     0
 42
0.00000001
 43
0.00000001
 12
1.0
 22
0.0
 32
0.0
 13
1.0
 23
0.0
 33
0.0
 40
0.0
 40
0.0
 40
0.0
 40
0.0
 40
0.2543204282400852
 40
0.5088646381977289
 40
0.7634138878676532
 40
1.0
 40
1.0
 40
1.0
 40
1.0
 10
106.0948192247818
 20
870.0696986433372
 30
0.0
 10
106.2214024935656
 20
870.0930497582535
 30
0.0
 10
106.4746804143261
 20
870.1397725352069
 30
0.0
 10
106.8546037551462
 20
870.4986639499148
 30
0.0
 10
107.2258665190215
 20
870.9978813017921
 30
0.0
 10
107.4700908264081
 20
871.3838048717275
 30
0.0
 10
107.587736762471
 20
871.5697091337547
 30
0.0
  0
LINE
  5
163
330
1F
100
AcDbEntity
  8
0
  6
Continuous
 62
     7
370
    15
100
AcDbLine
 10
982.9431890616
 20
875.0435274359
 30
0.0
 11
1003.5539983878
 21
919.243530583
 31
0.0
  0
LINE
  5
164
330
1F
100
AcDbEntity
  8
0
  6
Continuous
 62
     7
370
    15
100
AcDbLine
 10
913.2766842017
 20
869.2697149035
 30
0.0
 11
106.0948192248
 21
869.2697149035
 31
0.0
  0
CIRCLE
  5
165
330
1F
100
AcDbEntity
  8
0
  6
Continuous
 62
     7
370
    15
100
AcDbCircle
 10
182.8349714209
 20
1096.4697044335
 30
0.0
 40
2.700000000000045
  0
CIRCLE
  5
166
330
1F
100
AcDbEntity
  8
0
  6
Continuous
 62
     7
370
    15
100
AcDbCircle
 10
952.8349714209
 20
1096.4697044335
 30
0.0
 40
2.700000000000045
  0
CIRCLE
  5
167
330
1F
100
AcDbEntity
  8
0
  6
Continuous
 62
     7
370
    15
100
AcDbCircle
 10
572.8349714209
 20
1096.4697044335
 30
0.0
 40
2.700000000000045
  0
LINE
  5
168
330
1F
100
AcDbEntity
  8
0
  6
Continuous
 62
     7
370
    15
100
AcDbLine
 10
273.7761034736
 20
776.0696869608
 30
0.0
 11
216.7760997185
 21
776.0696869608
 31
0.0
  0
LINE
  5
169
330
1F
100
AcDbEntity
  8
0
  6
Continuous
 62
     7
370
    15
100
AcDbLine
 10
271.7761068711
 20
770.0697046038
 30
0.0
 11
218.7761037716
 21
770.0697046038
 31
0.0
  0
LINE
  5
16A
330
1F
100
AcDbEntity
  8
0
  6
Continuous
 62
     7
370
    15
100
AcDbLine
 10
852.7760922083
 20
776.0696869608
 30
0.0
 11
795.7760810027
 21
776.0696869608
 31
0.0
  0
LINE
  5
16B
330
1F
100
AcDbEntity
  8
0
  6
Continuous
 62
     7
370
    15
100
AcDbLine
 10
850.7760881552
 20
770.0697046038
 30
0.0
 11
797.7760850558
 21
770.0697046038
 31
0.0
  0
LINE
  5
16C
330
1F
100
AcDbEntity
  8
0
  6
Continuous
 62
     7
370
    15
100
AcDbLine
 10
290.2761145601
 20
868.0696945902
 30
0.0
 11
290.2761145601
 21
869.2697149035
 31
0.0
  0
LINE
  5
16D
330
1F
100
AcDbEntity
  8
0
  6
Continuous
 62
     7
370
    15
100
AcDbLine
 10
290.2760996589
 20
868.0696945902
 30
0.0
 11
290.2760996589
 21
869.2697149035
 31
0.0
  0
LINE
  5
16E
330
1F
100
AcDbEntity
  8
0
  6
Continuous
 62
     7
370
    15
100
AcDbLine
 10
200.2761035332
 20
868.0696945902
 30
0.0
 11
290.2760996589
 21
868.0696945902
 31
0.0
  0
LINE
  5
16F
330
1F
100
AcDbEntity
  8
0
  6
Continuous
 62
     7
370
    15
100
AcDbLine
 10
200.2761035332
 20
868.0696945902
 30
0.0
 11
200.2761035332
 21
869.2697149035
 31
0.0
  0
LINE
  5
170
330
1F
100
AcDbEntity
  8
0
  6
Continuous
 62
     7
370
    15
100
AcDbLine
 10
276.2357561955
 20
805.0697010275
 30
0.0
 11
214.3164544472
 21
805.0697010275
 31
0.0
  0
LINE
  5
171
330
1F
100
AcDbEntity
  8
0
  6
Continuous
 62
     7
370
    15
100
AcDbLine
 10
869.2760883936
 20
868.0696945902
 30
0.0
 11
869.2760883936
 21
869.2697149035
 31
0.0
  0
LINE
  5
172
330
1F
100
AcDbEntity
  8
0
  6
Continuous
 62
     7
370
    15
100
AcDbLine
 10
779.2760848174
 20
868.0696945902
 30
0.0
 11
869.2760883936
 21
868.0696945902
 31
0.0
  0
LINE
  5
173
330
1F
100
AcDbEntity
  8
0
  6
Continuous
 62
     7
370
    15
100
AcDbLine
 10
779.2760848174
 20
868.0696945902
 30
0.0
 11
779.2760848174
 21
869.2697149035
 31
0.0
  0
LINE
  5
174
330
1F
100
AcDbEntity
  8
0
  6
Continuous
 62
     7
370
    15
100
AcDbLine
 10
855.2357374796
 20
805.0697010275
 30
0.0
 11
793.3164357314
 21
805.0697010275
 31
0.0
  0
CIRCLE
  5
175
330
1F
100
AcDbEntity
  8
0
  6
Continuous
 62
     7
370
    15
100
AcDbCircle
 10
182.834971421
 20
1096.4697044335
 30
0.0
 40
2.525000000000006
  0
CIRCLE
  5
176
330
1F
100
AcDbEntity
  8
0
  6
Continuous
 62
     7
370
    15
100
AcDbCircle
 10
182.834971421
 20
1096.4697044335
 30
0.0
 40
2.099999999999994
  0
CIRCLE
  5
177
330
1F
100
AcDbEntity
  8
0
  6
Continuous
 62
     7
370
    15
100
AcDbCircle
 10
572.834971421
 20
1096.4697044335
 30
0.0
 40
2.524999999999977
  0
CIRCLE
  5
178
330
1F
100
AcDbEntity
  8
0
  6
Continuous
 62
     7
370
    15
100
AcDbCircle
 10
572.834971421
 20
1096.4697044335
 30
0.0
 40
2.100000000000023
  0
LINE
  5
179
330
1F
100
AcDbEntity
  8
0
  6
Continuous
 62
     7
370
    15
100
AcDbLine
 10
134.8760842452
 20
860.0196998831
 30
0.0
 11
139.6199583182
 21
860.0196998831
 31
0.0
  0
LINE
  5
17A
330
1F
100
AcDbEntity
  8
0
  6
Continuous
 62
     7
370
    15
100
AcDbLine
 10
155.156847752
 20
845.0197141882
 30
0.0
 11
155.3260802397
 21
845.0197141882
 31
0.0
  0
LINE
  5
17B
330
1F
100
AcDbEntity
  8
0
  6
Continuous
 62
     7
370
    15
100
AcDbLine
 10
136.2260698447
 20
845.0197141882
 30
0.0
 11
155.156847752
 21
845.0197141882
 31
0.0
  0
LINE
  5
17C
330
1F
100
AcDbEntity
  8
0
  6
Continuous
 62
     7
370
    15
100
AcDbLine
 10
155.7462184796
 20
865.2196985003
 30
0.0
 11
155.9260754952
 21
865.2196985003
 31
0.0
  0
LINE
  5
17D
330
1F
100
AcDbEntity
  8
0
  6
Continuous
 62
     7
370
    15
100
AcDbLine
 10
135.6260894904
 20
865.2196985003
 30
0.0
 11
143.3255045781
 21
865.2196985003
 31
0.0
  0
LINE
  5
17E
330
1F
100
AcDbEntity
  8
0
  6
Continuous
 62
     7
370
    15
100
AcDbLine
 10
154.2266576657
 20
865.2196985003
 30
0.0
 11
155.7462184796
 21
865.2196985003
 31
0.0
  0
LINE
  5
17F
330
1F
100
AcDbEntity
  8
0
  6
Continuous
 62
     7
370
    15
100
AcDbLine
 10
134.2151581416
 20
857.6197188612
 30
0.0
 11
134.2151581416
 21
853.7196975466
 31
0.0
  0
LINE
  5
180
330
1F
100
AcDbEntity
  8
0
  6
Continuous
 62
     7
370
    15
100
AcDbLine
 10
134.2151581416
 20
857.6197188612
 30
0.0
 11
139.6776854166
 21
857.6197188612
 31
0.0
  0
LINE
  5
181
330
1F
100
AcDbEntity
  8
0
  6
Continuous
 62
     7
370
    15
100
AcDbLine
 10
134.2151581416
 20
853.7196975466
 30
0.0
 11
140.1084183821
 21
853.7196975466
 31
0.0
  0
LINE
  5
182
330
1F
100
AcDbEntity
  8
0
  6
Continuous
 62
     7
370
    15
100
AcDbLine
 10
157.4600010285
 20
853.7196975466
 30
0.0
 11
157.4600010285
 21
856.6314738509
 31
0.0
  0
LINE
  5
183
330
1F
100
AcDbEntity
  8
0
  6
Continuous
 62
     7
370
    15
100
AcDbLine
 10
157.4437289605
 20
853.7196975466
 30
0.0
 11
157.4600010285
 21
853.7196975466
 31
0.0
  0
LINE
  5
184
330
1F
100
AcDbEntity
  8
0
  6
Continuous
 62
     7
370
    15
100
AcDbLine
 10
134.0921639571
 20
853.7196975466
 30
0.0
 11
134.0921639571
 21
857.6197188612
 31
0.0
  0
LINE
  5
185
330
1F
100
AcDbEntity
  8
0
  6
Continuous
 62
     7
370
    15
100
AcDbLine
 10
134.0921639571
 20
857.6197188612
 30
0.0
 11
134.2151581416
 21
857.6197188612
 31
0.0
  0
LINE
  5
186
330
1F
100
AcDbEntity
  8
0
  6
Continuous
 62
     7
370
    15
100
AcDbLine
 10
134.2151581416
 20
853.7196975466
 30
0.0
 11
134.0921639571
 21
853.7196975466
 31
0.0
  0
LINE
  5
187
330
1F
100
AcDbEntity
  8
0
  6
Continuous
 62
     7
370
    15
100
AcDbLine
 10
157.9274951586
 20
866.5197056052
 30
0.0
 11
157.9274951586
 21
869.2697149035
 31
0.0
  0
LINE
  5
188
330
1F
100
AcDbEntity
  8
0
  6
Continuous
 62
     7
370
    15
100
AcDbLine
 10
154.2266576657
 20
866.5197056052
 30
0.0
 11
157.9274951586
 21
866.5197056052
 31
0.0
  0
LINE
  5
189
330
1F
100
AcDbEntity
  8
0
  6
Continuous
 62
     7
370
    15
100
AcDbLine
 10
138.8234018454
 20
869.2697149035
 30
0.0
 11
138.8234018454
 21
866.5197056052
 31
0.0
  0
LINE
  5
18A
330
1F
100
AcDbEntity
  8
0
  6
Continuous
 62
     7
370
    15
100
AcDbLine
 10
138.8234018454
 20
866.5197056052
 30
0.0
 11
143.3255045781
 21
866.5197056052
 31
0.0
  0
LINE
  5
18B
330
1F
100
AcDbEntity
  8
0
  6
Continuous
 62
     7
370
    15
100
AcDbLine
 10
137.3167454371
 20
866.5197056052
 30
0.0
 11
137.3167454371
 21
869.2697149035
 31
0.0
  0
LINE
  5
18C
330
1F
100
AcDbEntity
  8
0
  6
Continuous
 62
     7
370
    15
100
AcDbLine
 10
138.8234018454
 20
866.5197056052
 30
0.0
 11
137.3167454371
 21
866.5197056052
 31
0.0
  0
LINE
  5
18D
330
1F
100
AcDbEntity
  8
0
  6
Continuous
 62
     7
370
    15
100
AcDbLine
 10
133.7480365405
 20
869.2697149035
 30
0.0
 11
133.7480365405
 21
866.5197056052
 31
0.0
  0
LINE
  5
18E
330
1F
100
AcDbEntity
  8
0
  6
Continuous
 62
     7
370
    15
100
AcDbLine
 10
133.7480365405
 20
866.5197056052
 30
0.0
 11
137.3167454371
 21
866.5197056052
 31
0.0
  0
LINE
  5
18F
330
1F
100
AcDbEntity
  8
0
  6
Continuous
 62
     7
370
    15
100
AcDbLine
 10
133.6246549258
 20
866.5197056052
 30
0.0
 11
133.6246549258
 21
869.2697149035
 31
0.0
  0
LINE
  5
190
330
1F
100
AcDbEntity
  8
0
  6
Continuous
 62
     7
370
    15
100
AcDbLine
 10
133.7480365405
 20
866.5197056052
 30
0.0
 11
133.6246549258
 21
866.5197056052
 31
0.0
  0
LINE
  5
191
330
1F
100
AcDbEntity
  8
0
  6
Continuous
 62
     7
370
    15
100
AcDbLine
 10
156.6760807404
 20
846.5196948763
 30
0.0
 11
134.8760842452
 21
846.5196948763
 31
0.0
  0
LINE
  5
192
330
1F
100
AcDbEntity
  8
0
  6
Continuous
 62
     7
370
    15
100
AcDbLine
 10
122.3349689612
 20
1198.4697070238
 30
0.0
 11
122.4349855551
 21
1198.4697070238
 31
0.0
  0
LINE
  5
193
330
1F
100
AcDbEntity
  8
0
  6
Continuous
 62
     7
370
    15
100
AcDbLine
 10
122.3349689612
 20
1174.4697105404
 30
0.0
 11
122.4349855551
 21
1174.4697105404
 31
0.0
  0
LINE
  5
194
330
1F
100
AcDbEntity
  8
0
  6
Continuous
 62
     7
370
    15
100
AcDbLine
 10
122.3349689612
 20
1174.4697105404
 30
0.0
 11
122.3349689612
 21
1198.4697070238
 31
0.0
  0
LINE
  5
195
330
1F
100
AcDbEntity
  8
0
  6
Continuous
 62
     7
370
    15
100
AcDbLine
 10
122.2349821696
 20
1176.232920241
 30
0.0
 11
122.3349689612
 21
1176.232920241
 31
0.0
  0
LINE
  5
196
330
1F
100
AcDbEntity
  8
0
  6
Continuous
 62
     7
370
    15
100
AcDbLine
 10
122.2349821696
 20
1176.232920241
 30
0.0
 11
122.2349821696
 21
1176.9829254862
 31
0.0
  0
LINE
  5
197
330
1F
100
AcDbEntity
  8
0
  6
Continuous
 62
     7
370
    15
100
AcDbLine
 10
122.2349821696
 20
1176.9829254862
 30
0.0
 11
122.2349821696
 21
1196.4829203006
 31
0.0
  0
LINE
  5
198
330
1F
100
AcDbEntity
  8
0
  6
Continuous
 62
     7
370
    15
100
AcDbLine
 10
122.2349821696
 20
1196.4829203006
 30
0.0
 11
122.2349821696
 21
1196.7329245325
 31
0.0
  0
LINE
  5
199
330
1F
100
AcDbEntity
  8
0
  6
Continuous
 62
     7
370
    15
100
AcDbLine
 10
948.4886645445
 20
1047.9689102885
 30
0.0
 11
958.6314677367
 21
1026.2175362822
 31
0.0
  0
LINE
  5
19A
330
1F
100
AcDbEntity
  8
0
  6
Continuous
 62
     7
370
    15
100
AcDbLine
 10
958.6314677367
 20
1026.2175362822
 30
0.0
 11
958.5408686766
 21
1026.175276589
 31
0.0
  0
LINE
  5
19B
330
1F
100
AcDbEntity
  8
0
  6
Continuous
 62
     7
370
    15
100
AcDbLine
 10
948.4886645445
 20
1047.9689102885
 30
0.0
 11
948.3980058798
 21
1047.9266505953
 31
0.0
  0
LWPOLYLINE
  5
19C
330
1F
100
AcDbEntity
  8
0
  6
Continuous
 62
     7
370
    15
100
AcDbPolyline
 90
        9
 70
   128
 43
0.0
 10
957.6599716315
 20
1028.5375278708
 10
957.7109336028
 20
1028.4282427546
 10
957.7656506667
 20
1028.310970616
 10
957.8203081259
 20
1028.1936686751
 10
957.8712700972
 20
1028.0843835589
 10
957.9150199065
 20
1027.9905360457
 10
957.9486369261
 20
1027.9185038325
 10
957.9697369704
 20
1027.8732341048
 10
957.9769491324
 20
1027.8577965018
  0
LINE
  5
19D
330
1F
100
AcDbEntity
  8
0
  6
Continuous
 62
     7
370
    15
100
AcDbLine
 10
957.9769491324
 20
1027.8577965018
 30
0.0
 11
957.8862904677
 21
1027.8155368086
 31
0.0
  0
LINE
  5
19E
330
1F
100
AcDbEntity
  8
0
  6
Continuous
 62
     7
370
    15
100
AcDbLine
 10
949.4189142355
 20
1046.2105434653
 30
0.0
 11
957.6599716315
 21
1028.5375278708
 31
0.0
  0
LWPOLYLINE
  5
19F
330
1F
100
AcDbEntity
  8
0
  6
Continuous
 62
     7
370
    15
100
AcDbPolyline
 90
        5
 70
   128
 43
0.0
 10
949.3132352004
 20
1046.4371007201
 10
949.3204473624
 20
1046.4216631171
 10
949.3415474066
 20
1046.3763933894
 10
949.3751644263
 20
1046.3043909785
 10
949.4189142355
 20
1046.2105434653
  0
LINE
  5
1A0
330
1F
100
AcDbEntity
  8
0
  6
Continuous
 62
     7
370
    15
100
AcDbLine
 10
112.5814437041
 20
1306.6256020483
 30
0.0
 11
112.681460298
 21
1306.6256020483
 31
0.0
  0
LINE
  5
1A1
330
1F
100
AcDbEntity
  8
0
  6
Continuous
 62
     7
370
    15
100
AcDbLine
 10
112.5814437041
 20
1330.6256022569
 30
0.0
 11
112.681460298
 21
1330.6256022569
 31
0.0
  0
LINE
  5
1A2
330
1F
100
AcDbEntity
  8
0
  6
Continuous
 62
     7
370
    15
100
AcDbLine
 10
112.5814437041
 20
1306.6256020483
 30
0.0
 11
112.5814437041
 21
1330.6256022569
 31
0.0
  0
LINE
  5
1A3
330
1F
100
AcDbEntity
  8
0
  6
Continuous
 62
     7
370
    15
100
AcDbLine
 10
112.4814569125
 20
1308.3888191995
 30
0.0
 11
112.5814437041
 21
1308.3888191995
 31
0.0
  0
LINE
  5
1A4
330
1F
100
AcDbEntity
  8
0
  6
Continuous
 62
     7
370
    15
100
AcDbLine
 10
112.4814569125
 20
1308.3888191995
 30
0.0
 11
112.4814569125
 21
1309.138819788
 31
0.0
  0
LINE
  5
1A5
330
1F
100
AcDbEntity
  8
0
  6
Continuous
 62
     7
370
    15
100
AcDbLine
 10
112.4814569125
 20
1309.138819788
 30
0.0
 11
112.4814569125
 21
1328.6388192591
 31
0.0
  0
LINE
  5
1A6
330
1F
100
AcDbEntity
  8
0
  6
Continuous
 62
     7
370
    15
100
AcDbLine
 10
112.4814569125
 20
1328.6388192591
 30
0.0
 11
112.4814569125
 21
1328.8888197657
 31
0.0
  0
SPLINE
  5
1A7
330
1F
100
AcDbEntity
  8
0
  6
Continuous
 62
     7
370
    15
100
AcDbSpline
210
0.0
220
0.0
230
1.0
 70
     8
 71
     3
 72
    13
 73
     9
 74
     0
 42
0.00000001
 43
0.00000001
 12
1.0
 22
0.0
 32
0.0
 13
1.0
 23
0.0
 33
0.0
 40
0.0
 40
0.0
 40
0.0
 40
0.0
 40
0.0075452228496373
 40
0.2722601036133009
 40
0.4814945807169274
 40
0.6613154151668361
 40
0.8304217171926614
 40
1.0
 40
1.0
 40
1.0
 40
1.0
 10
152.3707478413056
 20
856.4697068449364
 30
0.0
 10
152.3705690582987
 20
856.4697051174353
 30
0.0
 10
152.3641178929784
 20
856.4696427826732
 30
0.0
 10
152.3524952988708
 20
856.4814661266732
 30
0.0
 10
152.3380175755158
 20
856.5241013349269
 30
0.0
 10
152.3278156236622
 20
856.5797870435971
 30
0.0
 10
152.3210293631017
 20
856.6459322634129
 30
0.0
 10
152.3201312461598
 20
856.6951002664125
 30
0.0
 10
152.3196815618942
 20
856.7197185274467
 30
0.0
  0
LINE
  5
1A8
330
1F
100
AcDbEntity
  8
0
  6
Continuous
 62
     7
370
    15
100
AcDbLine
 10
152.3707478413
 20
856.4697068449
 30
0.0
 11
145.7760750422
 21
856.4697068449
 31
0.0
  0
SPLINE
  5
1A9
330
1F
100
AcDbEntity
  8
0
  6
Continuous
 62
     7
370
    15
100
AcDbSpline
210
0.0
220
0.0
230
1.0
 70
     8
 71
     3
 72
    13
 73
     9
 74
     0
 42
0.00000001
 43
0.00000001
 12
1.0
 22
0.0
 32
0.0
 13
1.0
 23
0.0
 33
0.0
 40
0.0
 40
0.0
 40
0.0
 40
0.0
 40
0.1695220684755227
 40
0.3386398179353173
 40
0.5184728251257094
 40
0.7277214660885891
 40
0.9924542663861904
 40
0.9999999999999999
 40
0.9999999999999999
 40
0.9999999999999999
 40
0.9999999999999999
 10
152.3196815618942
 20
857.4197154756889
 30
0.0
 10
152.3201314984242
 20
857.4443234293583
 30
0.0
 10
152.3210302983618
 20
857.4934806454377
 30
0.0
 10
152.3278156095924
 20
857.5596171363976
 30
0.0
 10
152.3380175800777
 20
857.6153028726366
 30
0.0
 10
152.3524952970949
 20
857.657938071513
 30
0.0
 10
152.3641178929883
 20
857.669761418153
 30
0.0
 10
152.3705690582989
 20
857.6696990833785
 30
0.0
 10
152.3707478413056
 20
857.6696973558769
 30
0.0
  0
LINE
  5
1AA
330
1F
100
AcDbEntity
  8
0
  6
Continuous
 62
     7
370
    15
100
AcDbLine
 10
145.9528326163
 20
857.6696973559
 30
0.0
 11
152.3707478413
 21
857.6696973559
 31
0.0
  0
LINE
  5
1AB
330
1F
100
AcDbEntity
  8
0
  6
Continuous
 62
     7
370
    15
100
AcDbLine
 10
152.3196815619
 20
857.4197154757
 30
0.0
 11
152.3196815619
 21
856.7197185274
 31
0.0
  0
SPLINE
  5
1AC
330
1F
100
AcDbEntity
  8
0
  6
Continuous
 62
     7
370
    15
100
AcDbSpline
210
0.0
220
0.0
230
1.0
 70
     8
 71
     3
 72
    12
 73
     8
 74
     0
 42
0.00000001
 43
0.00000001
 12
1.0
 22
0.0
 32
0.0
 13
1.0
 23
0.0
 33
0.0
 40
0.0
 40
0.0
 40
0.0
 40
0.0
 40
0.2289412891586312
 40
0.4594182752482516
 40
0.6825376589089067
 40
0.8947201554478292
 40
1.0
 40
1.0
 40
1.0
 40
1.0
 10
156.771001137204
 20
856.4697068449362
 30
0.0
 10
156.9050912895803
 20
856.4870394406288
 30
0.0
 10
157.1741710469229
 20
856.5218208959433
 30
0.0
 10
157.5267800412755
 20
856.7956919836229
 30
0.0
 10
157.779784728731
 20
857.1927404519338
 30
0.0
 10
157.8931358065068
 20
857.5936146026493
 30
0.0
 10
157.9027796874423
 20
857.8384983793385
 30
0.0
 10
157.9059778818558
 20
857.9197090383873
 30
0.0
  0
LINE
  5
1AD
330
1F
100
AcDbEntity
  8
0
  6
Continuous
 62
     7
370
    15
100
AcDbLine
 10
156.7710011372
 20
856.4697068449
 30
0.0
 11
152.6008962759
 21
856.4697068449
 31
0.0
  0
LINE
  5
1AE
330
1F
100
AcDbEntity
  8
0
  6
Continuous
 62
     7
370
    15
100
AcDbLine
 10
153.5121022829
 20
863.2697027441
 30
0.0
 11
157.682192243
 21
863.2697027441
 31
0.0
  0
LINE
  5
1AF
330
1F
100
AcDbEntity
  8
0
  6
Continuous
 62
     7
370
    15
100
AcDbLine
 10
152.9822318921
 20
863.2697027441
 30
0.0
 11
153.5121022829
 21
863.2697027441
 31
0.0
  0
LINE
  5
1B0
330
1F
100
AcDbEntity
  8
0
  6
Continuous
 62
     7
370
    15
100
AcDbLine
 10
152.3707478413
 20
857.6696973559
 30
0.0
 11
152.6008962759
 21
857.6696973559
 31
0.0
  0
LINE
  5
1B1
330
1F
100
AcDbEntity
  8
0
  6
Continuous
 62
     7
370
    15
100
AcDbLine
 10
152.6008962759
 20
856.4697068449
 30
0.0
 11
152.3707478413
 21
856.4697068449
 31
0.0
  0
LINE
  5
1B2
330
1F
100
AcDbEntity
  8
0
  6
Continuous
 62
     7
370
    15
100
AcDbLine
 10
157.9059778819
 20
857.9197090384
 30
0.0
 11
157.9322039256
 21
857.9197090384
 31
0.0
  0
LINE
  5
1B3
330
1F
100
AcDbEntity
  8
0
  6
Continuous
 62
     7
370
    15
100
AcDbLine
 10
157.2260826001
 20
856.4697068449
 30
0.0
 11
156.7710011372
 21
856.4697068449
 31
0.0
  0
SPLINE
  5
1B4
330
1F
100
AcDbEntity
  8
0
  6
Continuous
 62
     7
370
    15
100
AcDbSpline
210
0.0
220
0.0
230
1.0
 70
     8
 71
     3
 72
    11
 73
     7
 74
     0
 42
0.00000001
 43
0.00000001
 12
1.0
 22
0.0
 32
0.0
 13
1.0
 23
0.0
 33
0.0
 40
0.0
 40
0.0
 40
0.0
 40
0.0
 40
0.0796153424935981
 40
0.4594986436365649
 40
0.8207529301271486
 40
1.0
 40
1.0
 40
1.0
 40
1.0
 10
140.1084183821152
 20
856.7682069059715
 30
0.0
 10
140.0843641074156
 20
856.7851650145002
 30
0.0
 10
139.9455352554392
 20
856.8830384597874
 30
0.0
 10
139.7762586014685
 20
857.2013821803301
 30
0.0
 10
139.6586085518481
 20
857.5926855815193
 30
0.0
 10
139.6492784980632
 20
857.8382666978604
 30
0.0
 10
139.646184361882
 20
857.9197090383872
 30
0.0
  0
ARC
  5
1B5
330
1F
100
AcDbEntity
  8
0
  6
Continuous
 62
     7
370
    15
100
AcDbCircle
 10
140.3874433391
 20
863.0309956108
 30
0.0
 40
0.2390280594407594
100
AcDbArc
 50
357.2892527662
 51
87.0306302511
  0
LINE
  5
1B6
330
1F
100
AcDbEntity
  8
0
  6
Continuous
 62
     7
370
    15
100
AcDbLine
 10
139.8699700007
 20
863.2697027441
 30
0.0
 11
140.3998254904
 21
863.2697027441
 31
0.0
  0
LINE
  5
1B7
330
1F
100
AcDbEntity
  8
0
  6
Continuous
 62
     7
370
    15
100
AcDbLine
 10
140.3998254904
 20
863.2697027441
 30
0.0
 11
143.1358873019
 21
863.2697027441
 31
0.0
  0
SPLINE
  5
1B8
330
1F
100
AcDbEntity
  8
0
  6
Continuous
 62
     7
370
    15
100
AcDbSpline
210
0.0
220
0.0
230
1.0
 70
     8
 71
     3
 72
    13
 73
     9
 74
     0
 42
0.00000001
 43
0.00000001
 12
1.0
 22
0.0
 32
0.0
 13
1.0
 23
0.0
 33
0.0
 40
0.0
 40
0.0
 40
0.0
 40
0.0
 40
0.0075569956383768
 40
0.2722843813191776
 40
0.4815219444667392
 40
0.6613620255000296
 40
0.830478250290558
 40
1.0
 40
1.0
 40
1.0
 40
1.0
 10
145.9644108185242
 20
857.6696973558768
 30
0.0
 10
145.9646989084167
 20
857.669705718759
 30
0.0
 10
145.9750790094406
 20
857.6700070398548
 30
0.0
 10
145.9934303773253
 20
857.681361728623
 30
0.0
 10
146.0163452535685
 20
857.7241498971575
 30
0.0
 10
146.032330952559
 20
857.779799496522
 30
0.0
 10
146.042956913747
 20
857.8459458102587
 30
0.0
 10
146.0443656116465
 20
857.8951016740077
 30
0.0
 10
146.0450708040665
 20
857.9197090383873
 30
0.0
  0
LINE
  5
1B9
330
1F
100
AcDbEntity
  8
0
  6
Continuous
 62
     7
370
    15
100
AcDbLine
 10
152.3869454035
 20
857.6696973559
 30
0.0
 11
145.9644108185
 21
857.6696973559
 31
0.0
  0
SPLINE
  5
1BA
330
1F
100
AcDbEntity
  8
0
  6
Continuous
 62
     7
370
    15
100
AcDbSpline
210
0.0
220
0.0
230
1.0
 70
     8
 71
     3
 72
    13
 73
     9
 74
     0
 42
0.00000001
 43
0.00000001
 12
1.0
 22
0.0
 32
0.0
 13
1.0
 23
0.0
 33
0.0
 40
0.0
 40
0.0
 40
0.0
 40
0.0
 40
0.169521749709442
 40
0.3386379744999704
 40
0.5184780555332609
 40
0.7277156186808224
 40
0.9924430043616231
 40
1.0
 40
1.0
 40
1.0
 40
1.0
 10
146.0450708040665
 20
858.6197059866295
 30
0.0
 10
146.0443656116465
 20
858.6443133510091
 30
0.0
 10
146.042956913747
 20
858.6934692147584
 30
0.0
 10
146.0323309525589
 20
858.7596155284948
 30
0.0
 10
146.0163452535685
 20
858.8152651278593
 30
0.0
 10
145.9934303773254
 20
858.8580532963945
 30
0.0
 10
145.9750790094403
 20
858.86940798516
 30
0.0
 10
145.9646989084168
 20
858.8697093062577
 30
0.0
 10
145.9644108185242
 20
858.8697176691398
 30
0.0
  0
LINE
  5
1BB
330
1F
100
AcDbEntity
  8
0
  6
Continuous
 62
     7
370
    15
100
AcDbLine
 10
145.9644108185
 20
858.8697176691
 30
0.0
 11
152.7322351107
 21
858.8697176691
 31
0.0
  0
LINE
  5
1BC
330
1F
100
AcDbEntity
  8
0
  6
Continuous
 62
     7
370
    15
100
AcDbLine
 10
146.0450708041
 20
857.9197090384
 30
0.0
 11
146.0450708041
 21
858.6197059866
 31
0.0
  0
SPLINE
  5
1BD
330
1F
100
AcDbEntity
  8
0
  6
Continuous
 62
     7
370
    15
100
AcDbSpline
210
0.0
220
0.0
230
1.0
 70
     8
 71
     3
 72
    12
 73
     8
 74
     0
 42
0.00000001
 43
0.00000001
 12
1.0
 22
0.0
 32
0.0
 13
1.0
 23
0.0
 33
0.0
 40
0.0
 40
0.0
 40
0.0
 40
0.0
 40
0.2289464246177513
 40
0.4594283844109283
 40
0.682536710326209
 40
0.894718907979441
 40
0.9999999999999999
 40
0.9999999999999999
 40
0.9999999999999999
 40
0.9999999999999999
 10
141.1769508490036
 20
858.8697176691398
 30
0.0
 10
141.0551409088413
 20
858.8523725781148
 30
0.0
 10
140.8107040537675
 20
858.8175660631829
 30
0.0
 10
140.4907612119614
 20
858.5437103098795
 30
0.0
 10
140.2613000141807
 20
858.1466801326347
 30
0.0
 10
140.1586025119825
 20
857.7458066279271
 30
0.0
 10
140.1498316755919
 20
857.5009258574054
 30
0.0
 10
140.1469229826401
 20
857.4197154756889
 30
0.0
  0
LINE
  5
1BE
330
1F
100
AcDbEntity
  8
0
  6
Continuous
 62
     7
370
    15
100
AcDbLine
 10
141.176950849
 20
858.8697176691
 30
0.0
 11
145.7576721081
 21
858.8697176691
 31
0.0
  0
LINE
  5
1BF
330
1F
100
AcDbEntity
  8
0
  6
Continuous
 62
     7
370
    15
100
AcDbLine
 10
144.9391513237
 20
852.0696919676
 30
0.0
 11
140.3584300646
 21
852.0696919676
 31
0.0
  0
LINE
  5
1C0
330
1F
100
AcDbEntity
  8
0
  6
Continuous
 62
     7
370
    15
100
AcDbLine
 10
145.4151242146
 20
852.0696919676
 30
0.0
 11
144.9391513237
 21
852.0696919676
 31
0.0
  0
LINE
  5
1C1
330
1F
100
AcDbEntity
  8
0
  6
Continuous
 62
     7
370
    15
100
AcDbLine
 10
145.7576721081
 20
858.8697176691
 30
0.0
 11
145.9644108185
 21
858.8697176691
 31
0.0
  0
LINE
  5
1C2
330
1F
100
AcDbEntity
  8
0
  6
Continuous
 62
     7
370
    15
100
AcDbLine
 10
145.9644108185
 20
857.6696973559
 30
0.0
 11
145.7576721081
 21
857.6696973559
 31
0.0
  0
LINE
  5
1C3
330
1F
100
AcDbEntity
  8
0
  6
Continuous
 62
     7
370
    15
100
AcDbLine
 10
140.1469229826
 20
857.4197154757
 30
0.0
 11
140.1084183821
 21
857.4197154757
 31
0.0
  0
LINE
  5
1C4
330
1F
100
AcDbEntity
  8
0
  6
Continuous
 62
     7
370
    15
100
AcDbLine
 10
140.3260647425
 20
858.8697176691
 30
0.0
 11
141.176950849
 21
858.8697176691
 31
0.0
  0
ARC
  5
1C5
330
1F
100
AcDbEntity
  8
0
  6
Continuous
 62
     7
370
    15
100
AcDbCircle
 10
156.7369010434
 20
852.303277097
 30
0.0
 40
0.2343693456096021
100
AcDbArc
 50
175.9809401035
 51
265.3115822109
  0
LINE
  5
1C6
330
1F
100
AcDbEntity
  8
0
  6
Continuous
 62
     7
370
    15
100
AcDbLine
 10
156.7177443871
 20
852.0696919676
 30
0.0
 11
154.505860723
 21
852.0696919676
 31
0.0
  0
LINE
  5
1C7
330
1F
100
AcDbEntity
  8
0
  6
Continuous
 62
     7
370
    15
100
AcDbLine
 10
157.193717278
 20
852.0696919676
 30
0.0
 11
156.7177443871
 21
852.0696919676
 31
0.0
  0
LINE
  5
1C8
330
1F
100
AcDbEntity
  8
0
  6
Continuous
 62
     7
370
    15
100
AcDbLine
 10
146.525305427
 20
856.023119044
 30
0.0
 11
149.3902026782
 21
856.4697068449
 31
0.0
  0
SPLINE
  5
1C9
330
1F
100
AcDbEntity
  8
0
  6
Continuous
 62
     7
370
    15
100
AcDbSpline
210
0.0
220
0.0
230
1.0
 70
     8
 71
     3
 72
     9
 73
     5
 74
     0
 42
0.00000001
 43
0.00000001
 12
1.0
 22
0.0
 32
0.0
 13
1.0
 23
0.0
 33
0.0
 40
0.0
 40
0.0
 40
0.0
 40
0.0
 40
0.0702023090960525
 40
0.9999999999999999
 40
0.9999999999999999
 40
0.9999999999999999
 40
0.9999999999999999
 10
149.390202678151
 20
856.4697068449364
 30
0.0
 10
149.4581192607455
 20
856.4692560167916
 30
0.0
 10
150.4255601251424
 20
856.4628341746807
 30
0.0
 10
151.3736075877139
 20
856.234978616144
 30
0.0
 10
152.2550999292801
 20
856.0231190439566
 30
0.0
  0
LINE
  5
1CA
330
1F
100
AcDbEntity
  8
0
  6
Continuous
 62
     7
370
    15
100
AcDbLine
 10
152.2550999293
 20
856.023119044
 30
0.0
 11
152.2550999293
 21
851.7162960287
 31
0.0
  0
SPLINE
  5
1CB
330
1F
100
AcDbEntity
  8
0
  6
Continuous
 62
     7
370
    15
100
AcDbSpline
210
0.0
220
0.0
230
1.0
 70
     8
 71
     3
 72
     9
 73
     5
 74
     0
 42
0.00000001
 43
0.00000001
 12
1.0
 22
0.0
 32
0.0
 13
1.0
 23
0.0
 33
0.0
 40
0.0
 40
0.0
 40
0.0
 40
0.0
 40
0.0702020799571258
 40
1.0
 40
1.0
 40
1.0
 40
1.0
 10
149.390202678151
 20
851.2697082277641
 30
0.0
 10
149.4581192688944
 20
851.2701487493413
 30
0.0
 10
150.4255634070867
 20
851.2764237995576
 30
0.0
 10
151.3736090564223
 20
851.50436073773
 30
0.0
 10
152.2550999292801
 20
851.7162960287437
 30
0.0
  0
LINE
  5
1CC
330
1F
100
AcDbEntity
  8
0
  6
Continuous
 62
     7
370
    15
100
AcDbLine
 10
146.525305427
 20
851.7162960287
 30
0.0
 11
149.3902026782
 21
851.2697082278
 31
0.0
  0
LINE
  5
1CD
330
1F
100
AcDbEntity
  8
0
  6
Continuous
 62
     7
370
    15
100
AcDbLine
 10
146.525305427
 20
856.023119044
 30
0.0
 11
146.525305427
 21
851.7162960287
 31
0.0
  0
SPLINE
  5
1CE
330
1F
100
AcDbEntity
  8
0
  6
Continuous
 62
     7
370
    15
100
AcDbSpline
210
0.0
220
0.0
230
1.0
 70
     8
 71
     3
 72
     9
 73
     5
 74
     0
 42
0.00000001
 43
0.00000001
 12
1.0
 22
0.0
 32
0.0
 13
1.0
 23
0.0
 33
0.0
 40
0.0
 40
0.0
 40
0.0
 40
0.0
 40
0.517403787465311
 40
1.0
 40
1.0
 40
1.0
 40
1.0
 10
146.5253054270218
 20
856.0231190439567
 30
0.0
 10
146.3797638987521
 20
856.0948770766507
 30
0.0
 10
146.0984719333748
 20
856.2335657264681
 30
0.0
 10
145.8061799837763
 20
856.2754688134456
 30
0.0
 10
145.6651209959458
 20
856.2956910845146
 30
0.0
  0
SPLINE
  5
1CF
330
1F
100
AcDbEntity
  8
0
  6
Continuous
 62
     7
370
    15
100
AcDbSpline
210
0.0
220
0.0
230
1.0
 70
     8
 71
     3
 72
     9
 73
     5
 74
     0
 42
0.00000001
 43
0.00000001
 12
1.0
 22
0.0
 32
0.0
 13
1.0
 23
0.0
 33
0.0
 40
0.0
 40
0.0
 40
0.0
 40
0.0
 40
0.2575535785265952
 40
1.0
 40
1.0
 40
1.0
 40
1.0
 10
146.5253054270218
 20
851.7162960287437
 30
0.0
 10
146.3792706033175
 20
851.6488764248378
 30
0.0
 10
145.8122630527343
 20
851.3871071871835
 30
0.0
 10
145.2231720102851
 20
851.3197312506998
 30
0.0
 10
144.7858034738968
 20
851.2697082277641
 30
0.0
  0
LINE
  5
1D0
330
1F
100
AcDbEntity
  8
0
  6
Continuous
 62
     7
370
    15
100
AcDbLine
 10
149.3902026782
 20
851.2697082278
 30
0.0
 11
144.7858034739
 21
851.2697082278
 31
0.0
  0
LINE
  5
1D1
330
1F
100
AcDbEntity
  8
0
  6
Continuous
 62
     7
370
    15
100
AcDbLine
 10
152.2550999293
 20
851.7162960287
 30
0.0
 11
153.3804803261
 21
851.2697082278
 31
0.0
  0
LINE
  5
1D2
330
1F
100
AcDbEntity
  8
0
  6
Continuous
 62
     7
370
    15
100
AcDbLine
 10
153.3804803261
 20
851.2697082278
 30
0.0
 11
149.3902026782
 21
851.2697082278
 31
0.0
  0
LINE
  5
1D3
330
1F
100
AcDbEntity
  8
0
  6
Continuous
 62
     7
370
    15
100
AcDbLine
 10
152.2550999293
 20
856.023119044
 30
0.0
 11
153.3804803261
 21
856.4697068449
 31
0.0
  0
SPLINE
  5
1D4
330
1F
100
AcDbEntity
  8
0
  6
Continuous
 62
     7
370
    15
100
AcDbSpline
210
0.0
220
0.0
230
1.0
 70
     8
 71
     3
 72
     9
 73
     5
 74
     0
 42
0.00000001
 43
0.00000001
 12
1.0
 22
0.0
 32
0.0
 13
1.0
 23
0.0
 33
0.0
 40
0.0
 40
0.0
 40
0.0
 40
0.0
 40
0.2686335459778358
 40
1.0
 40
1.0
 40
1.0
 40
1.0
 10
144.7858034738968
 20
851.2697082277641
 30
0.0
 10
144.6276315710816
 20
851.2763332127229
 30
0.0
 10
144.0388298179742
 20
851.3009950059278
 30
0.0
 10
143.4655582289021
 20
851.540863938268
 30
0.0
 10
143.0462866196106
 20
851.7162960287437
 30
0.0
  0
LINE
  5
1D5
330
1F
100
AcDbEntity
  8
0
  6
Continuous
 62
     7
370
    15
100
AcDbLine
 10
143.0462866196
 20
852.0696919676
 30
0.0
 11
143.0462866196
 21
851.7162960287
 31
0.0
  0
LINE
  5
1D6
330
1F
100
AcDbEntity
  8
0
  6
Continuous
 62
     7
370
    15
100
AcDbLine
 10
154.505860723
 20
856.023119044
 30
0.0
 11
154.505860723
 21
851.7162960287
 31
0.0
  0
SPLINE
  5
1D7
330
1F
100
AcDbEntity
  8
0
  6
Continuous
 62
     7
370
    15
100
AcDbSpline
210
0.0
220
0.0
230
1.0
 70
     8
 71
     3
 72
     9
 73
     5
 74
     0
 42
0.00000001
 43
0.00000001
 12
1.0
 22
0.0
 32
0.0
 13
1.0
 23
0.0
 33
0.0
 40
0.0
 40
0.0
 40
0.0
 40
0.0
 40
0.0702019553577532
 40
0.9999999999999999
 40
0.9999999999999999
 40
0.9999999999999999
 40
0.9999999999999999
 10
153.3804803261231
 20
851.2697082277641
 30
0.0
 10
153.4071610267464
 20
851.2701487507364
 30
0.0
 10
153.7872174010653
 20
851.2764238319661
 30
0.0
 10
154.1596104210997
 20
851.504360738628
 30
0.0
 10
154.505860722966
 20
851.7162960287437
 30
0.0
  0
LINE
  5
1D8
330
1F
100
AcDbEntity
  8
0
  6
Continuous
 62
     7
370
    15
100
AcDbLine
 10
143.3450400004
 20
851.5893679377
 30
0.0
 11
143.0462866196
 21
851.7162960287
 31
0.0
  0
LINE
  5
1D9
330
1F
100
AcDbEntity
  8
0
  6
Continuous
 62
     7
370
    15
100
AcDbLine
 10
144.7858034739
 20
851.2697082278
 30
0.0
 11
143.7760858902
 21
851.2697082278
 31
0.0
  0
LINE
  5
1DA
330
1F
100
AcDbEntity
  8
0
  6
Continuous
 62
     7
370
    15
100
AcDbLine
 10
153.7760763535
 20
851.2697082278
 30
0.0
 11
153.3804803261
 21
851.2697082278
 31
0.0
  0
LINE
  5
1DB
330
1F
100
AcDbEntity
  8
0
  6
Continuous
 62
     7
370
    15
100
AcDbLine
 10
144.8876976141
 20
863.6231284853
 30
0.0
 11
147.7077870736
 21
864.0697162863
 31
0.0
  0
SPLINE
  5
1DC
330
1F
100
AcDbEntity
  8
0
  6
Continuous
 62
     7
370
    15
100
AcDbSpline
210
0.0
220
0.0
230
1.0
 70
     8
 71
     3
 72
     9
 73
     5
 74
     0
 42
0.00000001
 43
0.00000001
 12
1.0
 22
0.0
 32
0.0
 13
1.0
 23
0.0
 33
0.0
 40
0.0
 40
0.0
 40
0.0
 40
0.0
 40
0.0702003675289214
 40
1.0
 40
1.0
 40
1.0
 40
1.0
 10
147.7077870735596
 20
864.069716286312
 30
0.0
 10
147.7746402173614
 20
864.0692654364361
 30
0.0
 10
148.7269592173194
 20
864.0628431071552
 30
0.0
 10
149.6601816029587
 20
863.8349880415701
 30
0.0
 10
150.52789143414
 20
863.6231284853324
 30
0.0
  0
LINE
  5
1DD
330
1F
100
AcDbEntity
  8
0
  6
Continuous
 62
     7
370
    15
100
AcDbLine
 10
150.5278914341
 20
863.6231284853
 30
0.0
 11
150.5278914341
 21
859.3162756678
 31
0.0
  0
SPLINE
  5
1DE
330
1F
100
AcDbEntity
  8
0
  6
Continuous
 62
     7
370
    15
100
AcDbSpline
210
0.0
220
0.0
230
1.0
 70
     8
 71
     3
 72
     9
 73
     5
 74
     0
 42
0.00000001
 43
0.00000001
 12
1.0
 22
0.0
 32
0.0
 13
1.0
 23
0.0
 33
0.0
 40
0.0
 40
0.0
 40
0.0
 40
0.0
 40
0.0702002553377939
 40
1.0
 40
1.0
 40
1.0
 40
1.0
 10
147.7077870735596
 20
858.8697176691398
 30
0.0
 10
147.7746402212887
 20
858.8701582374756
 30
0.0
 10
148.7269607991481
 20
858.876434116866
 30
0.0
 10
149.6601823108481
 20
859.1043549424064
 30
0.0
 10
150.52789143414
 20
859.3162756677971
 30
0.0
  0
LINE
  5
1DF
330
1F
100
AcDbEntity
  8
0
  6
Continuous
 62
     7
370
    15
100
AcDbLine
 10
144.8876976141
 20
859.3162756678
 30
0.0
 11
147.7077870736
 21
858.8697176691
 31
0.0
  0
LINE
  5
1E0
330
1F
100
AcDbEntity
  8
0
  6
Continuous
 62
     7
370
    15
100
AcDbLine
 10
144.8876976141
 20
863.6231284853
 30
0.0
 11
144.8876976141
 21
859.3162756678
 31
0.0
  0
LINE
  5
1E1
330
1F
100
AcDbEntity
  8
0
  6
Continuous
 62
     7
370
    15
100
AcDbLine
 10
150.5278914341
 20
859.3162756678
 30
0.0
 11
152.4720757374
 21
858.8697176691
 31
0.0
  0
LINE
  5
1E2
330
1F
100
AcDbEntity
  8
0
  6
Continuous
 62
     7
370
    15
100
AcDbLine
 10
150.5278914341
 20
863.6231284853
 30
0.0
 11
152.4720757374
 21
864.0697162863
 31
0.0
  0
LINE
  5
1E3
330
1F
100
AcDbEntity
  8
0
  6
Continuous
 62
     7
370
    15
100
AcDbLine
 10
147.7077870736
 20
864.0697162863
 30
0.0
 11
152.4720757374
 21
864.0697162863
 31
0.0
  0
SPLINE
  5
1E4
330
1F
100
AcDbEntity
  8
0
  6
Continuous
 62
     7
370
    15
100
AcDbSpline
210
0.0
220
0.0
230
1.0
 70
     8
 71
     3
 72
     9
 73
     5
 74
     0
 42
0.00000001
 43
0.00000001
 12
1.0
 22
0.0
 32
0.0
 13
1.0
 23
0.0
 33
0.0
 40
0.0
 40
0.0
 40
0.0
 40
0.0
 40
0.257551409116725
 40
0.9999999999999999
 40
0.9999999999999999
 40
0.9999999999999999
 40
0.9999999999999999
 10
144.8876976141403
 20
863.6231284853325
 30
0.0
 10
144.8141626432677
 20
863.6905364393364
 30
0.0
 10
144.5286469432188
 20
863.9522626486203
 30
0.0
 10
144.2320215575872
 20
864.0196698813538
 30
0.0
 10
144.0117924580048
 20
864.0697162863121
 30
0.0
  0
LINE
  5
1E5
330
1F
100
AcDbEntity
  8
0
  6
Continuous
 62
     7
370
    15
100
AcDbLine
 10
144.011792458
 20
864.0697162863
 30
0.0
 11
147.7077870736
 21
864.0697162863
 31
0.0
  0
SPLINE
  5
1E6
330
1F
100
AcDbEntity
  8
0
  6
Continuous
 62
     7
370
    15
100
AcDbSpline
210
0.0
220
0.0
230
1.0
 70
     8
 71
     3
 72
     9
 73
     5
 74
     0
 42
0.00000001
 43
0.00000001
 12
1.0
 22
0.0
 32
0.0
 13
1.0
 23
0.0
 33
0.0
 40
0.0
 40
0.0
 40
0.0
 40
0.0
 40
0.2575517196981301
 40
1.0
 40
1.0
 40
1.0
 40
1.0
 10
144.8876976141403
 20
859.3162756677971
 30
0.0
 10
144.814162659395
 20
859.2488672710601
 30
0.0
 10
144.5286473662664
 20
858.9871396583852
 30
0.0
 10
144.2320216849738
 20
858.9197505768425
 30
0.0
 10
144.0117924580048
 20
858.8697176691398
 30
0.0
  0
SPLINE
  5
1E7
330
1F
100
AcDbEntity
  8
0
  6
Continuous
 62
     7
370
    15
100
AcDbSpline
210
0.0
220
0.0
230
1.0
 70
     8
 71
     3
 72
     9
 73
     5
 74
     0
 42
0.00000001
 43
0.00000001
 12
1.0
 22
0.0
 32
0.0
 13
1.0
 23
0.0
 33
0.0
 40
0.0
 40
0.0
 40
0.0
 40
0.0
 40
0.0702024395857219
 40
1.0
 40
1.0
 40
1.0
 40
1.0
 10
152.4720757374237
 20
864.0697162863121
 30
0.0
 10
152.5181668274666
 20
864.0692654596278
 30
0.0
 10
153.174712245474
 20
864.0628436502584
 30
0.0
 10
153.8180687408397
 20
863.8349880585914
 30
0.0
 10
154.4162600407074
 20
863.6231284853324
 30
0.0
  0
LINE
  5
1E8
330
1F
100
AcDbEntity
  8
0
  6
Continuous
 62
     7
370
    15
100
AcDbLine
 10
154.4162600407
 20
863.6231284853
 30
0.0
 11
154.4162600407
 21
863.2697027441
 31
0.0
  0
SPLINE
  5
1E9
330
1F
100
AcDbEntity
  8
0
  6
Continuous
 62
     7
370
    15
100
AcDbSpline
210
0.0
220
0.0
230
1.0
 70
     8
 71
     3
 72
     9
 73
     5
 74
     0
 42
0.00000001
 43
0.00000001
 12
1.0
 22
0.0
 32
0.0
 13
1.0
 23
0.0
 33
0.0
 40
0.0
 40
0.0
 40
0.0
 40
0.0
 40
0.5278870126856017
 40
1.0
 40
1.0
 40
1.0
 40
1.0
 10
152.4720757374237
 20
858.8697176691398
 30
0.0
 10
152.5183079458207
 20
858.867785322976
 30
0.0
 10
152.6058876878601
 20
858.8641247931325
 30
0.0
 10
152.6917149470011
 20
858.8899298779121
 30
0.0
 10
152.7322351107071
 20
858.9021127935753
 30
0.0
  0
LINE
  5
1EA
330
1F
100
AcDbEntity
  8
0
  6
Continuous
 62
     7
370
    15
100
AcDbLine
 10
143.5398130784
 20
859.0557735678
 30
0.0
 11
143.1358873019
 21
859.3162756678
 31
0.0
  0
LINE
  5
1EB
330
1F
100
AcDbEntity
  8
0
  6
Continuous
 62
     7
370
    15
100
AcDbLine
 10
143.1358873019
 20
863.6231284853
 30
0.0
 11
143.1358873019
 21
859.3162756678
 31
0.0
  0
SPLINE
  5
1EC
330
1F
100
AcDbEntity
  8
0
  6
Continuous
 62
     7
370
    15
100
AcDbSpline
210
0.0
220
0.0
230
1.0
 70
     8
 71
     3
 72
     9
 73
     5
 74
     0
 42
0.00000001
 43
0.00000001
 12
1.0
 22
0.0
 32
0.0
 13
1.0
 23
0.0
 33
0.0
 40
0.0
 40
0.0
 40
0.0
 40
0.0
 40
0.2686335151498435
 40
1.0
 40
1.0
 40
1.0
 40
1.0
 10
144.0117924580048
 20
864.0697162863121
 30
0.0
 10
143.932152050279
 20
864.0630795411741
 30
0.0
 10
143.6356871520649
 20
864.0383739673586
 30
0.0
 10
143.347013520821
 20
863.7985371184536
 30
0.0
 10
143.1358873018692
 20
863.6231284853325
 30
0.0
  0
SPLINE
  5
1ED
330
1F
100
AcDbEntity
  8
0
  6
Continuous
 62
     7
370
    15
100
AcDbSpline
210
0.0
220
0.0
230
1.0
 70
     8
 71
     3
 72
     9
 73
     5
 74
     0
 42
0.00000001
 43
0.00000001
 12
1.0
 22
0.0
 32
0.0
 13
1.0
 23
0.0
 33
0.0
 40
0.0
 40
0.0
 40
0.0
 40
0.0
 40
0.5569338982110583
 40
1.0
 40
1.0
 40
1.0
 40
1.0
 10
154.4162600407074
 20
863.6231284853325
 30
0.0
 10
154.3430096573603
 20
863.6955314624399
 30
0.0
 10
154.2114852815188
 20
863.8255342820563
 30
0.0
 10
154.074832521862
 20
863.8656693037722
 30
0.0
 10
154.0142863163422
 20
863.883451771389
 30
0.0
  0
LINE
  5
1EE
330
1F
100
AcDbEntity
  8
0
  6
Continuous
 62
     7
370
    15
100
AcDbLine
 10
152.4720757374
 20
864.0697162863
 30
0.0
 11
153.7760763535
 21
864.0697162863
 31
0.0
  0
LINE
  5
1EF
330
1F
100
AcDbEntity
  8
0
  6
Continuous
 62
     7
370
    15
100
AcDbLine
 10
144.011792458
 20
864.0697162863
 30
0.0
 11
143.7760858902
 21
864.0697162863
 31
0.0
  0
LINE
  5
1F0
330
1F
100
AcDbEntity
  8
0
  6
Continuous
 62
     7
370
    15
100
AcDbLine
 10
147.6995616326
 20
869.0731089827
 30
0.0
 11
148.8992094168
 21
869.2697149035
 31
0.0
  0
LINE
  5
1F1
330
1F
100
AcDbEntity
  8
0
  6
Continuous
 62
     7
370
    15
100
AcDbLine
 10
152.0296602616
 20
869.2697149035
 30
0.0
 11
153.1501381764
 21
869.0731089827
 31
0.0
  0
LINE
  5
1F2
330
1F
100
AcDbEntity
  8
0
  6
Continuous
 62
     7
370
    15
100
AcDbLine
 10
153.1501381764
 20
869.0731089827
 30
0.0
 11
153.1501381764
 21
864.7662859675
 31
0.0
  0
SPLINE
  5
1F3
330
1F
100
AcDbEntity
  8
0
  6
Continuous
 62
     7
370
    15
100
AcDbSpline
210
0.0
220
0.0
230
1.0
 70
     8
 71
     3
 72
     9
 73
     5
 74
     0
 42
0.00000001
 43
0.00000001
 12
1.0
 22
0.0
 32
0.0
 13
1.0
 23
0.0
 33
0.0
 40
0.0
 40
0.0
 40
0.0
 40
0.0
 40
0.0701972995602201
 40
1.0
 40
1.0
 40
1.0
 40
1.0
 10
150.4248499044846
 20
864.3196981665001
 30
0.0
 10
150.4894518926116
 20
864.320149050713
 30
0.0
 10
151.4097435353348
 20
864.3265721498309
 30
0.0
 10
152.3115946109174
 20
864.5544264364627
 30
0.0
 10
153.1501381763886
 20
864.7662859674797
 30
0.0
  0
LINE
  5
1F4
330
1F
100
AcDbEntity
  8
0
  6
Continuous
 62
     7
370
    15
100
AcDbLine
 10
147.6995616326
 20
864.7662859675
 30
0.0
 11
150.4248499045
 21
864.3196981665
 31
0.0
  0
LINE
  5
1F5
330
1F
100
AcDbEntity
  8
0
  6
Continuous
 62
     7
370
    15
100
AcDbLine
 10
147.6995616326
 20
869.0731089827
 30
0.0
 11
147.6995616326
 21
864.7662859675
 31
0.0
  0
SPLINE
  5
1F6
330
1F
100
AcDbEntity
  8
0
  6
Continuous
 62
     7
370
    15
100
AcDbSpline
210
0.0
220
0.0
230
1.0
 70
     8
 71
     3
 72
     9
 73
     5
 74
     0
 42
0.00000001
 43
0.00000001
 12
1.0
 22
0.0
 32
0.0
 13
1.0
 23
0.0
 33
0.0
 40
0.0
 40
0.0
 40
0.0
 40
0.0
 40
0.0702010270718331
 40
1.0
 40
1.0
 40
1.0
 40
1.0
 10
145.5125331053208
 20
864.3196981665001
 30
0.0
 10
145.5643786904038
 20
864.3201490089941
 30
0.0
 10
146.302908983273
 20
864.3265711727834
 30
0.0
 10
147.0266385887399
 20
864.5544264058232
 30
0.0
 10
147.6995616325806
 20
864.7662859674797
 30
0.0
  0
LINE
  5
1F7
330
1F
100
AcDbEntity
  8
0
  6
Continuous
 62
     7
370
    15
100
AcDbLine
 10
150.4248499045
 20
864.3196981665
 30
0.0
 11
145.5125331053
 21
864.3196981665
 31
0.0
  0
LINE
  5
1F8
330
1F
100
AcDbEntity
  8
0
  6
Continuous
 62
     7
370
    15
100
AcDbLine
 10
146.8003808627
 20
869.2697149035
 30
0.0
 11
147.6995616326
 21
869.0731089827
 31
0.0
  0
LINE
  5
1F9
330
1F
100
AcDbEntity
  8
0
  6
Continuous
 62
     7
370
    15
100
AcDbLine
 10
143.3255045781
 20
869.0731089827
 30
0.0
 11
144.2882238993
 21
869.2697149035
 31
0.0
  0
LINE
  5
1FA
330
1F
100
AcDbEntity
  8
0
  6
Continuous
 62
     7
370
    15
100
AcDbLine
 10
143.3255045781
 20
864.7662859675
 30
0.0
 11
145.5125331053
 21
864.3196981665
 31
0.0
  0
LINE
  5
1FB
330
1F
100
AcDbEntity
  8
0
  6
Continuous
 62
     7
370
    15
100
AcDbLine
 10
143.3255045781
 20
869.0731089827
 30
0.0
 11
143.3255045781
 21
864.7662859675
 31
0.0
  0
SPLINE
  5
1FC
330
1F
100
AcDbEntity
  8
0
  6
Continuous
 62
     7
370
    15
100
AcDbSpline
210
0.0
220
0.0
230
1.0
 70
     8
 71
     3
 72
     9
 73
     5
 74
     0
 42
0.00000001
 43
0.00000001
 12
1.0
 22
0.0
 32
0.0
 13
1.0
 23
0.0
 33
0.0
 40
0.0
 40
0.0
 40
0.0
 40
0.0
 40
0.2575517351660612
 40
1.0
 40
1.0
 40
1.0
 40
1.0
 10
153.1501381763886
 20
864.7662859674797
 30
0.0
 10
153.1953264317479
 20
864.6988663574137
 30
0.0
 10
153.3707795512164
 20
864.4370952222962
 30
0.0
 10
153.5530623634103
 20
864.3697204495897
 30
0.0
 10
153.6883979210327
 20
864.3196981665001
 30
0.0
  0
LINE
  5
1FD
330
1F
100
AcDbEntity
  8
0
  6
Continuous
 62
     7
370
    15
100
AcDbLine
 10
153.688397921
 20
864.3196981665
 30
0.0
 11
150.4248499045
 21
864.3196981665
 31
0.0
  0
SPLINE
  5
1FE
330
1F
100
AcDbEntity
  8
0
  6
Continuous
 62
     7
370
    15
100
AcDbSpline
210
0.0
220
0.0
230
1.0
 70
     8
 71
     3
 72
     9
 73
     5
 74
     0
 42
0.00000001
 43
0.00000001
 12
1.0
 22
0.0
 32
0.0
 13
1.0
 23
0.0
 33
0.0
 40
0.0
 40
0.0
 40
0.0
 40
0.0
 40
0.9250532978969885
 40
1.0
 40
1.0
 40
1.0
 40
1.0
 10
153.1501381763886
 20
869.0731089826927
 30
0.0
 10
153.1949539723592
 20
869.1516444227587
 30
0.0
 10
153.2434006900485
 20
869.2365427094246
 30
0.0
 10
153.2936825931388
 20
869.2674020943548
 30
0.0
 10
153.2974510559509
 20
869.2697149034843
 30
0.0
  0
SPLINE
  5
1FF
330
1F
100
AcDbEntity
  8
0
  6
Continuous
 62
     7
370
    15
100
AcDbSpline
210
0.0
220
0.0
230
1.0
 70
     8
 71
     3
 72
     9
 73
     5
 74
     0
 42
0.00000001
 43
0.00000001
 12
1.0
 22
0.0
 32
0.0
 13
1.0
 23
0.0
 33
0.0
 40
0.0
 40
0.0
 40
0.0
 40
0.0
 40
0.925050817894088
 40
1.0
 40
1.0
 40
1.0
 40
1.0
 10
143.3255045780609
 20
869.0731089826927
 30
0.0
 10
143.3702927890475
 20
869.1516448743848
 30
0.0
 10
143.4187098166529
 20
869.2365438768747
 30
0.0
 10
143.4690587475909
 20
869.2674021045584
 30
0.0
 10
143.4728323587845
 20
869.2697149034843
 30
0.0
  0
SPLINE
  5
200
330
1F
100
AcDbEntity
  8
0
  6
Continuous
 62
     7
370
    15
100
AcDbSpline
210
0.0
220
0.0
230
1.0
 70
     8
 71
     3
 72
     9
 73
     5
 74
     0
 42
0.00000001
 43
0.00000001
 12
1.0
 22
0.0
 32
0.0
 13
1.0
 23
0.0
 33
0.0
 40
0.0
 40
0.0
 40
0.0
 40
0.0
 40
0.2575535328167969
 40
0.9999999999999999
 40
0.9999999999999999
 40
0.9999999999999999
 40
0.9999999999999999
 10
143.3255045780609
 20
864.7662859674797
 30
0.0
 10
143.3706927760573
 20
864.698866363421
 30
0.0
 10
143.5461444481902
 20
864.4370970787156
 30
0.0
 10
143.7284283119972
 20
864.3697211710901
 30
0.0
 10
143.8637643227051
 20
864.3196981665001
 30
0.0
  0
LINE
  5
201
330
1F
100
AcDbEntity
  8
0
  6
Continuous
 62
     7
370
    15
100
AcDbLine
 10
145.5125331053
 20
864.3196981665
 30
0.0
 11
143.784102715
 21
864.3196981665
 31
0.0
  0
LINE
  5
202
330
1F
100
AcDbEntity
  8
0
  6
Continuous
 62
     7
370
    15
100
AcDbLine
 10
154.0393351683
 20
869.2697149035
 30
0.0
 11
154.2266576657
 21
869.0731089827
 31
0.0
  0
LINE
  5
203
330
1F
100
AcDbEntity
  8
0
  6
Continuous
 62
     7
370
    15
100
AcDbLine
 10
154.2266576657
 20
869.0731089827
 30
0.0
 11
154.2266576657
 21
864.7662859675
 31
0.0
  0
SPLINE
  5
204
330
1F
100
AcDbEntity
  8
0
  6
Continuous
 62
     7
370
    15
100
AcDbSpline
210
0.0
220
0.0
230
1.0
 70
     8
 71
     3
 72
     9
 73
     5
 74
     0
 42
0.00000001
 43
0.00000001
 12
1.0
 22
0.0
 32
0.0
 13
1.0
 23
0.0
 33
0.0
 40
0.0
 40
0.0
 40
0.0
 40
0.0
 40
0.2686350147109305
 40
1.0
 40
1.0
 40
1.0
 40
1.0
 10
153.6883979210327
 20
864.3196981665001
 30
0.0
 10
153.7373393321994
 20
864.3263348311436
 30
0.0
 10
153.9195248571179
 20
864.3510399674068
 30
0.0
 10
154.0969183074699
 20
864.5908773232511
 30
0.0
 10
154.2266576656769
 20
864.7662859674797
 30
0.0
  0
ENDSEC
  0
SECTION
  2
OBJECTS
  0
DICTIONARY
  5
C
330
0
100
AcDbDictionary
281
     1
  3
ACAD_GROUP
350
D
  3
ACAD_LAYOUT
350
1A
  3
ACAD_MLINESTYLE
350
17
  3
ACAD_PLOTSETTINGS
350
19
  3
ACAD_PLOTSTYLENAME
350
E
  0
DICTIONARY
  5
D
102
{ACAD_REACTORS
330
C
102
}
330
C
100
AcDbDictionary
281
     1
  0
DICTIONARY
  5
1A
102
{ACAD_REACTORS
330
C
102
}
330
C
100
AcDbDictionary
281
     1
  3
Layout1
350
1E
  3
Layout2
350
26
  3
Model
350
22
  0
DICTIONARY
  5
17
102
{ACAD_REACTORS
330
C
102
}
330
C
100
AcDbDictionary
281
     1
  3
Standard
350
18
  0
DICTIONARY
  5
19
102
{ACAD_REACTORS
330
C
102
}
330
C
100
AcDbDictionary
281
     1
  0
ACDBDICTIONARYWDFLT
  5
E
102
{ACAD_REACTORS
330
C
102
}
330
C
100
AcDbDictionary
281
     1
  3
Normal
350
F
100
AcDbDictionaryWithDefault
340
F
  0
LAYOUT
  5
1E
102
{ACAD_REACTORS
330
1A
102
}
330
1A
100
AcDbPlotSettings
  1

  2
none_device
  4

  6

 40
0.0
 41
0.0
 42
0.0
 43
0.0
 44
0.0
 45
0.0
 46
0.0
 47
0.0
 48
0.0
 49
0.0
140
0.0
141
0.0
142
1.0
143
1.0
 70
   688
 72
     0
 73
     0
 74
     5
  7

 75
    16
147
1.0
148
0.0
149
0.0
100
AcDbLayout
  1
Layout1
 70
     1
 71
     1
 10
0.0
 20
0.0
 11
420.0
 21
297.0
 12
0.0
 22
0.0
 32
0.0
 14
1.0000000000E+20
 24
1.0000000000E+20
 34
1.0000000000E+20
 15
-1.0000000000E+20
 25
-1.0000000000E+20
 35
-1.0000000000E+20
146
0.0
 13
0.0
 23
0.0
 33
0.0
 16
1.0
 26
0.0
 36
0.0
 17
0.0
 27
1.0
 37
0.0
 76
     0
330
1B
  0
LAYOUT
  5
26
102
{ACAD_REACTORS
330
1A
102
}
330
1A
100
AcDbPlotSettings
  1

  2
none_device
  4

  6

 40
0.0
 41
0.0
 42
0.0
 43
0.0
 44
0.0
 45
0.0
 46
0.0
 47
0.0
 48
0.0
 49
0.0
140
0.0
141
0.0
142
1.0
143
1.0
 70
   688
 72
     0
 73
     0
 74
     5
  7

 75
    16
147
1.0
148
0.0
149
0.0
100
AcDbLayout
  1
Layout2
 70
     1
 71
     2
 10
0.0
 20
0.0
 11
0.0
 21
0.0
 12
0.0
 22
0.0
 32
0.0
 14
0.0
 24
0.0
 34
0.0
 15
0.0
 25
0.0
 35
0.0
146
0.0
 13
0.0
 23
0.0
 33
0.0
 16
1.0
 26
0.0
 36
0.0
 17
0.0
 27
1.0
 37
0.0
 76
     0
330
23
  0
LAYOUT
  5
22
102
{ACAD_REACTORS
330
1A
102
}
330
1A
100
AcDbPlotSettings
  1

  2
none_device
  4

  6

 40
0.0
 41
0.0
 42
0.0
 43
0.0
 44
0.0
 45
0.0
 46
0.0
 47
0.0
 48
0.0
 49
0.0
140
0.0
141
0.0
142
1.0
143
1.0
 70
  1712
 72
     0
 73
     0
 74
     0
  7

 75
     0
147
1.0
148
0.0
149
0.0
100
AcDbLayout
  1
Model
 70
     1
 71
     0
 10
0.0
 20
0.0
 11
1100.0
 21
1500.0
 12
0.0
 22
0.0
 32
0.0
 14
0.0
 24
0.0
 34
0.0
 15
1100.0
 25
1500.0
 35
0.0
146
0.0
 13
0.0
 23
0.0
 33
0.0
 16
1.0
 26
0.0
 36
0.0
 17
0.0
 27
1.0
 37
0.0
 76
     0
330
1F
331
29
  0
MLINESTYLE
  5
18
102
{ACAD_REACTORS
330
17
102
}
330
17
100
AcDbMlineStyle
  2
Standard
 70
     0
  3

 62
   256
 51
90.0
 52
90.0
 71
     2
 49
0.5
 62
   256
  6
BYLAYER
 49
-0.5
 62
   256
  6
BYLAYER
  0
ACDBPLACEHOLDER
  5
F
102
{ACAD_REACTORS
330
E
102
}
330
E
  0
ENDSEC
  0
EOF
