  0
SECTION
  2
HEADER
  9
$LIMMIN
 10
0.000000
 20
0.000000
  9
$LIMMAX
 10
4000.000000
 20
2500.000000
  9
$EXTMIN
 10
0.000000
 20
0.000000
  9
$EXTMAX
 10
4000.000000
 20
2500.000000
  9
$ANGBASE
 50
0.0
  9
$ANGDIR
 70
0
  9
$DIMRND
 40
0.100000
  9
$DIMSE1
 70
0
  9
$DIMSE2
 70
0
  9
$DIMTXT
 40
3.500000
  9
$LTSCALE
 40
1.000000
  9
$LUPREC
 70
5
  9
$AUPREC
 70
5
  9
$PDMODE
 70
2
  9
$PDSIZE
 40
20.000000
  0
ENDSEC
  0
SECTION
  2
TABLES
  0
TABLE
  2
VPORT
  70
1
  0
VPORT
  2
*ACTIVE
 70
0
  10
0.0
 20
0.0
 11
1.0
 21
1.0
 12
594.0
 22
420.0
 13
0.0
 23
0.0
 14
10.0
 24
10.0
 15
10.0
 25
10.0
 16
0.0
 26
0.0
 36
1.0
 17
594.0
 27
420.0
 37
100.0
 40
1000.0
 41
1.0
 42
50.0
 43
0.0
 44
0.0
 50
0.0
 51
0.0
 71
0
 72
2000
 73
1
 74
3
 75
0
 76
0
 77
0
 78
1
  0
ENDTAB
  0
TABLE
  2
LTYPE
 70
4
  0
LTYPE
  2
CONTINUOUS
 70
0
  3
Solid line
 72
65
 73
0
 40
0.0
  0
LTYPE
  2
DASHED
 70
0
  3
Dashed line
 72
65
 73
2
 40
6.000000
 49
3.000000
 49
-3.000000
  0
LTYPE
  2
CENTER
 70
0
  3
Chain line
 72
65
 73
4
 40
24.000000
 49
15.000000
 49
-3.000000
 49
3.000000
 49
-3.000000
  0
LTYPE
  2
RANDOM
 70
0
  3
Random line
 72
65
 73
4
 40
22.500000
 49
6.000000
 49
-3.000000
 49
4.500000
 49
-9.000000
  0
ENDTAB
  0
TABLE
  2
STYLE
 70
9
  0
STYLE
  2
STANDARD
 40
0
 41
1.0
 50
0.0
 71
0
 42
0
  3
simplex
  4

 70
0
  0
ENDTAB
  0
TABLE
  2
LAYER
 70
2
  0
LAYER
  2
0
 70
0
 62
7
  6
CONTINUOUS
  0
LAYER
  2
0
 62
1
  6
CONTINUOUS
 70
0
  0
ENDTAB
  0
ENDSEC
  0
SECTION
  2
BLOCKS
  0
ENDSEC
  0
SECTION
  2
ENTITIES
  0
LINE
  8
0
  6
CONTINUOUS
 62
1
 10
701.480002
 20
1370.124794
 11
701.480002
 21
433.124794
  0
LINE
  8
0
  6
CONTINUOUS
 62
1
 10
1601.480002
 20
478.124794
 11
1601.480002
 21
1370.124794
  0
LINE
  8
0
  6
CONTINUOUS
 62
1
 10
1601.480002
 20
1370.124794
 11
701.480002
 21
1370.124794
  0
LINE
  8
0
  6
CONTINUOUS
 62
1
 10
701.480002
 20
624.124794
 11
1601.480002
 21
624.124794
  0
LINE
  8
0
  6
CONTINUOUS
 62
1
 10
705.479941
 20
627.624794
 11
1150.480002
 21
627.624794
  0
LINE
  8
0
  6
CONTINUOUS
 62
1
 10
705.479941
 20
627.624794
 11
705.479941
 21
932.624794
  0
LINE
  8
0
  6
CONTINUOUS
 62
1
 10
1597.480063
 20
627.624794
 11
1152.480002
 21
627.624794
  0
ARC
  8
0
  6
CONTINUOUS
 62
1
 10
1151.480002
 20
932.624794
 40
142.000000
 50
180.000000
 51
30.701364
  0
ARC
  8
0
  6
CONTINUOUS
 62
1
 10
1151.480002
 20
932.624794
 40
142.000000
 50
149.298636
 51
180.000000
  0
LINE
  8
0
  6
CONTINUOUS
 62
1
 10
1601.480002
 20
649.124794
 11
1601.480002
 21
433.124794
  0
LINE
  8
0
  6
CONTINUOUS
 62
1
 10
701.480002
 20
624.124794
 11
1601.480002
 21
624.124794
  0
LINE
  8
0
  6
CONTINUOUS
 62
1
 10
1601.480002
 20
1241.124794
 11
1601.480002
 21
624.124794
  0
LINE
  8
0
  6
CONTINUOUS
 62
1
 10
1598.480002
 20
1241.124794
 11
1601.480002
 21
1241.124794
  0
LINE
  8
0
  6
CONTINUOUS
 62
1
 10
1601.480002
 20
1241.124794
 11
701.480002
 21
1241.124794
  0
LINE
  8
0
  6
CONTINUOUS
 62
1
 10
701.480002
 20
1370.124794
 11
1601.480002
 21
1370.124794
  0
LINE
  8
0
  6
CONTINUOUS
 62
1
 10
701.480002
 20
1370.124794
 11
701.480002
 21
1216.124794
  0
LINE
  8
0
  6
CONTINUOUS
 62
1
 10
1601.480002
 20
1370.124794
 11
1601.480002
 21
1216.124794
  0
LINE
  8
0
  6
CONTINUOUS
 62
1
 10
701.480002
 20
1241.124794
 11
701.480002
 21
497.124794
  0
LINE
  8
0
  6
CONTINUOUS
 62
1
 10
704.480002
 20
624.124794
 11
701.480002
 21
624.124794
  0
LINE
  8
0
  6
CONTINUOUS
 62
1
 10
704.480002
 20
1241.124794
 11
701.480002
 21
1241.124794
  0
CIRCLE
  8
0
  6
CONTINUOUS
 62
1
 10
1151.480002
 20
932.624794
 40
86.000000
  0
LINE
  8
0
  6
CONTINUOUS
 62
1
 10
1152.480002
 20
1237.624794
 11
1597.480063
 21
1237.624794
  0
LINE
  8
0
  6
CONTINUOUS
 62
1
 10
1597.480063
 20
627.624794
 11
1597.480063
 21
1237.624794
  0
ARC
  8
0
  6
CONTINUOUS
 62
1
 10
1151.480002
 20
932.624794
 40
142.000000
 50
31.644542
 51
149.298636
  0
CIRCLE
  8
0
  6
CONTINUOUS
 62
1
 10
1151.480002
 20
932.624794
 40
6.500000
  0
LINE
  8
0
  6
CONTINUOUS
 62
1
 10
705.479941
 20
932.624794
 11
705.479941
 21
1237.624794
  0
LINE
  8
0
  6
CONTINUOUS
 62
1
 10
1150.480002
 20
1237.624794
 11
705.479941
 21
1237.624794
  0
LINE
  8
0
  6
CONTINUOUS
 62
1
 10
1601.480002
 20
433.124794
 11
701.480002
 21
433.124794
  0
ARC
  8
0
  6
CONTINUOUS
 62
1
 10
1151.480002
 20
932.624794
 40
138.000000
 50
31.692638
 51
148.307362
  0
ARC
  8
0
  6
CONTINUOUS
 62
1
 10
1151.480002
 20
932.624794
 40
138.000000
 50
149.298636
 51
31.692638
  0
CIRCLE
  8
0
  6
CONTINUOUS
 62
1
 10
1151.480002
 20
932.624794
 40
94.000000
  0
LINE
  8
0
  6
CONTINUOUS
 62
1
 10
1152.480002
 20
1237.624794
 11
1150.480002
 21
1237.624794
  0
LINE
  8
0
  6
CONTINUOUS
 62
1
 10
774.479458
 20
1256.235357
 11
808.479458
 21
1256.229197
  0
ARC
  8
0
  6
CONTINUOUS
 62
1
 10
808.480002
 20
1259.229197
 40
3.000000
 50
269.989620
 51
0.000000
  0
ARC
  8
0
  6
CONTINUOUS
 62
1
 10
774.480002
 20
1259.235357
 40
3.000000
 50
180.000000
 51
269.989620
  0
LINE
  8
0
  6
CONTINUOUS
 62
1
 10
834.479458
 20
1256.235357
 11
868.479458
 21
1256.229197
  0
ARC
  8
0
  6
CONTINUOUS
 62
1
 10
868.480002
 20
1259.229197
 40
3.000000
 50
269.989620
 51
0.000000
  0
ARC
  8
0
  6
CONTINUOUS
 62
1
 10
834.480002
 20
1259.235357
 40
3.000000
 50
180.000000
 51
269.989620
  0
LINE
  8
0
  6
CONTINUOUS
 62
1
 10
894.479458
 20
1256.235357
 11
928.479458
 21
1256.229197
  0
ARC
  8
0
  6
CONTINUOUS
 62
1
 10
928.480002
 20
1259.229197
 40
3.000000
 50
269.989620
 51
0.000000
  0
ARC
  8
0
  6
CONTINUOUS
 62
1
 10
894.480002
 20
1259.235357
 40
3.000000
 50
180.000000
 51
269.989620
  0
LINE
  8
0
  6
CONTINUOUS
 62
1
 10
954.479458
 20
1256.235357
 11
988.479458
 21
1256.229197
  0
ARC
  8
0
  6
CONTINUOUS
 62
1
 10
988.480002
 20
1259.229197
 40
3.000000
 50
269.989620
 51
0.000000
  0
ARC
  8
0
  6
CONTINUOUS
 62
1
 10
954.480002
 20
1259.235357
 40
3.000000
 50
180.000000
 51
269.989620
  0
LINE
  8
0
  6
CONTINUOUS
 62
1
 10
1014.479458
 20
1256.235357
 11
1048.479458
 21
1256.229197
  0
ARC
  8
0
  6
CONTINUOUS
 62
1
 10
1048.480002
 20
1259.229197
 40
3.000000
 50
269.989620
 51
0.000000
  0
ARC
  8
0
  6
CONTINUOUS
 62
1
 10
1014.480002
 20
1259.235357
 40
3.000000
 50
180.000000
 51
269.989620
  0
LINE
  8
0
  6
CONTINUOUS
 62
1
 10
1074.479458
 20
1256.235357
 11
1108.479458
 21
1256.229197
  0
ARC
  8
0
  6
CONTINUOUS
 62
1
 10
1108.480002
 20
1259.229197
 40
3.000000
 50
269.989620
 51
0.000000
  0
ARC
  8
0
  6
CONTINUOUS
 62
1
 10
1074.480002
 20
1259.235357
 40
3.000000
 50
180.000000
 51
269.989620
  0
LINE
  8
0
  6
CONTINUOUS
 62
1
 10
1134.479458
 20
1256.235357
 11
1168.479458
 21
1256.229197
  0
ARC
  8
0
  6
CONTINUOUS
 62
1
 10
1168.480002
 20
1259.229197
 40
3.000000
 50
269.989620
 51
0.000000
  0
ARC
  8
0
  6
CONTINUOUS
 62
1
 10
1134.480002
 20
1259.235357
 40
3.000000
 50
180.000000
 51
269.989620
  0
LINE
  8
0
  6
CONTINUOUS
 62
1
 10
1194.479458
 20
1256.235357
 11
1228.479458
 21
1256.229197
  0
ARC
  8
0
  6
CONTINUOUS
 62
1
 10
1228.480002
 20
1259.229197
 40
3.000000
 50
269.989620
 51
0.000000
  0
ARC
  8
0
  6
CONTINUOUS
 62
1
 10
1194.480002
 20
1259.235357
 40
3.000000
 50
180.000000
 51
269.989620
  0
LINE
  8
0
  6
CONTINUOUS
 62
1
 10
1254.479458
 20
1256.235357
 11
1288.479458
 21
1256.229197
  0
ARC
  8
0
  6
CONTINUOUS
 62
1
 10
1288.480002
 20
1259.229197
 40
3.000000
 50
269.989620
 51
0.000000
  0
ARC
  8
0
  6
CONTINUOUS
 62
1
 10
1254.480002
 20
1259.235357
 40
3.000000
 50
180.000000
 51
269.989620
  0
LINE
  8
0
  6
CONTINUOUS
 62
1
 10
1314.479458
 20
1256.235357
 11
1348.479458
 21
1256.229197
  0
ARC
  8
0
  6
CONTINUOUS
 62
1
 10
1348.480002
 20
1259.229197
 40
3.000000
 50
269.989620
 51
0.000000
  0
ARC
  8
0
  6
CONTINUOUS
 62
1
 10
1314.480002
 20
1259.235357
 40
3.000000
 50
180.000000
 51
269.989620
  0
LINE
  8
0
  6
CONTINUOUS
 62
1
 10
1374.479458
 20
1256.235357
 11
1408.479458
 21
1256.229197
  0
ARC
  8
0
  6
CONTINUOUS
 62
1
 10
1408.480002
 20
1259.229197
 40
3.000000
 50
269.989620
 51
0.000000
  0
ARC
  8
0
  6
CONTINUOUS
 62
1
 10
1374.480002
 20
1259.235357
 40
3.000000
 50
180.000000
 51
269.989620
  0
LINE
  8
0
  6
CONTINUOUS
 62
1
 10
1434.479458
 20
1256.235357
 11
1468.479458
 21
1256.229197
  0
ARC
  8
0
  6
CONTINUOUS
 62
1
 10
1468.480002
 20
1259.229197
 40
3.000000
 50
269.989620
 51
0.000000
  0
ARC
  8
0
  6
CONTINUOUS
 62
1
 10
1434.480002
 20
1259.235357
 40
3.000000
 50
180.000000
 51
269.989620
  0
LINE
  8
0
  6
CONTINUOUS
 62
1
 10
1494.479458
 20
1256.235357
 11
1528.479458
 21
1256.229197
  0
ARC
  8
0
  6
CONTINUOUS
 62
1
 10
1528.480002
 20
1259.229197
 40
3.000000
 50
269.989620
 51
0.000000
  0
ARC
  8
0
  6
CONTINUOUS
 62
1
 10
1494.480002
 20
1259.235357
 40
3.000000
 50
180.000000
 51
269.989620
  0
LINE
  8
0
  6
CONTINUOUS
 62
1
 10
774.479458
 20
1354.232800
 11
808.479458
 21
1354.238960
  0
ARC
  8
0
  6
CONTINUOUS
 62
1
 10
808.480002
 20
1351.238960
 40
3.000000
 50
0.000000
 51
90.010380
  0
ARC
  8
0
  6
CONTINUOUS
 62
1
 10
774.480002
 20
1351.232800
 40
3.000000
 50
90.010380
 51
180.000000
  0
LINE
  8
0
  6
CONTINUOUS
 62
1
 10
834.479458
 20
1354.232800
 11
868.479458
 21
1354.238960
  0
ARC
  8
0
  6
CONTINUOUS
 62
1
 10
868.480002
 20
1351.238960
 40
3.000000
 50
0.000000
 51
90.010380
  0
ARC
  8
0
  6
CONTINUOUS
 62
1
 10
834.480002
 20
1351.232800
 40
3.000000
 50
90.010380
 51
180.000000
  0
LINE
  8
0
  6
CONTINUOUS
 62
1
 10
894.479458
 20
1354.232800
 11
928.479458
 21
1354.238960
  0
ARC
  8
0
  6
CONTINUOUS
 62
1
 10
928.480002
 20
1351.238960
 40
3.000000
 50
0.000000
 51
90.010380
  0
ARC
  8
0
  6
CONTINUOUS
 62
1
 10
894.480002
 20
1351.232800
 40
3.000000
 50
90.010380
 51
180.000000
  0
LINE
  8
0
  6
CONTINUOUS
 62
1
 10
954.479458
 20
1354.232800
 11
988.479458
 21
1354.238960
  0
ARC
  8
0
  6
CONTINUOUS
 62
1
 10
988.480002
 20
1351.238960
 40
3.000000
 50
0.000000
 51
90.010380
  0
ARC
  8
0
  6
CONTINUOUS
 62
1
 10
954.480002
 20
1351.232800
 40
3.000000
 50
90.010380
 51
180.000000
  0
LINE
  8
0
  6
CONTINUOUS
 62
1
 10
1014.479458
 20
1354.232800
 11
1048.479458
 21
1354.238960
  0
ARC
  8
0
  6
CONTINUOUS
 62
1
 10
1048.480002
 20
1351.238960
 40
3.000000
 50
0.000000
 51
90.010380
  0
ARC
  8
0
  6
CONTINUOUS
 62
1
 10
1014.480002
 20
1351.232800
 40
3.000000
 50
90.010380
 51
180.000000
  0
LINE
  8
0
  6
CONTINUOUS
 62
1
 10
1074.479458
 20
1354.232800
 11
1108.479458
 21
1354.238960
  0
ARC
  8
0
  6
CONTINUOUS
 62
1
 10
1108.480002
 20
1351.238960
 40
3.000000
 50
0.000000
 51
90.010380
  0
ARC
  8
0
  6
CONTINUOUS
 62
1
 10
1074.480002
 20
1351.232800
 40
3.000000
 50
90.010380
 51
180.000000
  0
LINE
  8
0
  6
CONTINUOUS
 62
1
 10
1134.479458
 20
1354.232800
 11
1168.479458
 21
1354.238960
  0
ARC
  8
0
  6
CONTINUOUS
 62
1
 10
1168.480002
 20
1351.238960
 40
3.000000
 50
0.000000
 51
90.010380
  0
ARC
  8
0
  6
CONTINUOUS
 62
1
 10
1134.480002
 20
1351.232800
 40
3.000000
 50
90.010380
 51
180.000000
  0
LINE
  8
0
  6
CONTINUOUS
 62
1
 10
1194.479458
 20
1354.232800
 11
1228.479458
 21
1354.238960
  0
ARC
  8
0
  6
CONTINUOUS
 62
1
 10
1228.480002
 20
1351.238960
 40
3.000000
 50
0.000000
 51
90.010380
  0
ARC
  8
0
  6
CONTINUOUS
 62
1
 10
1194.480002
 20
1351.232800
 40
3.000000
 50
90.010380
 51
180.000000
  0
LINE
  8
0
  6
CONTINUOUS
 62
1
 10
1254.479458
 20
1354.232800
 11
1288.479458
 21
1354.238960
  0
ARC
  8
0
  6
CONTINUOUS
 62
1
 10
1288.480002
 20
1351.238960
 40
3.000000
 50
0.000000
 51
90.010380
  0
ARC
  8
0
  6
CONTINUOUS
 62
1
 10
1254.480002
 20
1351.232800
 40
3.000000
 50
90.010380
 51
180.000000
  0
LINE
  8
0
  6
CONTINUOUS
 62
1
 10
1314.479458
 20
1354.232800
 11
1348.479458
 21
1354.238960
  0
LINE
  8
0
  6
CONTINUOUS
 62
1
 10
1374.479458
 20
1354.232800
 11
1408.479458
 21
1354.238960
  0
LINE
  8
0
  6
CONTINUOUS
 62
1
 10
1434.479458
 20
1354.232800
 11
1468.479458
 21
1354.238960
  0
LINE
  8
0
  6
CONTINUOUS
 62
1
 10
1494.479458
 20
1354.232800
 11
1528.479458
 21
1354.238960
  0
ARC
  8
0
  6
CONTINUOUS
 62
1
 10
1314.480002
 20
1351.232800
 40
3.000000
 50
90.010380
 51
180.000000
  0
ARC
  8
0
  6
CONTINUOUS
 62
1
 10
1348.480002
 20
1351.238960
 40
3.000000
 50
0.000000
 51
90.010380
  0
ARC
  8
0
  6
CONTINUOUS
 62
1
 10
1374.480002
 20
1351.232800
 40
3.000000
 50
90.010380
 51
180.000000
  0
ARC
  8
0
  6
CONTINUOUS
 62
1
 10
1408.480002
 20
1351.238960
 40
3.000000
 50
0.000000
 51
90.010380
  0
ARC
  8
0
  6
CONTINUOUS
 62
1
 10
1434.480002
 20
1351.232800
 40
3.000000
 50
90.010380
 51
180.000000
  0
ARC
  8
0
  6
CONTINUOUS
 62
1
 10
1468.480002
 20
1351.238960
 40
3.000000
 50
0.000000
 51
90.010380
  0
ARC
  8
0
  6
CONTINUOUS
 62
1
 10
1494.480002
 20
1351.232800
 40
3.000000
 50
90.010380
 51
180.000000
  0
ARC
  8
0
  6
CONTINUOUS
 62
1
 10
1528.480002
 20
1351.238960
 40
3.000000
 50
0.000000
 51
90.010380
  0
ARC
  8
0
  6
CONTINUOUS
 62
1
 10
713.230528
 20
1365.124794
 40
5.000000
 50
90.000000
 51
180.000000
  0
ARC
  8
0
  6
CONTINUOUS
 62
1
 10
1593.980002
 20
1365.124794
 40
5.000000
 50
0.000000
 51
90.000000
  0
LINE
  8
0
  6
CONTINUOUS
 62
1
 10
1598.980002
 20
1240.183018
 11
703.980002
 21
1240.345165
  0
LINE
  8
0
  6
CONTINUOUS
 62
1
 10
1593.980002
 20
1370.124794
 11
708.980002
 21
1370.124794
  0
LINE
  8
0
  6
CONTINUOUS
 62
1
 10
1598.980002
 20
1240.183018
 11
1598.980002
 21
1365.124794
  0
LINE
  8
0
  6
CONTINUOUS
 62
1
 10
703.980002
 20
1240.345165
 11
703.980002
 21
1365.124794
  0
LINE
  8
0
  6
CONTINUOUS
 62
1
 10
712.480002
 20
1370.124794
 11
712.480002
 21
1240.343363
  0
LINE
  8
0
  6
CONTINUOUS
 62
1
 10
1587.480002
 20
1370.124794
 11
1587.480002
 21
1240.183018
  0
LINE
  8
0
  6
CONTINUOUS
 62
1
 10
754.480002
 20
1240.336157
 11
754.480002
 21
1370.124794
  0
LINE
  8
0
  6
CONTINUOUS
 62
1
 10
771.480002
 20
1370.124794
 11
771.480002
 21
1240.345165
  0
LINE
  8
0
  6
CONTINUOUS
 62
1
 10
811.480002
 20
1240.336157
 11
811.480002
 21
1370.124794
  0
LINE
  8
0
  6
CONTINUOUS
 62
1
 10
831.480002
 20
1370.124794
 11
831.480002
 21
1240.345165
  0
LINE
  8
0
  6
CONTINUOUS
 62
1
 10
871.480002
 20
1240.336157
 11
871.480002
 21
1370.124794
  0
LINE
  8
0
  6
CONTINUOUS
 62
1
 10
891.480002
 20
1370.124794
 11
891.480002
 21
1240.345165
  0
LINE
  8
0
  6
CONTINUOUS
 62
1
 10
931.480002
 20
1240.336157
 11
931.480002
 21
1370.124794
  0
LINE
  8
0
  6
CONTINUOUS
 62
1
 10
951.480002
 20
1370.124794
 11
951.480002
 21
1240.345165
  0
LINE
  8
0
  6
CONTINUOUS
 62
1
 10
991.480002
 20
1240.336157
 11
991.480002
 21
1370.124794
  0
LINE
  8
0
  6
CONTINUOUS
 62
1
 10
1011.480002
 20
1370.124794
 11
1011.480002
 21
1240.345165
  0
LINE
  8
0
  6
CONTINUOUS
 62
1
 10
1051.480002
 20
1240.336157
 11
1051.480002
 21
1370.124794
  0
LINE
  8
0
  6
CONTINUOUS
 62
1
 10
1071.480002
 20
1370.124794
 11
1071.480002
 21
1240.345165
  0
LINE
  8
0
  6
CONTINUOUS
 62
1
 10
1111.480002
 20
1240.336157
 11
1111.480002
 21
1370.124794
  0
LINE
  8
0
  6
CONTINUOUS
 62
1
 10
1131.480002
 20
1370.124794
 11
1131.480002
 21
1240.345165
  0
LINE
  8
0
  6
CONTINUOUS
 62
1
 10
1171.480002
 20
1240.336157
 11
1171.480002
 21
1370.124794
  0
LINE
  8
0
  6
CONTINUOUS
 62
1
 10
1191.480002
 20
1370.124794
 11
1191.480002
 21
1240.345165
  0
LINE
  8
0
  6
CONTINUOUS
 62
1
 10
1231.480002
 20
1240.336157
 11
1231.480002
 21
1370.124794
  0
LINE
  8
0
  6
CONTINUOUS
 62
1
 10
1251.480002
 20
1370.124794
 11
1251.480002
 21
1240.345165
  0
LINE
  8
0
  6
CONTINUOUS
 62
1
 10
1291.480002
 20
1240.336157
 11
1291.480002
 21
1370.124794
  0
LINE
  8
0
  6
CONTINUOUS
 62
1
 10
1311.480002
 20
1370.124794
 11
1311.480002
 21
1240.345165
  0
LINE
  8
0
  6
CONTINUOUS
 62
1
 10
1351.480002
 20
1240.336157
 11
1351.480002
 21
1370.124794
  0
LINE
  8
0
  6
CONTINUOUS
 62
1
 10
1371.480002
 20
1370.124794
 11
1371.480002
 21
1240.345165
  0
LINE
  8
0
  6
CONTINUOUS
 62
1
 10
1411.480002
 20
1240.336157
 11
1411.480002
 21
1370.124794
  0
LINE
  8
0
  6
CONTINUOUS
 62
1
 10
1431.480002
 20
1370.124794
 11
1431.480002
 21
1240.345165
  0
LINE
  8
0
  6
CONTINUOUS
 62
1
 10
1471.480002
 20
1240.336157
 11
1471.480002
 21
1370.124794
  0
LINE
  8
0
  6
CONTINUOUS
 62
1
 10
1491.480002
 20
1370.124794
 11
1491.480002
 21
1240.345165
  0
LINE
  8
0
  6
CONTINUOUS
 62
1
 10
1531.480002
 20
1240.336157
 11
1531.480002
 21
1370.124794
  0
LINE
  8
0
  6
CONTINUOUS
 62
1
 10
1548.480002
 20
1370.124794
 11
1548.480002
 21
1240.345165
  0
LINE
  8
0
  6
CONTINUOUS
 62
1
 10
1141.480002
 20
1344.232277
 11
1141.480002
 21
1266.232277
  0
LINE
  8
0
  6
CONTINUOUS
 62
1
 10
1161.480002
 20
1344.232277
 11
1161.480002
 21
1266.232277
  0
ARC
  8
0
  6
CONTINUOUS
 62
1
 10
1151.480002
 20
1344.232277
 40
10.000000
 50
90.000000
 51
180.000000
  0
ARC
  8
0
  6
CONTINUOUS
 62
1
 10
1151.480002
 20
1344.232277
 40
10.000000
 50
0.000000
 51
90.000000
  0
ARC
  8
0
  6
CONTINUOUS
 62
1
 10
1151.480002
 20
1266.232277
 40
10.000000
 50
270.000000
 51
0.000000
  0
ARC
  8
0
  6
CONTINUOUS
 62
1
 10
1151.480002
 20
1266.232277
 40
10.000000
 50
180.000000
 51
270.000000
  0
LINE
  8
0
  6
CONTINUOUS
 62
1
 10
1201.480002
 20
1344.232277
 11
1201.480002
 21
1266.232277
  0
LINE
  8
0
  6
CONTINUOUS
 62
1
 10
1221.480002
 20
1344.232277
 11
1221.480002
 21
1266.232277
  0
ARC
  8
0
  6
CONTINUOUS
 62
1
 10
1211.480002
 20
1344.232277
 40
10.000000
 50
90.000000
 51
180.000000
  0
ARC
  8
0
  6
CONTINUOUS
 62
1
 10
1211.480002
 20
1344.232277
 40
10.000000
 50
0.000000
 51
90.000000
  0
ARC
  8
0
  6
CONTINUOUS
 62
1
 10
1211.480002
 20
1266.232277
 40
10.000000
 50
270.000000
 51
0.000000
  0
ARC
  8
0
  6
CONTINUOUS
 62
1
 10
1211.480002
 20
1266.232277
 40
10.000000
 50
180.000000
 51
270.000000
  0
LINE
  8
0
  6
CONTINUOUS
 62
1
 10
1261.480002
 20
1344.232277
 11
1261.480002
 21
1266.232277
  0
LINE
  8
0
  6
CONTINUOUS
 62
1
 10
1281.480002
 20
1344.232277
 11
1281.480002
 21
1266.232277
  0
ARC
  8
0
  6
CONTINUOUS
 62
1
 10
1271.480002
 20
1344.232277
 40
10.000000
 50
90.000000
 51
180.000000
  0
ARC
  8
0
  6
CONTINUOUS
 62
1
 10
1271.480002
 20
1344.232277
 40
10.000000
 50
0.000000
 51
90.000000
  0
ARC
  8
0
  6
CONTINUOUS
 62
1
 10
1271.480002
 20
1266.232277
 40
10.000000
 50
270.000000
 51
0.000000
  0
ARC
  8
0
  6
CONTINUOUS
 62
1
 10
1271.480002
 20
1266.232277
 40
10.000000
 50
180.000000
 51
270.000000
  0
LINE
  8
0
  6
CONTINUOUS
 62
1
 10
1081.480002
 20
1344.232277
 11
1081.480002
 21
1266.232277
  0
LINE
  8
0
  6
CONTINUOUS
 62
1
 10
1101.480002
 20
1344.232277
 11
1101.480002
 21
1266.232277
  0
ARC
  8
0
  6
CONTINUOUS
 62
1
 10
1091.480002
 20
1344.232277
 40
10.000000
 50
90.000000
 51
180.000000
  0
ARC
  8
0
  6
CONTINUOUS
 62
1
 10
1091.480002
 20
1344.232277
 40
10.000000
 50
0.000000
 51
90.000000
  0
ARC
  8
0
  6
CONTINUOUS
 62
1
 10
1091.480002
 20
1266.232277
 40
10.000000
 50
270.000000
 51
0.000000
  0
ARC
  8
0
  6
CONTINUOUS
 62
1
 10
1091.480002
 20
1266.232277
 40
10.000000
 50
180.000000
 51
270.000000
  0
LINE
  8
0
  6
CONTINUOUS
 62
1
 10
1041.480002
 20
1344.232277
 11
1041.480002
 21
1266.232277
  0
LINE
  8
0
  6
CONTINUOUS
 62
1
 10
1021.480002
 20
1344.232277
 11
1021.480002
 21
1266.232277
  0
ARC
  8
0
  6
CONTINUOUS
 62
1
 10
1031.480002
 20
1344.232277
 40
10.000000
 50
0.000000
 51
90.000000
  0
ARC
  8
0
  6
CONTINUOUS
 62
1
 10
1031.480002
 20
1344.232277
 40
10.000000
 50
90.000000
 51
180.000000
  0
ARC
  8
0
  6
CONTINUOUS
 62
1
 10
1031.480002
 20
1266.232277
 40
10.000000
 50
180.000000
 51
270.000000
  0
ARC
  8
0
  6
CONTINUOUS
 62
1
 10
1031.480002
 20
1266.232277
 40
10.000000
 50
270.000000
 51
0.000000
  0
LINE
  8
0
  6
CONTINUOUS
 62
1
 10
1321.480002
 20
1344.232277
 11
1321.480002
 21
1266.232277
  0
LINE
  8
0
  6
CONTINUOUS
 62
1
 10
1341.480002
 20
1344.232277
 11
1341.480002
 21
1266.232277
  0
ARC
  8
0
  6
CONTINUOUS
 62
1
 10
1331.480002
 20
1344.232277
 40
10.000000
 50
90.000000
 51
180.000000
  0
ARC
  8
0
  6
CONTINUOUS
 62
1
 10
1331.480002
 20
1344.232277
 40
10.000000
 50
0.000000
 51
90.000000
  0
ARC
  8
0
  6
CONTINUOUS
 62
1
 10
1331.480002
 20
1266.232277
 40
10.000000
 50
270.000000
 51
0.000000
  0
ARC
  8
0
  6
CONTINUOUS
 62
1
 10
1331.480002
 20
1266.232277
 40
10.000000
 50
180.000000
 51
270.000000
  0
LINE
  8
0
  6
CONTINUOUS
 62
1
 10
1381.480002
 20
1344.232277
 11
1381.480002
 21
1266.232277
  0
LINE
  8
0
  6
CONTINUOUS
 62
1
 10
1401.480002
 20
1344.232277
 11
1401.480002
 21
1266.232277
  0
ARC
  8
0
  6
CONTINUOUS
 62
1
 10
1391.480002
 20
1344.232277
 40
10.000000
 50
90.000000
 51
180.000000
  0
ARC
  8
0
  6
CONTINUOUS
 62
1
 10
1391.480002
 20
1344.232277
 40
10.000000
 50
0.000000
 51
90.000000
  0
ARC
  8
0
  6
CONTINUOUS
 62
1
 10
1391.480002
 20
1266.232277
 40
10.000000
 50
270.000000
 51
0.000000
  0
ARC
  8
0
  6
CONTINUOUS
 62
1
 10
1391.480002
 20
1266.232277
 40
10.000000
 50
180.000000
 51
270.000000
  0
LINE
  8
0
  6
CONTINUOUS
 62
1
 10
1441.480002
 20
1344.232277
 11
1441.480002
 21
1266.232277
  0
LINE
  8
0
  6
CONTINUOUS
 62
1
 10
1461.480002
 20
1344.232277
 11
1461.480002
 21
1266.232277
  0
ARC
  8
0
  6
CONTINUOUS
 62
1
 10
1451.480002
 20
1344.232277
 40
10.000000
 50
90.000000
 51
180.000000
  0
ARC
  8
0
  6
CONTINUOUS
 62
1
 10
1451.480002
 20
1344.232277
 40
10.000000
 50
0.000000
 51
90.000000
  0
ARC
  8
0
  6
CONTINUOUS
 62
1
 10
1451.480002
 20
1266.232277
 40
10.000000
 50
270.000000
 51
0.000000
  0
ARC
  8
0
  6
CONTINUOUS
 62
1
 10
1451.480002
 20
1266.232277
 40
10.000000
 50
180.000000
 51
270.000000
  0
LINE
  8
0
  6
CONTINUOUS
 62
1
 10
1501.480002
 20
1344.232277
 11
1501.480002
 21
1266.232277
  0
LINE
  8
0
  6
CONTINUOUS
 62
1
 10
1521.480002
 20
1344.232277
 11
1521.480002
 21
1266.232277
  0
ARC
  8
0
  6
CONTINUOUS
 62
1
 10
1511.480002
 20
1344.232277
 40
10.000000
 50
90.000000
 51
180.000000
  0
ARC
  8
0
  6
CONTINUOUS
 62
1
 10
1511.480002
 20
1344.232277
 40
10.000000
 50
0.000000
 51
90.000000
  0
ARC
  8
0
  6
CONTINUOUS
 62
1
 10
1511.480002
 20
1266.232277
 40
10.000000
 50
270.000000
 51
0.000000
  0
ARC
  8
0
  6
CONTINUOUS
 62
1
 10
1511.480002
 20
1266.232277
 40
10.000000
 50
180.000000
 51
270.000000
  0
LINE
  8
0
  6
CONTINUOUS
 62
1
 10
981.480002
 20
1344.232277
 11
981.480002
 21
1266.232277
  0
LINE
  8
0
  6
CONTINUOUS
 62
1
 10
961.480002
 20
1344.232277
 11
961.480002
 21
1266.232277
  0
ARC
  8
0
  6
CONTINUOUS
 62
1
 10
971.480002
 20
1344.232277
 40
10.000000
 50
0.000000
 51
90.000000
  0
ARC
  8
0
  6
CONTINUOUS
 62
1
 10
971.480002
 20
1344.232277
 40
10.000000
 50
90.000000
 51
180.000000
  0
ARC
  8
0
  6
CONTINUOUS
 62
1
 10
971.480002
 20
1266.232277
 40
10.000000
 50
180.000000
 51
270.000000
  0
ARC
  8
0
  6
CONTINUOUS
 62
1
 10
971.480002
 20
1266.232277
 40
10.000000
 50
270.000000
 51
0.000000
  0
LINE
  8
0
  6
CONTINUOUS
 62
1
 10
921.480002
 20
1344.232277
 11
921.480002
 21
1266.232277
  0
LINE
  8
0
  6
CONTINUOUS
 62
1
 10
901.480002
 20
1344.232277
 11
901.480002
 21
1266.232277
  0
ARC
  8
0
  6
CONTINUOUS
 62
1
 10
911.480002
 20
1344.232277
 40
10.000000
 50
0.000000
 51
90.000000
  0
ARC
  8
0
  6
CONTINUOUS
 62
1
 10
911.480002
 20
1344.232277
 40
10.000000
 50
90.000000
 51
180.000000
  0
ARC
  8
0
  6
CONTINUOUS
 62
1
 10
911.480002
 20
1266.232277
 40
10.000000
 50
180.000000
 51
270.000000
  0
ARC
  8
0
  6
CONTINUOUS
 62
1
 10
911.480002
 20
1266.232277
 40
10.000000
 50
270.000000
 51
0.000000
  0
LINE
  8
0
  6
CONTINUOUS
 62
1
 10
861.480002
 20
1344.232277
 11
861.480002
 21
1266.232277
  0
LINE
  8
0
  6
CONTINUOUS
 62
1
 10
841.480002
 20
1344.232277
 11
841.480002
 21
1266.232277
  0
ARC
  8
0
  6
CONTINUOUS
 62
1
 10
851.480002
 20
1344.232277
 40
10.000000
 50
0.000000
 51
90.000000
  0
ARC
  8
0
  6
CONTINUOUS
 62
1
 10
851.480002
 20
1344.232277
 40
10.000000
 50
90.000000
 51
180.000000
  0
ARC
  8
0
  6
CONTINUOUS
 62
1
 10
851.480002
 20
1266.232277
 40
10.000000
 50
180.000000
 51
270.000000
  0
ARC
  8
0
  6
CONTINUOUS
 62
1
 10
851.480002
 20
1266.232277
 40
10.000000
 50
270.000000
 51
0.000000
  0
LINE
  8
0
  6
CONTINUOUS
 62
1
 10
801.480002
 20
1344.232277
 11
801.480002
 21
1266.232277
  0
LINE
  8
0
  6
CONTINUOUS
 62
1
 10
781.480002
 20
1344.232277
 11
781.480002
 21
1266.232277
  0
ARC
  8
0
  6
CONTINUOUS
 62
1
 10
791.480002
 20
1344.232277
 40
10.000000
 50
0.000000
 51
90.000000
  0
ARC
  8
0
  6
CONTINUOUS
 62
1
 10
791.480002
 20
1344.232277
 40
10.000000
 50
90.000000
 51
180.000000
  0
ARC
  8
0
  6
CONTINUOUS
 62
1
 10
791.480002
 20
1266.232277
 40
10.000000
 50
180.000000
 51
270.000000
  0
ARC
  8
0
  6
CONTINUOUS
 62
1
 10
791.480002
 20
1266.232277
 40
10.000000
 50
270.000000
 51
0.000000
  0
CIRCLE
  8
0
  6
CONTINUOUS
 62
1
 10
728.480002
 20
1278.230556
 40
4.000000
  0
CIRCLE
  8
0
  6
CONTINUOUS
 62
1
 10
738.480002
 20
1348.230556
 40
4.000000
  0
CIRCLE
  8
0
  6
CONTINUOUS
 62
1
 10
728.480002
 20
1278.230556
 40
5.500000
  0
CIRCLE
  8
0
  6
CONTINUOUS
 62
1
 10
738.480002
 20
1348.230556
 40
5.500000
  0
LINE
  8
0
  6
CENTER
 62
4
 10
738.480002
 20
1355.730556
 11
738.480002
 21
1340.730556
  0
LINE
  8
0
  6
CENTER
 62
4
 10
730.980002
 20
1348.230556
 11
745.980002
 21
1348.230556
  0
LINE
  8
0
  6
CENTER
 62
4
 10
728.480002
 20
1285.730556
 11
728.480002
 21
1270.730556
  0
LINE
  8
0
  6
CENTER
 62
4
 10
720.980002
 20
1278.230556
 11
735.980002
 21
1278.230556
  0
CIRCLE
  8
0
  6
CONTINUOUS
 62
1
 10
1574.480002
 20
1278.130556
 40
4.000000
  0
CIRCLE
  8
0
  6
CONTINUOUS
 62
1
 10
1564.480002
 20
1348.130556
 40
4.000000
  0
CIRCLE
  8
0
  6
CONTINUOUS
 62
1
 10
1574.480002
 20
1278.130556
 40
5.500000
  0
CIRCLE
  8
0
  6
CONTINUOUS
 62
1
 10
1564.480002
 20
1348.130556
 40
5.500000
  0
LINE
  8
0
  6
CENTER
 62
4
 10
1564.480002
 20
1355.630556
 11
1564.480002
 21
1340.630556
  0
LINE
  8
0
  6
CENTER
 62
4
 10
1571.980002
 20
1348.130556
 11
1556.980002
 21
1348.130556
  0
LINE
  8
0
  6
CENTER
 62
4
 10
1574.480002
 20
1285.630556
 11
1574.480002
 21
1270.630556
  0
LINE
  8
0
  6
CENTER
 62
4
 10
1581.980002
 20
1278.130556
 11
1566.980002
 21
1278.130556
  0
LINE
  8
0
  6
CONTINUOUS
 62
1
 10
1152.480002
 20
627.624794
 11
1152.480002
 21
790.628316
  0
LINE
  8
0
  6
CONTINUOUS
 62
1
 10
1150.480002
 20
627.624794
 11
1150.480002
 21
790.628316
  0
LINE
  8
0
  6
CONTINUOUS
 62
1
 10
1152.480002
 20
1237.624794
 11
1152.480002
 21
1074.621273
  0
LINE
  8
0
  6
CONTINUOUS
 62
1
 10
1150.480002
 20
1237.624794
 11
1150.480002
 21
1074.621273
  0
ENDSEC
  0
EOF
