  0
SECTION
  2
HEADER
  9
$LIMMIN
 10
0.000000
 20
0.000000
  9
$LIMMAX
 10
4000.000000
 20
2500.000000
  9
$EXTMIN
 10
0.000000
 20
0.000000
  9
$EXTMAX
 10
4000.000000
 20
2500.000000
  9
$ANGBASE
 50
0.0
  9
$ANGDIR
 70
0
  9
$DIMRND
 40
0.100000
  9
$DIMSE1
 70
0
  9
$DIMSE2
 70
0
  9
$DIMTXT
 40
3.500000
  9
$LTSCALE
 40
1.000000
  9
$LUPREC
 70
5
  9
$AUPREC
 70
5
  9
$PDMODE
 70
2
  9
$PDSIZE
 40
20.000000
  0
ENDSEC
  0
SECTION
  2
TABLES
  0
TABLE
  2
VPORT
  70
1
  0
VPORT
  2
*ACTIVE
 70
0
  10
0.0
 20
0.0
 11
1.0
 21
1.0
 12
594.0
 22
420.0
 13
0.0
 23
0.0
 14
10.0
 24
10.0
 15
10.0
 25
10.0
 16
0.0
 26
0.0
 36
1.0
 17
594.0
 27
420.0
 37
100.0
 40
1000.0
 41
1.0
 42
50.0
 43
0.0
 44
0.0
 50
0.0
 51
0.0
 71
0
 72
2000
 73
1
 74
3
 75
0
 76
0
 77
0
 78
1
  0
ENDTAB
  0
TABLE
  2
LTYPE
 70
4
  0
LTYPE
  2
CONTINUOUS
 70
0
  3
Solid line
 72
65
 73
0
 40
0.0
  0
LTYPE
  2
DASHED
 70
0
  3
Dashed line
 72
65
 73
2
 40
6.000000
 49
3.000000
 49
-3.000000
  0
LTYPE
  2
CENTER
 70
0
  3
Chain line
 72
65
 73
4
 40
24.000000
 49
15.000000
 49
-3.000000
 49
3.000000
 49
-3.000000
  0
LTYPE
  2
RANDOM
 70
0
  3
Random line
 72
65
 73
4
 40
22.500000
 49
6.000000
 49
-3.000000
 49
4.500000
 49
-9.000000
  0
ENDTAB
  0
TABLE
  2
STYLE
 70
9
  0
STYLE
  2
STANDARD
 40
0
 41
1.0
 50
0.0
 71
0
 42
0
  3
simplex
  4

 70
0
  0
ENDTAB
  0
TABLE
  2
LAYER
 70
2
  0
LAYER
  2
0
 70
0
 62
7
  6
CONTINUOUS
  0
LAYER
  2
0
 62
1
  6
CONTINUOUS
 70
0
  0
ENDTAB
  0
ENDSEC
  0
SECTION
  2
BLOCKS
  0
ENDSEC
  0
SECTION
  2
ENTITIES
  0
LINE
  8
0
  6
CONTINUOUS
 62
1
 10
475.050765
 20
1469.560004
 11
475.050765
 21
532.560004
  0
LINE
  8
0
  6
CONTINUOUS
 62
1
 10
1375.050765
 20
532.560004
 11
1375.050765
 21
1469.560004
  0
LINE
  8
0
  6
CONTINUOUS
 62
1
 10
1375.050765
 20
1469.560004
 11
475.050765
 21
1469.560004
  0
LINE
  8
0
  6
CONTINUOUS
 62
1
 10
475.050765
 20
723.560004
 11
1375.050765
 21
723.560004
  0
LINE
  8
0
  6
CONTINUOUS
 62
1
 10
480.050765
 20
723.560004
 11
1370.050765
 21
723.560004
  0
LINE
  8
0
  6
CONTINUOUS
 62
1
 10
1375.050765
 20
1340.560004
 11
475.050765
 21
1340.560004
  0
LINE
  8
0
  6
CONTINUOUS
 62
1
 10
475.050765
 20
1469.560004
 11
1375.050765
 21
1469.560004
  0
LINE
  8
0
  6
CONTINUOUS
 62
1
 10
475.050765
 20
1469.560004
 11
475.050765
 21
1315.560004
  0
LINE
  8
0
  6
CONTINUOUS
 62
1
 10
1375.050765
 20
1469.560004
 11
1375.050765
 21
1315.560004
  0
LINE
  8
0
  6
CONTINUOUS
 62
1
 10
475.050765
 20
1340.560004
 11
475.050765
 21
596.560004
  0
LINE
  8
0
  6
CONTINUOUS
 62
1
 10
1375.050765
 20
532.560004
 11
475.050765
 21
532.560004
  0
LINE
  8
0
  6
CONTINUOUS
 62
1
 10
1373.050765
 20
1340.560004
 11
477.050765
 21
1340.560004
  0
LINE
  8
0
  6
CONTINUOUS
 62
1
 10
480.050765
 20
723.560004
 11
923.050807
 21
723.560004
  0
LINE
  8
0
  6
CONTINUOUS
 62
1
 10
480.050765
 20
723.560004
 11
480.050765
 21
1027.560012
  0
LINE
  8
0
  6
CONTINUOUS
 62
1
 10
480.050765
 20
787.560011
 11
542.550792
 21
787.560011
  0
LINE
  8
0
  6
CONTINUOUS
 62
1
 10
490.050798
 20
733.560007
 11
490.050798
 21
787.560011
  0
LINE
  8
0
  6
CONTINUOUS
 62
1
 10
542.550792
 20
787.560011
 11
546.377616
 21
788.321205
  0
LINE
  8
0
  6
CONTINUOUS
 62
1
 10
546.377616
 20
788.321205
 11
549.621849
 21
790.488931
  0
LINE
  8
0
  6
CONTINUOUS
 62
1
 10
586.776159
 20
781.409314
 11
589.152354
 21
784.233535
  0
LINE
  8
0
  6
CONTINUOUS
 62
1
 10
585.586312
 20
777.915507
 11
586.776159
 21
781.409314
  0
LINE
  8
0
  6
CONTINUOUS
 62
1
 10
585.586312
 20
777.915507
 11
585.744867
 21
774.228054
  0
LINE
  8
0
  6
CONTINUOUS
 62
1
 10
585.744867
 20
774.228054
 11
587.230246
 21
770.849283
  0
LINE
  8
0
  6
CONTINUOUS
 62
1
 10
587.230246
 20
770.849283
 11
589.840054
 21
768.239453
  0
LINE
  8
0
  6
CONTINUOUS
 62
1
 10
589.840054
 20
768.239453
 11
593.218829
 21
766.754089
  0
LINE
  8
0
  6
CONTINUOUS
 62
1
 10
593.218829
 20
766.754089
 11
596.906274
 21
766.595537
  0
LINE
  8
0
  6
CONTINUOUS
 62
1
 10
596.906274
 20
766.595537
 11
600.400106
 21
767.785392
  0
LINE
  8
0
  6
CONTINUOUS
 62
1
 10
600.400106
 20
767.785392
 11
603.224316
 21
770.161574
  0
LINE
  8
0
  6
CONTINUOUS
 62
1
 10
603.224316
 20
770.161574
 11
634.730103
 21
808.668243
  0
LINE
  8
0
  6
CONTINUOUS
 62
1
 10
490.050798
 20
733.560007
 11
692.473176
 21
733.560007
  0
LINE
  8
0
  6
CONTINUOUS
 62
1
 10
672.304230
 20
773.410379
 11
686.801326
 21
770.526737
  0
LINE
  8
0
  6
CONTINUOUS
 62
1
 10
658.307566
 20
778.161614
 11
672.304230
 21
773.410379
  0
LINE
  8
0
  6
CONTINUOUS
 62
1
 10
645.050779
 20
784.699140
 11
658.307566
 21
778.161614
  0
LINE
  8
0
  6
CONTINUOUS
 62
1
 10
632.760757
 20
792.911091
 11
645.050779
 21
784.699140
  0
LINE
  8
0
  6
CONTINUOUS
 62
1
 10
510.050796
 20
872.560017
 11
510.050796
 21
892.560014
  0
LINE
  8
0
  6
CONTINUOUS
 62
1
 10
510.050796
 20
872.560017
 11
553.550797
 21
872.560017
  0
LINE
  8
0
  6
CONTINUOUS
 62
1
 10
480.050765
 20
873.877708
 11
510.050796
 21
872.560017
  0
LINE
  8
0
  6
CONTINUOUS
 62
1
 10
480.050765
 20
891.242323
 11
510.050796
 21
892.560014
  0
LINE
  8
0
  6
CONTINUOUS
 62
1
 10
510.050796
 20
892.560014
 11
553.550797
 21
892.560014
  0
LINE
  8
0
  6
CONTINUOUS
 62
1
 10
480.050765
 20
807.560016
 11
542.550792
 21
807.560016
  0
LINE
  8
0
  6
CONTINUOUS
 62
1
 10
510.050796
 20
787.560011
 11
510.050796
 21
807.560016
  0
LINE
  8
0
  6
CONTINUOUS
 62
1
 10
490.050798
 20
891.681543
 11
490.050798
 21
957.560016
  0
LINE
  8
0
  6
CONTINUOUS
 62
1
 10
490.050798
 20
807.560016
 11
490.050798
 21
873.438473
  0
LINE
  8
0
  6
CONTINUOUS
 62
1
 10
659.550790
 20
877.560012
 11
659.550790
 21
887.560019
  0
LINE
  8
0
  6
CONTINUOUS
 62
1
 10
553.550797
 20
892.560014
 11
659.550790
 21
887.560019
  0
LINE
  8
0
  6
CONTINUOUS
 62
1
 10
553.550797
 20
872.560017
 11
659.550790
 21
877.560012
  0
LINE
  8
0
  6
CONTINUOUS
 62
1
 10
549.621849
 20
790.488931
 11
551.789576
 21
793.733168
  0
LINE
  8
0
  6
CONTINUOUS
 62
1
 10
551.789576
 20
793.733168
 11
552.541322
 21
797.512466
  0
LINE
  8
0
  6
CONTINUOUS
 62
1
 10
552.541322
 20
797.512466
 11
552.541322
 21
797.607537
  0
LINE
  8
0
  6
CONTINUOUS
 62
1
 10
551.789576
 20
801.386835
 11
552.541322
 21
797.607537
  0
LINE
  8
0
  6
CONTINUOUS
 62
1
 10
549.621849
 20
804.631063
 11
551.789576
 21
801.386835
  0
LINE
  8
0
  6
CONTINUOUS
 62
1
 10
546.377616
 20
806.798798
 11
549.621849
 21
804.631063
  0
LINE
  8
0
  6
CONTINUOUS
 62
1
 10
542.550792
 20
807.560016
 11
546.377616
 21
806.798798
  0
LINE
  8
0
  6
CONTINUOUS
 62
1
 10
627.659011
 20
815.739297
 11
634.730103
 21
808.668243
  0
LINE
  8
0
  6
CONTINUOUS
 62
1
 10
589.152354
 20
784.233535
 11
627.659011
 21
815.739297
  0
LINE
  8
0
  6
CONTINUOUS
 62
1
 10
631.669432
 20
876.244848
 11
633.065826
 21
874.155007
  0
LINE
  8
0
  6
CONTINUOUS
 62
1
 10
633.065826
 20
874.155007
 11
636.958892
 21
871.553726
  0
LINE
  8
0
  6
CONTINUOUS
 62
1
 10
636.958892
 20
871.553726
 11
637.635306
 21
871.419200
  0
LINE
  8
0
  6
CONTINUOUS
 62
1
 10
631.565456
 20
888.880061
 11
633.065826
 21
891.125562
  0
LINE
  8
0
  6
CONTINUOUS
 62
1
 10
633.065826
 20
891.125562
 11
636.958892
 21
893.726844
  0
LINE
  8
0
  6
CONTINUOUS
 62
1
 10
636.958892
 20
893.726844
 11
637.668581
 21
893.867996
  0
LINE
  8
0
  6
CONTINUOUS
 62
1
 10
637.635306
 20
871.419200
 11
638.765600
 21
865.736770
  0
LINE
  8
0
  6
CONTINUOUS
 62
1
 10
637.668581
 20
893.867996
 11
638.765600
 21
899.383245
  0
LINE
  8
0
  6
CONTINUOUS
 62
1
 10
638.765600
 20
865.736770
 11
641.498595
 21
857.685596
  0
LINE
  8
0
  6
CONTINUOUS
 62
1
 10
641.498630
 20
857.685564
 11
645.259143
 21
850.060007
  0
LINE
  8
0
  6
CONTINUOUS
 62
1
 10
645.259143
 20
850.060007
 11
649.982821
 21
842.990510
  0
LINE
  8
0
  6
CONTINUOUS
 62
1
 10
649.982821
 20
842.990494
 11
655.588841
 21
836.598061
  0
LINE
  8
0
  6
CONTINUOUS
 62
1
 10
655.588841
 20
836.598061
 11
661.981289
 21
830.992031
  0
LINE
  8
0
  6
CONTINUOUS
 62
1
 10
661.981324
 20
830.992015
 11
669.050769
 21
826.268350
  0
LINE
  8
0
  6
CONTINUOUS
 62
1
 10
669.050769
 20
826.268350
 11
676.676356
 21
822.507834
  0
LINE
  8
0
  6
CONTINUOUS
 62
1
 10
645.259143
 20
915.060008
 11
649.982821
 21
922.129521
  0
LINE
  8
0
  6
CONTINUOUS
 62
1
 10
641.498630
 20
907.434499
 11
645.259143
 21
915.060008
  0
LINE
  8
0
  6
CONTINUOUS
 62
1
 10
638.765600
 20
899.383245
 11
641.498595
 21
907.434420
  0
LINE
  8
0
  6
CONTINUOUS
 62
1
 10
589.517524
 20
897.309469
 11
592.401184
 21
911.806548
  0
LINE
  8
0
  6
CONTINUOUS
 62
1
 10
592.401184
 20
911.806548
 11
597.152408
 21
925.803229
  0
LINE
  8
0
  6
CONTINUOUS
 62
1
 10
589.096335
 20
890.883333
 11
589.517524
 21
897.309469
  0
LINE
  8
0
  6
CONTINUOUS
 62
1
 10
589.096335
 20
874.236683
 11
589.517524
 21
867.810546
  0
LINE
  8
0
  6
CONTINUOUS
 62
1
 10
611.901847
 20
813.769967
 11
617.479155
 21
807.410267
  0
LINE
  8
0
  6
CONTINUOUS
 62
1
 10
603.689929
 20
826.060014
 11
611.901847
 21
813.769967
  0
LINE
  8
0
  6
CONTINUOUS
 62
1
 10
597.152408
 20
839.316786
 11
603.689929
 21
826.060014
  0
LINE
  8
0
  6
CONTINUOUS
 62
1
 10
592.401184
 20
853.313468
 11
597.152408
 21
839.316786
  0
LINE
  8
0
  6
CONTINUOUS
 62
1
 10
589.517524
 20
867.810546
 11
592.401184
 21
853.313468
  0
LINE
  8
0
  6
CONTINUOUS
 62
1
 10
626.401036
 20
798.488407
 11
632.760757
 21
792.911091
  0
LINE
  8
0
  6
CONTINUOUS
 62
1
 10
692.203424
 20
739.701233
 11
692.868465
 21
724.560003
  0
LINE
  8
0
  6
CONTINUOUS
 62
1
 10
710.233115
 20
724.560003
 11
710.898157
 21
739.701233
  0
LINE
  8
0
  6
CONTINUOUS
 62
1
 10
692.843886
 20
754.560003
 11
710.257694
 21
754.560003
  0
LINE
  8
0
  6
CONTINUOUS
 62
1
 10
692.203424
 20
739.701233
 11
696.550782
 21
840.560016
  0
LINE
  8
0
  6
CONTINUOUS
 62
1
 10
706.550781
 20
840.560016
 11
710.898157
 21
739.701233
  0
LINE
  8
0
  6
CONTINUOUS
 62
1
 10
768.371478
 20
808.668243
 11
799.877282
 21
770.161574
  0
LINE
  8
0
  6
CONTINUOUS
 62
1
 10
813.949244
 20
784.233535
 11
816.325404
 21
781.409314
  0
LINE
  8
0
  6
CONTINUOUS
 62
1
 10
816.325404
 20
781.409314
 11
817.515252
 21
777.915507
  0
LINE
  8
0
  6
CONTINUOUS
 62
1
 10
817.356714
 20
774.228054
 11
817.515252
 21
777.915507
  0
LINE
  8
0
  6
CONTINUOUS
 62
1
 10
815.871335
 20
770.849283
 11
817.356714
 21
774.228054
  0
LINE
  8
0
  6
CONTINUOUS
 62
1
 10
813.261527
 20
768.239453
 11
815.871335
 21
770.849283
  0
LINE
  8
0
  6
CONTINUOUS
 62
1
 10
809.882735
 20
766.754089
 11
813.261527
 21
768.239453
  0
LINE
  8
0
  6
CONTINUOUS
 62
1
 10
806.195306
 20
766.595537
 11
809.882735
 21
766.754089
  0
LINE
  8
0
  6
CONTINUOUS
 62
1
 10
802.701492
 20
767.785392
 11
806.195306
 21
766.595537
  0
LINE
  8
0
  6
CONTINUOUS
 62
1
 10
799.877282
 20
770.161574
 11
802.701492
 21
767.785392
  0
LINE
  8
0
  6
CONTINUOUS
 62
1
 10
710.628404
 20
733.560007
 11
913.050808
 21
733.560007
  0
LINE
  8
0
  6
CONTINUOUS
 62
1
 10
692.868465
 20
724.560003
 11
710.233115
 21
724.560003
  0
LINE
  8
0
  6
CONTINUOUS
 62
1
 10
686.801326
 20
770.526737
 11
693.513147
 21
770.086818
  0
LINE
  8
0
  6
CONTINUOUS
 62
1
 10
758.050802
 20
784.699140
 11
770.340840
 21
792.911091
  0
LINE
  8
0
  6
CONTINUOUS
 62
1
 10
744.794032
 20
778.161614
 11
758.050802
 21
784.699140
  0
LINE
  8
0
  6
CONTINUOUS
 62
1
 10
730.797334
 20
773.410379
 11
744.794032
 21
778.161614
  0
LINE
  8
0
  6
CONTINUOUS
 62
1
 10
716.300255
 20
770.526737
 11
730.797334
 21
773.410379
  0
LINE
  8
0
  6
CONTINUOUS
 62
1
 10
709.588433
 20
770.086818
 11
716.300255
 21
770.526737
  0
LINE
  8
0
  6
CONTINUOUS
 62
1
 10
860.550806
 20
787.560011
 11
923.050807
 21
787.560011
  0
LINE
  8
0
  6
CONTINUOUS
 62
1
 10
853.479732
 20
790.488931
 11
856.723965
 21
788.321205
  0
LINE
  8
0
  6
CONTINUOUS
 62
1
 10
856.723965
 20
788.321205
 11
860.550806
 21
787.560011
  0
LINE
  8
0
  6
CONTINUOUS
 62
1
 10
923.050807
 20
723.560004
 11
923.050807
 21
1027.560012
  0
LINE
  8
0
  6
CONTINUOUS
 62
1
 10
913.050808
 20
733.560007
 11
913.050808
 21
787.560011
  0
LINE
  8
0
  6
CONTINUOUS
 62
1
 10
696.550782
 20
924.559999
 11
706.550781
 21
924.559999
  0
LINE
  8
0
  6
CONTINUOUS
 62
1
 10
696.550782
 20
840.560016
 11
706.550781
 21
840.560016
  0
LINE
  8
0
  6
CONTINUOUS
 62
1
 10
768.371478
 20
808.668243
 11
775.442552
 21
815.739297
  0
LINE
  8
0
  6
CONTINUOUS
 62
1
 10
775.442552
 20
815.739297
 11
813.949244
 21
784.233535
  0
LINE
  8
0
  6
CONTINUOUS
 62
1
 10
743.550807
 20
877.560012
 11
743.550807
 21
887.560019
  0
LINE
  8
0
  6
CONTINUOUS
 62
1
 10
743.550807
 20
887.560019
 11
849.550801
 21
892.560014
  0
LINE
  8
0
  6
CONTINUOUS
 62
1
 10
743.550807
 20
877.560012
 11
849.550801
 21
872.560017
  0
LINE
  8
0
  6
CONTINUOUS
 62
1
 10
676.676356
 20
822.507834
 11
684.727558
 21
819.774823
  0
LINE
  8
0
  6
CONTINUOUS
 62
1
 10
684.727558
 20
819.774823
 11
693.066590
 21
818.116082
  0
LINE
  8
0
  6
CONTINUOUS
 62
1
 10
693.066590
 20
818.116082
 11
695.576281
 21
817.951587
  0
LINE
  8
0
  6
CONTINUOUS
 62
1
 10
707.525282
 20
817.951587
 11
710.034990
 21
818.116082
  0
LINE
  8
0
  6
CONTINUOUS
 62
1
 10
710.035007
 20
818.116082
 11
718.374023
 21
819.774823
  0
LINE
  8
0
  6
CONTINUOUS
 62
1
 10
718.374023
 20
819.774823
 11
726.425224
 21
822.507834
  0
LINE
  8
0
  6
CONTINUOUS
 62
1
 10
726.425224
 20
822.507850
 11
734.050778
 21
826.268350
  0
LINE
  8
0
  6
CONTINUOUS
 62
1
 10
734.050778
 20
826.268350
 11
741.120291
 21
830.992031
  0
LINE
  8
0
  6
CONTINUOUS
 62
1
 10
741.120308
 20
830.992047
 11
747.512739
 21
836.598061
  0
LINE
  8
0
  6
CONTINUOUS
 62
1
 10
747.512739
 20
836.598061
 11
753.118760
 21
842.990510
  0
LINE
  8
0
  6
CONTINUOUS
 62
1
 10
753.118811
 20
842.990590
 11
757.842454
 21
850.060007
  0
LINE
  8
0
  6
CONTINUOUS
 62
1
 10
757.842454
 20
850.060039
 11
761.602951
 21
857.685596
  0
LINE
  8
0
  6
CONTINUOUS
 62
1
 10
761.602951
 20
857.685596
 11
764.335963
 21
865.736770
  0
LINE
  8
0
  6
CONTINUOUS
 62
1
 10
764.335963
 20
865.736786
 11
765.994717
 21
874.075811
  0
LINE
  8
0
  6
CONTINUOUS
 62
1
 10
765.994717
 20
874.075811
 11
766.153220
 21
876.493847
  0
LINE
  8
0
  6
CONTINUOUS
 62
1
 10
765.994717
 20
891.044205
 11
766.153203
 21
888.626169
  0
LINE
  8
0
  6
CONTINUOUS
 62
1
 10
764.335963
 20
899.383229
 11
765.994717
 21
891.044205
  0
LINE
  8
0
  6
CONTINUOUS
 62
1
 10
761.602951
 20
907.434420
 11
764.335963
 21
899.383245
  0
LINE
  8
0
  6
CONTINUOUS
 62
1
 10
757.842454
 20
915.059993
 11
761.602951
 21
907.434420
  0
LINE
  8
0
  6
CONTINUOUS
 62
1
 10
753.118760
 20
922.129521
 11
757.842454
 21
915.060008
  0
LINE
  8
0
  6
CONTINUOUS
 62
1
 10
805.949173
 20
925.803229
 11
810.700397
 21
911.806548
  0
LINE
  8
0
  6
CONTINUOUS
 62
1
 10
810.700397
 20
911.806548
 11
813.584074
 21
897.309469
  0
LINE
  8
0
  6
CONTINUOUS
 62
1
 10
813.584074
 20
897.309469
 11
814.005263
 21
890.883333
  0
LINE
  8
0
  6
CONTINUOUS
 62
1
 10
770.340840
 20
792.911091
 11
776.700545
 21
798.488407
  0
LINE
  8
0
  6
CONTINUOUS
 62
1
 10
813.584074
 20
867.810546
 11
814.005263
 21
874.236683
  0
LINE
  8
0
  6
CONTINUOUS
 62
1
 10
810.700397
 20
853.313468
 11
813.584074
 21
867.810546
  0
LINE
  8
0
  6
CONTINUOUS
 62
1
 10
805.949173
 20
839.316786
 11
810.700397
 21
853.313468
  0
LINE
  8
0
  6
CONTINUOUS
 62
1
 10
799.411668
 20
826.060014
 11
805.949173
 21
839.316786
  0
LINE
  8
0
  6
CONTINUOUS
 62
1
 10
791.199734
 20
813.769967
 11
799.411668
 21
826.060014
  0
LINE
  8
0
  6
CONTINUOUS
 62
1
 10
785.622392
 20
807.410267
 11
791.199734
 21
813.769967
  0
LINE
  8
0
  6
CONTINUOUS
 62
1
 10
860.550806
 20
807.560016
 11
923.050807
 21
807.560016
  0
LINE
  8
0
  6
CONTINUOUS
 62
1
 10
850.560267
 20
797.512466
 11
851.312004
 21
793.733168
  0
LINE
  8
0
  6
CONTINUOUS
 62
1
 10
851.312004
 20
793.733168
 11
853.479732
 21
790.488931
  0
LINE
  8
0
  6
CONTINUOUS
 62
1
 10
893.050802
 20
787.560011
 11
893.050802
 21
807.560016
  0
LINE
  8
0
  6
CONTINUOUS
 62
1
 10
856.723965
 20
806.798798
 11
860.550806
 21
807.560016
  0
LINE
  8
0
  6
CONTINUOUS
 62
1
 10
853.479732
 20
804.631063
 11
856.723965
 21
806.798798
  0
LINE
  8
0
  6
CONTINUOUS
 62
1
 10
851.312004
 20
801.386835
 11
853.479732
 21
804.631063
  0
LINE
  8
0
  6
CONTINUOUS
 62
1
 10
850.560267
 20
797.607537
 11
851.312004
 21
801.386835
  0
LINE
  8
0
  6
CONTINUOUS
 62
1
 10
850.560267
 20
797.512466
 11
850.560267
 21
797.607537
  0
LINE
  8
0
  6
CONTINUOUS
 62
1
 10
893.050802
 20
872.560017
 11
893.050802
 21
892.560014
  0
LINE
  8
0
  6
CONTINUOUS
 62
1
 10
893.050802
 20
872.560017
 11
923.050807
 21
873.877708
  0
LINE
  8
0
  6
CONTINUOUS
 62
1
 10
849.550801
 20
872.560017
 11
893.050802
 21
872.560017
  0
LINE
  8
0
  6
CONTINUOUS
 62
1
 10
849.550801
 20
892.560014
 11
893.050802
 21
892.560014
  0
LINE
  8
0
  6
CONTINUOUS
 62
1
 10
893.050802
 20
892.560014
 11
923.050807
 21
891.242323
  0
LINE
  8
0
  6
CONTINUOUS
 62
1
 10
913.050808
 20
807.560016
 11
913.050808
 21
873.438473
  0
LINE
  8
0
  6
CONTINUOUS
 62
1
 10
913.050808
 20
891.681559
 11
913.050808
 21
957.560016
  0
LINE
  8
0
  6
CONTINUOUS
 62
1
 10
480.050765
 20
957.560016
 11
542.550792
 21
957.560016
  0
LINE
  8
0
  6
CONTINUOUS
 62
1
 10
480.050765
 20
977.559997
 11
542.550792
 21
977.559997
  0
LINE
  8
0
  6
CONTINUOUS
 62
1
 10
510.050796
 20
957.560016
 11
510.050796
 21
977.559997
  0
LINE
  8
0
  6
CONTINUOUS
 62
1
 10
480.050765
 20
1017.560022
 11
691.853828
 21
1017.560022
  0
LINE
  8
0
  6
CONTINUOUS
 62
1
 10
510.050796
 20
1017.560022
 11
510.050796
 21
1027.560012
  0
LINE
  8
0
  6
CONTINUOUS
 62
1
 10
480.050765
 20
1027.560012
 11
923.050807
 21
1027.560012
  0
LINE
  8
0
  6
CONTINUOUS
 62
1
 10
490.050798
 20
977.559997
 11
490.050798
 21
1017.560022
  0
LINE
  8
0
  6
CONTINUOUS
 62
1
 10
603.224316
 20
994.958442
 11
634.730103
 21
956.451805
  0
LINE
  8
0
  6
CONTINUOUS
 62
1
 10
600.400106
 20
997.334623
 11
603.224316
 21
994.958442
  0
LINE
  8
0
  6
CONTINUOUS
 62
1
 10
596.906274
 20
998.524478
 11
600.400106
 21
997.334623
  0
LINE
  8
0
  6
CONTINUOUS
 62
1
 10
593.218829
 20
998.365958
 11
596.906274
 21
998.524478
  0
LINE
  8
0
  6
CONTINUOUS
 62
1
 10
589.840054
 20
996.880578
 11
593.218829
 21
998.365958
  0
LINE
  8
0
  6
CONTINUOUS
 62
1
 10
587.230246
 20
994.270748
 11
589.840054
 21
996.880578
  0
LINE
  8
0
  6
CONTINUOUS
 62
1
 10
585.744867
 20
990.891993
 11
587.230246
 21
994.270748
  0
LINE
  8
0
  6
CONTINUOUS
 62
1
 10
585.586312
 20
987.204524
 11
585.744867
 21
990.891993
  0
LINE
  8
0
  6
CONTINUOUS
 62
1
 10
585.586312
 20
987.204524
 11
586.776159
 21
983.710693
  0
LINE
  8
0
  6
CONTINUOUS
 62
1
 10
586.776159
 20
983.710693
 11
589.152354
 21
980.886473
  0
LINE
  8
0
  6
CONTINUOUS
 62
1
 10
589.152354
 20
980.886473
 11
627.659011
 21
949.380719
  0
LINE
  8
0
  6
CONTINUOUS
 62
1
 10
627.659011
 20
949.380719
 11
634.730103
 21
956.451805
  0
LINE
  8
0
  6
CONTINUOUS
 62
1
 10
542.550792
 20
957.560016
 11
546.377616
 21
958.321249
  0
LINE
  8
0
  6
CONTINUOUS
 62
1
 10
546.377616
 20
958.321249
 11
549.621849
 21
960.488952
  0
LINE
  8
0
  6
CONTINUOUS
 62
1
 10
549.621849
 20
960.488952
 11
551.789576
 21
963.733181
  0
LINE
  8
0
  6
CONTINUOUS
 62
1
 10
551.789576
 20
963.733181
 11
552.541322
 21
967.512495
  0
LINE
  8
0
  6
CONTINUOUS
 62
1
 10
552.541322
 20
967.512495
 11
552.541322
 21
967.607549
  0
LINE
  8
0
  6
CONTINUOUS
 62
1
 10
551.789576
 20
971.386863
 11
552.541322
 21
967.607549
  0
LINE
  8
0
  6
CONTINUOUS
 62
1
 10
549.621849
 20
974.631092
 11
551.789576
 21
971.386863
  0
LINE
  8
0
  6
CONTINUOUS
 62
1
 10
546.377616
 20
976.798795
 11
549.621849
 21
974.631092
  0
LINE
  8
0
  6
CONTINUOUS
 62
1
 10
542.550792
 20
977.559997
 11
546.377616
 21
976.798795
  0
LINE
  8
0
  6
CONTINUOUS
 62
1
 10
669.050803
 20
938.851682
 11
676.676356
 21
942.612181
  0
LINE
  8
0
  6
CONTINUOUS
 62
1
 10
661.981324
 20
934.128016
 11
669.050769
 21
938.851650
  0
LINE
  8
0
  6
CONTINUOUS
 62
1
 10
655.588841
 20
928.521939
 11
661.981289
 21
934.127984
  0
LINE
  8
0
  6
CONTINUOUS
 62
1
 10
649.982958
 20
922.129680
 11
655.588841
 21
928.521939
  0
LINE
  8
0
  6
CONTINUOUS
 62
1
 10
626.401036
 20
966.631640
 11
632.760757
 21
972.208924
  0
LINE
  8
0
  6
CONTINUOUS
 62
1
 10
632.760757
 20
972.208924
 11
645.050779
 21
980.420891
  0
LINE
  8
0
  6
CONTINUOUS
 62
1
 10
645.050779
 20
980.420891
 11
658.307566
 21
986.958418
  0
LINE
  8
0
  6
CONTINUOUS
 62
1
 10
658.307566
 20
986.958418
 11
672.304230
 21
991.709637
  0
LINE
  8
0
  6
CONTINUOUS
 62
1
 10
672.304230
 20
991.709637
 11
686.801326
 21
994.593318
  0
LINE
  8
0
  6
CONTINUOUS
 62
1
 10
597.152408
 20
925.803229
 11
603.689929
 21
939.060002
  0
LINE
  8
0
  6
CONTINUOUS
 62
1
 10
603.689929
 20
939.060002
 11
611.901847
 21
951.350049
  0
LINE
  8
0
  6
CONTINUOUS
 62
1
 10
611.901847
 20
951.350049
 11
617.479155
 21
957.709764
  0
LINE
  8
0
  6
CONTINUOUS
 62
1
 10
706.550781
 20
924.559999
 11
711.247753
 21
1017.560022
  0
LINE
  8
0
  6
CONTINUOUS
 62
1
 10
691.853828
 20
1017.560022
 11
696.550782
 21
924.559999
  0
LINE
  8
0
  6
CONTINUOUS
 62
1
 10
768.371478
 20
956.451805
 11
775.442552
 21
949.380719
  0
LINE
  8
0
  6
CONTINUOUS
 62
1
 10
775.442552
 20
949.380719
 11
813.949244
 21
980.886473
  0
LINE
  8
0
  6
CONTINUOUS
 62
1
 10
799.877282
 20
994.958442
 11
802.701492
 21
997.334623
  0
LINE
  8
0
  6
CONTINUOUS
 62
1
 10
802.701492
 20
997.334623
 11
806.195306
 21
998.524478
  0
LINE
  8
0
  6
CONTINUOUS
 62
1
 10
806.195306
 20
998.524478
 11
809.882735
 21
998.365958
  0
LINE
  8
0
  6
CONTINUOUS
 62
1
 10
809.882735
 20
998.365958
 11
813.261527
 21
996.880578
  0
LINE
  8
0
  6
CONTINUOUS
 62
1
 10
813.261527
 20
996.880578
 11
815.871335
 21
994.270748
  0
LINE
  8
0
  6
CONTINUOUS
 62
1
 10
815.871335
 20
994.270748
 11
817.356714
 21
990.891993
  0
LINE
  8
0
  6
CONTINUOUS
 62
1
 10
817.356714
 20
990.891993
 11
817.515252
 21
987.204524
  0
LINE
  8
0
  6
CONTINUOUS
 62
1
 10
816.325404
 20
983.710693
 11
817.515252
 21
987.204524
  0
LINE
  8
0
  6
CONTINUOUS
 62
1
 10
813.949244
 20
980.886473
 11
816.325404
 21
983.710693
  0
LINE
  8
0
  6
CONTINUOUS
 62
1
 10
768.371478
 20
956.451805
 11
799.877282
 21
994.958442
  0
LINE
  8
0
  6
CONTINUOUS
 62
1
 10
711.247753
 20
1017.560022
 11
923.050807
 21
1017.560022
  0
LINE
  8
0
  6
CONTINUOUS
 62
1
 10
691.853828
 20
1017.560022
 11
711.247753
 21
1017.560022
  0
LINE
  8
0
  6
CONTINUOUS
 62
1
 10
747.512739
 20
928.521939
 11
753.118760
 21
922.129521
  0
LINE
  8
0
  6
CONTINUOUS
 62
1
 10
741.120325
 20
934.127953
 11
747.512739
 21
928.521939
  0
LINE
  8
0
  6
CONTINUOUS
 62
1
 10
734.050778
 20
938.851650
 11
741.120291
 21
934.127984
  0
LINE
  8
0
  6
CONTINUOUS
 62
1
 10
726.425224
 20
942.612181
 11
734.050778
 21
938.851650
  0
LINE
  8
0
  6
CONTINUOUS
 62
1
 10
718.374057
 20
945.345192
 11
726.425224
 21
942.612181
  0
LINE
  8
0
  6
CONTINUOUS
 62
1
 10
710.034990
 20
947.003933
 11
718.374023
 21
945.345192
  0
LINE
  8
0
  6
CONTINUOUS
 62
1
 10
707.692087
 20
947.157496
 11
710.034990
 21
947.003933
  0
LINE
  8
0
  6
CONTINUOUS
 62
1
 10
693.066590
 20
947.003933
 11
695.409510
 21
947.157496
  0
LINE
  8
0
  6
CONTINUOUS
 62
1
 10
684.727558
 20
945.345192
 11
693.066590
 21
947.003933
  0
LINE
  8
0
  6
CONTINUOUS
 62
1
 10
676.676390
 20
942.612181
 11
684.727558
 21
945.345192
  0
LINE
  8
0
  6
CONTINUOUS
 62
1
 10
710.108316
 20
994.999184
 11
716.300255
 21
994.593318
  0
LINE
  8
0
  6
CONTINUOUS
 62
1
 10
716.300255
 20
994.593318
 11
730.797334
 21
991.709637
  0
LINE
  8
0
  6
CONTINUOUS
 62
1
 10
730.797334
 20
991.709637
 11
744.794032
 21
986.958418
  0
LINE
  8
0
  6
CONTINUOUS
 62
1
 10
744.794032
 20
986.958418
 11
758.050802
 21
980.420891
  0
LINE
  8
0
  6
CONTINUOUS
 62
1
 10
758.050802
 20
980.420891
 11
770.340840
 21
972.208924
  0
LINE
  8
0
  6
CONTINUOUS
 62
1
 10
770.340840
 20
972.208924
 11
776.700545
 21
966.631640
  0
LINE
  8
0
  6
CONTINUOUS
 62
1
 10
686.801326
 20
994.593318
 11
692.993265
 21
994.999152
  0
LINE
  8
0
  6
CONTINUOUS
 62
1
 10
785.622409
 20
957.709733
 11
791.199734
 21
951.350049
  0
LINE
  8
0
  6
CONTINUOUS
 62
1
 10
791.199734
 20
951.350049
 11
799.411668
 21
939.060002
  0
LINE
  8
0
  6
CONTINUOUS
 62
1
 10
799.411668
 20
939.060002
 11
805.949173
 21
925.803229
  0
LINE
  8
0
  6
CONTINUOUS
 62
1
 10
860.550806
 20
977.559997
 11
923.050807
 21
977.559997
  0
LINE
  8
0
  6
CONTINUOUS
 62
1
 10
856.723965
 20
976.798795
 11
860.550806
 21
977.559997
  0
LINE
  8
0
  6
CONTINUOUS
 62
1
 10
853.479732
 20
974.631092
 11
856.723965
 21
976.798795
  0
LINE
  8
0
  6
CONTINUOUS
 62
1
 10
851.312004
 20
971.386863
 11
853.479732
 21
974.631092
  0
LINE
  8
0
  6
CONTINUOUS
 62
1
 10
850.560267
 20
967.607549
 11
851.312004
 21
971.386863
  0
LINE
  8
0
  6
CONTINUOUS
 62
1
 10
850.560267
 20
967.512495
 11
851.312004
 21
963.733181
  0
LINE
  8
0
  6
CONTINUOUS
 62
1
 10
851.312004
 20
963.733181
 11
853.479732
 21
960.488952
  0
LINE
  8
0
  6
CONTINUOUS
 62
1
 10
853.479732
 20
960.488952
 11
856.723965
 21
958.321249
  0
LINE
  8
0
  6
CONTINUOUS
 62
1
 10
856.723965
 20
958.321249
 11
860.550806
 21
957.560016
  0
LINE
  8
0
  6
CONTINUOUS
 62
1
 10
860.550806
 20
957.560016
 11
923.050807
 21
957.560016
  0
LINE
  8
0
  6
CONTINUOUS
 62
1
 10
850.560267
 20
967.512495
 11
850.560267
 21
967.607549
  0
LINE
  8
0
  6
CONTINUOUS
 62
1
 10
893.050802
 20
957.560016
 11
893.050802
 21
977.559997
  0
LINE
  8
0
  6
CONTINUOUS
 62
1
 10
893.050802
 20
1017.560022
 11
893.050802
 21
1027.560012
  0
LINE
  8
0
  6
CONTINUOUS
 62
1
 10
913.050808
 20
977.559997
 11
913.050808
 21
1017.560022
  0
LINE
  8
0
  6
CONTINUOUS
 62
1
 10
927.050724
 20
723.560004
 11
1370.050765
 21
723.560004
  0
LINE
  8
0
  6
CONTINUOUS
 62
1
 10
927.050724
 20
723.560004
 11
927.050724
 21
1027.560012
  0
LINE
  8
0
  6
CONTINUOUS
 62
1
 10
927.050724
 20
787.560011
 11
989.550750
 21
787.560011
  0
LINE
  8
0
  6
CONTINUOUS
 62
1
 10
937.050757
 20
733.560007
 11
937.050757
 21
787.560011
  0
LINE
  8
0
  6
CONTINUOUS
 62
1
 10
989.550750
 20
787.560011
 11
993.377575
 21
788.321205
  0
LINE
  8
0
  6
CONTINUOUS
 62
1
 10
993.377575
 20
788.321205
 11
996.621808
 21
790.488931
  0
LINE
  8
0
  6
CONTINUOUS
 62
1
 10
1033.776118
 20
781.409314
 11
1036.152313
 21
784.233535
  0
LINE
  8
0
  6
CONTINUOUS
 62
1
 10
1032.586271
 20
777.915507
 11
1033.776118
 21
781.409314
  0
LINE
  8
0
  6
CONTINUOUS
 62
1
 10
1032.586271
 20
777.915507
 11
1032.744825
 21
774.228054
  0
LINE
  8
0
  6
CONTINUOUS
 62
1
 10
1032.744825
 20
774.228054
 11
1034.230205
 21
770.849283
  0
LINE
  8
0
  6
CONTINUOUS
 62
1
 10
1034.230205
 20
770.849283
 11
1036.840013
 21
768.239453
  0
LINE
  8
0
  6
CONTINUOUS
 62
1
 10
1036.840013
 20
768.239453
 11
1040.218787
 21
766.754089
  0
LINE
  8
0
  6
CONTINUOUS
 62
1
 10
1040.218787
 20
766.754089
 11
1043.906233
 21
766.595537
  0
LINE
  8
0
  6
CONTINUOUS
 62
1
 10
1043.906233
 20
766.595537
 11
1047.400064
 21
767.785392
  0
LINE
  8
0
  6
CONTINUOUS
 62
1
 10
1047.400064
 20
767.785392
 11
1050.224275
 21
770.161574
  0
LINE
  8
0
  6
CONTINUOUS
 62
1
 10
1050.224275
 20
770.161574
 11
1081.730061
 21
808.668243
  0
LINE
  8
0
  6
CONTINUOUS
 62
1
 10
937.050757
 20
733.560007
 11
1139.473135
 21
733.560007
  0
LINE
  8
0
  6
CONTINUOUS
 62
1
 10
1119.304188
 20
773.410379
 11
1133.801284
 21
770.526737
  0
LINE
  8
0
  6
CONTINUOUS
 62
1
 10
1105.307524
 20
778.161614
 11
1119.304188
 21
773.410379
  0
LINE
  8
0
  6
CONTINUOUS
 62
1
 10
1092.050737
 20
784.699140
 11
1105.307524
 21
778.161614
  0
LINE
  8
0
  6
CONTINUOUS
 62
1
 10
1079.760716
 20
792.911091
 11
1092.050737
 21
784.699140
  0
LINE
  8
0
  6
CONTINUOUS
 62
1
 10
957.050755
 20
872.560017
 11
957.050755
 21
892.560014
  0
LINE
  8
0
  6
CONTINUOUS
 62
1
 10
957.050755
 20
872.560017
 11
1000.550756
 21
872.560017
  0
LINE
  8
0
  6
CONTINUOUS
 62
1
 10
927.050724
 20
873.877708
 11
957.050755
 21
872.560017
  0
LINE
  8
0
  6
CONTINUOUS
 62
1
 10
927.050724
 20
891.242323
 11
957.050755
 21
892.560014
  0
LINE
  8
0
  6
CONTINUOUS
 62
1
 10
957.050755
 20
892.560014
 11
1000.550756
 21
892.560014
  0
LINE
  8
0
  6
CONTINUOUS
 62
1
 10
927.050724
 20
807.560016
 11
989.550750
 21
807.560016
  0
LINE
  8
0
  6
CONTINUOUS
 62
1
 10
957.050755
 20
787.560011
 11
957.050755
 21
807.560016
  0
LINE
  8
0
  6
CONTINUOUS
 62
1
 10
937.050757
 20
891.681543
 11
937.050757
 21
957.560016
  0
LINE
  8
0
  6
CONTINUOUS
 62
1
 10
937.050757
 20
807.560016
 11
937.050757
 21
873.438473
  0
LINE
  8
0
  6
CONTINUOUS
 62
1
 10
1106.550749
 20
877.560012
 11
1106.550749
 21
887.560019
  0
LINE
  8
0
  6
CONTINUOUS
 62
1
 10
1000.550756
 20
892.560014
 11
1106.550749
 21
887.560019
  0
LINE
  8
0
  6
CONTINUOUS
 62
1
 10
1000.550756
 20
872.560017
 11
1106.550749
 21
877.560012
  0
LINE
  8
0
  6
CONTINUOUS
 62
1
 10
996.621808
 20
790.488931
 11
998.789535
 21
793.733168
  0
LINE
  8
0
  6
CONTINUOUS
 62
1
 10
998.789535
 20
793.733168
 11
999.541281
 21
797.512466
  0
LINE
  8
0
  6
CONTINUOUS
 62
1
 10
999.541281
 20
797.512466
 11
999.541281
 21
797.607537
  0
LINE
  8
0
  6
CONTINUOUS
 62
1
 10
998.789535
 20
801.386835
 11
999.541281
 21
797.607537
  0
LINE
  8
0
  6
CONTINUOUS
 62
1
 10
996.621808
 20
804.631063
 11
998.789535
 21
801.386835
  0
LINE
  8
0
  6
CONTINUOUS
 62
1
 10
993.377575
 20
806.798798
 11
996.621808
 21
804.631063
  0
LINE
  8
0
  6
CONTINUOUS
 62
1
 10
989.550750
 20
807.560016
 11
993.377575
 21
806.798798
  0
LINE
  8
0
  6
CONTINUOUS
 62
1
 10
1074.658970
 20
815.739297
 11
1081.730061
 21
808.668243
  0
LINE
  8
0
  6
CONTINUOUS
 62
1
 10
1036.152313
 20
784.233535
 11
1074.658970
 21
815.739297
  0
LINE
  8
0
  6
CONTINUOUS
 62
1
 10
1078.669391
 20
876.244848
 11
1080.065785
 21
874.155007
  0
LINE
  8
0
  6
CONTINUOUS
 62
1
 10
1080.065785
 20
874.155007
 11
1083.958851
 21
871.553726
  0
LINE
  8
0
  6
CONTINUOUS
 62
1
 10
1083.958851
 20
871.553726
 11
1084.635264
 21
871.419200
  0
LINE
  8
0
  6
CONTINUOUS
 62
1
 10
1078.565414
 20
888.880061
 11
1080.065785
 21
891.125562
  0
LINE
  8
0
  6
CONTINUOUS
 62
1
 10
1080.065785
 20
891.125562
 11
1083.958851
 21
893.726844
  0
LINE
  8
0
  6
CONTINUOUS
 62
1
 10
1083.958851
 20
893.726844
 11
1084.668540
 21
893.867996
  0
LINE
  8
0
  6
CONTINUOUS
 62
1
 10
1084.635264
 20
871.419200
 11
1085.765559
 21
865.736770
  0
LINE
  8
0
  6
CONTINUOUS
 62
1
 10
1084.668540
 20
893.867996
 11
1085.765559
 21
899.383245
  0
LINE
  8
0
  6
CONTINUOUS
 62
1
 10
1085.765559
 20
865.736770
 11
1088.498554
 21
857.685596
  0
LINE
  8
0
  6
CONTINUOUS
 62
1
 10
1088.498588
 20
857.685564
 11
1092.259102
 21
850.060007
  0
LINE
  8
0
  6
CONTINUOUS
 62
1
 10
1092.259102
 20
850.060007
 11
1096.982780
 21
842.990510
  0
LINE
  8
0
  6
CONTINUOUS
 62
1
 10
1096.982780
 20
842.990494
 11
1102.588800
 21
836.598061
  0
LINE
  8
0
  6
CONTINUOUS
 62
1
 10
1102.588800
 20
836.598061
 11
1108.981248
 21
830.992031
  0
LINE
  8
0
  6
CONTINUOUS
 62
1
 10
1108.981283
 20
830.992015
 11
1116.050727
 21
826.268350
  0
LINE
  8
0
  6
CONTINUOUS
 62
1
 10
1116.050727
 20
826.268350
 11
1123.676315
 21
822.507834
  0
LINE
  8
0
  6
CONTINUOUS
 62
1
 10
1092.259102
 20
915.060008
 11
1096.982780
 21
922.129521
  0
LINE
  8
0
  6
CONTINUOUS
 62
1
 10
1088.498588
 20
907.434499
 11
1092.259102
 21
915.060008
  0
LINE
  8
0
  6
CONTINUOUS
 62
1
 10
1085.765559
 20
899.383245
 11
1088.498554
 21
907.434420
  0
LINE
  8
0
  6
CONTINUOUS
 62
1
 10
1036.517483
 20
897.309469
 11
1039.401143
 21
911.806548
  0
LINE
  8
0
  6
CONTINUOUS
 62
1
 10
1039.401143
 20
911.806548
 11
1044.152367
 21
925.803229
  0
LINE
  8
0
  6
CONTINUOUS
 62
1
 10
1036.096294
 20
890.883333
 11
1036.517483
 21
897.309469
  0
LINE
  8
0
  6
CONTINUOUS
 62
1
 10
1036.096294
 20
874.236683
 11
1036.517483
 21
867.810546
  0
LINE
  8
0
  6
CONTINUOUS
 62
1
 10
1058.901806
 20
813.769967
 11
1064.479113
 21
807.410267
  0
LINE
  8
0
  6
CONTINUOUS
 62
1
 10
1050.689888
 20
826.060014
 11
1058.901806
 21
813.769967
  0
LINE
  8
0
  6
CONTINUOUS
 62
1
 10
1044.152367
 20
839.316786
 11
1050.689888
 21
826.060014
  0
LINE
  8
0
  6
CONTINUOUS
 62
1
 10
1039.401143
 20
853.313468
 11
1044.152367
 21
839.316786
  0
LINE
  8
0
  6
CONTINUOUS
 62
1
 10
1036.517483
 20
867.810546
 11
1039.401143
 21
853.313468
  0
LINE
  8
0
  6
CONTINUOUS
 62
1
 10
1073.400994
 20
798.488407
 11
1079.760716
 21
792.911091
  0
LINE
  8
0
  6
CONTINUOUS
 62
1
 10
1139.203382
 20
739.701233
 11
1139.868424
 21
724.560003
  0
LINE
  8
0
  6
CONTINUOUS
 62
1
 10
1157.233074
 20
724.560003
 11
1157.898116
 21
739.701233
  0
LINE
  8
0
  6
CONTINUOUS
 62
1
 10
1139.843845
 20
754.560003
 11
1157.257653
 21
754.560003
  0
LINE
  8
0
  6
CONTINUOUS
 62
1
 10
1139.203382
 20
739.701233
 11
1143.550741
 21
840.560016
  0
LINE
  8
0
  6
CONTINUOUS
 62
1
 10
1153.550740
 20
840.560016
 11
1157.898116
 21
739.701233
  0
LINE
  8
0
  6
CONTINUOUS
 62
1
 10
1215.371437
 20
808.668243
 11
1246.877240
 21
770.161574
  0
LINE
  8
0
  6
CONTINUOUS
 62
1
 10
1260.949202
 20
784.233535
 11
1263.325363
 21
781.409314
  0
LINE
  8
0
  6
CONTINUOUS
 62
1
 10
1263.325363
 20
781.409314
 11
1264.515210
 21
777.915507
  0
LINE
  8
0
  6
CONTINUOUS
 62
1
 10
1264.356673
 20
774.228054
 11
1264.515210
 21
777.915507
  0
LINE
  8
0
  6
CONTINUOUS
 62
1
 10
1262.871293
 20
770.849283
 11
1264.356673
 21
774.228054
  0
LINE
  8
0
  6
CONTINUOUS
 62
1
 10
1260.261485
 20
768.239453
 11
1262.871293
 21
770.849283
  0
LINE
  8
0
  6
CONTINUOUS
 62
1
 10
1256.882693
 20
766.754089
 11
1260.261485
 21
768.239453
  0
LINE
  8
0
  6
CONTINUOUS
 62
1
 10
1253.195265
 20
766.595537
 11
1256.882693
 21
766.754089
  0
LINE
  8
0
  6
CONTINUOUS
 62
1
 10
1249.701451
 20
767.785392
 11
1253.195265
 21
766.595537
  0
LINE
  8
0
  6
CONTINUOUS
 62
1
 10
1246.877240
 20
770.161574
 11
1249.701451
 21
767.785392
  0
LINE
  8
0
  6
CONTINUOUS
 62
1
 10
1157.628363
 20
733.560007
 11
1360.050767
 21
733.560007
  0
LINE
  8
0
  6
CONTINUOUS
 62
1
 10
1139.868424
 20
724.560003
 11
1157.233074
 21
724.560003
  0
LINE
  8
0
  6
CONTINUOUS
 62
1
 10
1133.801284
 20
770.526737
 11
1140.513106
 21
770.086818
  0
LINE
  8
0
  6
CONTINUOUS
 62
1
 10
1205.050761
 20
784.699140
 11
1217.340799
 21
792.911091
  0
LINE
  8
0
  6
CONTINUOUS
 62
1
 10
1191.793991
 20
778.161614
 11
1205.050761
 21
784.699140
  0
LINE
  8
0
  6
CONTINUOUS
 62
1
 10
1177.797293
 20
773.410379
 11
1191.793991
 21
778.161614
  0
LINE
  8
0
  6
CONTINUOUS
 62
1
 10
1163.300214
 20
770.526737
 11
1177.797293
 21
773.410379
  0
LINE
  8
0
  6
CONTINUOUS
 62
1
 10
1156.588392
 20
770.086818
 11
1163.300214
 21
770.526737
  0
LINE
  8
0
  6
CONTINUOUS
 62
1
 10
1307.550765
 20
787.560011
 11
1370.050765
 21
787.560011
  0
LINE
  8
0
  6
CONTINUOUS
 62
1
 10
1300.479690
 20
790.488931
 11
1303.723923
 21
788.321205
  0
LINE
  8
0
  6
CONTINUOUS
 62
1
 10
1303.723923
 20
788.321205
 11
1307.550765
 21
787.560011
  0
LINE
  8
0
  6
CONTINUOUS
 62
1
 10
1370.050765
 20
723.560004
 11
1370.050765
 21
1027.560012
  0
LINE
  8
0
  6
CONTINUOUS
 62
1
 10
1360.050767
 20
733.560007
 11
1360.050767
 21
787.560011
  0
LINE
  8
0
  6
CONTINUOUS
 62
1
 10
1143.550741
 20
924.559999
 11
1153.550740
 21
924.559999
  0
LINE
  8
0
  6
CONTINUOUS
 62
1
 10
1143.550741
 20
840.560016
 11
1153.550740
 21
840.560016
  0
LINE
  8
0
  6
CONTINUOUS
 62
1
 10
1215.371437
 20
808.668243
 11
1222.442511
 21
815.739297
  0
LINE
  8
0
  6
CONTINUOUS
 62
1
 10
1222.442511
 20
815.739297
 11
1260.949202
 21
784.233535
  0
LINE
  8
0
  6
CONTINUOUS
 62
1
 10
1190.550766
 20
877.560012
 11
1190.550766
 21
887.560019
  0
LINE
  8
0
  6
CONTINUOUS
 62
1
 10
1190.550766
 20
887.560019
 11
1296.550759
 21
892.560014
  0
LINE
  8
0
  6
CONTINUOUS
 62
1
 10
1190.550766
 20
877.560012
 11
1296.550759
 21
872.560017
  0
LINE
  8
0
  6
CONTINUOUS
 62
1
 10
1123.676315
 20
822.507834
 11
1131.727516
 21
819.774823
  0
LINE
  8
0
  6
CONTINUOUS
 62
1
 10
1131.727516
 20
819.774823
 11
1140.066549
 21
818.116082
  0
LINE
  8
0
  6
CONTINUOUS
 62
1
 10
1140.066549
 20
818.116082
 11
1142.576240
 21
817.951587
  0
LINE
  8
0
  6
CONTINUOUS
 62
1
 10
1154.525241
 20
817.951587
 11
1157.034949
 21
818.116082
  0
LINE
  8
0
  6
CONTINUOUS
 62
1
 10
1157.034966
 20
818.116082
 11
1165.373982
 21
819.774823
  0
LINE
  8
0
  6
CONTINUOUS
 62
1
 10
1165.373982
 20
819.774823
 11
1173.425183
 21
822.507834
  0
LINE
  8
0
  6
CONTINUOUS
 62
1
 10
1173.425183
 20
822.507850
 11
1181.050736
 21
826.268350
  0
LINE
  8
0
  6
CONTINUOUS
 62
1
 10
1181.050736
 20
826.268350
 11
1188.120250
 21
830.992031
  0
LINE
  8
0
  6
CONTINUOUS
 62
1
 10
1188.120267
 20
830.992047
 11
1194.512698
 21
836.598061
  0
LINE
  8
0
  6
CONTINUOUS
 62
1
 10
1194.512698
 20
836.598061
 11
1200.118718
 21
842.990510
  0
LINE
  8
0
  6
CONTINUOUS
 62
1
 10
1200.118770
 20
842.990590
 11
1204.842413
 21
850.060007
  0
LINE
  8
0
  6
CONTINUOUS
 62
1
 10
1204.842413
 20
850.060039
 11
1208.602910
 21
857.685596
  0
LINE
  8
0
  6
CONTINUOUS
 62
1
 10
1208.602910
 20
857.685596
 11
1211.335922
 21
865.736770
  0
LINE
  8
0
  6
CONTINUOUS
 62
1
 10
1211.335922
 20
865.736786
 11
1212.994675
 21
874.075811
  0
LINE
  8
0
  6
CONTINUOUS
 62
1
 10
1212.994675
 20
874.075811
 11
1213.153179
 21
876.493847
  0
LINE
  8
0
  6
CONTINUOUS
 62
1
 10
1212.994675
 20
891.044205
 11
1213.153162
 21
888.626169
  0
LINE
  8
0
  6
CONTINUOUS
 62
1
 10
1211.335922
 20
899.383229
 11
1212.994675
 21
891.044205
  0
LINE
  8
0
  6
CONTINUOUS
 62
1
 10
1208.602910
 20
907.434420
 11
1211.335922
 21
899.383245
  0
LINE
  8
0
  6
CONTINUOUS
 62
1
 10
1204.842413
 20
915.059993
 11
1208.602910
 21
907.434420
  0
LINE
  8
0
  6
CONTINUOUS
 62
1
 10
1200.118718
 20
922.129521
 11
1204.842413
 21
915.060008
  0
LINE
  8
0
  6
CONTINUOUS
 62
1
 10
1252.949131
 20
925.803229
 11
1257.700355
 21
911.806548
  0
LINE
  8
0
  6
CONTINUOUS
 62
1
 10
1257.700355
 20
911.806548
 11
1260.584032
 21
897.309469
  0
LINE
  8
0
  6
CONTINUOUS
 62
1
 10
1260.584032
 20
897.309469
 11
1261.005221
 21
890.883333
  0
LINE
  8
0
  6
CONTINUOUS
 62
1
 10
1217.340799
 20
792.911091
 11
1223.700504
 21
798.488407
  0
LINE
  8
0
  6
CONTINUOUS
 62
1
 10
1260.584032
 20
867.810546
 11
1261.005221
 21
874.236683
  0
LINE
  8
0
  6
CONTINUOUS
 62
1
 10
1257.700355
 20
853.313468
 11
1260.584032
 21
867.810546
  0
LINE
  8
0
  6
CONTINUOUS
 62
1
 10
1252.949131
 20
839.316786
 11
1257.700355
 21
853.313468
  0
LINE
  8
0
  6
CONTINUOUS
 62
1
 10
1246.411627
 20
826.060014
 11
1252.949131
 21
839.316786
  0
LINE
  8
0
  6
CONTINUOUS
 62
1
 10
1238.199692
 20
813.769967
 11
1246.411627
 21
826.060014
  0
LINE
  8
0
  6
CONTINUOUS
 62
1
 10
1232.622350
 20
807.410267
 11
1238.199692
 21
813.769967
  0
LINE
  8
0
  6
CONTINUOUS
 62
1
 10
1307.550765
 20
807.560016
 11
1370.050765
 21
807.560016
  0
LINE
  8
0
  6
CONTINUOUS
 62
1
 10
1297.560225
 20
797.512466
 11
1298.311963
 21
793.733168
  0
LINE
  8
0
  6
CONTINUOUS
 62
1
 10
1298.311963
 20
793.733168
 11
1300.479690
 21
790.488931
  0
LINE
  8
0
  6
CONTINUOUS
 62
1
 10
1340.050761
 20
787.560011
 11
1340.050761
 21
807.560016
  0
LINE
  8
0
  6
CONTINUOUS
 62
1
 10
1303.723923
 20
806.798798
 11
1307.550765
 21
807.560016
  0
LINE
  8
0
  6
CONTINUOUS
 62
1
 10
1300.479690
 20
804.631063
 11
1303.723923
 21
806.798798
  0
LINE
  8
0
  6
CONTINUOUS
 62
1
 10
1298.311963
 20
801.386835
 11
1300.479690
 21
804.631063
  0
LINE
  8
0
  6
CONTINUOUS
 62
1
 10
1297.560225
 20
797.607537
 11
1298.311963
 21
801.386835
  0
LINE
  8
0
  6
CONTINUOUS
 62
1
 10
1297.560225
 20
797.512466
 11
1297.560225
 21
797.607537
  0
LINE
  8
0
  6
CONTINUOUS
 62
1
 10
1340.050761
 20
872.560017
 11
1340.050761
 21
892.560014
  0
LINE
  8
0
  6
CONTINUOUS
 62
1
 10
1340.050761
 20
872.560017
 11
1370.050765
 21
873.877708
  0
LINE
  8
0
  6
CONTINUOUS
 62
1
 10
1296.550759
 20
872.560017
 11
1340.050761
 21
872.560017
  0
LINE
  8
0
  6
CONTINUOUS
 62
1
 10
1296.550759
 20
892.560014
 11
1340.050761
 21
892.560014
  0
LINE
  8
0
  6
CONTINUOUS
 62
1
 10
1340.050761
 20
892.560014
 11
1370.050765
 21
891.242323
  0
LINE
  8
0
  6
CONTINUOUS
 62
1
 10
1360.050767
 20
807.560016
 11
1360.050767
 21
873.438473
  0
LINE
  8
0
  6
CONTINUOUS
 62
1
 10
1360.050767
 20
891.681559
 11
1360.050767
 21
957.560016
  0
LINE
  8
0
  6
CONTINUOUS
 62
1
 10
927.050724
 20
957.560016
 11
989.550750
 21
957.560016
  0
LINE
  8
0
  6
CONTINUOUS
 62
1
 10
927.050724
 20
977.559997
 11
989.550750
 21
977.559997
  0
LINE
  8
0
  6
CONTINUOUS
 62
1
 10
957.050755
 20
957.560016
 11
957.050755
 21
977.559997
  0
LINE
  8
0
  6
CONTINUOUS
 62
1
 10
927.050724
 20
1017.560022
 11
1138.853787
 21
1017.560022
  0
LINE
  8
0
  6
CONTINUOUS
 62
1
 10
957.050755
 20
1017.560022
 11
957.050755
 21
1027.560012
  0
LINE
  8
0
  6
CONTINUOUS
 62
1
 10
927.050724
 20
1027.560012
 11
1370.050765
 21
1027.560012
  0
LINE
  8
0
  6
CONTINUOUS
 62
1
 10
937.050757
 20
977.559997
 11
937.050757
 21
1017.560022
  0
LINE
  8
0
  6
CONTINUOUS
 62
1
 10
1050.224275
 20
994.958442
 11
1081.730061
 21
956.451805
  0
LINE
  8
0
  6
CONTINUOUS
 62
1
 10
1047.400064
 20
997.334623
 11
1050.224275
 21
994.958442
  0
LINE
  8
0
  6
CONTINUOUS
 62
1
 10
1043.906233
 20
998.524478
 11
1047.400064
 21
997.334623
  0
LINE
  8
0
  6
CONTINUOUS
 62
1
 10
1040.218787
 20
998.365958
 11
1043.906233
 21
998.524478
  0
LINE
  8
0
  6
CONTINUOUS
 62
1
 10
1036.840013
 20
996.880578
 11
1040.218787
 21
998.365958
  0
LINE
  8
0
  6
CONTINUOUS
 62
1
 10
1034.230205
 20
994.270748
 11
1036.840013
 21
996.880578
  0
LINE
  8
0
  6
CONTINUOUS
 62
1
 10
1032.744825
 20
990.891993
 11
1034.230205
 21
994.270748
  0
LINE
  8
0
  6
CONTINUOUS
 62
1
 10
1032.586271
 20
987.204524
 11
1032.744825
 21
990.891993
  0
LINE
  8
0
  6
CONTINUOUS
 62
1
 10
1032.586271
 20
987.204524
 11
1033.776118
 21
983.710693
  0
LINE
  8
0
  6
CONTINUOUS
 62
1
 10
1033.776118
 20
983.710693
 11
1036.152313
 21
980.886473
  0
LINE
  8
0
  6
CONTINUOUS
 62
1
 10
1036.152313
 20
980.886473
 11
1074.658970
 21
949.380719
  0
LINE
  8
0
  6
CONTINUOUS
 62
1
 10
1074.658970
 20
949.380719
 11
1081.730061
 21
956.451805
  0
LINE
  8
0
  6
CONTINUOUS
 62
1
 10
989.550750
 20
957.560016
 11
993.377575
 21
958.321249
  0
LINE
  8
0
  6
CONTINUOUS
 62
1
 10
993.377575
 20
958.321249
 11
996.621808
 21
960.488952
  0
LINE
  8
0
  6
CONTINUOUS
 62
1
 10
996.621808
 20
960.488952
 11
998.789535
 21
963.733181
  0
LINE
  8
0
  6
CONTINUOUS
 62
1
 10
998.789535
 20
963.733181
 11
999.541281
 21
967.512495
  0
LINE
  8
0
  6
CONTINUOUS
 62
1
 10
999.541281
 20
967.512495
 11
999.541281
 21
967.607549
  0
LINE
  8
0
  6
CONTINUOUS
 62
1
 10
998.789535
 20
971.386863
 11
999.541281
 21
967.607549
  0
LINE
  8
0
  6
CONTINUOUS
 62
1
 10
996.621808
 20
974.631092
 11
998.789535
 21
971.386863
  0
LINE
  8
0
  6
CONTINUOUS
 62
1
 10
993.377575
 20
976.798795
 11
996.621808
 21
974.631092
  0
LINE
  8
0
  6
CONTINUOUS
 62
1
 10
989.550750
 20
977.559997
 11
993.377575
 21
976.798795
  0
LINE
  8
0
  6
CONTINUOUS
 62
1
 10
1116.050762
 20
938.851682
 11
1123.676315
 21
942.612181
  0
LINE
  8
0
  6
CONTINUOUS
 62
1
 10
1108.981283
 20
934.128016
 11
1116.050727
 21
938.851650
  0
LINE
  8
0
  6
CONTINUOUS
 62
1
 10
1102.588800
 20
928.521939
 11
1108.981248
 21
934.127984
  0
LINE
  8
0
  6
CONTINUOUS
 62
1
 10
1096.982917
 20
922.129680
 11
1102.588800
 21
928.521939
  0
LINE
  8
0
  6
CONTINUOUS
 62
1
 10
1073.400994
 20
966.631640
 11
1079.760716
 21
972.208924
  0
LINE
  8
0
  6
CONTINUOUS
 62
1
 10
1079.760716
 20
972.208924
 11
1092.050737
 21
980.420891
  0
LINE
  8
0
  6
CONTINUOUS
 62
1
 10
1092.050737
 20
980.420891
 11
1105.307524
 21
986.958418
  0
LINE
  8
0
  6
CONTINUOUS
 62
1
 10
1105.307524
 20
986.958418
 11
1119.304188
 21
991.709637
  0
LINE
  8
0
  6
CONTINUOUS
 62
1
 10
1119.304188
 20
991.709637
 11
1133.801284
 21
994.593318
  0
LINE
  8
0
  6
CONTINUOUS
 62
1
 10
1044.152367
 20
925.803229
 11
1050.689888
 21
939.060002
  0
LINE
  8
0
  6
CONTINUOUS
 62
1
 10
1050.689888
 20
939.060002
 11
1058.901806
 21
951.350049
  0
LINE
  8
0
  6
CONTINUOUS
 62
1
 10
1058.901806
 20
951.350049
 11
1064.479113
 21
957.709764
  0
LINE
  8
0
  6
CONTINUOUS
 62
1
 10
1153.550740
 20
924.559999
 11
1158.247711
 21
1017.560022
  0
LINE
  8
0
  6
CONTINUOUS
 62
1
 10
1138.853787
 20
1017.560022
 11
1143.550741
 21
924.559999
  0
LINE
  8
0
  6
CONTINUOUS
 62
1
 10
1215.371437
 20
956.451805
 11
1222.442511
 21
949.380719
  0
LINE
  8
0
  6
CONTINUOUS
 62
1
 10
1222.442511
 20
949.380719
 11
1260.949202
 21
980.886473
  0
LINE
  8
0
  6
CONTINUOUS
 62
1
 10
1246.877240
 20
994.958442
 11
1249.701451
 21
997.334623
  0
LINE
  8
0
  6
CONTINUOUS
 62
1
 10
1249.701451
 20
997.334623
 11
1253.195265
 21
998.524478
  0
LINE
  8
0
  6
CONTINUOUS
 62
1
 10
1253.195265
 20
998.524478
 11
1256.882693
 21
998.365958
  0
LINE
  8
0
  6
CONTINUOUS
 62
1
 10
1256.882693
 20
998.365958
 11
1260.261485
 21
996.880578
  0
LINE
  8
0
  6
CONTINUOUS
 62
1
 10
1260.261485
 20
996.880578
 11
1262.871293
 21
994.270748
  0
LINE
  8
0
  6
CONTINUOUS
 62
1
 10
1262.871293
 20
994.270748
 11
1264.356673
 21
990.891993
  0
LINE
  8
0
  6
CONTINUOUS
 62
1
 10
1264.356673
 20
990.891993
 11
1264.515210
 21
987.204524
  0
LINE
  8
0
  6
CONTINUOUS
 62
1
 10
1263.325363
 20
983.710693
 11
1264.515210
 21
987.204524
  0
LINE
  8
0
  6
CONTINUOUS
 62
1
 10
1260.949202
 20
980.886473
 11
1263.325363
 21
983.710693
  0
LINE
  8
0
  6
CONTINUOUS
 62
1
 10
1215.371437
 20
956.451805
 11
1246.877240
 21
994.958442
  0
LINE
  8
0
  6
CONTINUOUS
 62
1
 10
1158.247711
 20
1017.560022
 11
1370.050765
 21
1017.560022
  0
LINE
  8
0
  6
CONTINUOUS
 62
1
 10
1138.853787
 20
1017.560022
 11
1158.247711
 21
1017.560022
  0
LINE
  8
0
  6
CONTINUOUS
 62
1
 10
1194.512698
 20
928.521939
 11
1200.118718
 21
922.129521
  0
LINE
  8
0
  6
CONTINUOUS
 62
1
 10
1188.120284
 20
934.127953
 11
1194.512698
 21
928.521939
  0
LINE
  8
0
  6
CONTINUOUS
 62
1
 10
1181.050736
 20
938.851650
 11
1188.120250
 21
934.127984
  0
LINE
  8
0
  6
CONTINUOUS
 62
1
 10
1173.425183
 20
942.612181
 11
1181.050736
 21
938.851650
  0
LINE
  8
0
  6
CONTINUOUS
 62
1
 10
1165.374016
 20
945.345192
 11
1173.425183
 21
942.612181
  0
LINE
  8
0
  6
CONTINUOUS
 62
1
 10
1157.034949
 20
947.003933
 11
1165.373982
 21
945.345192
  0
LINE
  8
0
  6
CONTINUOUS
 62
1
 10
1154.692046
 20
947.157496
 11
1157.034949
 21
947.003933
  0
LINE
  8
0
  6
CONTINUOUS
 62
1
 10
1140.066549
 20
947.003933
 11
1142.409469
 21
947.157496
  0
LINE
  8
0
  6
CONTINUOUS
 62
1
 10
1131.727516
 20
945.345192
 11
1140.066549
 21
947.003933
  0
LINE
  8
0
  6
CONTINUOUS
 62
1
 10
1123.676349
 20
942.612181
 11
1131.727516
 21
945.345192
  0
LINE
  8
0
  6
CONTINUOUS
 62
1
 10
1157.108275
 20
994.999184
 11
1163.300214
 21
994.593318
  0
LINE
  8
0
  6
CONTINUOUS
 62
1
 10
1163.300214
 20
994.593318
 11
1177.797293
 21
991.709637
  0
LINE
  8
0
  6
CONTINUOUS
 62
1
 10
1177.797293
 20
991.709637
 11
1191.793991
 21
986.958418
  0
LINE
  8
0
  6
CONTINUOUS
 62
1
 10
1191.793991
 20
986.958418
 11
1205.050761
 21
980.420891
  0
LINE
  8
0
  6
CONTINUOUS
 62
1
 10
1205.050761
 20
980.420891
 11
1217.340799
 21
972.208924
  0
LINE
  8
0
  6
CONTINUOUS
 62
1
 10
1217.340799
 20
972.208924
 11
1223.700504
 21
966.631640
  0
LINE
  8
0
  6
CONTINUOUS
 62
1
 10
1133.801284
 20
994.593318
 11
1139.993223
 21
994.999152
  0
LINE
  8
0
  6
CONTINUOUS
 62
1
 10
1232.622368
 20
957.709733
 11
1238.199692
 21
951.350049
  0
LINE
  8
0
  6
CONTINUOUS
 62
1
 10
1238.199692
 20
951.350049
 11
1246.411627
 21
939.060002
  0
LINE
  8
0
  6
CONTINUOUS
 62
1
 10
1246.411627
 20
939.060002
 11
1252.949131
 21
925.803229
  0
LINE
  8
0
  6
CONTINUOUS
 62
1
 10
1307.550765
 20
977.559997
 11
1370.050765
 21
977.559997
  0
LINE
  8
0
  6
CONTINUOUS
 62
1
 10
1303.723923
 20
976.798795
 11
1307.550765
 21
977.559997
  0
LINE
  8
0
  6
CONTINUOUS
 62
1
 10
1300.479690
 20
974.631092
 11
1303.723923
 21
976.798795
  0
LINE
  8
0
  6
CONTINUOUS
 62
1
 10
1298.311963
 20
971.386863
 11
1300.479690
 21
974.631092
  0
LINE
  8
0
  6
CONTINUOUS
 62
1
 10
1297.560225
 20
967.607549
 11
1298.311963
 21
971.386863
  0
LINE
  8
0
  6
CONTINUOUS
 62
1
 10
1297.560225
 20
967.512495
 11
1298.311963
 21
963.733181
  0
LINE
  8
0
  6
CONTINUOUS
 62
1
 10
1298.311963
 20
963.733181
 11
1300.479690
 21
960.488952
  0
LINE
  8
0
  6
CONTINUOUS
 62
1
 10
1300.479690
 20
960.488952
 11
1303.723923
 21
958.321249
  0
LINE
  8
0
  6
CONTINUOUS
 62
1
 10
1303.723923
 20
958.321249
 11
1307.550765
 21
957.560016
  0
LINE
  8
0
  6
CONTINUOUS
 62
1
 10
1307.550765
 20
957.560016
 11
1370.050765
 21
957.560016
  0
LINE
  8
0
  6
CONTINUOUS
 62
1
 10
1297.560225
 20
967.512495
 11
1297.560225
 21
967.607549
  0
LINE
  8
0
  6
CONTINUOUS
 62
1
 10
1340.050761
 20
957.560016
 11
1340.050761
 21
977.559997
  0
LINE
  8
0
  6
CONTINUOUS
 62
1
 10
1340.050761
 20
1017.560022
 11
1340.050761
 21
1027.560012
  0
LINE
  8
0
  6
CONTINUOUS
 62
1
 10
1360.050767
 20
977.559997
 11
1360.050767
 21
1017.560022
  0
LINE
  8
0
  6
CONTINUOUS
 62
1
 10
1370.050765
 20
1331.560020
 11
927.050724
 21
1331.560020
  0
LINE
  8
0
  6
CONTINUOUS
 62
1
 10
1370.050765
 20
1331.560020
 11
1370.050765
 21
1027.560012
  0
LINE
  8
0
  6
CONTINUOUS
 62
1
 10
1370.050765
 20
1267.560014
 11
1307.550739
 21
1267.560014
  0
LINE
  8
0
  6
CONTINUOUS
 62
1
 10
1360.050732
 20
1321.560018
 11
1360.050732
 21
1267.560014
  0
LINE
  8
0
  6
CONTINUOUS
 62
1
 10
1307.550739
 20
1267.560014
 11
1303.723915
 21
1266.798820
  0
LINE
  8
0
  6
CONTINUOUS
 62
1
 10
1303.723915
 20
1266.798820
 11
1300.479682
 21
1264.631094
  0
LINE
  8
0
  6
CONTINUOUS
 62
1
 10
1263.325372
 20
1273.710710
 11
1260.949177
 21
1270.886490
  0
LINE
  8
0
  6
CONTINUOUS
 62
1
 10
1264.515219
 20
1277.204518
 11
1263.325372
 21
1273.710710
  0
LINE
  8
0
  6
CONTINUOUS
 62
1
 10
1264.515219
 20
1277.204518
 11
1264.356664
 21
1280.891971
  0
LINE
  8
0
  6
CONTINUOUS
 62
1
 10
1264.356664
 20
1280.891971
 11
1262.871285
 21
1284.270741
  0
LINE
  8
0
  6
CONTINUOUS
 62
1
 10
1262.871285
 20
1284.270741
 11
1260.261477
 21
1286.880572
  0
LINE
  8
0
  6
CONTINUOUS
 62
1
 10
1260.261477
 20
1286.880572
 11
1256.882702
 21
1288.365935
  0
LINE
  8
0
  6
CONTINUOUS
 62
1
 10
1256.882702
 20
1288.365935
 11
1253.195257
 21
1288.524487
  0
LINE
  8
0
  6
CONTINUOUS
 62
1
 10
1253.195257
 20
1288.524487
 11
1249.701425
 21
1287.334633
  0
LINE
  8
0
  6
CONTINUOUS
 62
1
 10
1249.701425
 20
1287.334633
 11
1246.877215
 21
1284.958451
  0
LINE
  8
0
  6
CONTINUOUS
 62
1
 10
1246.877215
 20
1284.958451
 11
1215.371428
 21
1246.451782
  0
LINE
  8
0
  6
CONTINUOUS
 62
1
 10
1360.050732
 20
1321.560018
 11
1157.628355
 21
1321.560018
  0
LINE
  8
0
  6
CONTINUOUS
 62
1
 10
1177.797301
 20
1281.709646
 11
1163.300205
 21
1284.593288
  0
LINE
  8
0
  6
CONTINUOUS
 62
1
 10
1191.793965
 20
1276.958411
 11
1177.797301
 21
1281.709646
  0
LINE
  8
0
  6
CONTINUOUS
 62
1
 10
1205.050752
 20
1270.420885
 11
1191.793965
 21
1276.958411
  0
LINE
  8
0
  6
CONTINUOUS
 62
1
 10
1217.340773
 20
1262.208934
 11
1205.050752
 21
1270.420885
  0
LINE
  8
0
  6
CONTINUOUS
 62
1
 10
1340.050735
 20
1182.560008
 11
1340.050735
 21
1162.560011
  0
LINE
  8
0
  6
CONTINUOUS
 62
1
 10
1340.050735
 20
1182.560008
 11
1296.550734
 21
1182.560008
  0
LINE
  8
0
  6
CONTINUOUS
 62
1
 10
1370.050765
 20
1181.242317
 11
1340.050735
 21
1182.560008
  0
LINE
  8
0
  6
CONTINUOUS
 62
1
 10
1370.050765
 20
1163.877702
 11
1340.050735
 21
1162.560011
  0
LINE
  8
0
  6
CONTINUOUS
 62
1
 10
1340.050735
 20
1162.560011
 11
1296.550734
 21
1162.560011
  0
LINE
  8
0
  6
CONTINUOUS
 62
1
 10
1370.050765
 20
1247.560009
 11
1307.550739
 21
1247.560009
  0
LINE
  8
0
  6
CONTINUOUS
 62
1
 10
1340.050735
 20
1267.560014
 11
1340.050735
 21
1247.560009
  0
LINE
  8
0
  6
CONTINUOUS
 62
1
 10
1360.050732
 20
1163.438482
 11
1360.050732
 21
1097.560009
  0
LINE
  8
0
  6
CONTINUOUS
 62
1
 10
1360.050732
 20
1247.560009
 11
1360.050732
 21
1181.681552
  0
LINE
  8
0
  6
CONTINUOUS
 62
1
 10
1190.550740
 20
1177.560012
 11
1190.550740
 21
1167.560006
  0
LINE
  8
0
  6
CONTINUOUS
 62
1
 10
1296.550734
 20
1162.560011
 11
1190.550740
 21
1167.560006
  0
LINE
  8
0
  6
CONTINUOUS
 62
1
 10
1296.550734
 20
1182.560008
 11
1190.550740
 21
1177.560012
  0
LINE
  8
0
  6
CONTINUOUS
 62
1
 10
1300.479682
 20
1264.631094
 11
1298.311954
 21
1261.386857
  0
LINE
  8
0
  6
CONTINUOUS
 62
1
 10
1298.311954
 20
1261.386857
 11
1297.560208
 21
1257.607559
  0
LINE
  8
0
  6
CONTINUOUS
 62
1
 10
1297.560208
 20
1257.607559
 11
1297.560208
 21
1257.512488
  0
LINE
  8
0
  6
CONTINUOUS
 62
1
 10
1298.311954
 20
1253.733190
 11
1297.560208
 21
1257.512488
  0
LINE
  8
0
  6
CONTINUOUS
 62
1
 10
1300.479682
 20
1250.488961
 11
1298.311954
 21
1253.733190
  0
LINE
  8
0
  6
CONTINUOUS
 62
1
 10
1303.723915
 20
1248.321227
 11
1300.479682
 21
1250.488961
  0
LINE
  8
0
  6
CONTINUOUS
 62
1
 10
1307.550739
 20
1247.560009
 11
1303.723915
 21
1248.321227
  0
LINE
  8
0
  6
CONTINUOUS
 62
1
 10
1222.442520
 20
1239.380728
 11
1215.371428
 21
1246.451782
  0
LINE
  8
0
  6
CONTINUOUS
 62
1
 10
1260.949177
 20
1270.886490
 11
1222.442520
 21
1239.380728
  0
LINE
  8
0
  6
CONTINUOUS
 62
1
 10
1218.432098
 20
1178.875177
 11
1217.035705
 21
1180.965018
  0
LINE
  8
0
  6
CONTINUOUS
 62
1
 10
1217.035705
 20
1180.965018
 11
1213.142639
 21
1183.566299
  0
LINE
  8
0
  6
CONTINUOUS
 62
1
 10
1213.142639
 20
1183.566299
 11
1212.466225
 21
1183.700825
  0
LINE
  8
0
  6
CONTINUOUS
 62
1
 10
1218.536075
 20
1166.239963
 11
1217.035705
 21
1163.994463
  0
LINE
  8
0
  6
CONTINUOUS
 62
1
 10
1217.035705
 20
1163.994463
 11
1213.142639
 21
1161.393181
  0
LINE
  8
0
  6
CONTINUOUS
 62
1
 10
1213.142639
 20
1161.393181
 11
1212.432950
 21
1161.252029
  0
LINE
  8
0
  6
CONTINUOUS
 62
1
 10
1212.466225
 20
1183.700825
 11
1211.335930
 21
1189.383255
  0
LINE
  8
0
  6
CONTINUOUS
 62
1
 10
1212.432950
 20
1161.252029
 11
1211.335930
 21
1155.736780
  0
LINE
  8
0
  6
CONTINUOUS
 62
1
 10
1211.335930
 20
1189.383255
 11
1208.602935
 21
1197.434429
  0
LINE
  8
0
  6
CONTINUOUS
 62
1
 10
1208.602901
 20
1197.434461
 11
1204.842387
 21
1205.060018
  0
LINE
  8
0
  6
CONTINUOUS
 62
1
 10
1204.842387
 20
1205.060018
 11
1200.118710
 21
1212.129515
  0
LINE
  8
0
  6
CONTINUOUS
 62
1
 10
1200.118710
 20
1212.129531
 11
1194.512689
 21
1218.521964
  0
LINE
  8
0
  6
CONTINUOUS
 62
1
 10
1194.512689
 20
1218.521964
 11
1188.120241
 21
1224.127994
  0
LINE
  8
0
  6
CONTINUOUS
 62
1
 10
1188.120207
 20
1224.128010
 11
1181.050762
 21
1228.851675
  0
LINE
  8
0
  6
CONTINUOUS
 62
1
 10
1181.050762
 20
1228.851675
 11
1173.425175
 21
1232.612191
  0
LINE
  8
0
  6
CONTINUOUS
 62
1
 10
1204.842387
 20
1140.060016
 11
1200.118710
 21
1132.990504
  0
LINE
  8
0
  6
CONTINUOUS
 62
1
 10
1208.602901
 20
1147.685526
 11
1204.842387
 21
1140.060016
  0
LINE
  8
0
  6
CONTINUOUS
 62
1
 10
1211.335930
 20
1155.736780
 11
1208.602935
 21
1147.685605
  0
LINE
  8
0
  6
CONTINUOUS
 62
1
 10
1260.584007
 20
1157.810556
 11
1257.700347
 21
1143.313477
  0
LINE
  8
0
  6
CONTINUOUS
 62
1
 10
1257.700347
 20
1143.313477
 11
1252.949123
 21
1129.316796
  0
LINE
  8
0
  6
CONTINUOUS
 62
1
 10
1261.005196
 20
1164.236692
 11
1260.584007
 21
1157.810556
  0
LINE
  8
0
  6
CONTINUOUS
 62
1
 10
1261.005196
 20
1180.883342
 11
1260.584007
 21
1187.309479
  0
LINE
  8
0
  6
CONTINUOUS
 62
1
 10
1238.199684
 20
1241.350058
 11
1232.622376
 21
1247.709758
  0
LINE
  8
0
  6
CONTINUOUS
 62
1
 10
1246.411601
 20
1229.060011
 11
1238.199684
 21
1241.350058
  0
LINE
  8
0
  6
CONTINUOUS
 62
1
 10
1252.949123
 20
1215.803239
 11
1246.411601
 21
1229.060011
  0
LINE
  8
0
  6
CONTINUOUS
 62
1
 10
1257.700347
 20
1201.806557
 11
1252.949123
 21
1215.803239
  0
LINE
  8
0
  6
CONTINUOUS
 62
1
 10
1260.584007
 20
1187.309479
 11
1257.700347
 21
1201.806557
  0
LINE
  8
0
  6
CONTINUOUS
 62
1
 10
1223.700495
 20
1256.631618
 11
1217.340773
 21
1262.208934
  0
LINE
  8
0
  6
CONTINUOUS
 62
1
 10
1157.898107
 20
1315.418792
 11
1157.233065
 21
1330.560021
  0
LINE
  8
0
  6
CONTINUOUS
 62
1
 10
1139.868415
 20
1330.560021
 11
1139.203374
 21
1315.418792
  0
LINE
  8
0
  6
CONTINUOUS
 62
1
 10
1157.257644
 20
1300.560022
 11
1139.843836
 21
1300.560022
  0
LINE
  8
0
  6
CONTINUOUS
 62
1
 10
1157.898107
 20
1315.418792
 11
1153.550748
 21
1214.560009
  0
LINE
  8
0
  6
CONTINUOUS
 62
1
 10
1143.550750
 20
1214.560009
 11
1139.203374
 21
1315.418792
  0
LINE
  8
0
  6
CONTINUOUS
 62
1
 10
1081.730053
 20
1246.451782
 11
1050.224249
 21
1284.958451
  0
LINE
  8
0
  6
CONTINUOUS
 62
1
 10
1036.152287
 20
1270.886490
 11
1033.776126
 21
1273.710710
  0
LINE
  8
0
  6
CONTINUOUS
 62
1
 10
1033.776126
 20
1273.710710
 11
1032.586279
 21
1277.204518
  0
LINE
  8
0
  6
CONTINUOUS
 62
1
 10
1032.744817
 20
1280.891971
 11
1032.586279
 21
1277.204518
  0
LINE
  8
0
  6
CONTINUOUS
 62
1
 10
1034.230196
 20
1284.270741
 11
1032.744817
 21
1280.891971
  0
LINE
  8
0
  6
CONTINUOUS
 62
1
 10
1036.840004
 20
1286.880572
 11
1034.230196
 21
1284.270741
  0
LINE
  8
0
  6
CONTINUOUS
 62
1
 10
1040.218796
 20
1288.365935
 11
1036.840004
 21
1286.880572
  0
LINE
  8
0
  6
CONTINUOUS
 62
1
 10
1043.906224
 20
1288.524487
 11
1040.218796
 21
1288.365935
  0
LINE
  8
0
  6
CONTINUOUS
 62
1
 10
1047.400039
 20
1287.334633
 11
1043.906224
 21
1288.524487
  0
LINE
  8
0
  6
CONTINUOUS
 62
1
 10
1050.224249
 20
1284.958451
 11
1047.400039
 21
1287.334633
  0
LINE
  8
0
  6
CONTINUOUS
 62
1
 10
1139.473126
 20
1321.560018
 11
937.050723
 21
1321.560018
  0
LINE
  8
0
  6
CONTINUOUS
 62
1
 10
1157.233065
 20
1330.560021
 11
1139.868415
 21
1330.560021
  0
LINE
  8
0
  6
CONTINUOUS
 62
1
 10
1163.300205
 20
1284.593288
 11
1156.588383
 21
1285.033207
  0
LINE
  8
0
  6
CONTINUOUS
 62
1
 10
1092.050729
 20
1270.420885
 11
1079.760690
 21
1262.208934
  0
LINE
  8
0
  6
CONTINUOUS
 62
1
 10
1105.307499
 20
1276.958411
 11
1092.050729
 21
1270.420885
  0
LINE
  8
0
  6
CONTINUOUS
 62
1
 10
1119.304197
 20
1281.709646
 11
1105.307499
 21
1276.958411
  0
LINE
  8
0
  6
CONTINUOUS
 62
1
 10
1133.801276
 20
1284.593288
 11
1119.304197
 21
1281.709646
  0
LINE
  8
0
  6
CONTINUOUS
 62
1
 10
1140.513098
 20
1285.033207
 11
1133.801276
 21
1284.593288
  0
LINE
  8
0
  6
CONTINUOUS
 62
1
 10
989.550725
 20
1267.560014
 11
927.050724
 21
1267.560014
  0
LINE
  8
0
  6
CONTINUOUS
 62
1
 10
996.621799
 20
1264.631094
 11
993.377566
 21
1266.798820
  0
LINE
  8
0
  6
CONTINUOUS
 62
1
 10
993.377566
 20
1266.798820
 11
989.550725
 21
1267.560014
  0
LINE
  8
0
  6
CONTINUOUS
 62
1
 10
927.050724
 20
1331.560020
 11
927.050724
 21
1027.560012
  0
LINE
  8
0
  6
CONTINUOUS
 62
1
 10
937.050723
 20
1321.560018
 11
937.050723
 21
1267.560014
  0
LINE
  8
0
  6
CONTINUOUS
 62
1
 10
1153.550748
 20
1130.560025
 11
1143.550750
 21
1130.560025
  0
LINE
  8
0
  6
CONTINUOUS
 62
1
 10
1153.550748
 20
1214.560009
 11
1143.550750
 21
1214.560009
  0
LINE
  8
0
  6
CONTINUOUS
 62
1
 10
1081.730053
 20
1246.451782
 11
1074.658978
 21
1239.380728
  0
LINE
  8
0
  6
CONTINUOUS
 62
1
 10
1074.658978
 20
1239.380728
 11
1036.152287
 21
1270.886490
  0
LINE
  8
0
  6
CONTINUOUS
 62
1
 10
1106.550723
 20
1177.560012
 11
1106.550723
 21
1167.560006
  0
LINE
  8
0
  6
CONTINUOUS
 62
1
 10
1106.550723
 20
1167.560006
 11
1000.550730
 21
1162.560011
  0
LINE
  8
0
  6
CONTINUOUS
 62
1
 10
1106.550723
 20
1177.560012
 11
1000.550730
 21
1182.560008
  0
LINE
  8
0
  6
CONTINUOUS
 62
1
 10
1173.425175
 20
1232.612191
 11
1165.373973
 21
1235.345202
  0
LINE
  8
0
  6
CONTINUOUS
 62
1
 10
1165.373973
 20
1235.345202
 11
1157.034940
 21
1237.003943
  0
LINE
  8
0
  6
CONTINUOUS
 62
1
 10
1157.034940
 20
1237.003943
 11
1154.525250
 21
1237.168438
  0
LINE
  8
0
  6
CONTINUOUS
 62
1
 10
1142.576248
 20
1237.168438
 11
1140.066540
 21
1237.003943
  0
LINE
  8
0
  6
CONTINUOUS
 62
1
 10
1140.066523
 20
1237.003943
 11
1131.727508
 21
1235.345202
  0
LINE
  8
0
  6
CONTINUOUS
 62
1
 10
1131.727508
 20
1235.345202
 11
1123.676306
 21
1232.612191
  0
LINE
  8
0
  6
CONTINUOUS
 62
1
 10
1123.676306
 20
1232.612175
 11
1116.050753
 21
1228.851675
  0
LINE
  8
0
  6
CONTINUOUS
 62
1
 10
1116.050753
 20
1228.851675
 11
1108.981240
 21
1224.127994
  0
LINE
  8
0
  6
CONTINUOUS
 62
1
 10
1108.981223
 20
1224.127978
 11
1102.588792
 21
1218.521964
  0
LINE
  8
0
  6
CONTINUOUS
 62
1
 10
1102.588792
 20
1218.521964
 11
1096.982771
 21
1212.129515
  0
LINE
  8
0
  6
CONTINUOUS
 62
1
 10
1096.982720
 20
1212.129435
 11
1092.259076
 21
1205.060018
  0
LINE
  8
0
  6
CONTINUOUS
 62
1
 10
1092.259076
 20
1205.059986
 11
1088.498580
 21
1197.434429
  0
LINE
  8
0
  6
CONTINUOUS
 62
1
 10
1088.498580
 20
1197.434429
 11
1085.765568
 21
1189.383255
  0
LINE
  8
0
  6
CONTINUOUS
 62
1
 10
1085.765568
 20
1189.383239
 11
1084.106814
 21
1181.044214
  0
LINE
  8
0
  6
CONTINUOUS
 62
1
 10
1084.106814
 20
1181.044214
 11
1083.948311
 21
1178.626178
  0
LINE
  8
0
  6
CONTINUOUS
 62
1
 10
1084.106814
 20
1164.075820
 11
1083.948328
 21
1166.493856
  0
LINE
  8
0
  6
CONTINUOUS
 62
1
 10
1085.765568
 20
1155.736795
 11
1084.106814
 21
1164.075820
  0
LINE
  8
0
  6
CONTINUOUS
 62
1
 10
1088.498580
 20
1147.685605
 11
1085.765568
 21
1155.736780
  0
LINE
  8
0
  6
CONTINUOUS
 62
1
 10
1092.259076
 20
1140.060032
 11
1088.498580
 21
1147.685605
  0
LINE
  8
0
  6
CONTINUOUS
 62
1
 10
1096.982771
 20
1132.990504
 11
1092.259076
 21
1140.060016
  0
LINE
  8
0
  6
CONTINUOUS
 62
1
 10
1044.152358
 20
1129.316796
 11
1039.401134
 21
1143.313477
  0
LINE
  8
0
  6
CONTINUOUS
 62
1
 10
1039.401134
 20
1143.313477
 11
1036.517457
 21
1157.810556
  0
LINE
  8
0
  6
CONTINUOUS
 62
1
 10
1036.517457
 20
1157.810556
 11
1036.096268
 21
1164.236692
  0
LINE
  8
0
  6
CONTINUOUS
 62
1
 10
1079.760690
 20
1262.208934
 11
1073.400986
 21
1256.631618
  0
LINE
  8
0
  6
CONTINUOUS
 62
1
 10
1036.517457
 20
1187.309479
 11
1036.096268
 21
1180.883342
  0
LINE
  8
0
  6
CONTINUOUS
 62
1
 10
1039.401134
 20
1201.806557
 11
1036.517457
 21
1187.309479
  0
LINE
  8
0
  6
CONTINUOUS
 62
1
 10
1044.152358
 20
1215.803239
 11
1039.401134
 21
1201.806557
  0
LINE
  8
0
  6
CONTINUOUS
 62
1
 10
1050.689862
 20
1229.060011
 11
1044.152358
 21
1215.803239
  0
LINE
  8
0
  6
CONTINUOUS
 62
1
 10
1058.901797
 20
1241.350058
 11
1050.689862
 21
1229.060011
  0
LINE
  8
0
  6
CONTINUOUS
 62
1
 10
1064.479139
 20
1247.709758
 11
1058.901797
 21
1241.350058
  0
LINE
  8
0
  6
CONTINUOUS
 62
1
 10
989.550725
 20
1247.560009
 11
927.050724
 21
1247.560009
  0
LINE
  8
0
  6
CONTINUOUS
 62
1
 10
999.541264
 20
1257.607559
 11
998.789527
 21
1261.386857
  0
LINE
  8
0
  6
CONTINUOUS
 62
1
 10
998.789527
 20
1261.386857
 11
996.621799
 21
1264.631094
  0
LINE
  8
0
  6
CONTINUOUS
 62
1
 10
957.050729
 20
1267.560014
 11
957.050729
 21
1247.560009
  0
LINE
  8
0
  6
CONTINUOUS
 62
1
 10
993.377566
 20
1248.321227
 11
989.550725
 21
1247.560009
  0
LINE
  8
0
  6
CONTINUOUS
 62
1
 10
996.621799
 20
1250.488961
 11
993.377566
 21
1248.321227
  0
LINE
  8
0
  6
CONTINUOUS
 62
1
 10
998.789527
 20
1253.733190
 11
996.621799
 21
1250.488961
  0
LINE
  8
0
  6
CONTINUOUS
 62
1
 10
999.541264
 20
1257.512488
 11
998.789527
 21
1253.733190
  0
LINE
  8
0
  6
CONTINUOUS
 62
1
 10
999.541264
 20
1257.607559
 11
999.541264
 21
1257.512488
  0
LINE
  8
0
  6
CONTINUOUS
 62
1
 10
957.050729
 20
1182.560008
 11
957.050729
 21
1162.560011
  0
LINE
  8
0
  6
CONTINUOUS
 62
1
 10
957.050729
 20
1182.560008
 11
927.050724
 21
1181.242317
  0
LINE
  8
0
  6
CONTINUOUS
 62
1
 10
1000.550730
 20
1182.560008
 11
957.050729
 21
1182.560008
  0
LINE
  8
0
  6
CONTINUOUS
 62
1
 10
1000.550730
 20
1162.560011
 11
957.050729
 21
1162.560011
  0
LINE
  8
0
  6
CONTINUOUS
 62
1
 10
957.050729
 20
1162.560011
 11
927.050724
 21
1163.877702
  0
LINE
  8
0
  6
CONTINUOUS
 62
1
 10
937.050723
 20
1247.560009
 11
937.050723
 21
1181.681552
  0
LINE
  8
0
  6
CONTINUOUS
 62
1
 10
937.050723
 20
1163.438466
 11
937.050723
 21
1097.560009
  0
LINE
  8
0
  6
CONTINUOUS
 62
1
 10
1370.050765
 20
1097.560009
 11
1307.550739
 21
1097.560009
  0
LINE
  8
0
  6
CONTINUOUS
 62
1
 10
1370.050765
 20
1077.560028
 11
1307.550739
 21
1077.560028
  0
LINE
  8
0
  6
CONTINUOUS
 62
1
 10
1340.050735
 20
1097.560009
 11
1340.050735
 21
1077.560028
  0
LINE
  8
0
  6
CONTINUOUS
 62
1
 10
1370.050765
 20
1037.560003
 11
1158.247703
 21
1037.560003
  0
LINE
  8
0
  6
CONTINUOUS
 62
1
 10
1340.050735
 20
1037.560003
 11
1340.050735
 21
1027.560012
  0
LINE
  8
0
  6
CONTINUOUS
 62
1
 10
1370.050765
 20
1027.560012
 11
927.050724
 21
1027.560012
  0
LINE
  8
0
  6
CONTINUOUS
 62
1
 10
1360.050732
 20
1077.560028
 11
1360.050732
 21
1037.560003
  0
LINE
  8
0
  6
CONTINUOUS
 62
1
 10
1246.877215
 20
1060.161583
 11
1215.371428
 21
1098.668220
  0
LINE
  8
0
  6
CONTINUOUS
 62
1
 10
1249.701425
 20
1057.785402
 11
1246.877215
 21
1060.161583
  0
LINE
  8
0
  6
CONTINUOUS
 62
1
 10
1253.195257
 20
1056.595547
 11
1249.701425
 21
1057.785402
  0
LINE
  8
0
  6
CONTINUOUS
 62
1
 10
1256.882702
 20
1056.754067
 11
1253.195257
 21
1056.595547
  0
LINE
  8
0
  6
CONTINUOUS
 62
1
 10
1260.261477
 20
1058.239447
 11
1256.882702
 21
1056.754067
  0
LINE
  8
0
  6
CONTINUOUS
 62
1
 10
1262.871285
 20
1060.849277
 11
1260.261477
 21
1058.239447
  0
LINE
  8
0
  6
CONTINUOUS
 62
1
 10
1264.356664
 20
1064.228032
 11
1262.871285
 21
1060.849277
  0
LINE
  8
0
  6
CONTINUOUS
 62
1
 10
1264.515219
 20
1067.915501
 11
1264.356664
 21
1064.228032
  0
LINE
  8
0
  6
CONTINUOUS
 62
1
 10
1264.515219
 20
1067.915501
 11
1263.325372
 21
1071.409332
  0
LINE
  8
0
  6
CONTINUOUS
 62
1
 10
1263.325372
 20
1071.409332
 11
1260.949177
 21
1074.233552
  0
LINE
  8
0
  6
CONTINUOUS
 62
1
 10
1260.949177
 20
1074.233552
 11
1222.442520
 21
1105.739306
  0
LINE
  8
0
  6
CONTINUOUS
 62
1
 10
1222.442520
 20
1105.739306
 11
1215.371428
 21
1098.668220
  0
LINE
  8
0
  6
CONTINUOUS
 62
1
 10
1307.550739
 20
1097.560009
 11
1303.723915
 21
1096.798776
  0
LINE
  8
0
  6
CONTINUOUS
 62
1
 10
1303.723915
 20
1096.798776
 11
1300.479682
 21
1094.631073
  0
LINE
  8
0
  6
CONTINUOUS
 62
1
 10
1300.479682
 20
1094.631073
 11
1298.311954
 21
1091.386844
  0
LINE
  8
0
  6
CONTINUOUS
 62
1
 10
1298.311954
 20
1091.386844
 11
1297.560208
 21
1087.607530
  0
LINE
  8
0
  6
CONTINUOUS
 62
1
 10
1297.560208
 20
1087.607530
 11
1297.560208
 21
1087.512475
  0
LINE
  8
0
  6
CONTINUOUS
 62
1
 10
1298.311954
 20
1083.733162
 11
1297.560208
 21
1087.512475
  0
LINE
  8
0
  6
CONTINUOUS
 62
1
 10
1300.479682
 20
1080.488933
 11
1298.311954
 21
1083.733162
  0
LINE
  8
0
  6
CONTINUOUS
 62
1
 10
1303.723915
 20
1078.321230
 11
1300.479682
 21
1080.488933
  0
LINE
  8
0
  6
CONTINUOUS
 62
1
 10
1307.550739
 20
1077.560028
 11
1303.723915
 21
1078.321230
  0
LINE
  8
0
  6
CONTINUOUS
 62
1
 10
1181.050728
 20
1116.268343
 11
1173.425175
 21
1112.507843
  0
LINE
  8
0
  6
CONTINUOUS
 62
1
 10
1188.120207
 20
1120.992009
 11
1181.050762
 21
1116.268375
  0
LINE
  8
0
  6
CONTINUOUS
 62
1
 10
1194.512689
 20
1126.598086
 11
1188.120241
 21
1120.992041
  0
LINE
  8
0
  6
CONTINUOUS
 62
1
 10
1200.118572
 20
1132.990345
 11
1194.512689
 21
1126.598086
  0
LINE
  8
0
  6
CONTINUOUS
 62
1
 10
1223.700495
 20
1088.488385
 11
1217.340773
 21
1082.911101
  0
LINE
  8
0
  6
CONTINUOUS
 62
1
 10
1217.340773
 20
1082.911101
 11
1205.050752
 21
1074.699134
  0
LINE
  8
0
  6
CONTINUOUS
 62
1
 10
1205.050752
 20
1074.699134
 11
1191.793965
 21
1068.161607
  0
LINE
  8
0
  6
CONTINUOUS
 62
1
 10
1191.793965
 20
1068.161607
 11
1177.797301
 21
1063.410388
  0
LINE
  8
0
  6
CONTINUOUS
 62
1
 10
1177.797301
 20
1063.410388
 11
1163.300205
 21
1060.526707
  0
LINE
  8
0
  6
CONTINUOUS
 62
1
 10
1252.949123
 20
1129.316796
 11
1246.411601
 21
1116.060023
  0
LINE
  8
0
  6
CONTINUOUS
 62
1
 10
1246.411601
 20
1116.060023
 11
1238.199684
 21
1103.769976
  0
LINE
  8
0
  6
CONTINUOUS
 62
1
 10
1238.199684
 20
1103.769976
 11
1232.622376
 21
1097.410260
  0
LINE
  8
0
  6
CONTINUOUS
 62
1
 10
1143.550750
 20
1130.560025
 11
1138.853778
 21
1037.560003
  0
LINE
  8
0
  6
CONTINUOUS
 62
1
 10
1158.247703
 20
1037.560003
 11
1153.550748
 21
1130.560025
  0
LINE
  8
0
  6
CONTINUOUS
 62
1
 10
1081.730053
 20
1098.668220
 11
1074.658978
 21
1105.739306
  0
LINE
  8
0
  6
CONTINUOUS
 62
1
 10
1074.658978
 20
1105.739306
 11
1036.152287
 21
1074.233552
  0
LINE
  8
0
  6
CONTINUOUS
 62
1
 10
1050.224249
 20
1060.161583
 11
1047.400039
 21
1057.785402
  0
LINE
  8
0
  6
CONTINUOUS
 62
1
 10
1047.400039
 20
1057.785402
 11
1043.906224
 21
1056.595547
  0
LINE
  8
0
  6
CONTINUOUS
 62
1
 10
1043.906224
 20
1056.595547
 11
1040.218796
 21
1056.754067
  0
LINE
  8
0
  6
CONTINUOUS
 62
1
 10
1040.218796
 20
1056.754067
 11
1036.840004
 21
1058.239447
  0
LINE
  8
0
  6
CONTINUOUS
 62
1
 10
1036.840004
 20
1058.239447
 11
1034.230196
 21
1060.849277
  0
LINE
  8
0
  6
CONTINUOUS
 62
1
 10
1034.230196
 20
1060.849277
 11
1032.744817
 21
1064.228032
  0
LINE
  8
0
  6
CONTINUOUS
 62
1
 10
1032.744817
 20
1064.228032
 11
1032.586279
 21
1067.915501
  0
LINE
  8
0
  6
CONTINUOUS
 62
1
 10
1033.776126
 20
1071.409332
 11
1032.586279
 21
1067.915501
  0
LINE
  8
0
  6
CONTINUOUS
 62
1
 10
1036.152287
 20
1074.233552
 11
1033.776126
 21
1071.409332
  0
LINE
  8
0
  6
CONTINUOUS
 62
1
 10
1081.730053
 20
1098.668220
 11
1050.224249
 21
1060.161583
  0
LINE
  8
0
  6
CONTINUOUS
 62
1
 10
1138.853778
 20
1037.560003
 11
927.050724
 21
1037.560003
  0
LINE
  8
0
  6
CONTINUOUS
 62
1
 10
1158.247703
 20
1037.560003
 11
1138.853778
 21
1037.560003
  0
LINE
  8
0
  6
CONTINUOUS
 62
1
 10
1102.588792
 20
1126.598086
 11
1096.982771
 21
1132.990504
  0
LINE
  8
0
  6
CONTINUOUS
 62
1
 10
1108.981205
 20
1120.992072
 11
1102.588792
 21
1126.598086
  0
LINE
  8
0
  6
CONTINUOUS
 62
1
 10
1116.050753
 20
1116.268375
 11
1108.981240
 21
1120.992041
  0
LINE
  8
0
  6
CONTINUOUS
 62
1
 10
1123.676306
 20
1112.507843
 11
1116.050753
 21
1116.268375
  0
LINE
  8
0
  6
CONTINUOUS
 62
1
 10
1131.727474
 20
1109.774833
 11
1123.676306
 21
1112.507843
  0
LINE
  8
0
  6
CONTINUOUS
 62
1
 10
1140.066540
 20
1108.116091
 11
1131.727508
 21
1109.774833
  0
LINE
  8
0
  6
CONTINUOUS
 62
1
 10
1142.409443
 20
1107.962529
 11
1140.066540
 21
1108.116091
  0
LINE
  8
0
  6
CONTINUOUS
 62
1
 10
1157.034940
 20
1108.116091
 11
1154.692020
 21
1107.962529
  0
LINE
  8
0
  6
CONTINUOUS
 62
1
 10
1165.373973
 20
1109.774833
 11
1157.034940
 21
1108.116091
  0
LINE
  8
0
  6
CONTINUOUS
 62
1
 10
1173.425140
 20
1112.507843
 11
1165.373973
 21
1109.774833
  0
LINE
  8
0
  6
CONTINUOUS
 62
1
 10
1139.993215
 20
1060.120841
 11
1133.801276
 21
1060.526707
  0
LINE
  8
0
  6
CONTINUOUS
 62
1
 10
1133.801276
 20
1060.526707
 11
1119.304197
 21
1063.410388
  0
LINE
  8
0
  6
CONTINUOUS
 62
1
 10
1119.304197
 20
1063.410388
 11
1105.307499
 21
1068.161607
  0
LINE
  8
0
  6
CONTINUOUS
 62
1
 10
1105.307499
 20
1068.161607
 11
1092.050729
 21
1074.699134
  0
LINE
  8
0
  6
CONTINUOUS
 62
1
 10
1092.050729
 20
1074.699134
 11
1079.760690
 21
1082.911101
  0
LINE
  8
0
  6
CONTINUOUS
 62
1
 10
1079.760690
 20
1082.911101
 11
1073.400986
 21
1088.488385
  0
LINE
  8
0
  6
CONTINUOUS
 62
1
 10
1163.300205
 20
1060.526707
 11
1157.108266
 21
1060.120873
  0
LINE
  8
0
  6
CONTINUOUS
 62
1
 10
1064.479122
 20
1097.410292
 11
1058.901797
 21
1103.769976
  0
LINE
  8
0
  6
CONTINUOUS
 62
1
 10
1058.901797
 20
1103.769976
 11
1050.689862
 21
1116.060023
  0
LINE
  8
0
  6
CONTINUOUS
 62
1
 10
1050.689862
 20
1116.060023
 11
1044.152358
 21
1129.316796
  0
LINE
  8
0
  6
CONTINUOUS
 62
1
 10
989.550725
 20
1077.560028
 11
927.050724
 21
1077.560028
  0
LINE
  8
0
  6
CONTINUOUS
 62
1
 10
993.377566
 20
1078.321230
 11
989.550725
 21
1077.560028
  0
LINE
  8
0
  6
CONTINUOUS
 62
1
 10
996.621799
 20
1080.488933
 11
993.377566
 21
1078.321230
  0
LINE
  8
0
  6
CONTINUOUS
 62
1
 10
998.789527
 20
1083.733162
 11
996.621799
 21
1080.488933
  0
LINE
  8
0
  6
CONTINUOUS
 62
1
 10
999.541264
 20
1087.512475
 11
998.789527
 21
1083.733162
  0
LINE
  8
0
  6
CONTINUOUS
 62
1
 10
999.541264
 20
1087.607530
 11
998.789527
 21
1091.386844
  0
LINE
  8
0
  6
CONTINUOUS
 62
1
 10
998.789527
 20
1091.386844
 11
996.621799
 21
1094.631073
  0
LINE
  8
0
  6
CONTINUOUS
 62
1
 10
996.621799
 20
1094.631073
 11
993.377566
 21
1096.798776
  0
LINE
  8
0
  6
CONTINUOUS
 62
1
 10
993.377566
 20
1096.798776
 11
989.550725
 21
1097.560009
  0
LINE
  8
0
  6
CONTINUOUS
 62
1
 10
989.550725
 20
1097.560009
 11
927.050724
 21
1097.560009
  0
LINE
  8
0
  6
CONTINUOUS
 62
1
 10
999.541264
 20
1087.607530
 11
999.541264
 21
1087.512475
  0
LINE
  8
0
  6
CONTINUOUS
 62
1
 10
957.050729
 20
1097.560009
 11
957.050729
 21
1077.560028
  0
LINE
  8
0
  6
CONTINUOUS
 62
1
 10
957.050729
 20
1037.560003
 11
957.050729
 21
1027.560012
  0
LINE
  8
0
  6
CONTINUOUS
 62
1
 10
937.050723
 20
1077.560028
 11
937.050723
 21
1037.560003
  0
LINE
  8
0
  6
CONTINUOUS
 62
1
 10
927.050724
 20
1331.560020
 11
927.050724
 21
1027.560012
  0
LINE
  8
0
  6
CONTINUOUS
 62
1
 10
923.050807
 20
1331.560020
 11
480.050765
 21
1331.560020
  0
LINE
  8
0
  6
CONTINUOUS
 62
1
 10
923.050807
 20
1331.560020
 11
923.050807
 21
1027.560012
  0
LINE
  8
0
  6
CONTINUOUS
 62
1
 10
923.050807
 20
1267.560014
 11
860.550780
 21
1267.560014
  0
LINE
  8
0
  6
CONTINUOUS
 62
1
 10
913.050774
 20
1321.560018
 11
913.050774
 21
1267.560014
  0
LINE
  8
0
  6
CONTINUOUS
 62
1
 10
860.550780
 20
1267.560014
 11
856.723956
 21
1266.798820
  0
LINE
  8
0
  6
CONTINUOUS
 62
1
 10
856.723956
 20
1266.798820
 11
853.479723
 21
1264.631094
  0
LINE
  8
0
  6
CONTINUOUS
 62
1
 10
816.325413
 20
1273.710710
 11
813.949218
 21
1270.886490
  0
LINE
  8
0
  6
CONTINUOUS
 62
1
 10
817.515260
 20
1277.204518
 11
816.325413
 21
1273.710710
  0
LINE
  8
0
  6
CONTINUOUS
 62
1
 10
817.515260
 20
1277.204518
 11
817.356705
 21
1280.891971
  0
LINE
  8
0
  6
CONTINUOUS
 62
1
 10
817.356705
 20
1280.891971
 11
815.871326
 21
1284.270741
  0
LINE
  8
0
  6
CONTINUOUS
 62
1
 10
815.871326
 20
1284.270741
 11
813.261518
 21
1286.880572
  0
LINE
  8
0
  6
CONTINUOUS
 62
1
 10
813.261518
 20
1286.880572
 11
809.882743
 21
1288.365935
  0
LINE
  8
0
  6
CONTINUOUS
 62
1
 10
809.882743
 20
1288.365935
 11
806.195298
 21
1288.524487
  0
LINE
  8
0
  6
CONTINUOUS
 62
1
 10
806.195298
 20
1288.524487
 11
802.701466
 21
1287.334633
  0
LINE
  8
0
  6
CONTINUOUS
 62
1
 10
802.701466
 20
1287.334633
 11
799.877256
 21
1284.958451
  0
LINE
  8
0
  6
CONTINUOUS
 62
1
 10
799.877256
 20
1284.958451
 11
768.371469
 21
1246.451782
  0
LINE
  8
0
  6
CONTINUOUS
 62
1
 10
913.050774
 20
1321.560018
 11
710.628396
 21
1321.560018
  0
LINE
  8
0
  6
CONTINUOUS
 62
1
 10
730.797342
 20
1281.709646
 11
716.300246
 21
1284.593288
  0
LINE
  8
0
  6
CONTINUOUS
 62
1
 10
744.794006
 20
1276.958411
 11
730.797342
 21
1281.709646
  0
LINE
  8
0
  6
CONTINUOUS
 62
1
 10
758.050793
 20
1270.420885
 11
744.794006
 21
1276.958411
  0
LINE
  8
0
  6
CONTINUOUS
 62
1
 10
770.340815
 20
1262.208934
 11
758.050793
 21
1270.420885
  0
LINE
  8
0
  6
CONTINUOUS
 62
1
 10
893.050776
 20
1182.560008
 11
893.050776
 21
1162.560011
  0
LINE
  8
0
  6
CONTINUOUS
 62
1
 10
893.050776
 20
1182.560008
 11
849.550775
 21
1182.560008
  0
LINE
  8
0
  6
CONTINUOUS
 62
1
 10
923.050807
 20
1181.242317
 11
893.050776
 21
1182.560008
  0
LINE
  8
0
  6
CONTINUOUS
 62
1
 10
923.050807
 20
1163.877702
 11
893.050776
 21
1162.560011
  0
LINE
  8
0
  6
CONTINUOUS
 62
1
 10
893.050776
 20
1162.560011
 11
849.550775
 21
1162.560011
  0
LINE
  8
0
  6
CONTINUOUS
 62
1
 10
923.050807
 20
1247.560009
 11
860.550780
 21
1247.560009
  0
LINE
  8
0
  6
CONTINUOUS
 62
1
 10
893.050776
 20
1267.560014
 11
893.050776
 21
1247.560009
  0
LINE
  8
0
  6
CONTINUOUS
 62
1
 10
913.050774
 20
1163.438482
 11
913.050774
 21
1097.560009
  0
LINE
  8
0
  6
CONTINUOUS
 62
1
 10
913.050774
 20
1247.560009
 11
913.050774
 21
1181.681552
  0
LINE
  8
0
  6
CONTINUOUS
 62
1
 10
743.550781
 20
1177.560012
 11
743.550781
 21
1167.560006
  0
LINE
  8
0
  6
CONTINUOUS
 62
1
 10
849.550775
 20
1162.560011
 11
743.550781
 21
1167.560006
  0
LINE
  8
0
  6
CONTINUOUS
 62
1
 10
849.550775
 20
1182.560008
 11
743.550781
 21
1177.560012
  0
LINE
  8
0
  6
CONTINUOUS
 62
1
 10
853.479723
 20
1264.631094
 11
851.311996
 21
1261.386857
  0
LINE
  8
0
  6
CONTINUOUS
 62
1
 10
851.311996
 20
1261.386857
 11
850.560250
 21
1257.607559
  0
LINE
  8
0
  6
CONTINUOUS
 62
1
 10
850.560250
 20
1257.607559
 11
850.560250
 21
1257.512488
  0
LINE
  8
0
  6
CONTINUOUS
 62
1
 10
851.311996
 20
1253.733190
 11
850.560250
 21
1257.512488
  0
LINE
  8
0
  6
CONTINUOUS
 62
1
 10
853.479723
 20
1250.488961
 11
851.311996
 21
1253.733190
  0
LINE
  8
0
  6
CONTINUOUS
 62
1
 10
856.723956
 20
1248.321227
 11
853.479723
 21
1250.488961
  0
LINE
  8
0
  6
CONTINUOUS
 62
1
 10
860.550780
 20
1247.560009
 11
856.723956
 21
1248.321227
  0
LINE
  8
0
  6
CONTINUOUS
 62
1
 10
775.442561
 20
1239.380728
 11
768.371469
 21
1246.451782
  0
LINE
  8
0
  6
CONTINUOUS
 62
1
 10
813.949218
 20
1270.886490
 11
775.442561
 21
1239.380728
  0
LINE
  8
0
  6
CONTINUOUS
 62
1
 10
771.432140
 20
1178.875177
 11
770.035746
 21
1180.965018
  0
LINE
  8
0
  6
CONTINUOUS
 62
1
 10
770.035746
 20
1180.965018
 11
766.142680
 21
1183.566299
  0
LINE
  8
0
  6
CONTINUOUS
 62
1
 10
766.142680
 20
1183.566299
 11
765.466266
 21
1183.700825
  0
LINE
  8
0
  6
CONTINUOUS
 62
1
 10
771.536116
 20
1166.239963
 11
770.035746
 21
1163.994463
  0
LINE
  8
0
  6
CONTINUOUS
 62
1
 10
770.035746
 20
1163.994463
 11
766.142680
 21
1161.393181
  0
LINE
  8
0
  6
CONTINUOUS
 62
1
 10
766.142680
 20
1161.393181
 11
765.432991
 21
1161.252029
  0
LINE
  8
0
  6
CONTINUOUS
 62
1
 10
765.466266
 20
1183.700825
 11
764.335972
 21
1189.383255
  0
LINE
  8
0
  6
CONTINUOUS
 62
1
 10
765.432991
 20
1161.252029
 11
764.335972
 21
1155.736780
  0
LINE
  8
0
  6
CONTINUOUS
 62
1
 10
764.335972
 20
1189.383255
 11
761.602977
 21
1197.434429
  0
LINE
  8
0
  6
CONTINUOUS
 62
1
 10
761.602942
 20
1197.434461
 11
757.842429
 21
1205.060018
  0
LINE
  8
0
  6
CONTINUOUS
 62
1
 10
757.842429
 20
1205.060018
 11
753.118751
 21
1212.129515
  0
LINE
  8
0
  6
CONTINUOUS
 62
1
 10
753.118751
 20
1212.129531
 11
747.512731
 21
1218.521964
  0
LINE
  8
0
  6
CONTINUOUS
 62
1
 10
747.512731
 20
1218.521964
 11
741.120282
 21
1224.127994
  0
LINE
  8
0
  6
CONTINUOUS
 62
1
 10
741.120248
 20
1224.128010
 11
734.050803
 21
1228.851675
  0
LINE
  8
0
  6
CONTINUOUS
 62
1
 10
734.050803
 20
1228.851675
 11
726.425216
 21
1232.612191
  0
LINE
  8
0
  6
CONTINUOUS
 62
1
 10
757.842429
 20
1140.060016
 11
753.118751
 21
1132.990504
  0
LINE
  8
0
  6
CONTINUOUS
 62
1
 10
761.602942
 20
1147.685526
 11
757.842429
 21
1140.060016
  0
LINE
  8
0
  6
CONTINUOUS
 62
1
 10
764.335972
 20
1155.736780
 11
761.602977
 21
1147.685605
  0
LINE
  8
0
  6
CONTINUOUS
 62
1
 10
813.584048
 20
1157.810556
 11
810.700388
 21
1143.313477
  0
LINE
  8
0
  6
CONTINUOUS
 62
1
 10
810.700388
 20
1143.313477
 11
805.949164
 21
1129.316796
  0
LINE
  8
0
  6
CONTINUOUS
 62
1
 10
814.005237
 20
1164.236692
 11
813.584048
 21
1157.810556
  0
LINE
  8
0
  6
CONTINUOUS
 62
1
 10
814.005237
 20
1180.883342
 11
813.584048
 21
1187.309479
  0
LINE
  8
0
  6
CONTINUOUS
 62
1
 10
791.199725
 20
1241.350058
 11
785.622417
 21
1247.709758
  0
LINE
  8
0
  6
CONTINUOUS
 62
1
 10
799.411643
 20
1229.060011
 11
791.199725
 21
1241.350058
  0
LINE
  8
0
  6
CONTINUOUS
 62
1
 10
805.949164
 20
1215.803239
 11
799.411643
 21
1229.060011
  0
LINE
  8
0
  6
CONTINUOUS
 62
1
 10
810.700388
 20
1201.806557
 11
805.949164
 21
1215.803239
  0
LINE
  8
0
  6
CONTINUOUS
 62
1
 10
813.584048
 20
1187.309479
 11
810.700388
 21
1201.806557
  0
LINE
  8
0
  6
CONTINUOUS
 62
1
 10
776.700536
 20
1256.631618
 11
770.340815
 21
1262.208934
  0
LINE
  8
0
  6
CONTINUOUS
 62
1
 10
710.898148
 20
1315.418792
 11
710.233107
 21
1330.560021
  0
LINE
  8
0
  6
CONTINUOUS
 62
1
 10
692.868457
 20
1330.560021
 11
692.203415
 21
1315.418792
  0
LINE
  8
0
  6
CONTINUOUS
 62
1
 10
710.257686
 20
1300.560022
 11
692.843878
 21
1300.560022
  0
LINE
  8
0
  6
CONTINUOUS
 62
1
 10
710.898148
 20
1315.418792
 11
706.550790
 21
1214.560009
  0
LINE
  8
0
  6
CONTINUOUS
 62
1
 10
696.550791
 20
1214.560009
 11
692.203415
 21
1315.418792
  0
LINE
  8
0
  6
CONTINUOUS
 62
1
 10
634.730094
 20
1246.451782
 11
603.224290
 21
1284.958451
  0
LINE
  8
0
  6
CONTINUOUS
 62
1
 10
589.152328
 20
1270.886490
 11
586.776167
 21
1273.710710
  0
LINE
  8
0
  6
CONTINUOUS
 62
1
 10
586.776167
 20
1273.710710
 11
585.586320
 21
1277.204518
  0
LINE
  8
0
  6
CONTINUOUS
 62
1
 10
585.744858
 20
1280.891971
 11
585.586320
 21
1277.204518
  0
LINE
  8
0
  6
CONTINUOUS
 62
1
 10
587.230237
 20
1284.270741
 11
585.744858
 21
1280.891971
  0
LINE
  8
0
  6
CONTINUOUS
 62
1
 10
589.840045
 20
1286.880572
 11
587.230237
 21
1284.270741
  0
LINE
  8
0
  6
CONTINUOUS
 62
1
 10
593.218837
 20
1288.365935
 11
589.840045
 21
1286.880572
  0
LINE
  8
0
  6
CONTINUOUS
 62
1
 10
596.906266
 20
1288.524487
 11
593.218837
 21
1288.365935
  0
LINE
  8
0
  6
CONTINUOUS
 62
1
 10
600.400080
 20
1287.334633
 11
596.906266
 21
1288.524487
  0
LINE
  8
0
  6
CONTINUOUS
 62
1
 10
603.224290
 20
1284.958451
 11
600.400080
 21
1287.334633
  0
LINE
  8
0
  6
CONTINUOUS
 62
1
 10
692.473167
 20
1321.560018
 11
490.050764
 21
1321.560018
  0
LINE
  8
0
  6
CONTINUOUS
 62
1
 10
710.233107
 20
1330.560021
 11
692.868457
 21
1330.560021
  0
LINE
  8
0
  6
CONTINUOUS
 62
1
 10
716.300246
 20
1284.593288
 11
709.588425
 21
1285.033207
  0
LINE
  8
0
  6
CONTINUOUS
 62
1
 10
645.050770
 20
1270.420885
 11
632.760732
 21
1262.208934
  0
LINE
  8
0
  6
CONTINUOUS
 62
1
 10
658.307540
 20
1276.958411
 11
645.050770
 21
1270.420885
  0
LINE
  8
0
  6
CONTINUOUS
 62
1
 10
672.304238
 20
1281.709646
 11
658.307540
 21
1276.958411
  0
LINE
  8
0
  6
CONTINUOUS
 62
1
 10
686.801317
 20
1284.593288
 11
672.304238
 21
1281.709646
  0
LINE
  8
0
  6
CONTINUOUS
 62
1
 10
693.513139
 20
1285.033207
 11
686.801317
 21
1284.593288
  0
LINE
  8
0
  6
CONTINUOUS
 62
1
 10
542.550766
 20
1267.560014
 11
480.050765
 21
1267.560014
  0
LINE
  8
0
  6
CONTINUOUS
 62
1
 10
549.621840
 20
1264.631094
 11
546.377607
 21
1266.798820
  0
LINE
  8
0
  6
CONTINUOUS
 62
1
 10
546.377607
 20
1266.798820
 11
542.550766
 21
1267.560014
  0
LINE
  8
0
  6
CONTINUOUS
 62
1
 10
480.050765
 20
1331.560020
 11
480.050765
 21
1027.560012
  0
LINE
  8
0
  6
CONTINUOUS
 62
1
 10
490.050764
 20
1321.560018
 11
490.050764
 21
1267.560014
  0
LINE
  8
0
  6
CONTINUOUS
 62
1
 10
706.550790
 20
1130.560025
 11
696.550791
 21
1130.560025
  0
LINE
  8
0
  6
CONTINUOUS
 62
1
 10
706.550790
 20
1214.560009
 11
696.550791
 21
1214.560009
  0
LINE
  8
0
  6
CONTINUOUS
 62
1
 10
634.730094
 20
1246.451782
 11
627.659020
 21
1239.380728
  0
LINE
  8
0
  6
CONTINUOUS
 62
1
 10
627.659020
 20
1239.380728
 11
589.152328
 21
1270.886490
  0
LINE
  8
0
  6
CONTINUOUS
 62
1
 10
659.550765
 20
1177.560012
 11
659.550765
 21
1167.560006
  0
LINE
  8
0
  6
CONTINUOUS
 62
1
 10
659.550765
 20
1167.560006
 11
553.550771
 21
1162.560011
  0
LINE
  8
0
  6
CONTINUOUS
 62
1
 10
659.550765
 20
1177.560012
 11
553.550771
 21
1182.560008
  0
LINE
  8
0
  6
CONTINUOUS
 62
1
 10
726.425216
 20
1232.612191
 11
718.374014
 21
1235.345202
  0
LINE
  8
0
  6
CONTINUOUS
 62
1
 10
718.374014
 20
1235.345202
 11
710.034982
 21
1237.003943
  0
LINE
  8
0
  6
CONTINUOUS
 62
1
 10
710.034982
 20
1237.003943
 11
707.525291
 21
1237.168438
  0
LINE
  8
0
  6
CONTINUOUS
 62
1
 10
695.576289
 20
1237.168438
 11
693.066582
 21
1237.003943
  0
LINE
  8
0
  6
CONTINUOUS
 62
1
 10
693.066564
 20
1237.003943
 11
684.727549
 21
1235.345202
  0
LINE
  8
0
  6
CONTINUOUS
 62
1
 10
684.727549
 20
1235.345202
 11
676.676347
 21
1232.612191
  0
LINE
  8
0
  6
CONTINUOUS
 62
1
 10
676.676347
 20
1232.612175
 11
669.050794
 21
1228.851675
  0
LINE
  8
0
  6
CONTINUOUS
 62
1
 10
669.050794
 20
1228.851675
 11
661.981281
 21
1224.127994
  0
LINE
  8
0
  6
CONTINUOUS
 62
1
 10
661.981264
 20
1224.127978
 11
655.588833
 21
1218.521964
  0
LINE
  8
0
  6
CONTINUOUS
 62
1
 10
655.588833
 20
1218.521964
 11
649.982812
 21
1212.129515
  0
LINE
  8
0
  6
CONTINUOUS
 62
1
 10
649.982761
 20
1212.129435
 11
645.259118
 21
1205.060018
  0
LINE
  8
0
  6
CONTINUOUS
 62
1
 10
645.259118
 20
1205.059986
 11
641.498621
 21
1197.434429
  0
LINE
  8
0
  6
CONTINUOUS
 62
1
 10
641.498621
 20
1197.434429
 11
638.765609
 21
1189.383255
  0
LINE
  8
0
  6
CONTINUOUS
 62
1
 10
638.765609
 20
1189.383239
 11
637.106855
 21
1181.044214
  0
LINE
  8
0
  6
CONTINUOUS
 62
1
 10
637.106855
 20
1181.044214
 11
636.948352
 21
1178.626178
  0
LINE
  8
0
  6
CONTINUOUS
 62
1
 10
637.106855
 20
1164.075820
 11
636.948369
 21
1166.493856
  0
LINE
  8
0
  6
CONTINUOUS
 62
1
 10
638.765609
 20
1155.736795
 11
637.106855
 21
1164.075820
  0
LINE
  8
0
  6
CONTINUOUS
 62
1
 10
641.498621
 20
1147.685605
 11
638.765609
 21
1155.736780
  0
LINE
  8
0
  6
CONTINUOUS
 62
1
 10
645.259118
 20
1140.060032
 11
641.498621
 21
1147.685605
  0
LINE
  8
0
  6
CONTINUOUS
 62
1
 10
649.982812
 20
1132.990504
 11
645.259118
 21
1140.060016
  0
LINE
  8
0
  6
CONTINUOUS
 62
1
 10
597.152399
 20
1129.316796
 11
592.401175
 21
1143.313477
  0
LINE
  8
0
  6
CONTINUOUS
 62
1
 10
592.401175
 20
1143.313477
 11
589.517498
 21
1157.810556
  0
LINE
  8
0
  6
CONTINUOUS
 62
1
 10
589.517498
 20
1157.810556
 11
589.096309
 21
1164.236692
  0
LINE
  8
0
  6
CONTINUOUS
 62
1
 10
632.760732
 20
1262.208934
 11
626.401027
 21
1256.631618
  0
LINE
  8
0
  6
CONTINUOUS
 62
1
 10
589.517498
 20
1187.309479
 11
589.096309
 21
1180.883342
  0
LINE
  8
0
  6
CONTINUOUS
 62
1
 10
592.401175
 20
1201.806557
 11
589.517498
 21
1187.309479
  0
LINE
  8
0
  6
CONTINUOUS
 62
1
 10
597.152399
 20
1215.803239
 11
592.401175
 21
1201.806557
  0
LINE
  8
0
  6
CONTINUOUS
 62
1
 10
603.689904
 20
1229.060011
 11
597.152399
 21
1215.803239
  0
LINE
  8
0
  6
CONTINUOUS
 62
1
 10
611.901838
 20
1241.350058
 11
603.689904
 21
1229.060011
  0
LINE
  8
0
  6
CONTINUOUS
 62
1
 10
617.479180
 20
1247.709758
 11
611.901838
 21
1241.350058
  0
LINE
  8
0
  6
CONTINUOUS
 62
1
 10
542.550766
 20
1247.560009
 11
480.050765
 21
1247.560009
  0
LINE
  8
0
  6
CONTINUOUS
 62
1
 10
552.541305
 20
1257.607559
 11
551.789568
 21
1261.386857
  0
LINE
  8
0
  6
CONTINUOUS
 62
1
 10
551.789568
 20
1261.386857
 11
549.621840
 21
1264.631094
  0
LINE
  8
0
  6
CONTINUOUS
 62
1
 10
510.050770
 20
1267.560014
 11
510.050770
 21
1247.560009
  0
LINE
  8
0
  6
CONTINUOUS
 62
1
 10
546.377607
 20
1248.321227
 11
542.550766
 21
1247.560009
  0
LINE
  8
0
  6
CONTINUOUS
 62
1
 10
549.621840
 20
1250.488961
 11
546.377607
 21
1248.321227
  0
LINE
  8
0
  6
CONTINUOUS
 62
1
 10
551.789568
 20
1253.733190
 11
549.621840
 21
1250.488961
  0
LINE
  8
0
  6
CONTINUOUS
 62
1
 10
552.541305
 20
1257.512488
 11
551.789568
 21
1253.733190
  0
LINE
  8
0
  6
CONTINUOUS
 62
1
 10
552.541305
 20
1257.607559
 11
552.541305
 21
1257.512488
  0
LINE
  8
0
  6
CONTINUOUS
 62
1
 10
510.050770
 20
1182.560008
 11
510.050770
 21
1162.560011
  0
LINE
  8
0
  6
CONTINUOUS
 62
1
 10
510.050770
 20
1182.560008
 11
480.050765
 21
1181.242317
  0
LINE
  8
0
  6
CONTINUOUS
 62
1
 10
553.550771
 20
1182.560008
 11
510.050770
 21
1182.560008
  0
LINE
  8
0
  6
CONTINUOUS
 62
1
 10
553.550771
 20
1162.560011
 11
510.050770
 21
1162.560011
  0
LINE
  8
0
  6
CONTINUOUS
 62
1
 10
510.050770
 20
1162.560011
 11
480.050765
 21
1163.877702
  0
LINE
  8
0
  6
CONTINUOUS
 62
1
 10
490.050764
 20
1247.560009
 11
490.050764
 21
1181.681552
  0
LINE
  8
0
  6
CONTINUOUS
 62
1
 10
490.050764
 20
1163.438466
 11
490.050764
 21
1097.560009
  0
LINE
  8
0
  6
CONTINUOUS
 62
1
 10
923.050807
 20
1097.560009
 11
860.550780
 21
1097.560009
  0
LINE
  8
0
  6
CONTINUOUS
 62
1
 10
923.050807
 20
1077.560028
 11
860.550780
 21
1077.560028
  0
LINE
  8
0
  6
CONTINUOUS
 62
1
 10
893.050776
 20
1097.560009
 11
893.050776
 21
1077.560028
  0
LINE
  8
0
  6
CONTINUOUS
 62
1
 10
923.050807
 20
1037.560003
 11
711.247744
 21
1037.560003
  0
LINE
  8
0
  6
CONTINUOUS
 62
1
 10
893.050776
 20
1037.560003
 11
893.050776
 21
1027.560012
  0
LINE
  8
0
  6
CONTINUOUS
 62
1
 10
923.050807
 20
1027.560012
 11
480.050765
 21
1027.560012
  0
LINE
  8
0
  6
CONTINUOUS
 62
1
 10
913.050774
 20
1077.560028
 11
913.050774
 21
1037.560003
  0
LINE
  8
0
  6
CONTINUOUS
 62
1
 10
799.877256
 20
1060.161583
 11
768.371469
 21
1098.668220
  0
LINE
  8
0
  6
CONTINUOUS
 62
1
 10
802.701466
 20
1057.785402
 11
799.877256
 21
1060.161583
  0
LINE
  8
0
  6
CONTINUOUS
 62
1
 10
806.195298
 20
1056.595547
 11
802.701466
 21
1057.785402
  0
LINE
  8
0
  6
CONTINUOUS
 62
1
 10
809.882743
 20
1056.754067
 11
806.195298
 21
1056.595547
  0
LINE
  8
0
  6
CONTINUOUS
 62
1
 10
813.261518
 20
1058.239447
 11
809.882743
 21
1056.754067
  0
LINE
  8
0
  6
CONTINUOUS
 62
1
 10
815.871326
 20
1060.849277
 11
813.261518
 21
1058.239447
  0
LINE
  8
0
  6
CONTINUOUS
 62
1
 10
817.356705
 20
1064.228032
 11
815.871326
 21
1060.849277
  0
LINE
  8
0
  6
CONTINUOUS
 62
1
 10
817.515260
 20
1067.915501
 11
817.356705
 21
1064.228032
  0
LINE
  8
0
  6
CONTINUOUS
 62
1
 10
817.515260
 20
1067.915501
 11
816.325413
 21
1071.409332
  0
LINE
  8
0
  6
CONTINUOUS
 62
1
 10
816.325413
 20
1071.409332
 11
813.949218
 21
1074.233552
  0
LINE
  8
0
  6
CONTINUOUS
 62
1
 10
813.949218
 20
1074.233552
 11
775.442561
 21
1105.739306
  0
LINE
  8
0
  6
CONTINUOUS
 62
1
 10
775.442561
 20
1105.739306
 11
768.371469
 21
1098.668220
  0
LINE
  8
0
  6
CONTINUOUS
 62
1
 10
860.550780
 20
1097.560009
 11
856.723956
 21
1096.798776
  0
LINE
  8
0
  6
CONTINUOUS
 62
1
 10
856.723956
 20
1096.798776
 11
853.479723
 21
1094.631073
  0
LINE
  8
0
  6
CONTINUOUS
 62
1
 10
853.479723
 20
1094.631073
 11
851.311996
 21
1091.386844
  0
LINE
  8
0
  6
CONTINUOUS
 62
1
 10
851.311996
 20
1091.386844
 11
850.560250
 21
1087.607530
  0
LINE
  8
0
  6
CONTINUOUS
 62
1
 10
850.560250
 20
1087.607530
 11
850.560250
 21
1087.512475
  0
LINE
  8
0
  6
CONTINUOUS
 62
1
 10
851.311996
 20
1083.733162
 11
850.560250
 21
1087.512475
  0
LINE
  8
0
  6
CONTINUOUS
 62
1
 10
853.479723
 20
1080.488933
 11
851.311996
 21
1083.733162
  0
LINE
  8
0
  6
CONTINUOUS
 62
1
 10
856.723956
 20
1078.321230
 11
853.479723
 21
1080.488933
  0
LINE
  8
0
  6
CONTINUOUS
 62
1
 10
860.550780
 20
1077.560028
 11
856.723956
 21
1078.321230
  0
LINE
  8
0
  6
CONTINUOUS
 62
1
 10
734.050769
 20
1116.268343
 11
726.425216
 21
1112.507843
  0
LINE
  8
0
  6
CONTINUOUS
 62
1
 10
741.120248
 20
1120.992009
 11
734.050803
 21
1116.268375
  0
LINE
  8
0
  6
CONTINUOUS
 62
1
 10
747.512731
 20
1126.598086
 11
741.120282
 21
1120.992041
  0
LINE
  8
0
  6
CONTINUOUS
 62
1
 10
753.118614
 20
1132.990345
 11
747.512731
 21
1126.598086
  0
LINE
  8
0
  6
CONTINUOUS
 62
1
 10
776.700536
 20
1088.488385
 11
770.340815
 21
1082.911101
  0
LINE
  8
0
  6
CONTINUOUS
 62
1
 10
770.340815
 20
1082.911101
 11
758.050793
 21
1074.699134
  0
LINE
  8
0
  6
CONTINUOUS
 62
1
 10
758.050793
 20
1074.699134
 11
744.794006
 21
1068.161607
  0
LINE
  8
0
  6
CONTINUOUS
 62
1
 10
744.794006
 20
1068.161607
 11
730.797342
 21
1063.410388
  0
LINE
  8
0
  6
CONTINUOUS
 62
1
 10
730.797342
 20
1063.410388
 11
716.300246
 21
1060.526707
  0
LINE
  8
0
  6
CONTINUOUS
 62
1
 10
805.949164
 20
1129.316796
 11
799.411643
 21
1116.060023
  0
LINE
  8
0
  6
CONTINUOUS
 62
1
 10
799.411643
 20
1116.060023
 11
791.199725
 21
1103.769976
  0
LINE
  8
0
  6
CONTINUOUS
 62
1
 10
791.199725
 20
1103.769976
 11
785.622417
 21
1097.410260
  0
LINE
  8
0
  6
CONTINUOUS
 62
1
 10
696.550791
 20
1130.560025
 11
691.853819
 21
1037.560003
  0
LINE
  8
0
  6
CONTINUOUS
 62
1
 10
711.247744
 20
1037.560003
 11
706.550790
 21
1130.560025
  0
LINE
  8
0
  6
CONTINUOUS
 62
1
 10
634.730094
 20
1098.668220
 11
627.659020
 21
1105.739306
  0
LINE
  8
0
  6
CONTINUOUS
 62
1
 10
627.659020
 20
1105.739306
 11
589.152328
 21
1074.233552
  0
LINE
  8
0
  6
CONTINUOUS
 62
1
 10
603.224290
 20
1060.161583
 11
600.400080
 21
1057.785402
  0
LINE
  8
0
  6
CONTINUOUS
 62
1
 10
600.400080
 20
1057.785402
 11
596.906266
 21
1056.595547
  0
LINE
  8
0
  6
CONTINUOUS
 62
1
 10
596.906266
 20
1056.595547
 11
593.218837
 21
1056.754067
  0
LINE
  8
0
  6
CONTINUOUS
 62
1
 10
593.218837
 20
1056.754067
 11
589.840045
 21
1058.239447
  0
LINE
  8
0
  6
CONTINUOUS
 62
1
 10
589.840045
 20
1058.239447
 11
587.230237
 21
1060.849277
  0
LINE
  8
0
  6
CONTINUOUS
 62
1
 10
587.230237
 20
1060.849277
 11
585.744858
 21
1064.228032
  0
LINE
  8
0
  6
CONTINUOUS
 62
1
 10
585.744858
 20
1064.228032
 11
585.586320
 21
1067.915501
  0
LINE
  8
0
  6
CONTINUOUS
 62
1
 10
586.776167
 20
1071.409332
 11
585.586320
 21
1067.915501
  0
LINE
  8
0
  6
CONTINUOUS
 62
1
 10
589.152328
 20
1074.233552
 11
586.776167
 21
1071.409332
  0
LINE
  8
0
  6
CONTINUOUS
 62
1
 10
634.730094
 20
1098.668220
 11
603.224290
 21
1060.161583
  0
LINE
  8
0
  6
CONTINUOUS
 62
1
 10
691.853819
 20
1037.560003
 11
480.050765
 21
1037.560003
  0
LINE
  8
0
  6
CONTINUOUS
 62
1
 10
711.247744
 20
1037.560003
 11
691.853819
 21
1037.560003
  0
LINE
  8
0
  6
CONTINUOUS
 62
1
 10
655.588833
 20
1126.598086
 11
649.982812
 21
1132.990504
  0
LINE
  8
0
  6
CONTINUOUS
 62
1
 10
661.981247
 20
1120.992072
 11
655.588833
 21
1126.598086
  0
LINE
  8
0
  6
CONTINUOUS
 62
1
 10
669.050794
 20
1116.268375
 11
661.981281
 21
1120.992041
  0
LINE
  8
0
  6
CONTINUOUS
 62
1
 10
676.676347
 20
1112.507843
 11
669.050794
 21
1116.268375
  0
LINE
  8
0
  6
CONTINUOUS
 62
1
 10
684.727515
 20
1109.774833
 11
676.676347
 21
1112.507843
  0
LINE
  8
0
  6
CONTINUOUS
 62
1
 10
693.066582
 20
1108.116091
 11
684.727549
 21
1109.774833
  0
LINE
  8
0
  6
CONTINUOUS
 62
1
 10
695.409484
 20
1107.962529
 11
693.066582
 21
1108.116091
  0
LINE
  8
0
  6
CONTINUOUS
 62
1
 10
710.034982
 20
1108.116091
 11
707.692062
 21
1107.962529
  0
LINE
  8
0
  6
CONTINUOUS
 62
1
 10
718.374014
 20
1109.774833
 11
710.034982
 21
1108.116091
  0
LINE
  8
0
  6
CONTINUOUS
 62
1
 10
726.425182
 20
1112.507843
 11
718.374014
 21
1109.774833
  0
LINE
  8
0
  6
CONTINUOUS
 62
1
 10
692.993256
 20
1060.120841
 11
686.801317
 21
1060.526707
  0
LINE
  8
0
  6
CONTINUOUS
 62
1
 10
686.801317
 20
1060.526707
 11
672.304238
 21
1063.410388
  0
LINE
  8
0
  6
CONTINUOUS
 62
1
 10
672.304238
 20
1063.410388
 11
658.307540
 21
1068.161607
  0
LINE
  8
0
  6
CONTINUOUS
 62
1
 10
658.307540
 20
1068.161607
 11
645.050770
 21
1074.699134
  0
LINE
  8
0
  6
CONTINUOUS
 62
1
 10
645.050770
 20
1074.699134
 11
632.760732
 21
1082.911101
  0
LINE
  8
0
  6
CONTINUOUS
 62
1
 10
632.760732
 20
1082.911101
 11
626.401027
 21
1088.488385
  0
LINE
  8
0
  6
CONTINUOUS
 62
1
 10
716.300246
 20
1060.526707
 11
710.108307
 21
1060.120873
  0
LINE
  8
0
  6
CONTINUOUS
 62
1
 10
617.479163
 20
1097.410292
 11
611.901838
 21
1103.769976
  0
LINE
  8
0
  6
CONTINUOUS
 62
1
 10
611.901838
 20
1103.769976
 11
603.689904
 21
1116.060023
  0
LINE
  8
0
  6
CONTINUOUS
 62
1
 10
603.689904
 20
1116.060023
 11
597.152399
 21
1129.316796
  0
LINE
  8
0
  6
CONTINUOUS
 62
1
 10
542.550766
 20
1077.560028
 11
480.050765
 21
1077.560028
  0
LINE
  8
0
  6
CONTINUOUS
 62
1
 10
546.377607
 20
1078.321230
 11
542.550766
 21
1077.560028
  0
LINE
  8
0
  6
CONTINUOUS
 62
1
 10
549.621840
 20
1080.488933
 11
546.377607
 21
1078.321230
  0
LINE
  8
0
  6
CONTINUOUS
 62
1
 10
551.789568
 20
1083.733162
 11
549.621840
 21
1080.488933
  0
LINE
  8
0
  6
CONTINUOUS
 62
1
 10
552.541305
 20
1087.512475
 11
551.789568
 21
1083.733162
  0
LINE
  8
0
  6
CONTINUOUS
 62
1
 10
552.541305
 20
1087.607530
 11
551.789568
 21
1091.386844
  0
LINE
  8
0
  6
CONTINUOUS
 62
1
 10
551.789568
 20
1091.386844
 11
549.621840
 21
1094.631073
  0
LINE
  8
0
  6
CONTINUOUS
 62
1
 10
549.621840
 20
1094.631073
 11
546.377607
 21
1096.798776
  0
LINE
  8
0
  6
CONTINUOUS
 62
1
 10
546.377607
 20
1096.798776
 11
542.550766
 21
1097.560009
  0
LINE
  8
0
  6
CONTINUOUS
 62
1
 10
542.550766
 20
1097.560009
 11
480.050765
 21
1097.560009
  0
LINE
  8
0
  6
CONTINUOUS
 62
1
 10
552.541305
 20
1087.607530
 11
552.541305
 21
1087.512475
  0
LINE
  8
0
  6
CONTINUOUS
 62
1
 10
510.050770
 20
1097.560009
 11
510.050770
 21
1077.560028
  0
LINE
  8
0
  6
CONTINUOUS
 62
1
 10
510.050770
 20
1037.560003
 11
510.050770
 21
1027.560012
  0
LINE
  8
0
  6
CONTINUOUS
 62
1
 10
490.050764
 20
1077.560028
 11
490.050764
 21
1037.560003
  0
LINE
  8
0
  6
CONTINUOUS
 62
1
 10
548.050222
 20
1353.075455
 11
582.050222
 21
1353.069296
  0
ARC
  8
0
  6
CONTINUOUS
 62
1
 10
582.050765
 20
1356.069296
 40
3.000000
 50
269.989620
 51
0.000000
  0
ARC
  8
0
  6
CONTINUOUS
 62
1
 10
548.050765
 20
1356.075455
 40
3.000000
 50
180.000000
 51
269.989620
  0
LINE
  8
0
  6
CONTINUOUS
 62
1
 10
608.050222
 20
1353.075455
 11
642.050222
 21
1353.069296
  0
ARC
  8
0
  6
CONTINUOUS
 62
1
 10
642.050765
 20
1356.069296
 40
3.000000
 50
269.989620
 51
0.000000
  0
ARC
  8
0
  6
CONTINUOUS
 62
1
 10
608.050765
 20
1356.075455
 40
3.000000
 50
180.000000
 51
269.989620
  0
LINE
  8
0
  6
CONTINUOUS
 62
1
 10
668.050222
 20
1353.075455
 11
702.050222
 21
1353.069296
  0
ARC
  8
0
  6
CONTINUOUS
 62
1
 10
702.050765
 20
1356.069296
 40
3.000000
 50
269.989620
 51
0.000000
  0
ARC
  8
0
  6
CONTINUOUS
 62
1
 10
668.050765
 20
1356.075455
 40
3.000000
 50
180.000000
 51
269.989620
  0
LINE
  8
0
  6
CONTINUOUS
 62
1
 10
728.050222
 20
1353.075455
 11
762.050222
 21
1353.069296
  0
ARC
  8
0
  6
CONTINUOUS
 62
1
 10
762.050765
 20
1356.069296
 40
3.000000
 50
269.989620
 51
0.000000
  0
ARC
  8
0
  6
CONTINUOUS
 62
1
 10
728.050765
 20
1356.075455
 40
3.000000
 50
180.000000
 51
269.989620
  0
LINE
  8
0
  6
CONTINUOUS
 62
1
 10
788.050222
 20
1353.075455
 11
822.050222
 21
1353.069296
  0
ARC
  8
0
  6
CONTINUOUS
 62
1
 10
822.050765
 20
1356.069296
 40
3.000000
 50
269.989620
 51
0.000000
  0
ARC
  8
0
  6
CONTINUOUS
 62
1
 10
788.050765
 20
1356.075455
 40
3.000000
 50
180.000000
 51
269.989620
  0
LINE
  8
0
  6
CONTINUOUS
 62
1
 10
848.050222
 20
1353.075455
 11
882.050222
 21
1353.069296
  0
ARC
  8
0
  6
CONTINUOUS
 62
1
 10
882.050765
 20
1356.069296
 40
3.000000
 50
269.989620
 51
0.000000
  0
ARC
  8
0
  6
CONTINUOUS
 62
1
 10
848.050765
 20
1356.075455
 40
3.000000
 50
180.000000
 51
269.989620
  0
LINE
  8
0
  6
CONTINUOUS
 62
1
 10
908.050222
 20
1353.075455
 11
942.050222
 21
1353.069296
  0
ARC
  8
0
  6
CONTINUOUS
 62
1
 10
942.050765
 20
1356.069296
 40
3.000000
 50
269.989620
 51
0.000000
  0
ARC
  8
0
  6
CONTINUOUS
 62
1
 10
908.050765
 20
1356.075455
 40
3.000000
 50
180.000000
 51
269.989620
  0
LINE
  8
0
  6
CONTINUOUS
 62
1
 10
968.050222
 20
1353.075455
 11
1002.050222
 21
1353.069296
  0
ARC
  8
0
  6
CONTINUOUS
 62
1
 10
1002.050765
 20
1356.069296
 40
3.000000
 50
269.989620
 51
0.000000
  0
ARC
  8
0
  6
CONTINUOUS
 62
1
 10
968.050765
 20
1356.075455
 40
3.000000
 50
180.000000
 51
269.989620
  0
LINE
  8
0
  6
CONTINUOUS
 62
1
 10
1028.050222
 20
1353.075455
 11
1062.050222
 21
1353.069296
  0
ARC
  8
0
  6
CONTINUOUS
 62
1
 10
1062.050765
 20
1356.069296
 40
3.000000
 50
269.989620
 51
0.000000
  0
ARC
  8
0
  6
CONTINUOUS
 62
1
 10
1028.050765
 20
1356.075455
 40
3.000000
 50
180.000000
 51
269.989620
  0
LINE
  8
0
  6
CONTINUOUS
 62
1
 10
1088.050222
 20
1353.075455
 11
1122.050222
 21
1353.069296
  0
ARC
  8
0
  6
CONTINUOUS
 62
1
 10
1122.050765
 20
1356.069296
 40
3.000000
 50
269.989620
 51
0.000000
  0
ARC
  8
0
  6
CONTINUOUS
 62
1
 10
1088.050765
 20
1356.075455
 40
3.000000
 50
180.000000
 51
269.989620
  0
LINE
  8
0
  6
CONTINUOUS
 62
1
 10
1148.050222
 20
1353.075455
 11
1182.050222
 21
1353.069296
  0
ARC
  8
0
  6
CONTINUOUS
 62
1
 10
1182.050765
 20
1356.069296
 40
3.000000
 50
269.989620
 51
0.000000
  0
ARC
  8
0
  6
CONTINUOUS
 62
1
 10
1148.050765
 20
1356.075455
 40
3.000000
 50
180.000000
 51
269.989620
  0
LINE
  8
0
  6
CONTINUOUS
 62
1
 10
1208.050222
 20
1353.075455
 11
1242.050222
 21
1353.069296
  0
ARC
  8
0
  6
CONTINUOUS
 62
1
 10
1242.050765
 20
1356.069296
 40
3.000000
 50
269.989620
 51
0.000000
  0
ARC
  8
0
  6
CONTINUOUS
 62
1
 10
1208.050765
 20
1356.075455
 40
3.000000
 50
180.000000
 51
269.989620
  0
LINE
  8
0
  6
CONTINUOUS
 62
1
 10
1268.050222
 20
1353.075455
 11
1302.050222
 21
1353.069296
  0
ARC
  8
0
  6
CONTINUOUS
 62
1
 10
1302.050765
 20
1356.069296
 40
3.000000
 50
269.989620
 51
0.000000
  0
ARC
  8
0
  6
CONTINUOUS
 62
1
 10
1268.050765
 20
1356.075455
 40
3.000000
 50
180.000000
 51
269.989620
  0
LINE
  8
0
  6
CONTINUOUS
 62
1
 10
548.050222
 20
1456.256108
 11
582.050222
 21
1456.262268
  0
ARC
  8
0
  6
CONTINUOUS
 62
1
 10
582.050765
 20
1453.262268
 40
3.000000
 50
0.000000
 51
90.010380
  0
ARC
  8
0
  6
CONTINUOUS
 62
1
 10
548.050765
 20
1453.256108
 40
3.000000
 50
90.010380
 51
180.000000
  0
LINE
  8
0
  6
CONTINUOUS
 62
1
 10
608.050222
 20
1456.256108
 11
642.050222
 21
1456.262268
  0
ARC
  8
0
  6
CONTINUOUS
 62
1
 10
642.050765
 20
1453.262268
 40
3.000000
 50
0.000000
 51
90.010380
  0
ARC
  8
0
  6
CONTINUOUS
 62
1
 10
608.050765
 20
1453.256108
 40
3.000000
 50
90.010380
 51
180.000000
  0
LINE
  8
0
  6
CONTINUOUS
 62
1
 10
668.050222
 20
1456.256108
 11
702.050222
 21
1456.262268
  0
ARC
  8
0
  6
CONTINUOUS
 62
1
 10
702.050765
 20
1453.262268
 40
3.000000
 50
0.000000
 51
90.010380
  0
ARC
  8
0
  6
CONTINUOUS
 62
1
 10
668.050765
 20
1453.256108
 40
3.000000
 50
90.010380
 51
180.000000
  0
LINE
  8
0
  6
CONTINUOUS
 62
1
 10
728.050222
 20
1456.256108
 11
762.050222
 21
1456.262268
  0
ARC
  8
0
  6
CONTINUOUS
 62
1
 10
762.050765
 20
1453.262268
 40
3.000000
 50
0.000000
 51
90.010380
  0
ARC
  8
0
  6
CONTINUOUS
 62
1
 10
728.050765
 20
1453.256108
 40
3.000000
 50
90.010380
 51
180.000000
  0
LINE
  8
0
  6
CONTINUOUS
 62
1
 10
788.050222
 20
1456.256108
 11
822.050222
 21
1456.262268
  0
ARC
  8
0
  6
CONTINUOUS
 62
1
 10
822.050765
 20
1453.262268
 40
3.000000
 50
0.000000
 51
90.010380
  0
ARC
  8
0
  6
CONTINUOUS
 62
1
 10
788.050765
 20
1453.256108
 40
3.000000
 50
90.010380
 51
180.000000
  0
LINE
  8
0
  6
CONTINUOUS
 62
1
 10
848.050222
 20
1456.256108
 11
882.050222
 21
1456.262268
  0
ARC
  8
0
  6
CONTINUOUS
 62
1
 10
882.050765
 20
1453.262268
 40
3.000000
 50
0.000000
 51
90.010380
  0
ARC
  8
0
  6
CONTINUOUS
 62
1
 10
848.050765
 20
1453.256108
 40
3.000000
 50
90.010380
 51
180.000000
  0
LINE
  8
0
  6
CONTINUOUS
 62
1
 10
908.050222
 20
1456.256108
 11
942.050222
 21
1456.262268
  0
ARC
  8
0
  6
CONTINUOUS
 62
1
 10
942.050765
 20
1453.262268
 40
3.000000
 50
0.000000
 51
90.010380
  0
ARC
  8
0
  6
CONTINUOUS
 62
1
 10
908.050765
 20
1453.256108
 40
3.000000
 50
90.010380
 51
180.000000
  0
LINE
  8
0
  6
CONTINUOUS
 62
1
 10
968.050222
 20
1456.256108
 11
1002.050222
 21
1456.262268
  0
ARC
  8
0
  6
CONTINUOUS
 62
1
 10
1002.050765
 20
1453.262268
 40
3.000000
 50
0.000000
 51
90.010380
  0
ARC
  8
0
  6
CONTINUOUS
 62
1
 10
968.050765
 20
1453.256108
 40
3.000000
 50
90.010380
 51
180.000000
  0
LINE
  8
0
  6
CONTINUOUS
 62
1
 10
1028.050222
 20
1456.256108
 11
1062.050222
 21
1456.262268
  0
ARC
  8
0
  6
CONTINUOUS
 62
1
 10
1062.050765
 20
1453.262268
 40
3.000000
 50
0.000000
 51
90.010380
  0
ARC
  8
0
  6
CONTINUOUS
 62
1
 10
1028.050765
 20
1453.256108
 40
3.000000
 50
90.010380
 51
180.000000
  0
LINE
  8
0
  6
CONTINUOUS
 62
1
 10
1088.050222
 20
1456.256108
 11
1122.050222
 21
1456.262268
  0
ARC
  8
0
  6
CONTINUOUS
 62
1
 10
1122.050765
 20
1453.262268
 40
3.000000
 50
0.000000
 51
90.010380
  0
ARC
  8
0
  6
CONTINUOUS
 62
1
 10
1088.050765
 20
1453.256108
 40
3.000000
 50
90.010380
 51
180.000000
  0
LINE
  8
0
  6
CONTINUOUS
 62
1
 10
1148.050222
 20
1456.256108
 11
1182.050222
 21
1456.262268
  0
ARC
  8
0
  6
CONTINUOUS
 62
1
 10
1182.050765
 20
1453.262268
 40
3.000000
 50
0.000000
 51
90.010380
  0
ARC
  8
0
  6
CONTINUOUS
 62
1
 10
1148.050765
 20
1453.256108
 40
3.000000
 50
90.010380
 51
180.000000
  0
LINE
  8
0
  6
CONTINUOUS
 62
1
 10
1208.050222
 20
1456.256108
 11
1242.050222
 21
1456.262268
  0
ARC
  8
0
  6
CONTINUOUS
 62
1
 10
1242.050765
 20
1453.262268
 40
3.000000
 50
0.000000
 51
90.010380
  0
ARC
  8
0
  6
CONTINUOUS
 62
1
 10
1208.050765
 20
1453.256108
 40
3.000000
 50
90.010380
 51
180.000000
  0
LINE
  8
0
  6
CONTINUOUS
 62
1
 10
1268.050222
 20
1456.256108
 11
1302.050222
 21
1456.262268
  0
ARC
  8
0
  6
CONTINUOUS
 62
1
 10
1302.050765
 20
1453.262268
 40
3.000000
 50
0.000000
 51
90.010380
  0
ARC
  8
0
  6
CONTINUOUS
 62
1
 10
1268.050765
 20
1453.256108
 40
3.000000
 50
90.010380
 51
180.000000
  0
LINE
  8
0
  6
CONTINUOUS
 62
1
 10
1372.550765
 20
1339.618228
 11
477.550765
 21
1339.780375
  0
LINE
  8
0
  6
CONTINUOUS
 62
1
 10
1369.550765
 20
1469.560004
 11
480.550765
 21
1469.560004
  0
LINE
  8
0
  6
CONTINUOUS
 62
1
 10
1372.550765
 20
1339.618228
 11
1372.550765
 21
1466.560004
  0
LINE
  8
0
  6
CONTINUOUS
 62
1
 10
477.550765
 20
1339.780375
 11
477.550765
 21
1466.560004
  0
LINE
  8
0
  6
CONTINUOUS
 62
1
 10
486.050765
 20
1469.560004
 11
486.050765
 21
1339.778573
  0
LINE
  8
0
  6
CONTINUOUS
 62
1
 10
1361.050765
 20
1469.560004
 11
1361.050765
 21
1339.618228
  0
LINE
  8
0
  6
CONTINUOUS
 62
1
 10
528.050765
 20
1339.771366
 11
528.050765
 21
1469.560004
  0
LINE
  8
0
  6
CONTINUOUS
 62
1
 10
545.050765
 20
1469.560004
 11
545.050765
 21
1339.780375
  0
LINE
  8
0
  6
CONTINUOUS
 62
1
 10
585.050765
 20
1339.771366
 11
585.050765
 21
1469.560004
  0
LINE
  8
0
  6
CONTINUOUS
 62
1
 10
605.050765
 20
1469.560004
 11
605.050765
 21
1339.780375
  0
LINE
  8
0
  6
CONTINUOUS
 62
1
 10
645.050765
 20
1339.771366
 11
645.050765
 21
1469.560004
  0
LINE
  8
0
  6
CONTINUOUS
 62
1
 10
665.050765
 20
1469.560004
 11
665.050765
 21
1339.780375
  0
LINE
  8
0
  6
CONTINUOUS
 62
1
 10
705.050765
 20
1339.771366
 11
705.050765
 21
1469.560004
  0
LINE
  8
0
  6
CONTINUOUS
 62
1
 10
725.050765
 20
1469.560004
 11
725.050765
 21
1339.780375
  0
LINE
  8
0
  6
CONTINUOUS
 62
1
 10
765.050765
 20
1339.771366
 11
765.050765
 21
1469.560004
  0
LINE
  8
0
  6
CONTINUOUS
 62
1
 10
785.050765
 20
1469.560004
 11
785.050765
 21
1339.780375
  0
LINE
  8
0
  6
CONTINUOUS
 62
1
 10
825.050765
 20
1339.771366
 11
825.050765
 21
1469.560004
  0
LINE
  8
0
  6
CONTINUOUS
 62
1
 10
845.050765
 20
1469.560004
 11
845.050765
 21
1339.780375
  0
LINE
  8
0
  6
CONTINUOUS
 62
1
 10
885.050765
 20
1339.771366
 11
885.050765
 21
1469.560004
  0
LINE
  8
0
  6
CONTINUOUS
 62
1
 10
905.050765
 20
1469.560004
 11
905.050765
 21
1339.780375
  0
LINE
  8
0
  6
CONTINUOUS
 62
1
 10
945.050765
 20
1339.771366
 11
945.050765
 21
1469.560004
  0
LINE
  8
0
  6
CONTINUOUS
 62
1
 10
965.050765
 20
1469.560004
 11
965.050765
 21
1339.780375
  0
LINE
  8
0
  6
CONTINUOUS
 62
1
 10
1005.050765
 20
1339.771366
 11
1005.050765
 21
1469.560004
  0
LINE
  8
0
  6
CONTINUOUS
 62
1
 10
1025.050765
 20
1469.560004
 11
1025.050765
 21
1339.780375
  0
LINE
  8
0
  6
CONTINUOUS
 62
1
 10
1065.050765
 20
1339.771366
 11
1065.050765
 21
1469.560004
  0
LINE
  8
0
  6
CONTINUOUS
 62
1
 10
1085.050765
 20
1469.560004
 11
1085.050765
 21
1339.780375
  0
LINE
  8
0
  6
CONTINUOUS
 62
1
 10
1125.050765
 20
1339.771366
 11
1125.050765
 21
1469.560004
  0
LINE
  8
0
  6
CONTINUOUS
 62
1
 10
1145.050765
 20
1469.560004
 11
1145.050765
 21
1339.780375
  0
LINE
  8
0
  6
CONTINUOUS
 62
1
 10
1185.050765
 20
1339.771366
 11
1185.050765
 21
1469.560004
  0
LINE
  8
0
  6
CONTINUOUS
 62
1
 10
1205.050765
 20
1469.560004
 11
1205.050765
 21
1339.780375
  0
LINE
  8
0
  6
CONTINUOUS
 62
1
 10
1245.050765
 20
1339.771366
 11
1245.050765
 21
1469.560004
  0
LINE
  8
0
  6
CONTINUOUS
 62
1
 10
1265.050765
 20
1469.560004
 11
1265.050765
 21
1339.780375
  0
LINE
  8
0
  6
CONTINUOUS
 62
1
 10
1305.050765
 20
1339.771366
 11
1305.050765
 21
1469.560004
  0
LINE
  8
0
  6
CONTINUOUS
 62
1
 10
1322.050765
 20
1469.560004
 11
1322.050765
 21
1339.780375
  0
LINE
  8
0
  6
CONTINUOUS
 62
1
 10
915.050765
 20
1443.667487
 11
915.050765
 21
1365.667487
  0
LINE
  8
0
  6
CONTINUOUS
 62
1
 10
935.050765
 20
1443.667487
 11
935.050765
 21
1365.667487
  0
ARC
  8
0
  6
CONTINUOUS
 62
1
 10
925.050765
 20
1443.667487
 40
10.000000
 50
90.000000
 51
180.000000
  0
ARC
  8
0
  6
CONTINUOUS
 62
1
 10
925.050765
 20
1443.667487
 40
10.000000
 50
0.000000
 51
90.000000
  0
ARC
  8
0
  6
CONTINUOUS
 62
1
 10
925.050765
 20
1365.667487
 40
10.000000
 50
270.000000
 51
0.000000
  0
ARC
  8
0
  6
CONTINUOUS
 62
1
 10
925.050765
 20
1365.667487
 40
10.000000
 50
180.000000
 51
270.000000
  0
LINE
  8
0
  6
CONTINUOUS
 62
1
 10
975.050765
 20
1443.667487
 11
975.050765
 21
1365.667487
  0
LINE
  8
0
  6
CONTINUOUS
 62
1
 10
995.050765
 20
1443.667487
 11
995.050765
 21
1365.667487
  0
ARC
  8
0
  6
CONTINUOUS
 62
1
 10
985.050765
 20
1443.667487
 40
10.000000
 50
90.000000
 51
180.000000
  0
ARC
  8
0
  6
CONTINUOUS
 62
1
 10
985.050765
 20
1443.667487
 40
10.000000
 50
0.000000
 51
90.000000
  0
ARC
  8
0
  6
CONTINUOUS
 62
1
 10
985.050765
 20
1365.667487
 40
10.000000
 50
270.000000
 51
0.000000
  0
ARC
  8
0
  6
CONTINUOUS
 62
1
 10
985.050765
 20
1365.667487
 40
10.000000
 50
180.000000
 51
270.000000
  0
LINE
  8
0
  6
CONTINUOUS
 62
1
 10
1035.050765
 20
1443.667487
 11
1035.050765
 21
1365.667487
  0
LINE
  8
0
  6
CONTINUOUS
 62
1
 10
1055.050765
 20
1443.667487
 11
1055.050765
 21
1365.667487
  0
ARC
  8
0
  6
CONTINUOUS
 62
1
 10
1045.050765
 20
1443.667487
 40
10.000000
 50
90.000000
 51
180.000000
  0
ARC
  8
0
  6
CONTINUOUS
 62
1
 10
1045.050765
 20
1443.667487
 40
10.000000
 50
0.000000
 51
90.000000
  0
ARC
  8
0
  6
CONTINUOUS
 62
1
 10
1045.050765
 20
1365.667487
 40
10.000000
 50
270.000000
 51
0.000000
  0
ARC
  8
0
  6
CONTINUOUS
 62
1
 10
1045.050765
 20
1365.667487
 40
10.000000
 50
180.000000
 51
270.000000
  0
LINE
  8
0
  6
CONTINUOUS
 62
1
 10
855.050765
 20
1443.667487
 11
855.050765
 21
1365.667487
  0
LINE
  8
0
  6
CONTINUOUS
 62
1
 10
875.050765
 20
1443.667487
 11
875.050765
 21
1365.667487
  0
ARC
  8
0
  6
CONTINUOUS
 62
1
 10
865.050765
 20
1443.667487
 40
10.000000
 50
90.000000
 51
180.000000
  0
ARC
  8
0
  6
CONTINUOUS
 62
1
 10
865.050765
 20
1443.667487
 40
10.000000
 50
0.000000
 51
90.000000
  0
ARC
  8
0
  6
CONTINUOUS
 62
1
 10
865.050765
 20
1365.667487
 40
10.000000
 50
270.000000
 51
0.000000
  0
ARC
  8
0
  6
CONTINUOUS
 62
1
 10
865.050765
 20
1365.667487
 40
10.000000
 50
180.000000
 51
270.000000
  0
LINE
  8
0
  6
CONTINUOUS
 62
1
 10
815.050765
 20
1443.667487
 11
815.050765
 21
1365.667487
  0
LINE
  8
0
  6
CONTINUOUS
 62
1
 10
795.050765
 20
1443.667487
 11
795.050765
 21
1365.667487
  0
ARC
  8
0
  6
CONTINUOUS
 62
1
 10
805.050765
 20
1443.667487
 40
10.000000
 50
0.000000
 51
90.000000
  0
ARC
  8
0
  6
CONTINUOUS
 62
1
 10
805.050765
 20
1443.667487
 40
10.000000
 50
90.000000
 51
180.000000
  0
ARC
  8
0
  6
CONTINUOUS
 62
1
 10
805.050765
 20
1365.667487
 40
10.000000
 50
180.000000
 51
270.000000
  0
ARC
  8
0
  6
CONTINUOUS
 62
1
 10
805.050765
 20
1365.667487
 40
10.000000
 50
270.000000
 51
0.000000
  0
CIRCLE
  8
0
  6
CONTINUOUS
 62
1
 10
502.050765
 20
1377.665766
 40
4.000000
  0
CIRCLE
  8
0
  6
CONTINUOUS
 62
1
 10
512.050765
 20
1447.665766
 40
4.000000
  0
CIRCLE
  8
0
  6
CONTINUOUS
 62
1
 10
502.050765
 20
1377.665766
 40
5.500000
  0
CIRCLE
  8
0
  6
CONTINUOUS
 62
1
 10
512.050765
 20
1447.665766
 40
5.500000
  0
LINE
  8
0
  6
CENTER
 62
4
 10
512.050765
 20
1455.165766
 11
512.050765
 21
1440.165766
  0
LINE
  8
0
  6
CENTER
 62
4
 10
504.550765
 20
1447.665766
 11
519.550765
 21
1447.665766
  0
LINE
  8
0
  6
CENTER
 62
4
 10
502.050765
 20
1385.165766
 11
502.050765
 21
1370.165766
  0
LINE
  8
0
  6
CENTER
 62
4
 10
494.550765
 20
1377.665766
 11
509.550765
 21
1377.665766
  0
CIRCLE
  8
0
  6
CONTINUOUS
 62
1
 10
1348.050765
 20
1377.565766
 40
4.000000
  0
CIRCLE
  8
0
  6
CONTINUOUS
 62
1
 10
1338.050765
 20
1447.565766
 40
4.000000
  0
CIRCLE
  8
0
  6
CONTINUOUS
 62
1
 10
1348.050765
 20
1377.565766
 40
5.500000
  0
CIRCLE
  8
0
  6
CONTINUOUS
 62
1
 10
1338.050765
 20
1447.565766
 40
5.500000
  0
LINE
  8
0
  6
CENTER
 62
4
 10
1338.050765
 20
1455.065766
 11
1338.050765
 21
1440.065766
  0
LINE
  8
0
  6
CENTER
 62
4
 10
1345.550765
 20
1447.565766
 11
1330.550765
 21
1447.565766
  0
LINE
  8
0
  6
CENTER
 62
4
 10
1348.050765
 20
1385.065766
 11
1348.050765
 21
1370.065766
  0
LINE
  8
0
  6
CENTER
 62
4
 10
1355.550765
 20
1377.565766
 11
1340.550765
 21
1377.565766
  0
ENDSEC
  0
EOF
