  0
SECTION
  2
HEADER
  9
$LIMMIN
 10
0.000000
 20
0.000000
  9
$LIMMAX
 10
900.000000
 20
937.000000
  9
$EXTMIN
 10
0.000000
 20
0.000000
  9
$EXTMAX
 10
900.000000
 20
937.000000
  9
$ANGBASE
 50
0.0
  9
$ANGDIR
 70
0
  9
$DIMRND
 40
0.100000
  9
$DIMSE1
 70
0
  9
$DIMSE2
 70
0
  9
$DIMTXT
 40
3.500000
  9
$LTSCALE
 40
1.000000
  9
$LUPREC
 70
5
  9
$AUPREC
 70
5
  9
$PDMODE
 70
2
  9
$PDSIZE
 40
4.685000
  0
ENDSEC
  0
SECTION
  2
TABLES
  0
TABLE
  2
VPORT
  70
1
  0
VPORT
  2
*ACTIVE
 70
0
  10
0.0
 20
0.0
 11
1.0
 21
1.0
 12
594.0
 22
420.0
 13
0.0
 23
0.0
 14
10.0
 24
10.0
 15
10.0
 25
10.0
 16
0.0
 26
0.0
 36
1.0
 17
594.0
 27
420.0
 37
100.0
 40
1000.0
 41
1.0
 42
50.0
 43
0.0
 44
0.0
 50
0.0
 51
0.0
 71
0
 72
2000
 73
1
 74
3
 75
0
 76
0
 77
0
 78
1
  0
ENDTAB
  0
TABLE
  2
LTYPE
 70
5
  0
LTYPE
  2
CONTINUOUS
 70
0
  3
Solid line
 72
65
 73
0
 40
0.0
  0
LTYPE
  2
DASHED
 70
0
  3
Dashed line
 72
65
 73
2
 40
6.000000
 49
3.000000
 49
-3.000000
  0
LTYPE
  2
CENTER
 70
0
  3
Chain line
 72
65
 73
4
 40
24.000000
 49
15.000000
 49
-3.000000
 49
3.000000
 49
-3.000000
  0
LTYPE
  2
RANDOM
 70
0
  3
Random line
 72
65
 73
4
 40
22.500000
 49
6.000000
 49
-3.000000
 49
4.500000
 49
-9.000000
  0
LTYPE
  2
CHAIN_2_168430214
  3
CHAIN_2_168430214
 70
0
 72
65
 73
4
 40
24.000000
 49
15.000000
 49
-3.000000
 49
3.000000
 49
-3.000000
  0
ENDTAB
  0
TABLE
  2
STYLE
 70
9
  0
STYLE
  2
STANDARD
 40
0
 41
1.0
 50
0.0
 71
0
 42
0
  3
simplex
  4

 70
0
  0
ENDTAB
  0
TABLE
  2
LAYER
 70
4
  0
LAYER
  2
0
 70
0
 62
7
  6
CONTINUOUS
  0
LAYER
  2
0
 62
1
  6
CONTINUOUS
 70
0
  0
LAYER
  2
MODEL
 62
1
  6
CONTINUOUS
 70
0
  0
LAYER
  2
MODEL-0
 62
1
  6
CONTINUOUS
 70
0
  0
ENDTAB
  0
ENDSEC
  0
SECTION
  2
BLOCKS
  0
ENDSEC
  0
SECTION
  2
ENTITIES
  0
LINE
  8
MODEL-0
  6
CONTINUOUS
 62
1
 10
0.000000
 20
937.000000
 11
0.000000
 21
0.000000
  0
LINE
  8
MODEL-0
  6
CONTINUOUS
 62
1
 10
900.000000
 20
0.000000
 11
900.000000
 21
937.000000
  0
LINE
  8
MODEL-0
  6
CONTINUOUS
 62
1
 10
900.000000
 20
937.000000
 11
0.000000
 21
937.000000
  0
LINE
  8
MODEL-0
  6
CONTINUOUS
 62
1
 10
900.000000
 20
808.000000
 11
0.000000
 21
808.000000
  0
LINE
  8
MODEL-0
  6
CONTINUOUS
 62
1
 10
0.000000
 20
937.000000
 11
900.000000
 21
937.000000
  0
LINE
  8
MODEL-0
  6
CONTINUOUS
 62
1
 10
0.000000
 20
937.000000
 11
0.000000
 21
783.000000
  0
LINE
  8
MODEL-0
  6
CONTINUOUS
 62
1
 10
900.000000
 20
937.000000
 11
900.000000
 21
783.000000
  0
LINE
  8
MODEL-0
  6
CONTINUOUS
 62
1
 10
0.000000
 20
808.000000
 11
0.000000
 21
64.000000
  0
LINE
  8
MODEL-0
  6
CONTINUOUS
 62
1
 10
900.000000
 20
0.000000
 11
0.000000
 21
0.000000
  0
LINE
  8
MODEL-0
  6
CONTINUOUS
 62
1
 10
898.000000
 20
808.000000
 11
2.000000
 21
808.000000
  0
LINE
  8
MODEL-0
  6
CONTINUOUS
 62
1
 10
72.999457
 20
820.515451
 11
106.999457
 21
820.509292
  0
ARC
  8
MODEL-0
  6
CONTINUOUS
 62
1
 10
107.000000
 20
823.509292
 40
3.000000
 50
269.989620
 51
0.000000
  0
ARC
  8
MODEL-0
  6
CONTINUOUS
 62
1
 10
73.000000
 20
823.515451
 40
3.000000
 50
180.000000
 51
269.989620
  0
LINE
  8
MODEL-0
  6
CONTINUOUS
 62
1
 10
132.999457
 20
820.515451
 11
166.999457
 21
820.509292
  0
ARC
  8
MODEL-0
  6
CONTINUOUS
 62
1
 10
167.000000
 20
823.509292
 40
3.000000
 50
269.989620
 51
0.000000
  0
ARC
  8
MODEL-0
  6
CONTINUOUS
 62
1
 10
133.000000
 20
823.515451
 40
3.000000
 50
180.000000
 51
269.989620
  0
LINE
  8
MODEL-0
  6
CONTINUOUS
 62
1
 10
192.999457
 20
820.515451
 11
226.999457
 21
820.509292
  0
ARC
  8
MODEL-0
  6
CONTINUOUS
 62
1
 10
227.000000
 20
823.509292
 40
3.000000
 50
269.989620
 51
0.000000
  0
ARC
  8
MODEL-0
  6
CONTINUOUS
 62
1
 10
193.000000
 20
823.515451
 40
3.000000
 50
180.000000
 51
269.989620
  0
LINE
  8
MODEL-0
  6
CONTINUOUS
 62
1
 10
252.999457
 20
820.515451
 11
286.999457
 21
820.509292
  0
ARC
  8
MODEL-0
  6
CONTINUOUS
 62
1
 10
287.000000
 20
823.509292
 40
3.000000
 50
269.989620
 51
0.000000
  0
ARC
  8
MODEL-0
  6
CONTINUOUS
 62
1
 10
253.000000
 20
823.515451
 40
3.000000
 50
180.000000
 51
269.989620
  0
LINE
  8
MODEL-0
  6
CONTINUOUS
 62
1
 10
312.999457
 20
820.515451
 11
346.999457
 21
820.509292
  0
ARC
  8
MODEL-0
  6
CONTINUOUS
 62
1
 10
347.000000
 20
823.509292
 40
3.000000
 50
269.989620
 51
0.000000
  0
ARC
  8
MODEL-0
  6
CONTINUOUS
 62
1
 10
313.000000
 20
823.515451
 40
3.000000
 50
180.000000
 51
269.989620
  0
LINE
  8
MODEL-0
  6
CONTINUOUS
 62
1
 10
372.999457
 20
820.515451
 11
406.999457
 21
820.509292
  0
ARC
  8
MODEL-0
  6
CONTINUOUS
 62
1
 10
407.000000
 20
823.509292
 40
3.000000
 50
269.989620
 51
0.000000
  0
ARC
  8
MODEL-0
  6
CONTINUOUS
 62
1
 10
373.000000
 20
823.515451
 40
3.000000
 50
180.000000
 51
269.989620
  0
LINE
  8
MODEL-0
  6
CONTINUOUS
 62
1
 10
432.999457
 20
820.515451
 11
466.999457
 21
820.509292
  0
ARC
  8
MODEL-0
  6
CONTINUOUS
 62
1
 10
467.000000
 20
823.509292
 40
3.000000
 50
269.989620
 51
0.000000
  0
ARC
  8
MODEL-0
  6
CONTINUOUS
 62
1
 10
433.000000
 20
823.515451
 40
3.000000
 50
180.000000
 51
269.989620
  0
LINE
  8
MODEL-0
  6
CONTINUOUS
 62
1
 10
492.999457
 20
820.515451
 11
526.999457
 21
820.509292
  0
ARC
  8
MODEL-0
  6
CONTINUOUS
 62
1
 10
527.000000
 20
823.509292
 40
3.000000
 50
269.989620
 51
0.000000
  0
ARC
  8
MODEL-0
  6
CONTINUOUS
 62
1
 10
493.000000
 20
823.515451
 40
3.000000
 50
180.000000
 51
269.989620
  0
LINE
  8
MODEL-0
  6
CONTINUOUS
 62
1
 10
552.999457
 20
820.515451
 11
586.999457
 21
820.509292
  0
ARC
  8
MODEL-0
  6
CONTINUOUS
 62
1
 10
587.000000
 20
823.509292
 40
3.000000
 50
269.989620
 51
0.000000
  0
ARC
  8
MODEL-0
  6
CONTINUOUS
 62
1
 10
553.000000
 20
823.515451
 40
3.000000
 50
180.000000
 51
269.989620
  0
LINE
  8
MODEL-0
  6
CONTINUOUS
 62
1
 10
612.999457
 20
820.515451
 11
646.999457
 21
820.509292
  0
ARC
  8
MODEL-0
  6
CONTINUOUS
 62
1
 10
647.000000
 20
823.509292
 40
3.000000
 50
269.989620
 51
0.000000
  0
ARC
  8
MODEL-0
  6
CONTINUOUS
 62
1
 10
613.000000
 20
823.515451
 40
3.000000
 50
180.000000
 51
269.989620
  0
LINE
  8
MODEL-0
  6
CONTINUOUS
 62
1
 10
672.999457
 20
820.515451
 11
706.999457
 21
820.509292
  0
ARC
  8
MODEL-0
  6
CONTINUOUS
 62
1
 10
707.000000
 20
823.509292
 40
3.000000
 50
269.989620
 51
0.000000
  0
ARC
  8
MODEL-0
  6
CONTINUOUS
 62
1
 10
673.000000
 20
823.515451
 40
3.000000
 50
180.000000
 51
269.989620
  0
LINE
  8
MODEL-0
  6
CONTINUOUS
 62
1
 10
732.999457
 20
820.515451
 11
766.999457
 21
820.509292
  0
ARC
  8
MODEL-0
  6
CONTINUOUS
 62
1
 10
767.000000
 20
823.509292
 40
3.000000
 50
269.989620
 51
0.000000
  0
ARC
  8
MODEL-0
  6
CONTINUOUS
 62
1
 10
733.000000
 20
823.515451
 40
3.000000
 50
180.000000
 51
269.989620
  0
LINE
  8
MODEL-0
  6
CONTINUOUS
 62
1
 10
792.999457
 20
820.515451
 11
826.999457
 21
820.509292
  0
ARC
  8
MODEL-0
  6
CONTINUOUS
 62
1
 10
827.000000
 20
823.509292
 40
3.000000
 50
269.989620
 51
0.000000
  0
ARC
  8
MODEL-0
  6
CONTINUOUS
 62
1
 10
793.000000
 20
823.515451
 40
3.000000
 50
180.000000
 51
269.989620
  0
LINE
  8
MODEL-0
  6
CONTINUOUS
 62
1
 10
72.999457
 20
923.696104
 11
106.999457
 21
923.702264
  0
ARC
  8
MODEL-0
  6
CONTINUOUS
 62
1
 10
107.000000
 20
920.702264
 40
3.000000
 50
0.000000
 51
90.010380
  0
ARC
  8
MODEL-0
  6
CONTINUOUS
 62
1
 10
73.000000
 20
920.696104
 40
3.000000
 50
90.010380
 51
180.000000
  0
LINE
  8
MODEL-0
  6
CONTINUOUS
 62
1
 10
132.999457
 20
923.696104
 11
166.999457
 21
923.702264
  0
ARC
  8
MODEL-0
  6
CONTINUOUS
 62
1
 10
167.000000
 20
920.702264
 40
3.000000
 50
0.000000
 51
90.010380
  0
ARC
  8
MODEL-0
  6
CONTINUOUS
 62
1
 10
133.000000
 20
920.696104
 40
3.000000
 50
90.010380
 51
180.000000
  0
LINE
  8
MODEL-0
  6
CONTINUOUS
 62
1
 10
192.999457
 20
923.696104
 11
226.999457
 21
923.702264
  0
ARC
  8
MODEL-0
  6
CONTINUOUS
 62
1
 10
227.000000
 20
920.702264
 40
3.000000
 50
0.000000
 51
90.010380
  0
ARC
  8
MODEL-0
  6
CONTINUOUS
 62
1
 10
193.000000
 20
920.696104
 40
3.000000
 50
90.010380
 51
180.000000
  0
LINE
  8
MODEL-0
  6
CONTINUOUS
 62
1
 10
252.999457
 20
923.696104
 11
286.999457
 21
923.702264
  0
ARC
  8
MODEL-0
  6
CONTINUOUS
 62
1
 10
287.000000
 20
920.702264
 40
3.000000
 50
0.000000
 51
90.010380
  0
ARC
  8
MODEL-0
  6
CONTINUOUS
 62
1
 10
253.000000
 20
920.696104
 40
3.000000
 50
90.010380
 51
180.000000
  0
LINE
  8
MODEL-0
  6
CONTINUOUS
 62
1
 10
312.999457
 20
923.696104
 11
346.999457
 21
923.702264
  0
ARC
  8
MODEL-0
  6
CONTINUOUS
 62
1
 10
347.000000
 20
920.702264
 40
3.000000
 50
0.000000
 51
90.010380
  0
ARC
  8
MODEL-0
  6
CONTINUOUS
 62
1
 10
313.000000
 20
920.696104
 40
3.000000
 50
90.010380
 51
180.000000
  0
LINE
  8
MODEL-0
  6
CONTINUOUS
 62
1
 10
372.999457
 20
923.696104
 11
406.999457
 21
923.702264
  0
ARC
  8
MODEL-0
  6
CONTINUOUS
 62
1
 10
407.000000
 20
920.702264
 40
3.000000
 50
0.000000
 51
90.010380
  0
ARC
  8
MODEL-0
  6
CONTINUOUS
 62
1
 10
373.000000
 20
920.696104
 40
3.000000
 50
90.010380
 51
180.000000
  0
LINE
  8
MODEL-0
  6
CONTINUOUS
 62
1
 10
432.999457
 20
923.696104
 11
466.999457
 21
923.702264
  0
ARC
  8
MODEL-0
  6
CONTINUOUS
 62
1
 10
467.000000
 20
920.702264
 40
3.000000
 50
0.000000
 51
90.010380
  0
ARC
  8
MODEL-0
  6
CONTINUOUS
 62
1
 10
433.000000
 20
920.696104
 40
3.000000
 50
90.010380
 51
180.000000
  0
LINE
  8
MODEL-0
  6
CONTINUOUS
 62
1
 10
492.999457
 20
923.696104
 11
526.999457
 21
923.702264
  0
ARC
  8
MODEL-0
  6
CONTINUOUS
 62
1
 10
527.000000
 20
920.702264
 40
3.000000
 50
0.000000
 51
90.010380
  0
ARC
  8
MODEL-0
  6
CONTINUOUS
 62
1
 10
493.000000
 20
920.696104
 40
3.000000
 50
90.010380
 51
180.000000
  0
LINE
  8
MODEL-0
  6
CONTINUOUS
 62
1
 10
552.999457
 20
923.696104
 11
586.999457
 21
923.702264
  0
ARC
  8
MODEL-0
  6
CONTINUOUS
 62
1
 10
587.000000
 20
920.702264
 40
3.000000
 50
0.000000
 51
90.010380
  0
ARC
  8
MODEL-0
  6
CONTINUOUS
 62
1
 10
553.000000
 20
920.696104
 40
3.000000
 50
90.010380
 51
180.000000
  0
LINE
  8
MODEL-0
  6
CONTINUOUS
 62
1
 10
612.999457
 20
923.696104
 11
646.999457
 21
923.702264
  0
ARC
  8
MODEL-0
  6
CONTINUOUS
 62
1
 10
647.000000
 20
920.702264
 40
3.000000
 50
0.000000
 51
90.010380
  0
ARC
  8
MODEL-0
  6
CONTINUOUS
 62
1
 10
613.000000
 20
920.696104
 40
3.000000
 50
90.010380
 51
180.000000
  0
LINE
  8
MODEL-0
  6
CONTINUOUS
 62
1
 10
672.999457
 20
923.696104
 11
706.999457
 21
923.702264
  0
ARC
  8
MODEL-0
  6
CONTINUOUS
 62
1
 10
707.000000
 20
920.702264
 40
3.000000
 50
0.000000
 51
90.010380
  0
ARC
  8
MODEL-0
  6
CONTINUOUS
 62
1
 10
673.000000
 20
920.696104
 40
3.000000
 50
90.010380
 51
180.000000
  0
LINE
  8
MODEL-0
  6
CONTINUOUS
 62
1
 10
732.999457
 20
923.696104
 11
766.999457
 21
923.702264
  0
ARC
  8
MODEL-0
  6
CONTINUOUS
 62
1
 10
767.000000
 20
920.702264
 40
3.000000
 50
0.000000
 51
90.010380
  0
ARC
  8
MODEL-0
  6
CONTINUOUS
 62
1
 10
733.000000
 20
920.696104
 40
3.000000
 50
90.010380
 51
180.000000
  0
LINE
  8
MODEL-0
  6
CONTINUOUS
 62
1
 10
792.999457
 20
923.696104
 11
826.999457
 21
923.702264
  0
ARC
  8
MODEL-0
  6
CONTINUOUS
 62
1
 10
827.000000
 20
920.702264
 40
3.000000
 50
0.000000
 51
90.010380
  0
ARC
  8
MODEL-0
  6
CONTINUOUS
 62
1
 10
793.000000
 20
920.696104
 40
3.000000
 50
90.010380
 51
180.000000
  0
LINE
  8
MODEL-0
  6
CONTINUOUS
 62
1
 10
897.500000
 20
807.058224
 11
2.500000
 21
807.220371
  0
LINE
  8
MODEL-0
  6
CONTINUOUS
 62
1
 10
894.500000
 20
937.000000
 11
5.500000
 21
937.000000
  0
LINE
  8
MODEL-0
  6
CONTINUOUS
 62
1
 10
897.500000
 20
807.058224
 11
897.500000
 21
934.000000
  0
LINE
  8
MODEL-0
  6
CONTINUOUS
 62
1
 10
2.500000
 20
807.220371
 11
2.500000
 21
934.000000
  0
LINE
  8
MODEL-0
  6
CONTINUOUS
 62
1
 10
11.000000
 20
937.000000
 11
11.000000
 21
807.218569
  0
LINE
  8
MODEL-0
  6
CONTINUOUS
 62
1
 10
886.000000
 20
937.000000
 11
886.000000
 21
807.058224
  0
LINE
  8
MODEL-0
  6
CONTINUOUS
 62
1
 10
53.000000
 20
807.211362
 11
53.000000
 21
937.000000
  0
LINE
  8
MODEL-0
  6
CONTINUOUS
 62
1
 10
70.000000
 20
937.000000
 11
70.000000
 21
807.220371
  0
LINE
  8
MODEL-0
  6
CONTINUOUS
 62
1
 10
110.000000
 20
807.211362
 11
110.000000
 21
937.000000
  0
LINE
  8
MODEL-0
  6
CONTINUOUS
 62
1
 10
130.000000
 20
937.000000
 11
130.000000
 21
807.220371
  0
LINE
  8
MODEL-0
  6
CONTINUOUS
 62
1
 10
170.000000
 20
807.211362
 11
170.000000
 21
937.000000
  0
LINE
  8
MODEL-0
  6
CONTINUOUS
 62
1
 10
190.000000
 20
937.000000
 11
190.000000
 21
807.220371
  0
LINE
  8
MODEL-0
  6
CONTINUOUS
 62
1
 10
230.000000
 20
807.211362
 11
230.000000
 21
937.000000
  0
LINE
  8
MODEL-0
  6
CONTINUOUS
 62
1
 10
250.000000
 20
937.000000
 11
250.000000
 21
807.220371
  0
LINE
  8
MODEL-0
  6
CONTINUOUS
 62
1
 10
290.000000
 20
807.211362
 11
290.000000
 21
937.000000
  0
LINE
  8
MODEL-0
  6
CONTINUOUS
 62
1
 10
310.000000
 20
937.000000
 11
310.000000
 21
807.220371
  0
LINE
  8
MODEL-0
  6
CONTINUOUS
 62
1
 10
350.000000
 20
807.211362
 11
350.000000
 21
937.000000
  0
LINE
  8
MODEL-0
  6
CONTINUOUS
 62
1
 10
370.000000
 20
937.000000
 11
370.000000
 21
807.220371
  0
LINE
  8
MODEL-0
  6
CONTINUOUS
 62
1
 10
410.000000
 20
807.211362
 11
410.000000
 21
937.000000
  0
LINE
  8
MODEL-0
  6
CONTINUOUS
 62
1
 10
430.000000
 20
937.000000
 11
430.000000
 21
807.220371
  0
LINE
  8
MODEL-0
  6
CONTINUOUS
 62
1
 10
470.000000
 20
807.211362
 11
470.000000
 21
937.000000
  0
LINE
  8
MODEL-0
  6
CONTINUOUS
 62
1
 10
490.000000
 20
937.000000
 11
490.000000
 21
807.220371
  0
LINE
  8
MODEL-0
  6
CONTINUOUS
 62
1
 10
530.000000
 20
807.211362
 11
530.000000
 21
937.000000
  0
LINE
  8
MODEL-0
  6
CONTINUOUS
 62
1
 10
550.000000
 20
937.000000
 11
550.000000
 21
807.220371
  0
LINE
  8
MODEL-0
  6
CONTINUOUS
 62
1
 10
590.000000
 20
807.211362
 11
590.000000
 21
937.000000
  0
LINE
  8
MODEL-0
  6
CONTINUOUS
 62
1
 10
610.000000
 20
937.000000
 11
610.000000
 21
807.220371
  0
LINE
  8
MODEL-0
  6
CONTINUOUS
 62
1
 10
650.000000
 20
807.211362
 11
650.000000
 21
937.000000
  0
LINE
  8
MODEL-0
  6
CONTINUOUS
 62
1
 10
670.000000
 20
937.000000
 11
670.000000
 21
807.220371
  0
LINE
  8
MODEL-0
  6
CONTINUOUS
 62
1
 10
710.000000
 20
807.211362
 11
710.000000
 21
937.000000
  0
LINE
  8
MODEL-0
  6
CONTINUOUS
 62
1
 10
730.000000
 20
937.000000
 11
730.000000
 21
807.220371
  0
LINE
  8
MODEL-0
  6
CONTINUOUS
 62
1
 10
770.000000
 20
807.211362
 11
770.000000
 21
937.000000
  0
LINE
  8
MODEL-0
  6
CONTINUOUS
 62
1
 10
790.000000
 20
937.000000
 11
790.000000
 21
807.220371
  0
LINE
  8
MODEL-0
  6
CONTINUOUS
 62
1
 10
830.000000
 20
807.211362
 11
830.000000
 21
937.000000
  0
LINE
  8
MODEL-0
  6
CONTINUOUS
 62
1
 10
847.000000
 20
937.000000
 11
847.000000
 21
807.220371
  0
LINE
  8
MODEL-0
  6
CONTINUOUS
 62
1
 10
440.000000
 20
911.107483
 11
440.000000
 21
833.107483
  0
LINE
  8
MODEL-0
  6
CONTINUOUS
 62
1
 10
460.000000
 20
911.107483
 11
460.000000
 21
833.107483
  0
ARC
  8
MODEL-0
  6
CONTINUOUS
 62
1
 10
450.000000
 20
911.107483
 40
10.000000
 50
90.000000
 51
180.000000
  0
ARC
  8
MODEL-0
  6
CONTINUOUS
 62
1
 10
450.000000
 20
911.107483
 40
10.000000
 50
0.000000
 51
90.000000
  0
ARC
  8
MODEL-0
  6
CONTINUOUS
 62
1
 10
450.000000
 20
833.107483
 40
10.000000
 50
270.000000
 51
0.000000
  0
ARC
  8
MODEL-0
  6
CONTINUOUS
 62
1
 10
450.000000
 20
833.107483
 40
10.000000
 50
180.000000
 51
270.000000
  0
LINE
  8
MODEL-0
  6
CONTINUOUS
 62
1
 10
500.000000
 20
911.107483
 11
500.000000
 21
833.107483
  0
LINE
  8
MODEL-0
  6
CONTINUOUS
 62
1
 10
520.000000
 20
911.107483
 11
520.000000
 21
833.107483
  0
ARC
  8
MODEL-0
  6
CONTINUOUS
 62
1
 10
510.000000
 20
911.107483
 40
10.000000
 50
90.000000
 51
180.000000
  0
ARC
  8
MODEL-0
  6
CONTINUOUS
 62
1
 10
510.000000
 20
911.107483
 40
10.000000
 50
0.000000
 51
90.000000
  0
ARC
  8
MODEL-0
  6
CONTINUOUS
 62
1
 10
510.000000
 20
833.107483
 40
10.000000
 50
270.000000
 51
0.000000
  0
ARC
  8
MODEL-0
  6
CONTINUOUS
 62
1
 10
510.000000
 20
833.107483
 40
10.000000
 50
180.000000
 51
270.000000
  0
LINE
  8
MODEL-0
  6
CONTINUOUS
 62
1
 10
560.000000
 20
911.107483
 11
560.000000
 21
833.107483
  0
LINE
  8
MODEL-0
  6
CONTINUOUS
 62
1
 10
580.000000
 20
911.107483
 11
580.000000
 21
833.107483
  0
ARC
  8
MODEL-0
  6
CONTINUOUS
 62
1
 10
570.000000
 20
911.107483
 40
10.000000
 50
90.000000
 51
180.000000
  0
ARC
  8
MODEL-0
  6
CONTINUOUS
 62
1
 10
570.000000
 20
911.107483
 40
10.000000
 50
0.000000
 51
90.000000
  0
ARC
  8
MODEL-0
  6
CONTINUOUS
 62
1
 10
570.000000
 20
833.107483
 40
10.000000
 50
270.000000
 51
0.000000
  0
ARC
  8
MODEL-0
  6
CONTINUOUS
 62
1
 10
570.000000
 20
833.107483
 40
10.000000
 50
180.000000
 51
270.000000
  0
LINE
  8
MODEL-0
  6
CONTINUOUS
 62
1
 10
380.000000
 20
911.107483
 11
380.000000
 21
833.107483
  0
LINE
  8
MODEL-0
  6
CONTINUOUS
 62
1
 10
400.000000
 20
911.107483
 11
400.000000
 21
833.107483
  0
ARC
  8
MODEL-0
  6
CONTINUOUS
 62
1
 10
390.000000
 20
911.107483
 40
10.000000
 50
90.000000
 51
180.000000
  0
ARC
  8
MODEL-0
  6
CONTINUOUS
 62
1
 10
390.000000
 20
911.107483
 40
10.000000
 50
0.000000
 51
90.000000
  0
ARC
  8
MODEL-0
  6
CONTINUOUS
 62
1
 10
390.000000
 20
833.107483
 40
10.000000
 50
270.000000
 51
0.000000
  0
ARC
  8
MODEL-0
  6
CONTINUOUS
 62
1
 10
390.000000
 20
833.107483
 40
10.000000
 50
180.000000
 51
270.000000
  0
LINE
  8
MODEL-0
  6
CONTINUOUS
 62
1
 10
340.000000
 20
911.107483
 11
340.000000
 21
833.107483
  0
LINE
  8
MODEL-0
  6
CONTINUOUS
 62
1
 10
320.000000
 20
911.107483
 11
320.000000
 21
833.107483
  0
ARC
  8
MODEL-0
  6
CONTINUOUS
 62
1
 10
330.000000
 20
911.107483
 40
10.000000
 50
0.000000
 51
90.000000
  0
ARC
  8
MODEL-0
  6
CONTINUOUS
 62
1
 10
330.000000
 20
911.107483
 40
10.000000
 50
90.000000
 51
180.000000
  0
ARC
  8
MODEL-0
  6
CONTINUOUS
 62
1
 10
330.000000
 20
833.107483
 40
10.000000
 50
180.000000
 51
270.000000
  0
ARC
  8
MODEL-0
  6
CONTINUOUS
 62
1
 10
330.000000
 20
833.107483
 40
10.000000
 50
270.000000
 51
0.000000
  0
CIRCLE
  8
MODEL-0
  6
CONTINUOUS
 62
1
 10
27.000000
 20
845.105762
 40
4.000000
  0
CIRCLE
  8
MODEL-0
  6
CONTINUOUS
 62
1
 10
37.000000
 20
915.105762
 40
4.000000
  0
CIRCLE
  8
MODEL-0
  6
CONTINUOUS
 62
1
 10
27.000000
 20
845.105762
 40
5.500000
  0
CIRCLE
  8
MODEL-0
  6
CONTINUOUS
 62
1
 10
37.000000
 20
915.105762
 40
5.500000
  0
LINE
  8
MODEL-0
  6
CHAIN_2_168430214
 62
4
 10
37.000000
 20
922.605762
 11
37.000000
 21
907.605762
  0
LINE
  8
MODEL-0
  6
CHAIN_2_168430214
 62
4
 10
29.500000
 20
915.105762
 11
44.500000
 21
915.105762
  0
LINE
  8
MODEL-0
  6
CHAIN_2_168430214
 62
4
 10
27.000000
 20
852.605762
 11
27.000000
 21
837.605762
  0
LINE
  8
MODEL-0
  6
CHAIN_2_168430214
 62
4
 10
19.500000
 20
845.105762
 11
34.500000
 21
845.105762
  0
CIRCLE
  8
MODEL-0
  6
CONTINUOUS
 62
1
 10
873.000000
 20
845.005762
 40
4.000000
  0
CIRCLE
  8
MODEL-0
  6
CONTINUOUS
 62
1
 10
863.000000
 20
915.005762
 40
4.000000
  0
CIRCLE
  8
MODEL-0
  6
CONTINUOUS
 62
1
 10
873.000000
 20
845.005762
 40
5.500000
  0
CIRCLE
  8
MODEL-0
  6
CONTINUOUS
 62
1
 10
863.000000
 20
915.005762
 40
5.500000
  0
LINE
  8
MODEL-0
  6
CHAIN_2_168430214
 62
4
 10
863.000000
 20
922.505762
 11
863.000000
 21
907.505762
  0
LINE
  8
MODEL-0
  6
CHAIN_2_168430214
 62
4
 10
870.500000
 20
915.005762
 11
855.500000
 21
915.005762
  0
LINE
  8
MODEL-0
  6
CHAIN_2_168430214
 62
4
 10
873.000000
 20
852.505762
 11
873.000000
 21
837.505762
  0
LINE
  8
MODEL-0
  6
CHAIN_2_168430214
 62
4
 10
880.500000
 20
845.005762
 11
865.500000
 21
845.005762
  0
ENDSEC
  0
EOF
