  0
SECTION
  2
HEADER
  9
$LIMMIN
 10
0.000000
 20
0.000000
  9
$LIMMAX
 10
3500.000000
 20
2500.000000
  9
$EXTMIN
 10
0.000000
 20
0.000000
  9
$EXTMAX
 10
3500.000000
 20
2500.000000
  9
$ANGBASE
 50
0.0
  9
$ANGDIR
 70
0
  9
$DIMRND
 40
0.100000
  9
$DIMSE1
 70
0
  9
$DIMSE2
 70
0
  9
$DIMTXT
 40
3.500000
  9
$LTSCALE
 40
1.000000
  9
$LUPREC
 70
5
  9
$AUPREC
 70
5
  9
$PDMODE
 70
2
  9
$PDSIZE
 40
17.500000
  0
ENDSEC
  0
SECTION
  2
TABLES
  0
TABLE
  2
VPORT
  70
1
  0
VPORT
  2
*ACTIVE
 70
0
  10
0.0
 20
0.0
 11
1.0
 21
1.0
 12
594.0
 22
420.0
 13
0.0
 23
0.0
 14
10.0
 24
10.0
 15
10.0
 25
10.0
 16
0.0
 26
0.0
 36
1.0
 17
594.0
 27
420.0
 37
100.0
 40
1000.0
 41
1.0
 42
50.0
 43
0.0
 44
0.0
 50
0.0
 51
0.0
 71
0
 72
2000
 73
1
 74
3
 75
0
 76
0
 77
0
 78
1
  0
ENDTAB
  0
TABLE
  2
LTYPE
 70
4
  0
LTYPE
  2
CONTINUOUS
 70
0
  3
Solid line
 72
65
 73
0
 40
0.0
  0
LTYPE
  2
DASHED
 70
0
  3
Dashed line
 72
65
 73
2
 40
6.000000
 49
3.000000
 49
-3.000000
  0
LTYPE
  2
CENTER
 70
0
  3
Chain line
 72
65
 73
4
 40
24.000000
 49
15.000000
 49
-3.000000
 49
3.000000
 49
-3.000000
  0
LTYPE
  2
RANDOM
 70
0
  3
Random line
 72
65
 73
4
 40
22.500000
 49
6.000000
 49
-3.000000
 49
4.500000
 49
-9.000000
  0
ENDTAB
  0
TABLE
  2
STYLE
 70
9
  0
STYLE
  2
STANDARD
 40
0
 41
1.0
 50
0.0
 71
0
 42
0
  3
simplex
  4

 70
0
  0
ENDTAB
  0
TABLE
  2
LAYER
 70
2
  0
LAYER
  2
0
 70
0
 62
7
  6
CONTINUOUS
  0
LAYER
  2
0
 62
1
  6
CONTINUOUS
 70
0
  0
ENDTAB
  0
ENDSEC
  0
SECTION
  2
BLOCKS
  0
ENDSEC
  0
SECTION
  2
ENTITIES
  0
LINE
  8
0
  6
CONTINUOUS
 62
1
 10
1864.448075
 20
1516.120187
 11
1864.448075
 21
811.120187
  0
LINE
  8
0
  6
CONTINUOUS
 62
1
 10
1864.448075
 20
811.120187
 11
1188.448075
 21
811.120187
  0
LINE
  8
0
  6
CONTINUOUS
 62
1
 10
1188.448075
 20
811.120187
 11
1188.448075
 21
1516.120187
  0
LINE
  8
0
  6
CONTINUOUS
 62
1
 10
1205.948075
 20
811.120187
 11
1205.948075
 21
801.120187
  0
LINE
  8
0
  6
CONTINUOUS
 62
1
 10
1205.948075
 20
801.120187
 11
1260.948075
 21
801.120187
  0
LINE
  8
0
  6
CONTINUOUS
 62
1
 10
1260.948075
 20
801.120187
 11
1260.948075
 21
811.120187
  0
LINE
  8
0
  6
CONTINUOUS
 62
1
 10
1805.948075
 20
811.120187
 11
1805.948075
 21
801.120187
  0
LINE
  8
0
  6
CONTINUOUS
 62
1
 10
1805.948075
 20
801.120187
 11
1860.948075
 21
801.120187
  0
LINE
  8
0
  6
CONTINUOUS
 62
1
 10
1860.948075
 20
801.120187
 11
1860.948075
 21
811.120187
  0
LINE
  8
0
  6
CONTINUOUS
 62
1
 10
1899.448075
 20
1378.611642
 11
1899.448075
 21
826.120187
  0
LINE
  8
0
  6
CONTINUOUS
 62
1
 10
1899.448075
 20
826.120187
 11
1864.448075
 21
826.120187
  0
LINE
  8
0
  6
CONTINUOUS
 62
1
 10
1817.547831
 20
1566.119210
 11
1901.597272
 21
1566.119210
  0
LINE
  8
0
  6
CONTINUOUS
 62
1
 10
1811.547831
 20
1560.119210
 11
1811.547831
 21
1544.619210
  0
LINE
  8
0
  6
CONTINUOUS
 62
1
 10
1786.547831
 20
1541.619210
 11
1808.547831
 21
1541.619210
  0
ARC
  8
0
  6
CONTINUOUS
 62
1
 10
1808.547831
 20
1544.619210
 40
3.000000
 50
270.000000
 51
0.000000
  0
ARC
  8
0
  6
CONTINUOUS
 62
1
 10
1817.547831
 20
1560.119210
 40
6.000000
 50
90.000000
 51
180.000000
  0
LINE
  8
0
  6
CONTINUOUS
 62
1
 10
1811.547831
 20
1516.119210
 11
1864.448075
 21
1516.119210
  0
LINE
  8
0
  6
CONTINUOUS
 62
1
 10
1219.548075
 20
1541.619332
 11
1786.547831
 21
1541.619332
  0
LINE
  8
0
  6
CONTINUOUS
 62
1
 10
1194.548075
 20
1516.119210
 11
1811.547831
 21
1516.119210
  0
LINE
  8
0
  6
CONTINUOUS
 62
1
 10
1219.548075
 20
1541.619332
 11
1071.448075
 21
1541.619332
  0
LINE
  8
0
  6
CONTINUOUS
 62
1
 10
1065.448075
 20
1535.619332
 11
1065.448075
 21
1518.119210
  0
LINE
  8
0
  6
CONTINUOUS
 62
1
 10
1219.548075
 20
1541.619332
 11
1786.547831
 21
1541.619332
  0
LINE
  8
0
  6
CONTINUOUS
 62
1
 10
1085.448075
 20
1516.119210
 11
1811.547831
 21
1516.119210
  0
LINE
  8
0
  6
CONTINUOUS
 62
1
 10
1259.448075
 20
667.120187
 11
1248.448075
 21
671.120171
  0
LINE
  8
0
  6
CONTINUOUS
 62
1
 10
1207.448075
 20
667.120187
 11
1218.448075
 21
671.120171
  0
LINE
  8
0
  6
CONTINUOUS
 62
1
 10
1207.448075
 20
667.120187
 11
1207.448075
 21
666.120187
  0
LINE
  8
0
  6
CONTINUOUS
 62
1
 10
1259.448075
 20
667.120187
 11
1207.448075
 21
667.120187
  0
LINE
  8
0
  6
CONTINUOUS
 62
1
 10
1248.448075
 20
671.120171
 11
1218.479020
 21
671.120171
  0
LINE
  8
0
  6
CONTINUOUS
 62
1
 10
1259.448075
 20
666.120187
 11
1207.448075
 21
666.120187
  0
LINE
  8
0
  6
CONTINUOUS
 62
1
 10
1259.448075
 20
667.120187
 11
1259.448075
 21
666.120187
  0
LINE
  8
0
  6
CONTINUOUS
 62
1
 10
1211.009926
 20
795.182687
 11
1211.979981
 21
702.057679
  0
ARC
  8
0
  6
CONTINUOUS
 62
1
 10
1205.010254
 20
795.120187
 40
6.000000
 50
0.596809
 51
81.007603
  0
ARC
  8
0
  6
CONTINUOUS
 62
1
 10
1261.885910
 20
795.120187
 40
6.000000
 50
98.992545
 51
179.403198
  0
ARC
  8
0
  6
CONTINUOUS
 62
1
 10
1248.916504
 20
702.120179
 40
5.999996
 50
269.999969
 51
359.403160
  0
ARC
  8
0
  6
CONTINUOUS
 62
1
 10
1217.979660
 20
702.120179
 40
6.000000
 50
180.596802
 51
270.000000
  0
LINE
  8
0
  6
CONTINUOUS
 62
1
 10
1255.886231
 20
795.182687
 11
1254.916184
 21
702.057679
  0
LINE
  8
0
  6
CONTINUOUS
 62
1
 10
1248.916504
 20
696.120179
 11
1217.979660
 21
696.120179
  0
LINE
  8
0
  6
CONTINUOUS
 62
1
 10
1217.979660
 20
696.120179
 11
1218.448075
 21
671.120171
  0
LINE
  8
0
  6
CONTINUOUS
 62
1
 10
1248.916501
 20
696.120183
 11
1248.448075
 21
671.120171
  0
LINE
  8
0
  6
CONTINUOUS
 62
1
 10
1859.448075
 20
667.120187
 11
1848.448075
 21
671.120171
  0
LINE
  8
0
  6
CONTINUOUS
 62
1
 10
1807.448075
 20
667.120187
 11
1818.448075
 21
671.120171
  0
LINE
  8
0
  6
CONTINUOUS
 62
1
 10
1807.448075
 20
667.120187
 11
1807.448075
 21
666.120187
  0
LINE
  8
0
  6
CONTINUOUS
 62
1
 10
1859.448075
 20
667.120187
 11
1807.448075
 21
667.120187
  0
LINE
  8
0
  6
CONTINUOUS
 62
1
 10
1848.448075
 20
671.120171
 11
1818.479020
 21
671.120171
  0
LINE
  8
0
  6
CONTINUOUS
 62
1
 10
1859.448075
 20
666.120187
 11
1807.448075
 21
666.120187
  0
LINE
  8
0
  6
CONTINUOUS
 62
1
 10
1859.448075
 20
667.120187
 11
1859.448075
 21
666.120187
  0
LINE
  8
0
  6
CONTINUOUS
 62
1
 10
1811.009926
 20
795.182687
 11
1811.979981
 21
702.057679
  0
ARC
  8
0
  6
CONTINUOUS
 62
1
 10
1805.010254
 20
795.120187
 40
6.000000
 50
0.596809
 51
81.007603
  0
ARC
  8
0
  6
CONTINUOUS
 62
1
 10
1861.885910
 20
795.120187
 40
6.000000
 50
98.992545
 51
179.403198
  0
ARC
  8
0
  6
CONTINUOUS
 62
1
 10
1848.916504
 20
702.120179
 40
5.999996
 50
269.999969
 51
359.403160
  0
ARC
  8
0
  6
CONTINUOUS
 62
1
 10
1817.979660
 20
702.120179
 40
6.000000
 50
180.596802
 51
270.000000
  0
LINE
  8
0
  6
CONTINUOUS
 62
1
 10
1855.886231
 20
795.182687
 11
1854.916184
 21
702.057679
  0
LINE
  8
0
  6
CONTINUOUS
 62
1
 10
1848.916504
 20
696.120179
 11
1817.979660
 21
696.120179
  0
LINE
  8
0
  6
CONTINUOUS
 62
1
 10
1817.979660
 20
696.120179
 11
1818.448075
 21
671.120171
  0
LINE
  8
0
  6
CONTINUOUS
 62
1
 10
1848.916501
 20
696.120183
 11
1848.448075
 21
671.120171
  0
LINE
  8
0
  6
CONTINUOUS
 62
1
 10
1817.547831
 20
1566.119210
 11
1982.826163
 21
1566.119210
  0
ARC
  8
0
  6
CONTINUOUS
 62
1
 10
1817.547831
 20
1560.119210
 40
6.000000
 50
90.000000
 51
180.000000
  0
LINE
  8
0
  6
CONTINUOUS
 62
1
 10
1065.448075
 20
1518.119210
 11
1975.228183
 21
1518.119210
  0
LINE
  8
0
  6
CONTINUOUS
 62
1
 10
1987.068804
 20
1564.361851
 11
2001.269814
 21
1550.160841
  0
LINE
  8
0
  6
CONTINUOUS
 62
1
 10
1979.470824
 20
1519.876569
 11
2001.269814
 21
1541.675559
  0
ARC
  8
0
  6
CONTINUOUS
 62
1
 10
1997.027173
 20
1545.918200
 40
6.000000
 50
315.000000
 51
45.000000
  0
ARC
  8
0
  6
CONTINUOUS
 62
1
 10
1982.826163
 20
1560.119210
 40
6.000000
 50
45.000000
 51
90.000000
  0
ARC
  8
0
  6
CONTINUOUS
 62
1
 10
1975.228183
 20
1524.119210
 40
6.000000
 50
270.000000
 51
315.000000
  0
LINE
  8
0
  6
CONTINUOUS
 62
1
 10
1199.047972
 20
1541.619332
 11
1199.047972
 21
1565.619340
  0
LINE
  8
0
  6
CONTINUOUS
 62
1
 10
1199.047972
 20
1541.619332
 11
1229.047968
 21
1541.619332
  0
LINE
  8
0
  6
CONTINUOUS
 62
1
 10
1229.047968
 20
1541.619332
 11
1229.047968
 21
1550.619334
  0
LINE
  8
0
  6
CONTINUOUS
 62
1
 10
1200.512450
 20
1569.154860
 11
1204.047948
 21
1570.619337
  0
LINE
  8
0
  6
CONTINUOUS
 62
1
 10
1199.047972
 20
1565.619364
 11
1200.512450
 21
1569.154860
  0
LINE
  8
0
  6
CONTINUOUS
 62
1
 10
1204.047948
 20
1570.619337
 11
1315.047927
 21
1570.619337
  0
LINE
  8
0
  6
CONTINUOUS
 62
1
 10
1241.183500
 20
1570.609172
 11
1290.327262
 21
1570.609172
  0
LINE
  8
0
  6
CONTINUOUS
 62
1
 10
1229.047968
 20
1550.619334
 11
1777.047937
 21
1550.619334
  0
LINE
  8
0
  6
CONTINUOUS
 62
1
 10
1199.047972
 20
1565.619340
 11
1347.614509
 21
1565.619340
  0
LINE
  8
0
  6
CONTINUOUS
 62
1
 10
1399.047922
 20
1570.519330
 11
1423.868641
 21
1570.519330
  0
LINE
  8
0
  6
CONTINUOUS
 62
1
 10
1399.047922
 20
1565.619340
 11
1399.047922
 21
1570.519330
  0
LINE
  8
0
  6
CONTINUOUS
 62
1
 10
1347.283763
 20
1570.619337
 11
1366.812086
 21
1570.619337
  0
LINE
  8
0
  6
CONTINUOUS
 62
1
 10
1347.165565
 20
1569.581252
 11
1347.614509
 21
1565.619340
  0
LINE
  8
0
  6
CONTINUOUS
 62
1
 10
1366.481339
 20
1565.619340
 11
1366.930318
 21
1569.581252
  0
LINE
  8
0
  6
CONTINUOUS
 62
1
 10
1347.165565
 20
1569.581332
 11
1347.283763
 21
1570.619337
  0
LINE
  8
0
  6
CONTINUOUS
 62
1
 10
1366.812086
 20
1570.619337
 11
1366.930318
 21
1569.581252
  0
LINE
  8
0
  6
CONTINUOUS
 62
1
 10
1423.868641
 20
1565.619340
 11
1423.868641
 21
1570.619337
  0
LINE
  8
0
  6
CONTINUOUS
 62
1
 10
1315.047927
 20
1565.619340
 11
1315.047927
 21
1570.619337
  0
LINE
  8
0
  6
CONTINUOUS
 62
1
 10
1347.614509
 20
1565.619340
 11
1366.481374
 21
1565.619340
  0
LINE
  8
0
  6
CONTINUOUS
 62
1
 10
1582.227213
 20
1565.619340
 11
1582.227213
 21
1570.619337
  0
LINE
  8
0
  6
CONTINUOUS
 62
1
 10
1533.083451
 20
1565.619340
 11
1533.083451
 21
1570.619337
  0
LINE
  8
0
  6
CONTINUOUS
 62
1
 10
1533.083451
 20
1570.619337
 11
1582.227213
 21
1570.619337
  0
LINE
  8
0
  6
CONTINUOUS
 62
1
 10
1473.012402
 20
1570.519330
 11
1533.083451
 21
1570.519330
  0
LINE
  8
0
  6
CONTINUOUS
 62
1
 10
1487.053788
 20
1565.619340
 11
1498.047916
 21
1570.519330
  0
LINE
  8
0
  6
CONTINUOUS
 62
1
 10
1508.047938
 20
1570.519330
 11
1519.042031
 21
1565.619348
  0
LINE
  8
0
  6
CONTINUOUS
 62
1
 10
1423.868641
 20
1570.619337
 11
1473.012402
 21
1570.619337
  0
LINE
  8
0
  6
CONTINUOUS
 62
1
 10
1473.012402
 20
1565.619340
 11
1473.012402
 21
1570.619337
  0
LINE
  8
0
  6
CONTINUOUS
 62
1
 10
1366.481374
 20
1565.619340
 11
1639.614514
 21
1565.619340
  0
LINE
  8
0
  6
CONTINUOUS
 62
1
 10
1639.283767
 20
1570.619337
 11
1658.812073
 21
1570.619337
  0
LINE
  8
0
  6
CONTINUOUS
 62
1
 10
1639.165552
 20
1569.581252
 11
1639.614514
 21
1565.619340
  0
LINE
  8
0
  6
CONTINUOUS
 62
1
 10
1658.481344
 20
1565.619340
 11
1658.930306
 21
1569.581252
  0
LINE
  8
0
  6
CONTINUOUS
 62
1
 10
1639.165569
 20
1569.581365
 11
1639.283767
 21
1570.619337
  0
LINE
  8
0
  6
CONTINUOUS
 62
1
 10
1658.812073
 20
1570.619337
 11
1658.930306
 21
1569.581252
  0
LINE
  8
0
  6
CONTINUOUS
 62
1
 10
1715.868628
 20
1565.619340
 11
1715.868628
 21
1570.619337
  0
LINE
  8
0
  6
CONTINUOUS
 62
1
 10
1690.947925
 20
1565.619340
 11
1690.947925
 21
1570.614210
  0
LINE
  8
0
  6
CONTINUOUS
 62
1
 10
1690.947925
 20
1570.614210
 11
1715.868628
 21
1570.614210
  0
LINE
  8
0
  6
CONTINUOUS
 62
1
 10
1607.047931
 20
1565.619340
 11
1607.047931
 21
1570.519330
  0
LINE
  8
0
  6
CONTINUOUS
 62
1
 10
1582.227213
 20
1570.519330
 11
1607.047931
 21
1570.519330
  0
LINE
  8
0
  6
CONTINUOUS
 62
1
 10
1639.614514
 20
1565.619340
 11
1658.481361
 21
1565.619340
  0
LINE
  8
0
  6
CONTINUOUS
 62
1
 10
1807.047925
 20
1541.619332
 11
1807.047925
 21
1565.619340
  0
LINE
  8
0
  6
CONTINUOUS
 62
1
 10
1777.047937
 20
1541.619332
 11
1777.047937
 21
1550.619334
  0
LINE
  8
0
  6
CONTINUOUS
 62
1
 10
1777.047937
 20
1541.619332
 11
1807.047933
 21
1541.619332
  0
LINE
  8
0
  6
CONTINUOUS
 62
1
 10
1715.868628
 20
1570.619337
 11
1765.012390
 21
1570.619337
  0
LINE
  8
0
  6
CONTINUOUS
 62
1
 10
1765.012390
 20
1565.619340
 11
1765.012390
 21
1570.619337
  0
LINE
  8
0
  6
CONTINUOUS
 62
1
 10
1801.947921
 20
1570.614210
 11
1805.483449
 21
1569.149733
  0
LINE
  8
0
  6
CONTINUOUS
 62
1
 10
1805.483449
 20
1569.149733
 11
1806.945789
 21
1565.619340
  0
LINE
  8
0
  6
CONTINUOUS
 62
1
 10
1765.012390
 20
1570.614210
 11
1801.947921
 21
1570.614210
  0
LINE
  8
0
  6
CONTINUOUS
 62
1
 10
1658.481361
 20
1565.619340
 11
1807.047925
 21
1565.619340
  0
ARC
  8
0
  6
CONTINUOUS
 62
1
 10
1071.448075
 20
1535.619332
 40
6.000000
 50
90.000000
 51
180.000000
  0
LINE
  8
0
  6
CONTINUOUS
 62
1
 10
1080.348023
 20
1603.170767
 11
1186.015208
 21
1586.827082
  0
LINE
  8
0
  6
CONTINUOUS
 62
1
 10
1194.077698
 20
1541.619332
 11
1167.485156
 21
1541.619332
  0
LINE
  8
0
  6
CONTINUOUS
 62
1
 10
1066.025798
 20
1555.619333
 11
1070.061196
 21
1594.549177
  0
POLYLINE
  8
0
  6
CONTINUOUS
 62
1
 66
1
 70
2
  0
VERTEX
  8
0
 10
1069.995365
 20
1594.045003
 70
0
 42
-0.101146
  0
VERTEX
  8
0
 10
1071.222538
 20
1597.918750
 70
0
 42
-0.100400
  0
VERTEX
  8
0
 10
1073.875401
 20
1601.016617
 70
0
 42
-0.100727
  0
VERTEX
  8
0
 10
1077.520199
 20
1602.832087
 70
0
 42
-0.101937
  0
VERTEX
  8
0
 10
1081.560989
 20
1603.068322
 70
0
  0
SEQEND
  0
LINE
  8
0
  6
CONTINUOUS
 62
1
 10
1066.025798
 20
1555.619333
 11
1066.942339
 21
1542.532176
  0
LINE
  8
0
  6
CONTINUOUS
 62
1
 10
1196.200882
 20
1553.119333
 11
1195.089827
 21
1542.532176
  0
LINE
  8
0
  6
CONTINUOUS
 62
1
 10
1094.277698
 20
1541.619332
 11
1067.922600
 21
1541.619332
  0
POLYLINE
  8
0
  6
CONTINUOUS
 62
1
 66
1
 70
2
  0
VERTEX
  8
0
 10
1066.942339
 20
1542.532176
 70
0
 42
0.395705
  0
VERTEX
  8
0
 10
1067.922600
 20
1541.619332
 70
0
  0
SEQEND
  0
POLYLINE
  8
0
  6
CONTINUOUS
 62
1
 66
1
 70
2
  0
VERTEX
  8
0
 10
1194.077698
 20
1541.619332
 70
0
 42
0.382180
  0
VERTEX
  8
0
 10
1195.089827
 20
1542.532176
 70
0
  0
SEQEND
  0
LINE
  8
0
  6
CONTINUOUS
 62
1
 10
1096.042726
 20
1549.706489
 11
1095.289827
 21
1542.532176
  0
LINE
  8
0
  6
CONTINUOUS
 62
1
 10
1166.002453
 20
1549.706489
 11
1166.504896
 21
1542.532176
  0
POLYLINE
  8
0
  6
CONTINUOUS
 62
1
 66
1
 70
2
  0
VERTEX
  8
0
 10
1094.277698
 20
1541.619332
 70
0
 42
0.382180
  0
VERTEX
  8
0
 10
1095.289827
 20
1542.532176
 70
0
  0
SEQEND
  0
POLYLINE
  8
0
  6
CONTINUOUS
 62
1
 66
1
 70
2
  0
VERTEX
  8
0
 10
1167.485156
 20
1541.619332
 70
0
 42
-0.395705
  0
VERTEX
  8
0
 10
1166.504896
 20
1542.532176
 70
0
  0
SEQEND
  0
POLYLINE
  8
0
  6
CONTINUOUS
 62
1
 66
1
 70
2
  0
VERTEX
  8
0
 10
1165.022192
 20
1550.619333
 70
0
 42
-0.395705
  0
VERTEX
  8
0
 10
1166.002453
 20
1549.706489
 70
0
  0
SEQEND
  0
POLYLINE
  8
0
  6
CONTINUOUS
 62
1
 66
1
 70
2
  0
VERTEX
  8
0
 10
1097.054854
 20
1550.619333
 70
0
 42
0.382180
  0
VERTEX
  8
0
 10
1096.042726
 20
1549.706489
 70
0
  0
SEQEND
  0
LINE
  8
0
  6
CONTINUOUS
 62
1
 10
1196.200882
 20
1553.119333
 11
1194.461634
 21
1577.651777
  0
ARC
  8
0
  6
CONTINUOUS
 62
1
 10
1184.486670
 20
1576.944593
 40
10.000000
 50
4.055248
 51
81.207657
  0
LINE
  8
0
  6
CONTINUOUS
 62
1
 10
1097.054854
 20
1550.619333
 11
1165.022192
 21
1550.619333
  0
LINE
  8
0
  6
CONTINUOUS
 62
1
 10
1864.448075
 20
1516.120187
 11
1864.448075
 21
811.120187
  0
LINE
  8
0
  6
CONTINUOUS
 62
1
 10
1864.448075
 20
811.120187
 11
1188.448075
 21
811.120187
  0
LINE
  8
0
  6
CONTINUOUS
 62
1
 10
1188.448075
 20
811.120187
 11
1188.448075
 21
1516.120187
  0
LINE
  8
0
  6
CONTINUOUS
 62
1
 10
1085.448075
 20
1516.120187
 11
1085.448075
 21
1406.120187
  0
LINE
  8
0
  6
CONTINUOUS
 62
1
 10
1085.448075
 20
1406.120187
 11
1188.448075
 21
1406.120187
  0
LINE
  8
0
  6
CONTINUOUS
 62
1
 10
1104.430762
 20
1406.120187
 11
1104.430762
 21
1221.120187
  0
LINE
  8
0
  6
CONTINUOUS
 62
1
 10
1104.430762
 20
1221.120187
 11
1188.448075
 21
1221.120187
  0
LINE
  8
0
  6
CONTINUOUS
 62
1
 10
1811.547831
 20
1516.119210
 11
1864.448075
 21
1516.119210
  0
LINE
  8
0
  6
CONTINUOUS
 62
1
 10
1194.548075
 20
1516.119210
 11
1811.547831
 21
1516.119210
  0
LINE
  8
0
  6
CONTINUOUS
 62
1
 10
1866.547928
 20
1405.019235
 11
1898.947953
 21
1405.019235
  0
ARC
  8
0
  6
CONTINUOUS
 62
1
 10
1898.947953
 20
1406.619210
 40
1.600000
 50
270.000000
 51
0.000000
  0
LINE
  8
0
  6
CONTINUOUS
 62
1
 10
1866.547928
 20
1405.019235
 11
1866.547928
 21
1518.119210
  0
LINE
  8
0
  6
CONTINUOUS
 62
1
 10
1900.547928
 20
1518.119210
 11
1900.547928
 21
1406.619210
  0
LINE
  8
0
  6
CONTINUOUS
 62
1
 10
1913.048172
 20
1378.611642
 11
1938.048172
 21
1403.611642
  0
LINE
  8
0
  6
CONTINUOUS
 62
1
 10
1864.448075
 20
1378.611642
 11
1913.048172
 21
1378.611642
  0
LINE
  8
0
  6
CONTINUOUS
 62
1
 10
1864.448075
 20
1403.611642
 11
1938.048172
 21
1403.611642
  0
LINE
  8
0
  6
CONTINUOUS
 62
1
 10
1915.948075
 20
1442.961993
 11
1915.948075
 21
1498.276439
  0
LINE
  8
0
  6
CONTINUOUS
 62
1
 10
1931.474244
 20
1443.775689
 11
1915.948075
 21
1442.961993
  0
ARC
  8
0
  6
CONTINUOUS
 62
1
 10
1931.448075
 20
1444.275002
 40
0.500000
 50
272.999969
 51
0.000000
  0
LINE
  8
0
  6
CONTINUOUS
 62
1
 10
1950.948075
 20
1465.286962
 11
1950.948075
 21
1474.195779
  0
ARC
  8
0
  6
CONTINUOUS
 62
1
 10
1949.448075
 20
1474.195779
 40
1.500000
 50
0.000000
 51
86.999992
  0
LINE
  8
0
  6
CONTINUOUS
 62
1
 10
1930.526581
 20
1497.512414
 11
1915.948075
 21
1498.276439
  0
ARC
  8
0
  6
CONTINUOUS
 62
1
 10
1930.448075
 20
1496.014474
 40
1.500000
 50
0.000000
 51
87.000023
  0
LINE
  8
0
  6
CONTINUOUS
 62
1
 10
1931.948075
 20
1482.308755
 11
1931.948075
 21
1496.014474
  0
LINE
  8
0
  6
CONTINUOUS
 62
1
 10
1949.526581
 20
1475.693719
 11
1937.634064
 21
1476.316979
  0
ARC
  8
0
  6
CONTINUOUS
 62
1
 10
1937.948075
 20
1482.308755
 40
5.999998
 50
180.000000
 51
267.000015
  0
LINE
  8
0
  6
CONTINUOUS
 62
1
 10
1950.448075
 20
1465.269502
 11
1950.448075
 21
1450.709669
  0
LINE
  8
0
  6
CONTINUOUS
 62
1
 10
1931.948075
 20
1444.269502
 11
1944.657472
 21
1444.713324
  0
LINE
  8
0
  6
CONTINUOUS
 62
1
 10
1950.948075
 20
1465.286962
 11
1936.650433
 21
1464.787678
  0
ARC
  8
0
  6
CONTINUOUS
 62
1
 10
1944.448075
 20
1450.709669
 40
6.000000
 50
272.000000
 51
0.000000
  0
LINE
  8
0
  6
CONTINUOUS
 62
1
 10
1950.448075
 20
1465.269502
 11
1950.448075
 21
1450.709669
  0
LINE
  8
0
  6
CONTINUOUS
 62
1
 10
1931.948075
 20
1444.269502
 11
1931.948075
 21
1458.929681
  0
LINE
  8
0
  6
CONTINUOUS
 62
1
 10
1931.948075
 20
1444.269502
 11
1944.657472
 21
1444.713324
  0
LINE
  8
0
  6
CONTINUOUS
 62
1
 10
1950.448075
 20
1465.269502
 11
1948.895725
 21
1465.215293
  0
ARC
  8
0
  6
CONTINUOUS
 62
1
 10
1944.448075
 20
1450.709669
 40
6.000000
 50
272.000000
 51
0.000000
  0
ARC
  8
0
  6
CONTINUOUS
 62
1
 10
1937.948075
 20
1458.929681
 40
6.000000
 50
102.490253
 51
180.000000
  0
LINE
  8
0
  6
CONTINUOUS
 62
1
 10
1900.547928
 20
1466.619210
 11
1915.948075
 21
1466.619210
  0
LINE
  8
0
  6
CONTINUOUS
 62
1
 10
1900.547928
 20
1472.619210
 11
1915.948075
 21
1472.619210
  0
ENDSEC
  0
EOF
