  0
SECTION
  2
HEADER
  9
$LIMMIN
 10
0.000000
 20
0.000000
  9
$LIMMAX
 10
3500.000000
 20
2500.000000
  9
$EXTMIN
 10
0.000000
 20
0.000000
  9
$EXTMAX
 10
3500.000000
 20
2500.000000
  9
$ANGBASE
 50
0.0
  9
$ANGDIR
 70
0
  9
$DIMRND
 40
0.100000
  9
$DIMSE1
 70
0
  9
$DIMSE2
 70
0
  9
$DIMTXT
 40
3.500000
  9
$LTSCALE
 40
1.000000
  9
$LUPREC
 70
5
  9
$AUPREC
 70
5
  9
$PDMODE
 70
2
  9
$PDSIZE
 40
17.500000
  0
ENDSEC
  0
SECTION
  2
TABLES
  0
TABLE
  2
VPORT
  70
1
  0
VPORT
  2
*ACTIVE
 70
0
  10
0.0
 20
0.0
 11
1.0
 21
1.0
 12
594.0
 22
420.0
 13
0.0
 23
0.0
 14
10.0
 24
10.0
 15
10.0
 25
10.0
 16
0.0
 26
0.0
 36
1.0
 17
594.0
 27
420.0
 37
100.0
 40
1000.0
 41
1.0
 42
50.0
 43
0.0
 44
0.0
 50
0.0
 51
0.0
 71
0
 72
2000
 73
1
 74
3
 75
0
 76
0
 77
0
 78
1
  0
ENDTAB
  0
TABLE
  2
LTYPE
 70
4
  0
LTYPE
  2
CONTINUOUS
 70
0
  3
Solid line
 72
65
 73
0
 40
0.0
  0
LTYPE
  2
DASHED
 70
0
  3
Dashed line
 72
65
 73
2
 40
6.000000
 49
3.000000
 49
-3.000000
  0
LTYPE
  2
CENTER
 70
0
  3
Chain line
 72
65
 73
4
 40
24.000000
 49
15.000000
 49
-3.000000
 49
3.000000
 49
-3.000000
  0
LTYPE
  2
RANDOM
 70
0
  3
Random line
 72
65
 73
4
 40
22.500000
 49
6.000000
 49
-3.000000
 49
4.500000
 49
-9.000000
  0
ENDTAB
  0
TABLE
  2
STYLE
 70
9
  0
STYLE
  2
STANDARD
 40
0
 41
1.0
 50
0.0
 71
0
 42
0
  3
simplex
  4

 70
0
  0
ENDTAB
  0
TABLE
  2
LAYER
 70
2
  0
LAYER
  2
0
 70
0
 62
7
  6
CONTINUOUS
  0
LAYER
  2
0
 62
1
  6
CONTINUOUS
 70
0
  0
ENDTAB
  0
ENDSEC
  0
SECTION
  2
BLOCKS
  0
ENDSEC
  0
SECTION
  2
ENTITIES
  0
LINE
  8
0
  6
CONTINUOUS
 62
1
 10
1079.160367
 20
757.091599
 11
1979.160367
 21
757.091599
  0
LINE
  8
0
  6
CONTINUOUS
 62
1
 10
1979.160367
 20
757.091599
 11
1979.160367
 21
1512.091599
  0
LINE
  8
0
  6
CONTINUOUS
 62
1
 10
1979.160367
 20
1512.091599
 11
1079.160367
 21
1512.091599
  0
LINE
  8
0
  6
CONTINUOUS
 62
1
 10
1079.160367
 20
1512.091599
 11
1079.160367
 21
757.091599
  0
LINE
  8
0
  6
CONTINUOUS
 62
1
 10
1079.160367
 20
772.091599
 11
1979.160367
 21
772.091599
  0
LINE
  8
0
  6
CONTINUOUS
 62
1
 10
1979.160367
 20
1462.091599
 11
1079.160367
 21
1462.091599
  0
ARC
  8
0
  6
CONTINUOUS
 62
1
 10
1870.160367
 20
1413.591599
 40
25.000000
 50
180.000000
 51
0.000000
  0
ARC
  8
0
  6
CONTINUOUS
 62
1
 10
1870.160367
 20
1413.591599
 40
25.000000
 50
0.000000
 51
180.000000
  0
ARC
  8
0
  6
CONTINUOUS
 62
1
 10
1188.160367
 20
1413.591599
 40
25.000000
 50
180.000000
 51
0.000000
  0
ARC
  8
0
  6
CONTINUOUS
 62
1
 10
1188.160367
 20
1413.591599
 40
25.000000
 50
0.000000
 51
180.000000
  0
LINE
  8
0
  6
CONTINUOUS
 62
1
 10
1894.655264
 20
1418.591599
 11
1845.665469
 21
1418.591599
  0
LINE
  8
0
  6
CONTINUOUS
 62
1
 10
1894.655264
 20
1408.591599
 11
1845.665469
 21
1408.591599
  0
LINE
  8
0
  6
CONTINUOUS
 62
1
 10
1212.655264
 20
1418.591599
 11
1163.665469
 21
1418.591599
  0
LINE
  8
0
  6
CONTINUOUS
 62
1
 10
1212.655264
 20
1408.591599
 11
1163.665469
 21
1408.591599
  0
LINE
  8
0
  6
CONTINUOUS
 62
1
 10
1185.160367
 20
613.091599
 11
1174.160367
 21
617.091583
  0
LINE
  8
0
  6
CONTINUOUS
 62
1
 10
1133.160367
 20
613.091599
 11
1144.160367
 21
617.091583
  0
LINE
  8
0
  6
CONTINUOUS
 62
1
 10
1133.160367
 20
613.091599
 11
1133.160367
 21
612.091599
  0
LINE
  8
0
  6
CONTINUOUS
 62
1
 10
1185.160367
 20
613.091599
 11
1133.160367
 21
613.091599
  0
LINE
  8
0
  6
CONTINUOUS
 62
1
 10
1174.160367
 20
617.091583
 11
1144.191311
 21
617.091583
  0
LINE
  8
0
  6
CONTINUOUS
 62
1
 10
1185.160367
 20
612.091599
 11
1133.160367
 21
612.091599
  0
LINE
  8
0
  6
CONTINUOUS
 62
1
 10
1185.160367
 20
613.091599
 11
1185.160367
 21
612.091599
  0
LINE
  8
0
  6
CONTINUOUS
 62
1
 10
1203.660367
 20
757.091599
 11
1114.660367
 21
757.091599
  0
LINE
  8
0
  6
CONTINUOUS
 62
1
 10
1203.660367
 20
747.091599
 11
1114.660367
 21
747.091599
  0
LINE
  8
0
  6
CONTINUOUS
 62
1
 10
1114.660367
 20
757.091599
 11
1114.660367
 21
747.091599
  0
LINE
  8
0
  6
CONTINUOUS
 62
1
 10
1136.722218
 20
741.154099
 11
1137.692273
 21
648.029091
  0
ARC
  8
0
  6
CONTINUOUS
 62
1
 10
1130.722546
 20
741.091599
 40
6.000000
 50
0.596809
 51
90.000000
  0
ARC
  8
0
  6
CONTINUOUS
 62
1
 10
1187.598202
 20
741.091599
 40
6.000000
 50
90.000000
 51
179.403198
  0
LINE
  8
0
  6
CONTINUOUS
 62
1
 10
1203.660367
 20
757.091599
 11
1203.660367
 21
747.091599
  0
ARC
  8
0
  6
CONTINUOUS
 62
1
 10
1174.628796
 20
648.091591
 40
5.999996
 50
269.999969
 51
359.403160
  0
ARC
  8
0
  6
CONTINUOUS
 62
1
 10
1143.691952
 20
648.091591
 40
6.000000
 50
180.596802
 51
270.000000
  0
LINE
  8
0
  6
CONTINUOUS
 62
1
 10
1181.598523
 20
741.154099
 11
1180.628476
 21
648.029091
  0
LINE
  8
0
  6
CONTINUOUS
 62
1
 10
1174.628796
 20
642.091591
 11
1143.691952
 21
642.091591
  0
LINE
  8
0
  6
CONTINUOUS
 62
1
 10
1925.160367
 20
613.091599
 11
1914.160367
 21
617.091583
  0
LINE
  8
0
  6
CONTINUOUS
 62
1
 10
1873.160367
 20
613.091599
 11
1884.160367
 21
617.091583
  0
LINE
  8
0
  6
CONTINUOUS
 62
1
 10
1873.160367
 20
613.091599
 11
1873.160367
 21
612.091599
  0
LINE
  8
0
  6
CONTINUOUS
 62
1
 10
1925.160367
 20
613.091599
 11
1873.160367
 21
613.091599
  0
LINE
  8
0
  6
CONTINUOUS
 62
1
 10
1914.160367
 20
617.091583
 11
1884.191311
 21
617.091583
  0
LINE
  8
0
  6
CONTINUOUS
 62
1
 10
1925.160367
 20
612.091599
 11
1873.160367
 21
612.091599
  0
LINE
  8
0
  6
CONTINUOUS
 62
1
 10
1925.160367
 20
613.091599
 11
1925.160367
 21
612.091599
  0
LINE
  8
0
  6
CONTINUOUS
 62
1
 10
1943.660367
 20
757.091599
 11
1854.660367
 21
757.091599
  0
LINE
  8
0
  6
CONTINUOUS
 62
1
 10
1943.660367
 20
747.091599
 11
1854.660367
 21
747.091599
  0
LINE
  8
0
  6
CONTINUOUS
 62
1
 10
1854.660367
 20
757.091599
 11
1854.660367
 21
747.091599
  0
LINE
  8
0
  6
CONTINUOUS
 62
1
 10
1876.722218
 20
741.154099
 11
1877.692273
 21
648.029091
  0
ARC
  8
0
  6
CONTINUOUS
 62
1
 10
1870.722546
 20
741.091599
 40
6.000000
 50
0.596809
 51
90.000000
  0
ARC
  8
0
  6
CONTINUOUS
 62
1
 10
1927.598202
 20
741.091599
 40
6.000000
 50
90.000000
 51
179.403198
  0
LINE
  8
0
  6
CONTINUOUS
 62
1
 10
1943.660367
 20
757.091599
 11
1943.660367
 21
747.091599
  0
ARC
  8
0
  6
CONTINUOUS
 62
1
 10
1914.628796
 20
648.091591
 40
5.999996
 50
269.999969
 51
359.403160
  0
ARC
  8
0
  6
CONTINUOUS
 62
1
 10
1883.691952
 20
648.091591
 40
6.000000
 50
180.596802
 51
270.000000
  0
LINE
  8
0
  6
CONTINUOUS
 62
1
 10
1921.598523
 20
741.154099
 11
1920.628476
 21
648.029091
  0
LINE
  8
0
  6
CONTINUOUS
 62
1
 10
1914.628796
 20
642.091591
 11
1883.691952
 21
642.091591
  0
LINE
  8
0
  6
CONTINUOUS
 62
1
 10
1143.682384
 20
642.091599
 11
1144.160367
 21
617.091583
  0
LINE
  8
0
  6
CONTINUOUS
 62
1
 10
1174.635125
 20
642.091599
 11
1174.160367
 21
617.091583
  0
LINE
  8
0
  6
CONTINUOUS
 62
1
 10
1883.691952
 20
642.091591
 11
1884.160367
 21
617.091583
  0
LINE
  8
0
  6
CONTINUOUS
 62
1
 10
1914.628793
 20
642.091595
 11
1914.160367
 21
617.091583
  0
ARC
  8
0
  6
CONTINUOUS
 62
1
 10
1780.160367
 20
1413.591599
 40
25.000000
 50
180.000000
 51
0.000000
  0
ARC
  8
0
  6
CONTINUOUS
 62
1
 10
1780.160367
 20
1413.591599
 40
25.000000
 50
0.000000
 51
180.000000
  0
LINE
  8
0
  6
CONTINUOUS
 62
1
 10
1804.655264
 20
1418.591599
 11
1755.665469
 21
1418.591599
  0
LINE
  8
0
  6
CONTINUOUS
 62
1
 10
1804.655264
 20
1408.591599
 11
1755.665469
 21
1408.591599
  0
ARC
  8
0
  6
CONTINUOUS
 62
1
 10
1484.160367
 20
1413.591599
 40
25.000000
 50
180.000000
 51
0.000000
  0
ARC
  8
0
  6
CONTINUOUS
 62
1
 10
1484.160367
 20
1413.591599
 40
25.000000
 50
0.000000
 51
180.000000
  0
LINE
  8
0
  6
CONTINUOUS
 62
1
 10
1508.655264
 20
1418.591599
 11
1459.665469
 21
1418.591599
  0
LINE
  8
0
  6
CONTINUOUS
 62
1
 10
1508.655264
 20
1408.591599
 11
1459.665469
 21
1408.591599
  0
ARC
  8
0
  6
CONTINUOUS
 62
1
 10
1574.160367
 20
1413.591599
 40
25.000000
 50
180.000000
 51
0.000000
  0
ARC
  8
0
  6
CONTINUOUS
 62
1
 10
1574.160367
 20
1413.591599
 40
25.000000
 50
0.000000
 51
180.000000
  0
LINE
  8
0
  6
CONTINUOUS
 62
1
 10
1598.655264
 20
1418.591599
 11
1549.665469
 21
1418.591599
  0
LINE
  8
0
  6
CONTINUOUS
 62
1
 10
1598.655264
 20
1408.591599
 11
1549.665469
 21
1408.591599
  0
ARC
  8
0
  6
CONTINUOUS
 62
1
 10
1278.160367
 20
1413.591599
 40
25.000000
 50
180.000000
 51
0.000000
  0
ARC
  8
0
  6
CONTINUOUS
 62
1
 10
1278.160367
 20
1413.591599
 40
25.000000
 50
0.000000
 51
180.000000
  0
LINE
  8
0
  6
CONTINUOUS
 62
1
 10
1302.655264
 20
1418.591599
 11
1253.665469
 21
1418.591599
  0
LINE
  8
0
  6
CONTINUOUS
 62
1
 10
1302.655264
 20
1408.591599
 11
1253.665469
 21
1408.591599
  0
LINE
  8
0
  6
CONTINUOUS
 62
1
 10
1089.621297
 20
1512.535774
 11
1087.644671
 21
1525.590744
  0
LINE
  8
0
  6
CONTINUOUS
 62
1
 10
1133.057461
 20
1512.499265
 11
1136.359090
 21
1525.590744
  0
LINE
  8
0
  6
CONTINUOUS
 62
1
 10
1208.045889
 20
1512.329277
 11
1205.061611
 21
1525.590744
  0
LINE
  8
0
  6
CONTINUOUS
 62
1
 10
1190.274844
 20
1512.329277
 11
1193.259122
 21
1525.590744
  0
LINE
  8
0
  6
CONTINUOUS
 62
1
 10
1268.045889
 20
1512.329277
 11
1265.061611
 21
1525.590744
  0
LINE
  8
0
  6
CONTINUOUS
 62
1
 10
1250.274844
 20
1512.329277
 11
1253.259122
 21
1525.590744
  0
LINE
  8
0
  6
CONTINUOUS
 62
1
 10
1328.045889
 20
1512.329277
 11
1325.061611
 21
1525.590744
  0
LINE
  8
0
  6
CONTINUOUS
 62
1
 10
1310.274844
 20
1512.329277
 11
1313.259122
 21
1525.590744
  0
LINE
  8
0
  6
CONTINUOUS
 62
1
 10
1385.061611
 20
1548.439734
 11
1373.259122
 21
1548.439734
  0
LINE
  8
0
  6
CONTINUOUS
 62
1
 10
1388.045889
 20
1512.329277
 11
1385.061611
 21
1548.439734
  0
LINE
  8
0
  6
CONTINUOUS
 62
1
 10
1370.274844
 20
1512.329277
 11
1373.259122
 21
1548.439734
  0
LINE
  8
0
  6
CONTINUOUS
 62
1
 10
1445.061611
 20
1548.439734
 11
1433.259122
 21
1548.439734
  0
LINE
  8
0
  6
CONTINUOUS
 62
1
 10
1448.045889
 20
1512.329277
 11
1445.061611
 21
1548.439734
  0
LINE
  8
0
  6
CONTINUOUS
 62
1
 10
1430.274844
 20
1512.329277
 11
1433.259122
 21
1548.439734
  0
LINE
  8
0
  6
CONTINUOUS
 62
1
 10
1505.061611
 20
1548.439734
 11
1493.259122
 21
1548.439734
  0
LINE
  8
0
  6
CONTINUOUS
 62
1
 10
1508.045889
 20
1512.329277
 11
1505.061611
 21
1548.439734
  0
LINE
  8
0
  6
CONTINUOUS
 62
1
 10
1490.274844
 20
1512.329277
 11
1493.259122
 21
1548.439734
  0
LINE
  8
0
  6
CONTINUOUS
 62
1
 10
1565.061611
 20
1548.439734
 11
1553.259122
 21
1548.439734
  0
LINE
  8
0
  6
CONTINUOUS
 62
1
 10
1568.045889
 20
1512.329277
 11
1565.061611
 21
1548.439734
  0
LINE
  8
0
  6
CONTINUOUS
 62
1
 10
1550.274844
 20
1512.329277
 11
1553.259122
 21
1548.439734
  0
LINE
  8
0
  6
CONTINUOUS
 62
1
 10
1625.061611
 20
1548.439734
 11
1613.259122
 21
1548.439734
  0
LINE
  8
0
  6
CONTINUOUS
 62
1
 10
1628.045889
 20
1512.329277
 11
1625.061611
 21
1548.439734
  0
LINE
  8
0
  6
CONTINUOUS
 62
1
 10
1610.274844
 20
1512.329277
 11
1613.259122
 21
1548.439734
  0
LINE
  8
0
  6
CONTINUOUS
 62
1
 10
1685.061611
 20
1548.439734
 11
1673.259122
 21
1548.439734
  0
LINE
  8
0
  6
CONTINUOUS
 62
1
 10
1688.045889
 20
1512.329277
 11
1685.061611
 21
1548.439734
  0
LINE
  8
0
  6
CONTINUOUS
 62
1
 10
1670.274844
 20
1512.329277
 11
1673.259122
 21
1548.439734
  0
LINE
  8
0
  6
CONTINUOUS
 62
1
 10
1730.274844
 20
1512.329277
 11
1733.259122
 21
1525.590744
  0
LINE
  8
0
  6
CONTINUOUS
 62
1
 10
1808.045889
 20
1512.329277
 11
1805.061611
 21
1525.590744
  0
LINE
  8
0
  6
CONTINUOUS
 62
1
 10
1790.274844
 20
1512.329277
 11
1793.259122
 21
1525.590744
  0
LINE
  8
0
  6
CONTINUOUS
 62
1
 10
1868.045889
 20
1512.329277
 11
1865.061611
 21
1525.590744
  0
LINE
  8
0
  6
CONTINUOUS
 62
1
 10
1850.274844
 20
1512.329277
 11
1853.259122
 21
1525.590744
  0
LINE
  8
0
  6
CONTINUOUS
 62
1
 10
1925.088888
 20
1512.499265
 11
1921.787259
 21
1525.590744
  0
LINE
  8
0
  6
CONTINUOUS
 62
1
 10
1910.274844
 20
1512.329277
 11
1913.259122
 21
1525.590744
  0
LINE
  8
0
  6
CONTINUOUS
 62
1
 10
1969.231845
 20
1512.499265
 11
1972.533474
 21
1525.590744
  0
LINE
  8
0
  6
CONTINUOUS
 62
1
 10
1733.259122
 20
1525.590744
 11
1745.061611
 21
1525.590744
  0
LINE
  8
0
  6
CONTINUOUS
 62
1
 10
1793.259122
 20
1525.590744
 11
1805.061611
 21
1525.590744
  0
LINE
  8
0
  6
CONTINUOUS
 62
1
 10
1853.259122
 20
1525.590744
 11
1865.061611
 21
1525.590744
  0
LINE
  8
0
  6
CONTINUOUS
 62
1
 10
1913.259122
 20
1525.590744
 11
1921.787259
 21
1525.590744
  0
LINE
  8
0
  6
CONTINUOUS
 62
1
 10
1972.533474
 20
1525.590744
 11
1976.660367
 21
1525.590744
  0
LINE
  8
0
  6
CONTINUOUS
 62
1
 10
1081.660367
 20
1525.590744
 11
1087.644671
 21
1525.590744
  0
LINE
  8
0
  6
CONTINUOUS
 62
1
 10
1136.359090
 20
1525.590744
 11
1145.061611
 21
1525.590744
  0
LINE
  8
0
  6
CONTINUOUS
 62
1
 10
1193.259122
 20
1525.590744
 11
1205.061611
 21
1525.590744
  0
LINE
  8
0
  6
CONTINUOUS
 62
1
 10
1253.259122
 20
1525.590744
 11
1265.061611
 21
1525.590744
  0
LINE
  8
0
  6
CONTINUOUS
 62
1
 10
1313.259122
 20
1525.590744
 11
1325.061611
 21
1525.590744
  0
LINE
  8
0
  6
CONTINUOUS
 62
1
 10
1148.045889
 20
1512.329277
 11
1145.061611
 21
1525.590744
  0
LINE
  8
0
  6
CONTINUOUS
 62
1
 10
1745.061611
 20
1525.590744
 11
1748.045889
 21
1512.329277
  0
LINE
  8
0
  6
CONTINUOUS
 62
1
 10
1976.660367
 20
1512.091599
 11
1976.660367
 21
1525.590744
  0
LINE
  8
0
  6
CONTINUOUS
 62
1
 10
1081.660367
 20
1512.091599
 11
1081.660367
 21
1525.590744
  0
LINE
  8
0
  6
CONTINUOUS
 62
1
 10
1089.621297
 20
1512.535774
 11
1087.644671
 21
1525.590744
  0
LINE
  8
0
  6
CONTINUOUS
 62
1
 10
1133.057461
 20
1512.499265
 11
1136.359090
 21
1525.590744
  0
LINE
  8
0
  6
CONTINUOUS
 62
1
 10
1208.045889
 20
1512.329277
 11
1205.061611
 21
1525.590744
  0
LINE
  8
0
  6
CONTINUOUS
 62
1
 10
1190.274844
 20
1512.329277
 11
1193.259122
 21
1525.590744
  0
LINE
  8
0
  6
CONTINUOUS
 62
1
 10
1268.045889
 20
1512.329277
 11
1265.061611
 21
1525.590744
  0
LINE
  8
0
  6
CONTINUOUS
 62
1
 10
1250.274844
 20
1512.329277
 11
1253.259122
 21
1525.590744
  0
LINE
  8
0
  6
CONTINUOUS
 62
1
 10
1328.045889
 20
1512.329277
 11
1325.061611
 21
1525.590744
  0
LINE
  8
0
  6
CONTINUOUS
 62
1
 10
1310.274844
 20
1512.329277
 11
1313.259122
 21
1525.590744
  0
LINE
  8
0
  6
CONTINUOUS
 62
1
 10
1385.061611
 20
1548.439734
 11
1373.259122
 21
1548.439734
  0
LINE
  8
0
  6
CONTINUOUS
 62
1
 10
1388.045889
 20
1512.329277
 11
1385.061611
 21
1548.439734
  0
LINE
  8
0
  6
CONTINUOUS
 62
1
 10
1370.274844
 20
1512.329277
 11
1373.259122
 21
1548.439734
  0
LINE
  8
0
  6
CONTINUOUS
 62
1
 10
1445.061611
 20
1548.439734
 11
1433.259122
 21
1548.439734
  0
LINE
  8
0
  6
CONTINUOUS
 62
1
 10
1448.045889
 20
1512.329277
 11
1445.061611
 21
1548.439734
  0
LINE
  8
0
  6
CONTINUOUS
 62
1
 10
1430.274844
 20
1512.329277
 11
1433.259122
 21
1548.439734
  0
LINE
  8
0
  6
CONTINUOUS
 62
1
 10
1505.061611
 20
1548.439734
 11
1493.259122
 21
1548.439734
  0
LINE
  8
0
  6
CONTINUOUS
 62
1
 10
1508.045889
 20
1512.329277
 11
1505.061611
 21
1548.439734
  0
LINE
  8
0
  6
CONTINUOUS
 62
1
 10
1490.274844
 20
1512.329277
 11
1493.259122
 21
1548.439734
  0
LINE
  8
0
  6
CONTINUOUS
 62
1
 10
1565.061611
 20
1548.439734
 11
1553.259122
 21
1548.439734
  0
LINE
  8
0
  6
CONTINUOUS
 62
1
 10
1568.045889
 20
1512.329277
 11
1565.061611
 21
1548.439734
  0
LINE
  8
0
  6
CONTINUOUS
 62
1
 10
1550.274844
 20
1512.329277
 11
1553.259122
 21
1548.439734
  0
LINE
  8
0
  6
CONTINUOUS
 62
1
 10
1625.061611
 20
1548.439734
 11
1613.259122
 21
1548.439734
  0
LINE
  8
0
  6
CONTINUOUS
 62
1
 10
1628.045889
 20
1512.329277
 11
1625.061611
 21
1548.439734
  0
LINE
  8
0
  6
CONTINUOUS
 62
1
 10
1610.274844
 20
1512.329277
 11
1613.259122
 21
1548.439734
  0
LINE
  8
0
  6
CONTINUOUS
 62
1
 10
1685.061611
 20
1548.439734
 11
1673.259122
 21
1548.439734
  0
LINE
  8
0
  6
CONTINUOUS
 62
1
 10
1688.045889
 20
1512.329277
 11
1685.061611
 21
1548.439734
  0
LINE
  8
0
  6
CONTINUOUS
 62
1
 10
1670.274844
 20
1512.329277
 11
1673.259122
 21
1548.439734
  0
LINE
  8
0
  6
CONTINUOUS
 62
1
 10
1730.274844
 20
1512.329277
 11
1733.259122
 21
1525.590744
  0
LINE
  8
0
  6
CONTINUOUS
 62
1
 10
1808.045889
 20
1512.329277
 11
1805.061611
 21
1525.590744
  0
LINE
  8
0
  6
CONTINUOUS
 62
1
 10
1790.274844
 20
1512.329277
 11
1793.259122
 21
1525.590744
  0
LINE
  8
0
  6
CONTINUOUS
 62
1
 10
1868.045889
 20
1512.329277
 11
1865.061611
 21
1525.590744
  0
LINE
  8
0
  6
CONTINUOUS
 62
1
 10
1850.274844
 20
1512.329277
 11
1853.259122
 21
1525.590744
  0
LINE
  8
0
  6
CONTINUOUS
 62
1
 10
1925.088888
 20
1512.499265
 11
1921.787259
 21
1525.590744
  0
LINE
  8
0
  6
CONTINUOUS
 62
1
 10
1910.274844
 20
1512.329277
 11
1913.259122
 21
1525.590744
  0
LINE
  8
0
  6
CONTINUOUS
 62
1
 10
1969.231845
 20
1512.499267
 11
1972.533474
 21
1525.590744
  0
LINE
  8
0
  6
CONTINUOUS
 62
1
 10
1733.259122
 20
1525.590744
 11
1745.061611
 21
1525.590744
  0
LINE
  8
0
  6
CONTINUOUS
 62
1
 10
1793.259122
 20
1525.590744
 11
1805.061611
 21
1525.590744
  0
LINE
  8
0
  6
CONTINUOUS
 62
1
 10
1853.259122
 20
1525.590744
 11
1865.061611
 21
1525.590744
  0
LINE
  8
0
  6
CONTINUOUS
 62
1
 10
1913.259122
 20
1525.590744
 11
1921.787259
 21
1525.590744
  0
LINE
  8
0
  6
CONTINUOUS
 62
1
 10
1972.533474
 20
1525.590744
 11
1976.660367
 21
1525.590744
  0
LINE
  8
0
  6
CONTINUOUS
 62
1
 10
1081.660367
 20
1525.590744
 11
1087.644671
 21
1525.590744
  0
LINE
  8
0
  6
CONTINUOUS
 62
1
 10
1136.359090
 20
1525.590744
 11
1145.061611
 21
1525.590744
  0
LINE
  8
0
  6
CONTINUOUS
 62
1
 10
1193.259122
 20
1525.590744
 11
1205.061611
 21
1525.590744
  0
LINE
  8
0
  6
CONTINUOUS
 62
1
 10
1253.259122
 20
1525.590744
 11
1265.061611
 21
1525.590744
  0
LINE
  8
0
  6
CONTINUOUS
 62
1
 10
1313.259122
 20
1525.590744
 11
1325.061611
 21
1525.590744
  0
LINE
  8
0
  6
CONTINUOUS
 62
1
 10
1148.045889
 20
1512.329277
 11
1145.061611
 21
1525.590744
  0
LINE
  8
0
  6
CONTINUOUS
 62
1
 10
1745.061611
 20
1525.590744
 11
1748.045889
 21
1512.329277
  0
LINE
  8
0
  6
CONTINUOUS
 62
1
 10
1179.160367
 20
772.091599
 11
1179.160367
 21
1322.584030
  0
LINE
  8
0
  6
CONTINUOUS
 62
1
 10
1879.160367
 20
1322.584030
 11
1879.160367
 21
772.091599
  0
LINE
  8
0
  6
CONTINUOUS
 62
1
 10
1879.160367
 20
807.091599
 11
1179.160367
 21
807.091599
  0
LINE
  8
0
  6
CONTINUOUS
 62
1
 10
1879.160367
 20
1084.591599
 11
1179.160367
 21
1084.591599
  0
LINE
  8
0
  6
CONTINUOUS
 62
1
 10
1879.160367
 20
1049.591599
 11
1179.160367
 21
1049.591599
  0
LINE
  8
0
  6
CONTINUOUS
 62
1
 10
1979.160367
 20
1322.584030
 11
1079.160367
 21
1322.584030
  0
LINE
  8
0
  6
CONTINUOUS
 62
1
 10
1979.160367
 20
1347.584030
 11
1079.160367
 21
1347.584030
  0
LINE
  8
0
  6
CONTINUOUS
 62
1
 10
1979.160367
 20
1462.091599
 11
1079.160367
 21
1462.091599
  0
ENDSEC
  0
EOF
