  0
SECTION
  2
HEADER
  9
$LIMMIN
 10
0.000000
 20
0.000000
  9
$LIMMAX
 10
3500.000000
 20
2500.000000
  9
$EXTMIN
 10
0.000000
 20
0.000000
  9
$EXTMAX
 10
3500.000000
 20
2500.000000
  9
$ANGBASE
 50
0.0
  9
$ANGDIR
 70
0
  9
$DIMRND
 40
0.100000
  9
$DIMSE1
 70
0
  9
$DIMSE2
 70
0
  9
$DIMTXT
 40
3.500000
  9
$LTSCALE
 40
1.000000
  9
$LUPREC
 70
5
  9
$AUPREC
 70
5
  9
$PDMODE
 70
2
  9
$PDSIZE
 40
17.500000
  0
ENDSEC
  0
SECTION
  2
TABLES
  0
TABLE
  2
VPORT
  70
1
  0
VPORT
  2
*ACTIVE
 70
0
  10
0.0
 20
0.0
 11
1.0
 21
1.0
 12
594.0
 22
420.0
 13
0.0
 23
0.0
 14
10.0
 24
10.0
 15
10.0
 25
10.0
 16
0.0
 26
0.0
 36
1.0
 17
594.0
 27
420.0
 37
100.0
 40
1000.0
 41
1.0
 42
50.0
 43
0.0
 44
0.0
 50
0.0
 51
0.0
 71
0
 72
2000
 73
1
 74
3
 75
0
 76
0
 77
0
 78
1
  0
ENDTAB
  0
TABLE
  2
LTYPE
 70
4
  0
LTYPE
  2
CONTINUOUS
 70
0
  3
Solid line
 72
65
 73
0
 40
0.0
  0
LTYPE
  2
DASHED
 70
0
  3
Dashed line
 72
65
 73
2
 40
6.000000
 49
3.000000
 49
-3.000000
  0
LTYPE
  2
CENTER
 70
0
  3
Chain line
 72
65
 73
4
 40
24.000000
 49
15.000000
 49
-3.000000
 49
3.000000
 49
-3.000000
  0
LTYPE
  2
RANDOM
 70
0
  3
Random line
 72
65
 73
4
 40
22.500000
 49
6.000000
 49
-3.000000
 49
4.500000
 49
-9.000000
  0
ENDTAB
  0
TABLE
  2
STYLE
 70
9
  0
STYLE
  2
STANDARD
 40
0
 41
1.0
 50
0.0
 71
0
 42
0
  3
simplex
  4

 70
0
  0
ENDTAB
  0
TABLE
  2
LAYER
 70
2
  0
LAYER
  2
0
 70
0
 62
7
  6
CONTINUOUS
  0
LAYER
  2
0
 62
1
  6
CONTINUOUS
 70
0
  0
ENDTAB
  0
ENDSEC
  0
SECTION
  2
BLOCKS
  0
ENDSEC
  0
SECTION
  2
ENTITIES
  0
LINE
  8
0
  6
CONTINUOUS
 62
1
 10
1057.759627
 20
1688.458576
 11
1057.759627
 21
751.458576
  0
LINE
  8
0
  6
CONTINUOUS
 62
1
 10
1957.759627
 20
796.458576
 11
1957.759627
 21
1688.458576
  0
LINE
  8
0
  6
CONTINUOUS
 62
1
 10
1957.759627
 20
1688.458576
 11
1057.759627
 21
1688.458576
  0
LINE
  8
0
  6
CONTINUOUS
 62
1
 10
1057.759627
 20
942.458576
 11
1957.759627
 21
942.458576
  0
LINE
  8
0
  6
CONTINUOUS
 62
1
 10
1957.759627
 20
967.458576
 11
1957.759627
 21
751.458576
  0
LINE
  8
0
  6
CONTINUOUS
 62
1
 10
1057.759627
 20
942.458576
 11
1957.759627
 21
942.458576
  0
LINE
  8
0
  6
CONTINUOUS
 62
1
 10
1957.759627
 20
1559.458576
 11
1957.759627
 21
942.458576
  0
LINE
  8
0
  6
CONTINUOUS
 62
1
 10
1954.759627
 20
1559.458576
 11
1957.759627
 21
1559.458576
  0
LINE
  8
0
  6
CONTINUOUS
 62
1
 10
1957.759627
 20
1559.458576
 11
1057.759627
 21
1559.458576
  0
LINE
  8
0
  6
CONTINUOUS
 62
1
 10
1057.759627
 20
1688.458576
 11
1957.759627
 21
1688.458576
  0
LINE
  8
0
  6
CONTINUOUS
 62
1
 10
1057.759627
 20
1688.458576
 11
1057.759627
 21
1534.458576
  0
LINE
  8
0
  6
CONTINUOUS
 62
1
 10
1957.759627
 20
1688.458576
 11
1957.759627
 21
1534.458576
  0
LINE
  8
0
  6
CONTINUOUS
 62
1
 10
1057.759627
 20
1559.458576
 11
1057.759627
 21
815.458576
  0
LINE
  8
0
  6
CONTINUOUS
 62
1
 10
1060.759627
 20
942.458576
 11
1057.759627
 21
942.458576
  0
LINE
  8
0
  6
CONTINUOUS
 62
1
 10
1060.759627
 20
1559.458576
 11
1057.759627
 21
1559.458576
  0
LINE
  8
0
  6
CONTINUOUS
 62
1
 10
1957.759627
 20
751.458576
 11
1057.759627
 21
751.458576
  0
LINE
  8
0
  6
CONTINUOUS
 62
1
 10
1955.759627
 20
1559.458576
 11
1059.759627
 21
1559.458576
  0
LINE
  8
0
  6
CONTINUOUS
 62
1
 10
1359.759627
 20
946.958551
 11
1655.759626
 21
946.958551
  0
LINE
  8
0
  6
CONTINUOUS
 62
1
 10
1359.759627
 20
946.958551
 11
1359.759627
 21
1554.958602
  0
LINE
  8
0
  6
CONTINUOUS
 62
1
 10
1393.439066
 20
993.247839
 11
1396.048871
 21
990.638001
  0
LINE
  8
0
  6
CONTINUOUS
 62
1
 10
1391.953714
 20
996.626613
 11
1393.439066
 21
993.247839
  0
LINE
  8
0
  6
CONTINUOUS
 62
1
 10
1391.795149
 20
1000.314056
 11
1391.953714
 21
996.626613
  0
LINE
  8
0
  6
CONTINUOUS
 62
1
 10
1391.795149
 20
1000.314056
 11
1392.985024
 21
1003.807856
  0
LINE
  8
0
  6
CONTINUOUS
 62
1
 10
1392.985024
 20
1003.807856
 11
1395.361190
 21
1006.632078
  0
LINE
  8
0
  6
CONTINUOUS
 62
1
 10
1409.433153
 20
992.560120
 11
1440.938945
 21
1031.066782
  0
LINE
  8
0
  6
CONTINUOUS
 62
1
 10
1406.608933
 20
990.183946
 11
1409.433153
 21
992.560120
  0
LINE
  8
0
  6
CONTINUOUS
 62
1
 10
1403.115098
 20
988.994089
 11
1406.608933
 21
990.183946
  0
LINE
  8
0
  6
CONTINUOUS
 62
1
 10
1399.427654
 20
989.152648
 11
1403.115098
 21
988.994089
  0
LINE
  8
0
  6
CONTINUOUS
 62
1
 10
1396.048871
 20
990.638001
 11
1399.427654
 21
989.152648
  0
LINE
  8
0
  6
CONTINUOUS
 62
1
 10
1497.975143
 20
952.058555
 11
1517.544110
 21
952.058555
  0
LINE
  8
0
  6
CONTINUOUS
 62
1
 10
1497.871997
 20
949.665026
 11
1497.925583
 21
948.523027
  0
LINE
  8
0
  6
CONTINUOUS
 62
1
 10
1517.593670
 20
948.523027
 11
1517.647257
 21
949.665026
  0
LINE
  8
0
  6
CONTINUOUS
 62
1
 10
1517.193577
 20
947.060684
 11
1517.593670
 21
948.523027
  0
LINE
  8
0
  6
CONTINUOUS
 62
1
 10
1497.925583
 20
948.523027
 11
1498.325607
 21
947.060684
  0
LINE
  8
0
  6
CONTINUOUS
 62
1
 10
1512.759620
 20
1063.058561
 11
1517.647257
 21
949.665026
  0
LINE
  8
0
  6
CONTINUOUS
 62
1
 10
1497.871997
 20
949.665026
 11
1502.759616
 21
1063.058561
  0
LINE
  8
0
  6
CONTINUOUS
 62
1
 10
1499.590738
 20
989.541212
 11
1499.593054
 21
989.593819
  0
LINE
  8
0
  6
CONTINUOUS
 62
1
 10
1514.899831
 20
1013.405719
 11
1519.783786
 21
1013.725830
  0
LINE
  8
0
  6
CONTINUOUS
 62
1
 10
1495.735449
 20
1013.725830
 11
1500.619388
 21
1013.405727
  0
LINE
  8
0
  6
CONTINUOUS
 62
1
 10
1515.932904
 20
989.437883
 11
1515.937241
 21
989.338165
  0
LINE
  8
0
  6
CONTINUOUS
 62
1
 10
1492.585149
 20
989.796762
 11
1499.582012
 21
989.338165
  0
LINE
  8
0
  6
CONTINUOUS
 62
1
 10
1515.937241
 20
989.338165
 11
1522.934122
 21
989.796762
  0
LINE
  8
0
  6
CONTINUOUS
 62
1
 10
1522.934139
 20
989.796762
 11
1537.848979
 21
992.763512
  0
LINE
  8
0
  6
CONTINUOUS
 62
1
 10
1477.670274
 20
992.763512
 11
1492.585131
 21
989.796762
  0
LINE
  8
0
  6
CONTINUOUS
 62
1
 10
1463.270251
 20
997.651668
 11
1477.670274
 21
992.763512
  0
LINE
  8
0
  6
CONTINUOUS
 62
1
 10
1449.631446
 20
1004.377580
 11
1463.270251
 21
997.651668
  0
LINE
  8
0
  6
CONTINUOUS
 62
1
 10
1436.987249
 20
1012.826151
 11
1449.631446
 21
1004.377580
  0
LINE
  8
0
  6
CONTINUOUS
 62
1
 10
1430.713120
 20
1018.568688
 11
1437.143291
 21
1012.929560
  0
LINE
  8
0
  6
CONTINUOUS
 62
1
 10
1537.782640
 20
992.911160
 11
1552.150919
 21
997.788525
  0
LINE
  8
0
  6
CONTINUOUS
 62
1
 10
1515.930519
 20
989.494109
 11
1522.900667
 21
989.950957
  0
LINE
  8
0
  6
CONTINUOUS
 62
1
 10
1463.368334
 20
997.788525
 11
1477.736561
 21
992.911176
  0
LINE
  8
0
  6
CONTINUOUS
 62
1
 10
1449.759667
 20
1004.499611
 11
1463.368300
 21
997.788541
  0
LINE
  8
0
  6
CONTINUOUS
 62
1
 10
1430.598638
 20
1018.428766
 11
1436.987231
 21
1012.826167
  0
LINE
  8
0
  6
CONTINUOUS
 62
1
 10
1437.063455
 20
1012.925492
 11
1449.694018
 21
1004.486004
  0
LINE
  8
0
  6
CONTINUOUS
 62
1
 10
1449.694018
 20
1004.486004
 11
1463.318152
 21
997.767328
  0
LINE
  8
0
  6
CONTINUOUS
 62
1
 10
1463.318152
 20
997.767328
 11
1477.702674
 21
992.884444
  0
LINE
  8
0
  6
CONTINUOUS
 62
1
 10
1477.702674
 20
992.884444
 11
1492.601479
 21
989.920886
  0
LINE
  8
0
  6
CONTINUOUS
 62
1
 10
1492.601479
 20
989.920886
 11
1499.587403
 21
989.463004
  0
LINE
  8
0
  6
CONTINUOUS
 62
1
 10
1515.931850
 20
989.463004
 11
1522.917757
 21
989.920886
  0
LINE
  8
0
  6
CONTINUOUS
 62
1
 10
1522.917757
 20
989.920886
 11
1537.816561
 21
992.884444
  0
LINE
  8
0
  6
CONTINUOUS
 62
1
 10
1522.900667
 20
989.950957
 11
1537.782640
 21
992.911160
  0
LINE
  8
0
  6
CONTINUOUS
 62
1
 10
1492.618569
 20
989.950957
 11
1499.588751
 21
989.494109
  0
LINE
  8
0
  6
CONTINUOUS
 62
1
 10
1477.736613
 20
992.911160
 11
1492.618569
 21
989.950957
  0
LINE
  8
0
  6
CONTINUOUS
 62
1
 10
1463.368334
 20
997.788525
 11
1477.736613
 21
992.911160
  0
LINE
  8
0
  6
CONTINUOUS
 62
1
 10
1449.759632
 20
1004.499619
 11
1463.368334
 21
997.788525
  0
LINE
  8
0
  6
CONTINUOUS
 62
1
 10
1437.143291
 20
1012.929560
 11
1449.759632
 21
1004.499619
  0
LINE
  8
0
  6
CONTINUOUS
 62
1
 10
1498.325607
 20
947.060684
 11
1517.193577
 21
947.060684
  0
LINE
  8
0
  6
CONTINUOUS
 62
1
 10
1369.759623
 20
956.958552
 11
1498.186344
 21
956.958552
  0
LINE
  8
0
  6
CONTINUOUS
 62
1
 10
1359.759627
 20
1114.391972
 11
1361.224105
 21
1114.792611
  0
LINE
  8
0
  6
CONTINUOUS
 62
1
 10
1361.224105
 20
1114.792611
 11
1362.253463
 21
1114.840925
  0
LINE
  8
0
  6
CONTINUOUS
 62
1
 10
1361.224105
 20
1095.124521
 11
1362.253463
 21
1095.076190
  0
LINE
  8
0
  6
CONTINUOUS
 62
1
 10
1359.759627
 20
1095.525143
 11
1361.224105
 21
1095.124521
  0
LINE
  8
0
  6
CONTINUOUS
 62
1
 10
1362.253463
 20
1114.840925
 11
1465.759629
 21
1109.958554
  0
LINE
  8
0
  6
CONTINUOUS
 62
1
 10
1362.253463
 20
1095.076190
 11
1465.759629
 21
1099.958561
  0
LINE
  8
0
  6
CONTINUOUS
 62
1
 10
1392.052298
 20
1113.435305
 11
1392.497847
 21
1120.233064
  0
LINE
  8
0
  6
CONTINUOUS
 62
1
 10
1392.065388
 20
1096.482436
 11
1392.497847
 21
1089.884066
  0
LINE
  8
0
  6
CONTINUOUS
 62
1
 10
1392.497847
 20
1120.233064
 11
1395.464587
 21
1135.147921
  0
LINE
  8
0
  6
CONTINUOUS
 62
1
 10
1392.497847
 20
1089.884066
 11
1395.464587
 21
1074.969192
  0
LINE
  8
0
  6
CONTINUOUS
 62
1
 10
1392.314433
 20
1113.422950
 11
1392.751998
 21
1120.099593
  0
LINE
  8
0
  6
CONTINUOUS
 62
1
 10
1392.314424
 20
1096.494182
 11
1392.751998
 21
1089.817523
  0
LINE
  8
0
  6
CONTINUOUS
 62
1
 10
1392.751998
 20
1089.817523
 11
1395.712198
 21
1074.935544
  0
LINE
  8
0
  6
CONTINUOUS
 62
1
 10
1392.751998
 20
1120.099609
 11
1392.771404
 21
1120.197057
  0
LINE
  8
0
  6
CONTINUOUS
 62
1
 10
1392.751998
 20
1120.099593
 11
1395.712198
 21
1134.981572
  0
LINE
  8
0
  6
CONTINUOUS
 62
1
 10
1392.621929
 20
1120.216729
 11
1395.585498
 21
1135.115508
  0
LINE
  8
0
  6
CONTINUOUS
 62
1
 10
1392.177114
 20
1113.429432
 11
1392.621929
 21
1120.216729
  0
LINE
  8
0
  6
CONTINUOUS
 62
1
 10
1392.190144
 20
1096.488309
 11
1392.621929
 21
1089.900417
  0
LINE
  8
0
  6
CONTINUOUS
 62
1
 10
1392.621929
 20
1089.900417
 11
1395.585498
 21
1075.001605
  0
LINE
  8
0
  6
CONTINUOUS
 62
1
 10
1392.314390
 20
1096.494182
 11
1392.751998
 21
1089.817523
  0
LINE
  8
0
  6
CONTINUOUS
 62
1
 10
1369.759623
 20
956.958552
 11
1369.759623
 21
1095.430263
  0
LINE
  8
0
  6
CONTINUOUS
 62
1
 10
1465.759629
 20
1099.958561
 11
1465.759629
 21
1109.958554
  0
LINE
  8
0
  6
CONTINUOUS
 62
1
 10
1433.867845
 20
1038.137869
 11
1440.938945
 21
1031.066782
  0
LINE
  8
0
  6
CONTINUOUS
 62
1
 10
1395.361190
 20
1006.632078
 11
1433.867845
 21
1038.137869
  0
LINE
  8
0
  6
CONTINUOUS
 62
1
 10
1502.759616
 20
1063.058561
 11
1512.759620
 21
1063.058561
  0
LINE
  8
0
  6
CONTINUOUS
 62
1
 10
1502.759616
 20
1146.958570
 11
1512.759620
 21
1146.958570
  0
LINE
  8
0
  6
CONTINUOUS
 62
1
 10
1443.167769
 20
1093.791734
 11
1443.883644
 21
1093.649325
  0
LINE
  8
0
  6
CONTINUOUS
 62
1
 10
1439.274636
 20
1096.393011
 11
1443.167769
 21
1093.791734
  0
LINE
  8
0
  6
CONTINUOUS
 62
1
 10
1437.774267
 20
1098.638499
 11
1439.274636
 21
1096.393011
  0
LINE
  8
0
  6
CONTINUOUS
 62
1
 10
1437.878243
 20
1111.273723
 11
1439.274636
 21
1113.363579
  0
LINE
  8
0
  6
CONTINUOUS
 62
1
 10
1439.274636
 20
1113.363579
 11
1443.167769
 21
1115.964840
  0
LINE
  8
0
  6
CONTINUOUS
 62
1
 10
1443.167769
 20
1115.964840
 11
1443.809010
 21
1116.092391
  0
LINE
  8
0
  6
CONTINUOUS
 62
1
 10
1532.639254
 20
1044.993795
 11
1540.266454
 21
1048.755091
  0
LINE
  8
0
  6
CONTINUOUS
 62
1
 10
1524.586403
 20
1042.260202
 11
1532.639254
 21
1044.993795
  0
LINE
  8
0
  6
CONTINUOUS
 62
1
 10
1516.245593
 20
1040.601118
 11
1524.586403
 21
1042.260202
  0
LINE
  8
0
  6
CONTINUOUS
 62
1
 10
1513.734701
 20
1040.436550
 11
1516.245593
 21
1040.601118
  0
LINE
  8
0
  6
CONTINUOUS
 62
1
 10
1499.273661
 20
1040.601118
 11
1501.784518
 21
1040.436550
  0
LINE
  8
0
  6
CONTINUOUS
 62
1
 10
1490.932833
 20
1042.260202
 11
1499.273661
 21
1040.601118
  0
LINE
  8
0
  6
CONTINUOUS
 62
1
 10
1482.879982
 20
1044.993795
 11
1490.932833
 21
1042.260202
  0
LINE
  8
0
  6
CONTINUOUS
 62
1
 10
1475.252782
 20
1048.755091
 11
1482.879982
 21
1044.993795
  0
LINE
  8
0
  6
CONTINUOUS
 62
1
 10
1468.181803
 20
1053.479761
 11
1475.252782
 21
1048.755091
  0
LINE
  8
0
  6
CONTINUOUS
 62
1
 10
1461.788008
 20
1059.086981
 11
1468.181803
 21
1053.479761
  0
LINE
  8
0
  6
CONTINUOUS
 62
1
 10
1456.180834
 20
1065.480764
 11
1461.788008
 21
1059.086981
  0
LINE
  8
0
  6
CONTINUOUS
 62
1
 10
1451.456151
 20
1072.551739
 11
1456.180834
 21
1065.480764
  0
LINE
  8
0
  6
CONTINUOUS
 62
1
 10
1447.694868
 20
1080.178919
 11
1451.456151
 21
1072.551739
  0
LINE
  8
0
  6
CONTINUOUS
 62
1
 10
1444.961283
 20
1088.231802
 11
1447.694868
 21
1080.178919
  0
LINE
  8
0
  6
CONTINUOUS
 62
1
 10
1443.883644
 20
1093.649325
 11
1444.961283
 21
1088.231802
  0
LINE
  8
0
  6
CONTINUOUS
 62
1
 10
1443.809010
 20
1116.092391
 11
1444.961283
 21
1121.885328
  0
LINE
  8
0
  6
CONTINUOUS
 62
1
 10
1444.961283
 20
1121.885328
 11
1447.694868
 21
1129.938211
  0
LINE
  8
0
  6
CONTINUOUS
 62
1
 10
1447.694868
 20
1129.938211
 11
1451.456151
 21
1137.565375
  0
LINE
  8
0
  6
CONTINUOUS
 62
1
 10
1451.456151
 20
1137.565375
 11
1456.180834
 21
1144.636366
  0
LINE
  8
0
  6
CONTINUOUS
 62
1
 10
1456.180834
 20
1144.636366
 11
1461.788008
 21
1151.030149
  0
LINE
  8
0
  6
CONTINUOUS
 62
1
 10
1416.113474
 20
1112.300367
 11
1416.426854
 21
1117.082754
  0
LINE
  8
0
  6
CONTINUOUS
 62
1
 10
1416.126487
 20
1097.617391
 11
1416.426854
 21
1093.034375
  0
LINE
  8
0
  6
CONTINUOUS
 62
1
 10
1418.777747
 20
1128.901185
 11
1422.651042
 21
1140.311676
  0
LINE
  8
0
  6
CONTINUOUS
 62
1
 10
1422.651042
 20
1140.311676
 11
1427.980625
 21
1151.118980
  0
LINE
  8
0
  6
CONTINUOUS
 62
1
 10
1531.602275
 20
1016.076652
 11
1543.012739
 21
1019.950014
  0
LINE
  8
0
  6
CONTINUOUS
 62
1
 10
1519.783786
 20
1013.725830
 11
1531.602275
 21
1016.076652
  0
LINE
  8
0
  6
CONTINUOUS
 62
1
 10
1483.916978
 20
1016.076652
 11
1495.735449
 21
1013.725830
  0
LINE
  8
0
  6
CONTINUOUS
 62
1
 10
1472.506514
 20
1019.950014
 11
1483.916978
 21
1016.076652
  0
LINE
  8
0
  6
CONTINUOUS
 62
1
 10
1461.699204
 20
1025.279573
 11
1472.506514
 21
1019.950014
  0
LINE
  8
0
  6
CONTINUOUS
 62
1
 10
1451.680036
 20
1031.974187
 11
1461.699204
 21
1025.279573
  0
LINE
  8
0
  6
CONTINUOUS
 62
1
 10
1442.620344
 20
1039.919288
 11
1451.680036
 21
1031.974187
  0
LINE
  8
0
  6
CONTINUOUS
 62
1
 10
1434.675271
 20
1048.978950
 11
1442.620344
 21
1039.919288
  0
LINE
  8
0
  6
CONTINUOUS
 62
1
 10
1427.980625
 20
1058.998134
 11
1434.675271
 21
1048.978950
  0
LINE
  8
0
  6
CONTINUOUS
 62
1
 10
1416.426854
 20
1093.034375
 11
1418.777747
 21
1081.215929
  0
LINE
  8
0
  6
CONTINUOUS
 62
1
 10
1416.426854
 20
1117.082754
 11
1418.777747
 21
1128.901185
  0
LINE
  8
0
  6
CONTINUOUS
 62
1
 10
1422.651042
 20
1069.805437
 11
1427.980625
 21
1058.998134
  0
LINE
  8
0
  6
CONTINUOUS
 62
1
 10
1418.777747
 20
1081.215929
 11
1422.651042
 21
1069.805437
  0
LINE
  8
0
  6
CONTINUOUS
 62
1
 10
1415.527220
 20
1034.286138
 11
1421.222697
 21
1027.791714
  0
LINE
  8
0
  6
CONTINUOUS
 62
1
 10
1395.464587
 20
1135.147937
 11
1400.352707
 21
1149.547941
  0
LINE
  8
0
  6
CONTINUOUS
 62
1
 10
1407.078649
 20
1046.930363
 11
1415.527203
 21
1034.286170
  0
LINE
  8
0
  6
CONTINUOUS
 62
1
 10
1400.352707
 20
1060.569173
 11
1407.078649
 21
1046.930379
  0
LINE
  8
0
  6
CONTINUOUS
 62
1
 10
1395.464604
 20
1074.969160
 11
1400.352707
 21
1060.569173
  0
LINE
  8
0
  6
CONTINUOUS
 62
1
 10
1415.730627
 20
1034.342235
 11
1421.369736
 21
1027.912044
  0
LINE
  8
0
  6
CONTINUOUS
 62
1
 10
1407.300702
 20
1046.958556
 11
1415.730627
 21
1034.342235
  0
LINE
  8
0
  6
CONTINUOUS
 62
1
 10
1400.559865
 20
1060.654955
 11
1400.589587
 21
1060.567280
  0
LINE
  8
0
  6
CONTINUOUS
 62
1
 10
1395.712198
 20
1074.935544
 11
1400.589587
 21
1060.567280
  0
LINE
  8
0
  6
CONTINUOUS
 62
1
 10
1395.712198
 20
1134.981588
 11
1400.589587
 21
1149.349868
  0
LINE
  8
0
  6
CONTINUOUS
 62
1
 10
1395.585498
 20
1135.115508
 11
1400.468365
 21
1149.500027
  0
LINE
  8
0
  6
CONTINUOUS
 62
1
 10
1395.712198
 20
1134.981572
 11
1400.589587
 21
1149.349868
  0
LINE
  8
0
  6
CONTINUOUS
 62
1
 10
1395.585498
 20
1075.001605
 11
1400.468365
 21
1060.617087
  0
LINE
  8
0
  6
CONTINUOUS
 62
1
 10
1400.468365
 20
1060.617087
 11
1407.187049
 21
1046.992959
  0
LINE
  8
0
  6
CONTINUOUS
 62
1
 10
1407.187049
 20
1046.992959
 11
1415.626565
 21
1034.362373
  0
LINE
  8
0
  6
CONTINUOUS
 62
1
 10
1415.626565
 20
1034.362373
 11
1421.319433
 21
1027.870885
  0
LINE
  8
0
  6
CONTINUOUS
 62
1
 10
1400.589587
 20
1060.567280
 11
1407.300702
 21
1046.958556
  0
LINE
  8
0
  6
CONTINUOUS
 62
1
 10
1430.677782
 20
1018.525540
 11
1437.063455
 21
1012.925492
  0
LINE
  8
0
  6
CONTINUOUS
 62
1
 10
1430.713120
 20
1018.568688
 11
1437.143291
 21
1012.929560
  0
LINE
  8
0
  6
CONTINUOUS
 62
1
 10
1620.158055
 20
1006.632078
 11
1622.534212
 21
1003.807856
  0
LINE
  8
0
  6
CONTINUOUS
 62
1
 10
1622.534212
 20
1003.807856
 11
1623.724104
 21
1000.314056
  0
LINE
  8
0
  6
CONTINUOUS
 62
1
 10
1623.565540
 20
996.626613
 11
1623.724104
 21
1000.314056
  0
LINE
  8
0
  6
CONTINUOUS
 62
1
 10
1622.080187
 20
993.247839
 11
1623.565540
 21
996.626613
  0
LINE
  8
0
  6
CONTINUOUS
 62
1
 10
1619.470330
 20
990.638001
 11
1622.080187
 21
993.247839
  0
LINE
  8
0
  6
CONTINUOUS
 62
1
 10
1616.091599
 20
989.152648
 11
1619.470330
 21
990.638001
  0
LINE
  8
0
  6
CONTINUOUS
 62
1
 10
1612.404103
 20
988.994089
 11
1616.091599
 21
989.152648
  0
LINE
  8
0
  6
CONTINUOUS
 62
1
 10
1608.910320
 20
990.183946
 11
1612.404103
 21
988.994089
  0
LINE
  8
0
  6
CONTINUOUS
 62
1
 10
1606.086083
 20
992.560120
 11
1608.910320
 21
990.183946
  0
LINE
  8
0
  6
CONTINUOUS
 62
1
 10
1574.580308
 20
1031.066782
 11
1606.086083
 21
992.560120
  0
LINE
  8
0
  6
CONTINUOUS
 62
1
 10
1565.887790
 20
1004.377580
 11
1578.532022
 21
1012.826167
  0
LINE
  8
0
  6
CONTINUOUS
 62
1
 10
1552.249002
 20
997.651668
 11
1565.887790
 21
1004.377580
  0
LINE
  8
0
  6
CONTINUOUS
 62
1
 10
1537.848979
 20
992.763512
 11
1552.249002
 21
997.651668
  0
LINE
  8
0
  6
CONTINUOUS
 62
1
 10
1578.375945
 20
1012.929560
 11
1584.806116
 21
1018.568688
  0
LINE
  8
0
  6
CONTINUOUS
 62
1
 10
1565.759638
 20
1004.499619
 11
1578.375945
 21
1012.929560
  0
LINE
  8
0
  6
CONTINUOUS
 62
1
 10
1552.150919
 20
997.788525
 11
1565.759638
 21
1004.499619
  0
LINE
  8
0
  6
CONTINUOUS
 62
1
 10
1537.816561
 20
992.884444
 11
1552.201101
 21
997.767328
  0
LINE
  8
0
  6
CONTINUOUS
 62
1
 10
1552.201101
 20
997.767328
 11
1565.825235
 21
1004.486004
  0
LINE
  8
0
  6
CONTINUOUS
 62
1
 10
1565.825235
 20
1004.486004
 11
1578.455781
 21
1012.925492
  0
LINE
  8
0
  6
CONTINUOUS
 62
1
 10
1537.782640
 20
992.911160
 11
1552.150919
 21
997.788525
  0
LINE
  8
0
  6
CONTINUOUS
 62
1
 10
1517.332875
 20
956.958552
 11
1645.759605
 21
956.958552
  0
LINE
  8
0
  6
CONTINUOUS
 62
1
 10
1581.651408
 20
1038.137869
 11
1620.158055
 21
1006.632078
  0
LINE
  8
0
  6
CONTINUOUS
 62
1
 10
1574.580308
 20
1031.066782
 11
1581.651408
 21
1038.137869
  0
LINE
  8
0
  6
CONTINUOUS
 62
1
 10
1549.759624
 20
1099.958561
 11
1549.759624
 21
1109.958554
  0
LINE
  8
0
  6
CONTINUOUS
 62
1
 10
1653.265790
 20
1114.840925
 11
1654.295148
 21
1114.792611
  0
LINE
  8
0
  6
CONTINUOUS
 62
1
 10
1654.295148
 20
1114.792611
 11
1655.759626
 21
1114.391972
  0
LINE
  8
0
  6
CONTINUOUS
 62
1
 10
1654.295148
 20
1095.124521
 11
1655.759626
 21
1095.525143
  0
LINE
  8
0
  6
CONTINUOUS
 62
1
 10
1653.265790
 20
1095.076190
 11
1654.295148
 21
1095.124521
  0
LINE
  8
0
  6
CONTINUOUS
 62
1
 10
1549.759624
 20
1109.958554
 11
1653.265790
 21
1114.840925
  0
LINE
  8
0
  6
CONTINUOUS
 62
1
 10
1549.759624
 20
1099.958561
 11
1653.265790
 21
1095.076190
  0
LINE
  8
0
  6
CONTINUOUS
 62
1
 10
1553.731176
 20
1151.030149
 11
1559.338419
 21
1144.636366
  0
LINE
  8
0
  6
CONTINUOUS
 62
1
 10
1559.338419
 20
1144.636366
 11
1564.063085
 21
1137.565375
  0
LINE
  8
0
  6
CONTINUOUS
 62
1
 10
1564.063085
 20
1137.565375
 11
1567.824368
 21
1129.938211
  0
LINE
  8
0
  6
CONTINUOUS
 62
1
 10
1567.824368
 20
1129.938211
 11
1570.557953
 21
1121.885328
  0
LINE
  8
0
  6
CONTINUOUS
 62
1
 10
1570.557953
 20
1121.885328
 11
1572.217077
 21
1113.544547
  0
LINE
  8
0
  6
CONTINUOUS
 62
1
 10
1572.217077
 20
1113.544547
 11
1572.382174
 21
1111.025666
  0
LINE
  8
0
  6
CONTINUOUS
 62
1
 10
1572.217077
 20
1096.572567
 11
1572.369110
 21
1098.892091
  0
LINE
  8
0
  6
CONTINUOUS
 62
1
 10
1570.557953
 20
1088.231802
 11
1572.217077
 21
1096.572567
  0
LINE
  8
0
  6
CONTINUOUS
 62
1
 10
1567.824368
 20
1080.178919
 11
1570.557953
 21
1088.231802
  0
LINE
  8
0
  6
CONTINUOUS
 62
1
 10
1564.063085
 20
1072.551739
 11
1567.824368
 21
1080.178919
  0
LINE
  8
0
  6
CONTINUOUS
 62
1
 10
1559.338419
 20
1065.480764
 11
1564.063085
 21
1072.551739
  0
LINE
  8
0
  6
CONTINUOUS
 62
1
 10
1553.731176
 20
1059.086981
 11
1559.338419
 21
1065.480764
  0
LINE
  8
0
  6
CONTINUOUS
 62
1
 10
1547.337433
 20
1053.479761
 11
1553.731176
 21
1059.086981
  0
LINE
  8
0
  6
CONTINUOUS
 62
1
 10
1540.266454
 20
1048.755091
 11
1547.337433
 21
1053.479761
  0
LINE
  8
0
  6
CONTINUOUS
 62
1
 10
1596.741506
 20
1128.901185
 11
1599.092330
 21
1117.082754
  0
LINE
  8
0
  6
CONTINUOUS
 62
1
 10
1592.868211
 20
1069.805437
 11
1596.741506
 21
1081.215929
  0
LINE
  8
0
  6
CONTINUOUS
 62
1
 10
1587.538629
 20
1058.998134
 11
1592.868211
 21
1069.805437
  0
LINE
  8
0
  6
CONTINUOUS
 62
1
 10
1580.843965
 20
1048.978950
 11
1587.538629
 21
1058.998134
  0
LINE
  8
0
  6
CONTINUOUS
 62
1
 10
1553.820032
 20
1025.279573
 11
1563.839200
 21
1031.974187
  0
LINE
  8
0
  6
CONTINUOUS
 62
1
 10
1543.012739
 20
1019.950014
 11
1553.820032
 21
1025.279573
  0
LINE
  8
0
  6
CONTINUOUS
 62
1
 10
1563.839200
 20
1031.974187
 11
1572.898892
 21
1039.919288
  0
LINE
  8
0
  6
CONTINUOUS
 62
1
 10
1572.898892
 20
1039.919288
 11
1580.843965
 21
1048.978950
  0
LINE
  8
0
  6
CONTINUOUS
 62
1
 10
1599.092330
 20
1093.034375
 11
1599.392767
 21
1097.617375
  0
LINE
  8
0
  6
CONTINUOUS
 62
1
 10
1599.092330
 20
1117.082754
 11
1599.405796
 21
1112.300367
  0
LINE
  8
0
  6
CONTINUOUS
 62
1
 10
1587.538629
 20
1151.118980
 11
1592.868211
 21
1140.311676
  0
LINE
  8
0
  6
CONTINUOUS
 62
1
 10
1592.868211
 20
1140.311676
 11
1596.741506
 21
1128.901185
  0
LINE
  8
0
  6
CONTINUOUS
 62
1
 10
1596.741506
 20
1081.215929
 11
1599.092330
 21
1093.034375
  0
LINE
  8
0
  6
CONTINUOUS
 62
1
 10
1584.841471
 20
1018.525540
 11
1584.920581
 21
1018.428798
  0
LINE
  8
0
  6
CONTINUOUS
 62
1
 10
1623.021415
 20
1089.884146
 11
1623.453874
 21
1096.482420
  0
LINE
  8
0
  6
CONTINUOUS
 62
1
 10
1578.532056
 20
1012.826191
 11
1584.920581
 21
1018.428798
  0
LINE
  8
0
  6
CONTINUOUS
 62
1
 10
1594.296573
 20
1027.791730
 11
1599.991981
 21
1034.286170
  0
LINE
  8
0
  6
CONTINUOUS
 62
1
 10
1623.021415
 20
1120.233064
 11
1623.466938
 21
1113.435321
  0
LINE
  8
0
  6
CONTINUOUS
 62
1
 10
1615.166477
 20
1149.547877
 11
1620.054649
 21
1135.147921
  0
LINE
  8
0
  6
CONTINUOUS
 62
1
 10
1620.054649
 20
1135.147809
 11
1623.021415
 21
1120.233064
  0
LINE
  8
0
  6
CONTINUOUS
 62
1
 10
1620.054649
 20
1074.969192
 11
1623.021415
 21
1089.884066
  0
LINE
  8
0
  6
CONTINUOUS
 62
1
 10
1615.166477
 20
1060.569173
 11
1620.054649
 21
1074.969192
  0
LINE
  8
0
  6
CONTINUOUS
 62
1
 10
1608.440639
 20
1046.930476
 11
1615.166477
 21
1060.569173
  0
LINE
  8
0
  6
CONTINUOUS
 62
1
 10
1599.991981
 20
1034.286170
 11
1608.440604
 21
1046.930379
  0
LINE
  8
0
  6
CONTINUOUS
 62
1
 10
1622.767255
 20
1089.817523
 11
1623.204829
 21
1096.494166
  0
LINE
  8
0
  6
CONTINUOUS
 62
1
 10
1622.767255
 20
1120.099593
 11
1623.204829
 21
1113.422966
  0
LINE
  8
0
  6
CONTINUOUS
 62
1
 10
1614.929666
 20
1060.567280
 11
1619.806986
 21
1074.935544
  0
LINE
  8
0
  6
CONTINUOUS
 62
1
 10
1614.929666
 20
1060.567280
 11
1614.959389
 21
1060.654955
  0
LINE
  8
0
  6
CONTINUOUS
 62
1
 10
1599.788626
 20
1034.342235
 11
1608.218551
 21
1046.958556
  0
LINE
  8
0
  6
CONTINUOUS
 62
1
 10
1619.806986
 20
1134.981572
 11
1622.767255
 21
1120.099593
  0
LINE
  8
0
  6
CONTINUOUS
 62
1
 10
1622.747832
 20
1120.197057
 11
1622.767255
 21
1120.099593
  0
LINE
  8
0
  6
CONTINUOUS
 62
1
 10
1619.806986
 20
1074.935544
 11
1622.767255
 21
1089.817523
  0
LINE
  8
0
  6
CONTINUOUS
 62
1
 10
1578.455781
 20
1012.925492
 11
1584.841471
 21
1018.525540
  0
LINE
  8
0
  6
CONTINUOUS
 62
1
 10
1594.199803
 20
1027.870885
 11
1599.892688
 21
1034.362373
  0
LINE
  8
0
  6
CONTINUOUS
 62
1
 10
1599.892688
 20
1034.362373
 11
1608.332187
 21
1046.992959
  0
LINE
  8
0
  6
CONTINUOUS
 62
1
 10
1608.332187
 20
1046.992959
 11
1615.050836
 21
1060.617087
  0
LINE
  8
0
  6
CONTINUOUS
 62
1
 10
1615.050836
 20
1060.617087
 11
1619.933755
 21
1075.001605
  0
LINE
  8
0
  6
CONTINUOUS
 62
1
 10
1619.933755
 20
1075.001605
 11
1622.897273
 21
1089.900417
  0
LINE
  8
0
  6
CONTINUOUS
 62
1
 10
1608.218551
 20
1046.958556
 11
1614.929666
 21
1060.567280
  0
LINE
  8
0
  6
CONTINUOUS
 62
1
 10
1594.149483
 20
1027.912076
 11
1599.788626
 21
1034.342235
  0
LINE
  8
0
  6
CONTINUOUS
 62
1
 10
1622.897273
 20
1089.900417
 11
1623.329109
 21
1096.488309
  0
LINE
  8
0
  6
CONTINUOUS
 62
1
 10
1622.897273
 20
1120.216729
 11
1623.342104
 21
1113.429432
  0
LINE
  8
0
  6
CONTINUOUS
 62
1
 10
1619.933755
 20
1135.115508
 11
1622.897273
 21
1120.216729
  0
LINE
  8
0
  6
CONTINUOUS
 62
1
 10
1614.929666
 20
1149.349868
 11
1619.806986
 21
1134.981572
  0
LINE
  8
0
  6
CONTINUOUS
 62
1
 10
1615.050836
 20
1149.500027
 11
1619.933755
 21
1135.115508
  0
LINE
  8
0
  6
CONTINUOUS
 62
1
 10
1655.759626
 20
946.958551
 11
1655.759626
 21
1554.958602
  0
LINE
  8
0
  6
CONTINUOUS
 62
1
 10
1645.759605
 20
956.958552
 11
1645.759605
 21
1095.430263
  0
LINE
  8
0
  6
CONTINUOUS
 62
1
 10
1393.439066
 20
1216.669276
 11
1396.048871
 21
1219.279138
  0
LINE
  8
0
  6
CONTINUOUS
 62
1
 10
1391.953714
 20
1213.290519
 11
1393.439066
 21
1216.669276
  0
LINE
  8
0
  6
CONTINUOUS
 62
1
 10
1391.795149
 20
1209.603067
 11
1391.953714
 21
1213.290519
  0
LINE
  8
0
  6
CONTINUOUS
 62
1
 10
1391.795149
 20
1209.603067
 11
1392.985024
 21
1206.109259
  0
LINE
  8
0
  6
CONTINUOUS
 62
1
 10
1392.985024
 20
1206.109259
 11
1395.361190
 21
1203.285054
  0
LINE
  8
0
  6
CONTINUOUS
 62
1
 10
1369.759623
 20
1114.486853
 11
1369.759623
 21
1245.958560
  0
LINE
  8
0
  6
CONTINUOUS
 62
1
 10
1409.433153
 20
1217.357011
 11
1440.938945
 21
1178.850350
  0
LINE
  8
0
  6
CONTINUOUS
 62
1
 10
1406.608933
 20
1219.733210
 11
1409.433153
 21
1217.357011
  0
LINE
  8
0
  6
CONTINUOUS
 62
1
 10
1403.115098
 20
1220.923058
 11
1406.608933
 21
1219.733210
  0
LINE
  8
0
  6
CONTINUOUS
 62
1
 10
1399.427654
 20
1220.764491
 11
1403.115098
 21
1220.923058
  0
LINE
  8
0
  6
CONTINUOUS
 62
1
 10
1396.048871
 20
1219.279138
 11
1399.427654
 21
1220.764491
  0
LINE
  8
0
  6
CONTINUOUS
 62
1
 10
1395.361190
 20
1203.285054
 11
1433.867845
 21
1171.779262
  0
LINE
  8
0
  6
CONTINUOUS
 62
1
 10
1433.867845
 20
1171.779262
 11
1440.938945
 21
1178.850350
  0
LINE
  8
0
  6
CONTINUOUS
 62
1
 10
1497.759622
 20
1245.958560
 11
1497.759622
 21
1255.958569
  0
LINE
  8
0
  6
CONTINUOUS
 62
1
 10
1517.759631
 20
1245.958560
 11
1517.759631
 21
1255.958569
  0
LINE
  8
0
  6
CONTINUOUS
 62
1
 10
1497.759622
 20
1245.958560
 11
1502.759616
 21
1146.958570
  0
LINE
  8
0
  6
CONTINUOUS
 62
1
 10
1512.759620
 20
1146.958570
 11
1517.759631
 21
1245.958560
  0
LINE
  8
0
  6
CONTINUOUS
 62
1
 10
1406.608933
 20
1282.183983
 11
1409.433153
 21
1284.560150
  0
LINE
  8
0
  6
CONTINUOUS
 62
1
 10
1403.115098
 20
1280.994102
 11
1406.608933
 21
1282.183983
  0
LINE
  8
0
  6
CONTINUOUS
 62
1
 10
1399.427654
 20
1281.152670
 11
1403.115098
 21
1280.994102
  0
LINE
  8
0
  6
CONTINUOUS
 62
1
 10
1396.048871
 20
1282.638023
 11
1399.427654
 21
1281.152670
  0
LINE
  8
0
  6
CONTINUOUS
 62
1
 10
1492.585131
 20
1281.596793
 11
1499.033135
 21
1281.174171
  0
LINE
  8
0
  6
CONTINUOUS
 62
1
 10
1516.486101
 20
1281.174139
 11
1522.934122
 21
1281.596793
  0
LINE
  8
0
  6
CONTINUOUS
 62
1
 10
1477.670395
 20
1284.563487
 11
1492.585131
 21
1281.596793
  0
LINE
  8
0
  6
CONTINUOUS
 62
1
 10
1522.934191
 20
1281.596825
 11
1537.848979
 21
1284.563519
  0
LINE
  8
0
  6
CONTINUOUS
 62
1
 10
1461.788008
 20
1151.030149
 11
1468.181803
 21
1156.637353
  0
LINE
  8
0
  6
CONTINUOUS
 62
1
 10
1468.181803
 20
1156.637353
 11
1475.252782
 21
1161.362023
  0
LINE
  8
0
  6
CONTINUOUS
 62
1
 10
1475.252782
 20
1161.362023
 11
1482.879982
 21
1165.123319
  0
LINE
  8
0
  6
CONTINUOUS
 62
1
 10
1482.879982
 20
1165.123319
 11
1490.932833
 21
1167.856896
  0
LINE
  8
0
  6
CONTINUOUS
 62
1
 10
1490.932833
 20
1167.856896
 11
1499.273661
 21
1169.515996
  0
LINE
  8
0
  6
CONTINUOUS
 62
1
 10
1499.273661
 20
1169.515996
 11
1501.612613
 21
1169.669300
  0
LINE
  8
0
  6
CONTINUOUS
 62
1
 10
1513.906640
 20
1169.669300
 11
1516.245593
 21
1169.515996
  0
LINE
  8
0
  6
CONTINUOUS
 62
1
 10
1516.245593
 20
1169.515996
 11
1524.586403
 21
1167.856896
  0
LINE
  8
0
  6
CONTINUOUS
 62
1
 10
1524.586403
 20
1167.856896
 11
1532.639254
 21
1165.123319
  0
LINE
  8
0
  6
CONTINUOUS
 62
1
 10
1532.639254
 20
1165.123319
 11
1540.266454
 21
1161.362023
  0
LINE
  8
0
  6
CONTINUOUS
 62
1
 10
1427.980625
 20
1151.118980
 11
1434.675271
 21
1161.138180
  0
LINE
  8
0
  6
CONTINUOUS
 62
1
 10
1434.675271
 20
1161.138180
 11
1442.620344
 21
1170.197825
  0
LINE
  8
0
  6
CONTINUOUS
 62
1
 10
1442.620344
 20
1170.197825
 11
1451.680036
 21
1178.142942
  0
LINE
  8
0
  6
CONTINUOUS
 62
1
 10
1451.680036
 20
1178.142942
 11
1461.699204
 21
1184.837557
  0
LINE
  8
0
  6
CONTINUOUS
 62
1
 10
1515.271169
 20
1196.687069
 11
1519.783786
 21
1196.391308
  0
LINE
  8
0
  6
CONTINUOUS
 62
1
 10
1495.735449
 20
1196.391308
 11
1500.248067
 21
1196.687069
  0
LINE
  8
0
  6
CONTINUOUS
 62
1
 10
1461.699204
 20
1184.837557
 11
1472.506514
 21
1190.167132
  0
LINE
  8
0
  6
CONTINUOUS
 62
1
 10
1472.506514
 20
1190.167132
 11
1483.916978
 21
1194.040462
  0
LINE
  8
0
  6
CONTINUOUS
 62
1
 10
1483.916978
 20
1194.040462
 11
1495.735449
 21
1196.391308
  0
LINE
  8
0
  6
CONTINUOUS
 62
1
 10
1519.783786
 20
1196.391308
 11
1531.602275
 21
1194.040462
  0
LINE
  8
0
  6
CONTINUOUS
 62
1
 10
1531.602275
 20
1194.040462
 11
1543.012739
 21
1190.167132
  0
LINE
  8
0
  6
CONTINUOUS
 62
1
 10
1415.527203
 20
1175.830960
 11
1421.120588
 21
1182.208953
  0
LINE
  8
0
  6
CONTINUOUS
 62
1
 10
1430.503388
 20
1191.604796
 11
1436.987231
 21
1197.290979
  0
LINE
  8
0
  6
CONTINUOUS
 62
1
 10
1516.486118
 20
1220.742989
 11
1522.934122
 21
1220.320368
  0
LINE
  8
0
  6
CONTINUOUS
 62
1
 10
1492.585131
 20
1220.320368
 11
1499.033135
 21
1220.742989
  0
LINE
  8
0
  6
CONTINUOUS
 62
1
 10
1400.352707
 20
1149.547941
 11
1407.078649
 21
1163.186750
  0
LINE
  8
0
  6
CONTINUOUS
 62
1
 10
1407.078649
 20
1163.186750
 11
1415.527203
 21
1175.830960
  0
LINE
  8
0
  6
CONTINUOUS
 62
1
 10
1436.987301
 20
1197.291011
 11
1449.631446
 21
1205.739558
  0
LINE
  8
0
  6
CONTINUOUS
 62
1
 10
1449.631446
 20
1205.739558
 11
1463.270251
 21
1212.465462
  0
LINE
  8
0
  6
CONTINUOUS
 62
1
 10
1463.270268
 20
1212.465462
 11
1477.670274
 21
1217.353609
  0
LINE
  8
0
  6
CONTINUOUS
 62
1
 10
1477.670274
 20
1217.353609
 11
1492.585131
 21
1220.320368
  0
LINE
  8
0
  6
CONTINUOUS
 62
1
 10
1522.934243
 20
1220.320336
 11
1537.848979
 21
1217.353609
  0
LINE
  8
0
  6
CONTINUOUS
 62
1
 10
1492.618569
 20
1281.950962
 11
1499.051089
 21
1281.529367
  0
LINE
  8
0
  6
CONTINUOUS
 62
1
 10
1516.468181
 20
1281.529367
 11
1522.900667
 21
1281.950962
  0
LINE
  8
0
  6
CONTINUOUS
 62
1
 10
1522.900667
 20
1281.950962
 11
1537.782640
 21
1284.911174
  0
LINE
  8
0
  6
CONTINUOUS
 62
1
 10
1477.736613
 20
1284.911174
 11
1492.618569
 21
1281.950962
  0
LINE
  8
0
  6
CONTINUOUS
 62
1
 10
1430.713120
 20
1191.348444
 11
1437.143291
 21
1196.987548
  0
LINE
  8
0
  6
CONTINUOUS
 62
1
 10
1415.730627
 20
1175.574897
 11
1421.369736
 21
1182.005072
  0
LINE
  8
0
  6
CONTINUOUS
 62
1
 10
1400.589587
 20
1149.349868
 11
1407.300702
 21
1162.958575
  0
LINE
  8
0
  6
CONTINUOUS
 62
1
 10
1449.759632
 20
1205.417513
 11
1463.368334
 21
1212.128623
  0
LINE
  8
0
  6
CONTINUOUS
 62
1
 10
1463.368369
 20
1212.128623
 11
1477.736613
 21
1217.005955
  0
LINE
  8
0
  6
CONTINUOUS
 62
1
 10
1522.900667
 20
1219.966167
 11
1537.782640
 21
1217.005955
  0
LINE
  8
0
  6
CONTINUOUS
 62
1
 10
1437.143291
 20
1196.987548
 11
1449.759632
 21
1205.417513
  0
LINE
  8
0
  6
CONTINUOUS
 62
1
 10
1463.368334
 20
1212.128623
 11
1477.736613
 21
1217.005955
  0
LINE
  8
0
  6
CONTINUOUS
 62
1
 10
1477.736613
 20
1217.005955
 11
1492.618569
 21
1219.966167
  0
LINE
  8
0
  6
CONTINUOUS
 62
1
 10
1492.618569
 20
1219.966167
 11
1499.051072
 21
1220.387761
  0
LINE
  8
0
  6
CONTINUOUS
 62
1
 10
1492.601479
 20
1220.196235
 11
1499.039425
 21
1220.618215
  0
LINE
  8
0
  6
CONTINUOUS
 62
1
 10
1477.702674
 20
1217.232686
 11
1492.601479
 21
1220.196235
  0
LINE
  8
0
  6
CONTINUOUS
 62
1
 10
1463.318152
 20
1212.349802
 11
1477.702674
 21
1217.232686
  0
LINE
  8
0
  6
CONTINUOUS
 62
1
 10
1449.694018
 20
1205.631118
 11
1463.318152
 21
1212.349802
  0
LINE
  8
0
  6
CONTINUOUS
 62
1
 10
1437.063455
 20
1197.191622
 11
1449.694018
 21
1205.631118
  0
LINE
  8
0
  6
CONTINUOUS
 62
1
 10
1430.582498
 20
1191.508038
 11
1437.063455
 21
1197.191622
  0
LINE
  8
0
  6
CONTINUOUS
 62
1
 10
1415.626565
 20
1175.754773
 11
1421.217323
 21
1182.129814
  0
LINE
  8
0
  6
CONTINUOUS
 62
1
 10
1407.187049
 20
1163.124138
 11
1415.626565
 21
1175.754773
  0
LINE
  8
0
  6
CONTINUOUS
 62
1
 10
1400.468365
 20
1149.500027
 11
1407.187049
 21
1163.124138
  0
LINE
  8
0
  6
CONTINUOUS
 62
1
 10
1400.589587
 20
1149.349868
 11
1407.300702
 21
1162.958575
  0
LINE
  8
0
  6
CONTINUOUS
 62
1
 10
1407.300702
 20
1162.958575
 11
1415.730627
 21
1175.574897
  0
LINE
  8
0
  6
CONTINUOUS
 62
1
 10
1522.917757
 20
1220.196235
 11
1537.816561
 21
1217.232686
  0
LINE
  8
0
  6
CONTINUOUS
 62
1
 10
1516.479828
 20
1220.618247
 11
1522.917757
 21
1220.196235
  0
LINE
  8
0
  6
CONTINUOUS
 62
1
 10
1516.468164
 20
1220.387761
 11
1522.900667
 21
1219.966167
  0
LINE
  8
0
  6
CONTINUOUS
 62
1
 10
1477.675821
 20
1284.584411
 11
1492.587931
 21
1281.618198
  0
LINE
  8
0
  6
CONTINUOUS
 62
1
 10
1492.587931
 20
1281.618198
 11
1499.034224
 21
1281.195673
  0
LINE
  8
0
  6
CONTINUOUS
 62
1
 10
1516.485030
 20
1281.195673
 11
1522.931323
 21
1281.618198
  0
LINE
  8
0
  6
CONTINUOUS
 62
1
 10
1522.931323
 20
1281.618198
 11
1537.843363
 21
1284.584411
  0
LINE
  8
0
  6
CONTINUOUS
 62
1
 10
1516.468164
 20
1281.529367
 11
1522.900667
 21
1281.950962
  0
LINE
  8
0
  6
CONTINUOUS
 62
1
 10
1369.759623
 20
1255.958569
 11
1497.759622
 21
1255.958569
  0
LINE
  8
0
  6
CONTINUOUS
 62
1
 10
1369.759623
 20
1245.958560
 11
1497.759622
 21
1245.958560
  0
LINE
  8
0
  6
CONTINUOUS
 62
1
 10
1359.759627
 20
1406.391986
 11
1361.224105
 21
1406.792624
  0
LINE
  8
0
  6
CONTINUOUS
 62
1
 10
1361.224105
 20
1406.792624
 11
1362.253463
 21
1406.840955
  0
LINE
  8
0
  6
CONTINUOUS
 62
1
 10
1361.224105
 20
1387.124534
 11
1362.253463
 21
1387.076203
  0
LINE
  8
0
  6
CONTINUOUS
 62
1
 10
1359.759627
 20
1387.525173
 11
1361.224105
 21
1387.124534
  0
LINE
  8
0
  6
CONTINUOUS
 62
1
 10
1362.253463
 20
1406.840955
 11
1465.759629
 21
1401.958584
  0
LINE
  8
0
  6
CONTINUOUS
 62
1
 10
1362.253463
 20
1387.076203
 11
1465.759629
 21
1391.958574
  0
LINE
  8
0
  6
CONTINUOUS
 62
1
 10
1393.439066
 20
1285.247852
 11
1396.048871
 21
1282.638023
  0
LINE
  8
0
  6
CONTINUOUS
 62
1
 10
1391.953714
 20
1288.626642
 11
1393.439066
 21
1285.247852
  0
LINE
  8
0
  6
CONTINUOUS
 62
1
 10
1391.795149
 20
1292.314062
 11
1391.953714
 21
1288.626642
  0
LINE
  8
0
  6
CONTINUOUS
 62
1
 10
1391.795149
 20
1292.314062
 11
1392.985024
 21
1295.807870
  0
LINE
  8
0
  6
CONTINUOUS
 62
1
 10
1392.985024
 20
1295.807870
 11
1395.361190
 21
1298.632107
  0
LINE
  8
0
  6
CONTINUOUS
 62
1
 10
1392.065379
 20
1405.434741
 11
1392.497847
 21
1412.033111
  0
LINE
  8
0
  6
CONTINUOUS
 62
1
 10
1392.052307
 20
1388.481807
 11
1392.497847
 21
1381.684113
  0
LINE
  8
0
  6
CONTINUOUS
 62
1
 10
1392.497864
 20
1381.684049
 11
1395.464587
 21
1366.769223
  0
LINE
  8
0
  6
CONTINUOUS
 62
1
 10
1392.314416
 20
1405.422995
 11
1392.751998
 21
1412.099638
  0
LINE
  8
0
  6
CONTINUOUS
 62
1
 10
1392.751998
 20
1381.817520
 11
1395.712198
 21
1366.935557
  0
LINE
  8
0
  6
CONTINUOUS
 62
1
 10
1392.752016
 20
1381.817392
 11
1392.771404
 21
1381.720120
  0
LINE
  8
0
  6
CONTINUOUS
 62
1
 10
1392.314390
 20
1388.494163
 11
1392.751998
 21
1381.817520
  0
LINE
  8
0
  6
CONTINUOUS
 62
1
 10
1392.086919
 20
1405.433714
 11
1392.519266
 21
1412.030223
  0
LINE
  8
0
  6
CONTINUOUS
 62
1
 10
1392.073847
 20
1388.482834
 11
1392.519266
 21
1381.686905
  0
LINE
  8
0
  6
CONTINUOUS
 62
1
 10
1392.519266
 20
1381.686905
 11
1395.485462
 21
1366.774807
  0
LINE
  8
0
  6
CONTINUOUS
 62
1
 10
1369.759623
 20
1255.958569
 11
1369.759623
 21
1387.430276
  0
LINE
  8
0
  6
CONTINUOUS
 62
1
 10
1502.759616
 20
1354.958575
 11
1512.759620
 21
1354.958575
  0
LINE
  8
0
  6
CONTINUOUS
 62
1
 10
1497.759622
 20
1255.958569
 11
1502.759616
 21
1354.958575
  0
LINE
  8
0
  6
CONTINUOUS
 62
1
 10
1512.759620
 20
1354.958575
 11
1517.759631
 21
1255.958569
  0
LINE
  8
0
  6
CONTINUOUS
 62
1
 10
1465.759629
 20
1391.958574
 11
1465.759629
 21
1401.958584
  0
LINE
  8
0
  6
CONTINUOUS
 62
1
 10
1433.867845
 20
1330.137867
 11
1440.938945
 21
1323.066811
  0
LINE
  8
0
  6
CONTINUOUS
 62
1
 10
1395.361190
 20
1298.632107
 11
1433.867845
 21
1330.137867
  0
LINE
  8
0
  6
CONTINUOUS
 62
1
 10
1409.433153
 20
1284.560150
 11
1440.938945
 21
1323.066811
  0
LINE
  8
0
  6
CONTINUOUS
 62
1
 10
1395.464587
 20
1366.769223
 11
1400.352707
 21
1352.369188
  0
LINE
  8
0
  6
CONTINUOUS
 62
1
 10
1400.352794
 20
1352.369028
 11
1407.078649
 21
1338.730411
  0
LINE
  8
0
  6
CONTINUOUS
 62
1
 10
1407.078683
 20
1338.730346
 11
1415.527203
 21
1326.086169
  0
LINE
  8
0
  6
CONTINUOUS
 62
1
 10
1415.527203
 20
1326.086169
 11
1421.120588
 21
1319.708175
  0
LINE
  8
0
  6
CONTINUOUS
 62
1
 10
1430.503337
 20
1310.312365
 11
1436.987231
 21
1304.626182
  0
LINE
  8
0
  6
CONTINUOUS
 62
1
 10
1436.987231
 20
1304.626182
 11
1449.631446
 21
1296.177603
  0
LINE
  8
0
  6
CONTINUOUS
 62
1
 10
1449.631498
 20
1296.177571
 11
1463.270251
 21
1289.451667
  0
LINE
  8
0
  6
CONTINUOUS
 62
1
 10
1463.270251
 20
1289.451667
 11
1477.670274
 21
1284.563519
  0
LINE
  8
0
  6
CONTINUOUS
 62
1
 10
1495.735449
 20
1305.525821
 11
1500.248084
 21
1305.230060
  0
LINE
  8
0
  6
CONTINUOUS
 62
1
 10
1515.271152
 20
1305.230060
 11
1519.783786
 21
1305.525821
  0
LINE
  8
0
  6
CONTINUOUS
 62
1
 10
1416.426854
 20
1408.882785
 11
1418.777747
 21
1420.701168
  0
LINE
  8
0
  6
CONTINUOUS
 62
1
 10
1416.126487
 20
1404.299770
 11
1416.426854
 21
1408.882785
  0
LINE
  8
0
  6
CONTINUOUS
 62
1
 10
1416.113423
 20
1389.616778
 11
1416.426854
 21
1384.834374
  0
LINE
  8
0
  6
CONTINUOUS
 62
1
 10
1416.426854
 20
1384.834374
 11
1418.777747
 21
1373.015960
  0
LINE
  8
0
  6
CONTINUOUS
 62
1
 10
1418.777747
 20
1373.015960
 11
1422.651042
 21
1361.605469
  0
LINE
  8
0
  6
CONTINUOUS
 62
1
 10
1422.651042
 20
1361.605469
 11
1427.980625
 21
1350.798181
  0
LINE
  8
0
  6
CONTINUOUS
 62
1
 10
1427.980625
 20
1350.798181
 11
1434.675271
 21
1340.778981
  0
LINE
  8
0
  6
CONTINUOUS
 62
1
 10
1434.675271
 20
1340.778981
 11
1442.620344
 21
1331.719303
  0
LINE
  8
0
  6
CONTINUOUS
 62
1
 10
1442.620344
 20
1331.719303
 11
1451.680036
 21
1323.774218
  0
LINE
  8
0
  6
CONTINUOUS
 62
1
 10
1451.680036
 20
1323.774218
 11
1461.699204
 21
1317.079604
  0
LINE
  8
0
  6
CONTINUOUS
 62
1
 10
1461.699204
 20
1317.079604
 11
1472.506514
 21
1311.750029
  0
LINE
  8
0
  6
CONTINUOUS
 62
1
 10
1472.506514
 20
1311.750029
 11
1483.916978
 21
1307.876699
  0
LINE
  8
0
  6
CONTINUOUS
 62
1
 10
1483.916978
 20
1307.876699
 11
1495.735449
 21
1305.525821
  0
LINE
  8
0
  6
CONTINUOUS
 62
1
 10
1519.783786
 20
1305.525821
 11
1531.602275
 21
1307.876699
  0
LINE
  8
0
  6
CONTINUOUS
 62
1
 10
1531.602275
 20
1307.876699
 11
1543.012739
 21
1311.750029
  0
LINE
  8
0
  6
CONTINUOUS
 62
1
 10
1444.961283
 20
1413.685311
 11
1447.694868
 21
1421.738258
  0
LINE
  8
0
  6
CONTINUOUS
 62
1
 10
1443.302159
 20
1405.344562
 11
1444.961283
 21
1413.685311
  0
LINE
  8
0
  6
CONTINUOUS
 62
1
 10
1443.150126
 20
1403.025070
 11
1443.302159
 21
1405.344562
  0
LINE
  8
0
  6
CONTINUOUS
 62
1
 10
1443.137062
 20
1390.891478
 11
1443.302159
 21
1388.372566
  0
LINE
  8
0
  6
CONTINUOUS
 62
1
 10
1443.302159
 20
1388.372566
 11
1444.961283
 21
1380.031817
  0
LINE
  8
0
  6
CONTINUOUS
 62
1
 10
1444.961283
 20
1380.031817
 11
1447.694868
 21
1371.978934
  0
LINE
  8
0
  6
CONTINUOUS
 62
1
 10
1447.694868
 20
1371.978934
 11
1451.456151
 21
1364.351754
  0
LINE
  8
0
  6
CONTINUOUS
 62
1
 10
1451.456151
 20
1364.351754
 11
1456.180834
 21
1357.280795
  0
LINE
  8
0
  6
CONTINUOUS
 62
1
 10
1456.180834
 20
1357.280795
 11
1461.788008
 21
1350.886980
  0
LINE
  8
0
  6
CONTINUOUS
 62
1
 10
1461.788008
 20
1350.886980
 11
1468.181803
 21
1345.279776
  0
LINE
  8
0
  6
CONTINUOUS
 62
1
 10
1468.181803
 20
1345.279776
 11
1475.252782
 21
1340.555106
  0
LINE
  8
0
  6
CONTINUOUS
 62
1
 10
1475.252782
 20
1340.555106
 11
1482.879982
 21
1336.793810
  0
LINE
  8
0
  6
CONTINUOUS
 62
1
 10
1482.879982
 20
1336.793810
 11
1490.932833
 21
1334.060233
  0
LINE
  8
0
  6
CONTINUOUS
 62
1
 10
1490.932833
 20
1334.060233
 11
1499.273661
 21
1332.401133
  0
LINE
  8
0
  6
CONTINUOUS
 62
1
 10
1499.273661
 20
1332.401133
 11
1501.612613
 21
1332.247797
  0
LINE
  8
0
  6
CONTINUOUS
 62
1
 10
1513.906640
 20
1332.247829
 11
1516.245593
 21
1332.401133
  0
LINE
  8
0
  6
CONTINUOUS
 62
1
 10
1516.245593
 20
1332.401133
 11
1524.586403
 21
1334.060233
  0
LINE
  8
0
  6
CONTINUOUS
 62
1
 10
1524.586403
 20
1334.060233
 11
1532.639254
 21
1336.793810
  0
LINE
  8
0
  6
CONTINUOUS
 62
1
 10
1532.639254
 20
1336.793810
 11
1540.266454
 21
1340.555106
  0
LINE
  8
0
  6
CONTINUOUS
 62
1
 10
1415.730645
 20
1326.342200
 11
1421.369736
 21
1319.912057
  0
LINE
  8
0
  6
CONTINUOUS
 62
1
 10
1449.759632
 20
1296.499616
 11
1463.368334
 21
1289.788570
  0
LINE
  8
0
  6
CONTINUOUS
 62
1
 10
1400.589587
 20
1352.567325
 11
1407.300702
 21
1338.958586
  0
LINE
  8
0
  6
CONTINUOUS
 62
1
 10
1395.712198
 20
1366.935557
 11
1400.589587
 21
1352.567325
  0
LINE
  8
0
  6
CONTINUOUS
 62
1
 10
1463.368334
 20
1289.788570
 11
1477.736613
 21
1284.911174
  0
LINE
  8
0
  6
CONTINUOUS
 62
1
 10
1437.143291
 20
1304.929581
 11
1449.759632
 21
1296.499616
  0
LINE
  8
0
  6
CONTINUOUS
 62
1
 10
1430.713120
 20
1310.568717
 11
1437.143291
 21
1304.929581
  0
LINE
  8
0
  6
CONTINUOUS
 62
1
 10
1407.300702
 20
1338.958586
 11
1415.730627
 21
1326.342232
  0
LINE
  8
0
  6
CONTINUOUS
 62
1
 10
1395.485462
 20
1366.774807
 11
1400.372718
 21
1352.377468
  0
LINE
  8
0
  6
CONTINUOUS
 62
1
 10
1400.372718
 20
1352.377468
 11
1407.097329
 21
1338.741194
  0
LINE
  8
0
  6
CONTINUOUS
 62
1
 10
1407.097329
 20
1338.741194
 11
1415.544345
 21
1326.099327
  0
LINE
  8
0
  6
CONTINUOUS
 62
1
 10
1415.544345
 20
1326.099327
 11
1421.137298
 21
1319.721847
  0
LINE
  8
0
  6
CONTINUOUS
 62
1
 10
1430.517023
 20
1310.329117
 11
1437.000399
 21
1304.643319
  0
LINE
  8
0
  6
CONTINUOUS
 62
1
 10
1437.000399
 20
1304.643319
 11
1449.642246
 21
1296.196313
  0
LINE
  8
0
  6
CONTINUOUS
 62
1
 10
1449.642246
 20
1296.196313
 11
1463.278476
 21
1289.471660
  0
LINE
  8
0
  6
CONTINUOUS
 62
1
 10
1463.278476
 20
1289.471660
 11
1477.675821
 21
1284.584411
  0
LINE
  8
0
  6
CONTINUOUS
 62
1
 10
1606.086083
 20
1217.357011
 11
1608.910320
 21
1219.733210
  0
LINE
  8
0
  6
CONTINUOUS
 62
1
 10
1608.910320
 20
1219.733210
 11
1612.404103
 21
1220.923058
  0
LINE
  8
0
  6
CONTINUOUS
 62
1
 10
1612.404103
 20
1220.923058
 11
1616.091599
 21
1220.764491
  0
LINE
  8
0
  6
CONTINUOUS
 62
1
 10
1616.091599
 20
1220.764491
 11
1619.470330
 21
1219.279138
  0
LINE
  8
0
  6
CONTINUOUS
 62
1
 10
1619.470330
 20
1219.279138
 11
1622.080187
 21
1216.669276
  0
LINE
  8
0
  6
CONTINUOUS
 62
1
 10
1622.080187
 20
1216.669276
 11
1623.565540
 21
1213.290519
  0
LINE
  8
0
  6
CONTINUOUS
 62
1
 10
1623.565540
 20
1213.290519
 11
1623.724104
 21
1209.603067
  0
LINE
  8
0
  6
CONTINUOUS
 62
1
 10
1622.534212
 20
1206.109259
 11
1623.724104
 21
1209.603067
  0
LINE
  8
0
  6
CONTINUOUS
 62
1
 10
1620.158055
 20
1203.285054
 11
1622.534212
 21
1206.109259
  0
LINE
  8
0
  6
CONTINUOUS
 62
1
 10
1574.580308
 20
1178.850350
 11
1606.086083
 21
1217.357011
  0
LINE
  8
0
  6
CONTINUOUS
 62
1
 10
1574.580308
 20
1178.850350
 11
1581.651408
 21
1171.779262
  0
LINE
  8
0
  6
CONTINUOUS
 62
1
 10
1581.651408
 20
1171.779262
 11
1620.158055
 21
1203.285054
  0
LINE
  8
0
  6
CONTINUOUS
 62
1
 10
1606.086083
 20
1284.560150
 11
1608.910320
 21
1282.183983
  0
LINE
  8
0
  6
CONTINUOUS
 62
1
 10
1608.910320
 20
1282.183983
 11
1612.404103
 21
1280.994102
  0
LINE
  8
0
  6
CONTINUOUS
 62
1
 10
1612.404103
 20
1280.994102
 11
1616.091599
 21
1281.152670
  0
LINE
  8
0
  6
CONTINUOUS
 62
1
 10
1616.091599
 20
1281.152670
 11
1619.470330
 21
1282.638023
  0
LINE
  8
0
  6
CONTINUOUS
 62
1
 10
1540.266454
 20
1161.362023
 11
1547.337433
 21
1156.637353
  0
LINE
  8
0
  6
CONTINUOUS
 62
1
 10
1547.337433
 20
1156.637353
 11
1553.731176
 21
1151.030149
  0
LINE
  8
0
  6
CONTINUOUS
 62
1
 10
1572.898892
 20
1170.197825
 11
1580.843965
 21
1161.138180
  0
LINE
  8
0
  6
CONTINUOUS
 62
1
 10
1580.843965
 20
1161.138180
 11
1587.538629
 21
1151.118980
  0
LINE
  8
0
  6
CONTINUOUS
 62
1
 10
1563.839200
 20
1178.142942
 11
1572.898892
 21
1170.197825
  0
LINE
  8
0
  6
CONTINUOUS
 62
1
 10
1543.012739
 20
1190.167132
 11
1553.820032
 21
1184.837557
  0
LINE
  8
0
  6
CONTINUOUS
 62
1
 10
1553.820032
 20
1184.837557
 11
1563.839200
 21
1178.142942
  0
LINE
  8
0
  6
CONTINUOUS
 62
1
 10
1594.398666
 20
1182.208953
 11
1599.991981
 21
1175.830960
  0
LINE
  8
0
  6
CONTINUOUS
 62
1
 10
1578.532056
 20
1197.290947
 11
1585.015865
 21
1191.604764
  0
LINE
  8
0
  6
CONTINUOUS
 62
1
 10
1537.848979
 20
1217.353609
 11
1552.249002
 21
1212.465462
  0
LINE
  8
0
  6
CONTINUOUS
 62
1
 10
1552.249141
 20
1212.465398
 11
1565.887790
 21
1205.739558
  0
LINE
  8
0
  6
CONTINUOUS
 62
1
 10
1565.887790
 20
1205.739558
 11
1578.532022
 21
1197.290979
  0
LINE
  8
0
  6
CONTINUOUS
 62
1
 10
1599.991981
 20
1175.830960
 11
1608.440604
 21
1163.186750
  0
LINE
  8
0
  6
CONTINUOUS
 62
1
 10
1608.440604
 20
1163.186750
 11
1615.166477
 21
1149.547941
  0
LINE
  8
0
  6
CONTINUOUS
 62
1
 10
1594.149448
 20
1182.005040
 11
1599.788626
 21
1175.574897
  0
LINE
  8
0
  6
CONTINUOUS
 62
1
 10
1537.782640
 20
1217.005955
 11
1552.150919
 21
1212.128623
  0
LINE
  8
0
  6
CONTINUOUS
 62
1
 10
1552.150919
 20
1212.128623
 11
1565.759638
 21
1205.417513
  0
LINE
  8
0
  6
CONTINUOUS
 62
1
 10
1608.218551
 20
1162.958575
 11
1614.929632
 21
1149.349900
  0
LINE
  8
0
  6
CONTINUOUS
 62
1
 10
1599.788626
 20
1175.574897
 11
1608.218551
 21
1162.958575
  0
LINE
  8
0
  6
CONTINUOUS
 62
1
 10
1608.332187
 20
1163.124138
 11
1615.050836
 21
1149.500027
  0
LINE
  8
0
  6
CONTINUOUS
 62
1
 10
1599.892688
 20
1175.754773
 11
1608.332187
 21
1163.124138
  0
LINE
  8
0
  6
CONTINUOUS
 62
1
 10
1594.301930
 20
1182.129814
 11
1599.892688
 21
1175.754773
  0
LINE
  8
0
  6
CONTINUOUS
 62
1
 10
1578.455781
 20
1197.191622
 11
1584.936755
 21
1191.508038
  0
LINE
  8
0
  6
CONTINUOUS
 62
1
 10
1565.825235
 20
1205.631118
 11
1578.455781
 21
1197.191622
  0
LINE
  8
0
  6
CONTINUOUS
 62
1
 10
1552.201101
 20
1212.349802
 11
1565.825235
 21
1205.631118
  0
LINE
  8
0
  6
CONTINUOUS
 62
1
 10
1537.816561
 20
1217.232686
 11
1552.201101
 21
1212.349802
  0
LINE
  8
0
  6
CONTINUOUS
 62
1
 10
1565.759638
 20
1205.417513
 11
1578.375945
 21
1196.987548
  0
LINE
  8
0
  6
CONTINUOUS
 62
1
 10
1578.375945
 20
1196.987548
 11
1584.806116
 21
1191.348444
  0
LINE
  8
0
  6
CONTINUOUS
 62
1
 10
1517.759648
 20
1255.958569
 11
1645.759605
 21
1255.958569
  0
LINE
  8
0
  6
CONTINUOUS
 62
1
 10
1517.759631
 20
1245.958560
 11
1645.759605
 21
1245.958560
  0
LINE
  8
0
  6
CONTINUOUS
 62
1
 10
1645.759605
 20
1114.486869
 11
1645.759605
 21
1245.958560
  0
LINE
  8
0
  6
CONTINUOUS
 62
1
 10
1574.580308
 20
1323.066811
 11
1606.086083
 21
1284.560150
  0
LINE
  8
0
  6
CONTINUOUS
 62
1
 10
1619.470330
 20
1282.638023
 11
1622.080187
 21
1285.247852
  0
LINE
  8
0
  6
CONTINUOUS
 62
1
 10
1622.080187
 20
1285.247852
 11
1623.565540
 21
1288.626642
  0
LINE
  8
0
  6
CONTINUOUS
 62
1
 10
1623.565540
 20
1288.626642
 11
1623.724104
 21
1292.314062
  0
LINE
  8
0
  6
CONTINUOUS
 62
1
 10
1622.534212
 20
1295.807870
 11
1623.724104
 21
1292.314062
  0
LINE
  8
0
  6
CONTINUOUS
 62
1
 10
1620.158055
 20
1298.632107
 11
1622.534212
 21
1295.807870
  0
LINE
  8
0
  6
CONTINUOUS
 62
1
 10
1581.651408
 20
1330.137867
 11
1620.158055
 21
1298.632107
  0
LINE
  8
0
  6
CONTINUOUS
 62
1
 10
1574.580308
 20
1323.066811
 11
1581.651408
 21
1330.137867
  0
LINE
  8
0
  6
CONTINUOUS
 62
1
 10
1549.759624
 20
1391.958574
 11
1549.759624
 21
1401.958584
  0
LINE
  8
0
  6
CONTINUOUS
 62
1
 10
1653.265790
 20
1406.840955
 11
1654.295148
 21
1406.792624
  0
LINE
  8
0
  6
CONTINUOUS
 62
1
 10
1654.295148
 20
1406.792624
 11
1655.759626
 21
1406.391986
  0
LINE
  8
0
  6
CONTINUOUS
 62
1
 10
1654.295148
 20
1387.124534
 11
1655.759626
 21
1387.525173
  0
LINE
  8
0
  6
CONTINUOUS
 62
1
 10
1653.265790
 20
1387.076203
 11
1654.295148
 21
1387.124534
  0
LINE
  8
0
  6
CONTINUOUS
 62
1
 10
1549.759624
 20
1401.958584
 11
1653.265790
 21
1406.840955
  0
LINE
  8
0
  6
CONTINUOUS
 62
1
 10
1549.759624
 20
1391.958574
 11
1653.265790
 21
1387.076203
  0
LINE
  8
0
  6
CONTINUOUS
 62
1
 10
1594.398666
 20
1319.708175
 11
1599.991981
 21
1326.086169
  0
LINE
  8
0
  6
CONTINUOUS
 62
1
 10
1578.532022
 20
1304.626182
 11
1585.015865
 21
1310.312365
  0
LINE
  8
0
  6
CONTINUOUS
 62
1
 10
1623.021415
 20
1381.684209
 11
1623.466938
 21
1388.481807
  0
LINE
  8
0
  6
CONTINUOUS
 62
1
 10
1623.021415
 20
1412.033111
 11
1623.453874
 21
1405.434709
  0
LINE
  8
0
  6
CONTINUOUS
 62
1
 10
1537.848979
 20
1284.563519
 11
1552.249002
 21
1289.451667
  0
LINE
  8
0
  6
CONTINUOUS
 62
1
 10
1552.249072
 20
1289.451699
 11
1565.887790
 21
1296.177603
  0
LINE
  8
0
  6
CONTINUOUS
 62
1
 10
1565.887824
 20
1296.177635
 11
1578.532022
 21
1304.626182
  0
LINE
  8
0
  6
CONTINUOUS
 62
1
 10
1599.991981
 20
1326.086169
 11
1608.440604
 21
1338.730411
  0
LINE
  8
0
  6
CONTINUOUS
 62
1
 10
1608.440604
 20
1338.730411
 11
1615.166477
 21
1352.369188
  0
LINE
  8
0
  6
CONTINUOUS
 62
1
 10
1615.166477
 20
1352.369188
 11
1620.054649
 21
1366.769223
  0
LINE
  8
0
  6
CONTINUOUS
 62
1
 10
1620.054649
 20
1366.769288
 11
1623.021415
 21
1381.684113
  0
LINE
  8
0
  6
CONTINUOUS
 62
1
 10
1599.092330
 20
1408.882785
 11
1599.392767
 21
1404.299770
  0
LINE
  8
0
  6
CONTINUOUS
 62
1
 10
1596.741506
 20
1420.701168
 11
1599.092330
 21
1408.882785
  0
LINE
  8
0
  6
CONTINUOUS
 62
1
 10
1543.012739
 20
1311.750029
 11
1553.820032
 21
1317.079604
  0
LINE
  8
0
  6
CONTINUOUS
 62
1
 10
1553.820032
 20
1317.079604
 11
1563.839200
 21
1323.774218
  0
LINE
  8
0
  6
CONTINUOUS
 62
1
 10
1563.839200
 20
1323.774218
 11
1572.898892
 21
1331.719303
  0
LINE
  8
0
  6
CONTINUOUS
 62
1
 10
1572.898892
 20
1331.719303
 11
1580.843965
 21
1340.778981
  0
LINE
  8
0
  6
CONTINUOUS
 62
1
 10
1580.843965
 20
1340.778981
 11
1587.538629
 21
1350.798181
  0
LINE
  8
0
  6
CONTINUOUS
 62
1
 10
1587.538629
 20
1350.798181
 11
1592.868211
 21
1361.605469
  0
LINE
  8
0
  6
CONTINUOUS
 62
1
 10
1592.868211
 20
1361.605469
 11
1596.741506
 21
1373.015960
  0
LINE
  8
0
  6
CONTINUOUS
 62
1
 10
1596.741506
 20
1373.015960
 11
1599.092330
 21
1384.834374
  0
LINE
  8
0
  6
CONTINUOUS
 62
1
 10
1599.092330
 20
1384.834374
 11
1599.405831
 21
1389.616778
  0
LINE
  8
0
  6
CONTINUOUS
 62
1
 10
1571.668874
 20
1408.100668
 11
1572.351484
 21
1407.964854
  0
LINE
  8
0
  6
CONTINUOUS
 62
1
 10
1572.351484
 20
1407.964854
 11
1576.244617
 21
1405.363625
  0
LINE
  8
0
  6
CONTINUOUS
 62
1
 10
1576.244617
 20
1405.363625
 11
1577.641010
 21
1403.273720
  0
LINE
  8
0
  6
CONTINUOUS
 62
1
 10
1576.244617
 20
1388.393041
 11
1577.745004
 21
1390.638528
  0
LINE
  8
0
  6
CONTINUOUS
 62
1
 10
1572.351484
 20
1385.791779
 11
1576.244617
 21
1388.393041
  0
LINE
  8
0
  6
CONTINUOUS
 62
1
 10
1571.677030
 20
1385.657602
 11
1572.351484
 21
1385.791779
  0
LINE
  8
0
  6
CONTINUOUS
 62
1
 10
1570.557953
 20
1413.685311
 11
1571.668874
 21
1408.100668
  0
LINE
  8
0
  6
CONTINUOUS
 62
1
 10
1570.557953
 20
1380.031817
 11
1571.677030
 21
1385.657602
  0
LINE
  8
0
  6
CONTINUOUS
 62
1
 10
1567.824368
 20
1421.738258
 11
1570.557953
 21
1413.685311
  0
LINE
  8
0
  6
CONTINUOUS
 62
1
 10
1540.266454
 20
1340.555106
 11
1547.337433
 21
1345.279776
  0
LINE
  8
0
  6
CONTINUOUS
 62
1
 10
1547.337433
 20
1345.279776
 11
1553.731176
 21
1350.886980
  0
LINE
  8
0
  6
CONTINUOUS
 62
1
 10
1553.731176
 20
1350.886980
 11
1559.338419
 21
1357.280795
  0
LINE
  8
0
  6
CONTINUOUS
 62
1
 10
1559.338419
 20
1357.280795
 11
1564.063085
 21
1364.351754
  0
LINE
  8
0
  6
CONTINUOUS
 62
1
 10
1564.063085
 20
1364.351754
 11
1567.824368
 21
1371.978934
  0
LINE
  8
0
  6
CONTINUOUS
 62
1
 10
1567.824368
 20
1371.978934
 11
1570.557953
 21
1380.031817
  0
LINE
  8
0
  6
CONTINUOUS
 62
1
 10
1594.149483
 20
1319.912089
 11
1599.788626
 21
1326.342232
  0
LINE
  8
0
  6
CONTINUOUS
 62
1
 10
1622.767255
 20
1412.099638
 11
1623.204829
 21
1405.422963
  0
LINE
  8
0
  6
CONTINUOUS
 62
1
 10
1619.806986
 20
1366.935557
 11
1622.767255
 21
1381.817520
  0
LINE
  8
0
  6
CONTINUOUS
 62
1
 10
1622.747832
 20
1381.720120
 11
1622.767255
 21
1381.817520
  0
LINE
  8
0
  6
CONTINUOUS
 62
1
 10
1565.759638
 20
1296.499616
 11
1578.375945
 21
1304.929581
  0
LINE
  8
0
  6
CONTINUOUS
 62
1
 10
1552.150988
 20
1289.788602
 11
1565.759604
 21
1296.499616
  0
LINE
  8
0
  6
CONTINUOUS
 62
1
 10
1537.782640
 20
1284.911174
 11
1552.150919
 21
1289.788570
  0
LINE
  8
0
  6
CONTINUOUS
 62
1
 10
1537.843363
 20
1284.584411
 11
1552.240777
 21
1289.471660
  0
LINE
  8
0
  6
CONTINUOUS
 62
1
 10
1552.240777
 20
1289.471660
 11
1565.877007
 21
1296.196313
  0
LINE
  8
0
  6
CONTINUOUS
 62
1
 10
1565.877007
 20
1296.196313
 11
1578.518854
 21
1304.643319
  0
LINE
  8
0
  6
CONTINUOUS
 62
1
 10
1578.518854
 20
1304.643319
 11
1585.002179
 21
1310.329085
  0
LINE
  8
0
  6
CONTINUOUS
 62
1
 10
1578.375945
 20
1304.929581
 11
1584.806116
 21
1310.568717
  0
LINE
  8
0
  6
CONTINUOUS
 62
1
 10
1552.150919
 20
1289.788570
 11
1565.759638
 21
1296.499616
  0
LINE
  8
0
  6
CONTINUOUS
 62
1
 10
1622.080187
 20
1285.247852
 11
1622.767255
 21
1286.810708
  0
LINE
  8
0
  6
CONTINUOUS
 62
1
 10
1594.381938
 20
1319.721847
 11
1599.974839
 21
1326.099327
  0
LINE
  8
0
  6
CONTINUOUS
 62
1
 10
1599.974839
 20
1326.099327
 11
1608.421838
 21
1338.741194
  0
LINE
  8
0
  6
CONTINUOUS
 62
1
 10
1608.421838
 20
1338.741194
 11
1615.146535
 21
1352.377468
  0
LINE
  8
0
  6
CONTINUOUS
 62
1
 10
1615.146535
 20
1352.377468
 11
1620.033809
 21
1366.774807
  0
LINE
  8
0
  6
CONTINUOUS
 62
1
 10
1620.033809
 20
1366.774807
 11
1622.999987
 21
1381.686905
  0
LINE
  8
0
  6
CONTINUOUS
 62
1
 10
1614.929666
 20
1352.567325
 11
1619.806986
 21
1366.935557
  0
LINE
  8
0
  6
CONTINUOUS
 62
1
 10
1608.218551
 20
1338.958586
 11
1614.929666
 21
1352.567325
  0
LINE
  8
0
  6
CONTINUOUS
 62
1
 10
1599.788626
 20
1326.342232
 11
1608.218551
 21
1338.958586
  0
LINE
  8
0
  6
CONTINUOUS
 62
1
 10
1594.149448
 20
1319.912057
 11
1599.788626
 21
1326.342232
  0
LINE
  8
0
  6
CONTINUOUS
 62
1
 10
1622.767255
 20
1381.817520
 11
1623.204863
 21
1388.494195
  0
LINE
  8
0
  6
CONTINUOUS
 62
1
 10
1622.999987
 20
1381.686905
 11
1623.445372
 21
1388.482834
  0
LINE
  8
0
  6
CONTINUOUS
 62
1
 10
1622.999987
 20
1412.030223
 11
1623.432342
 21
1405.433714
  0
LINE
  8
0
  6
CONTINUOUS
 62
1
 10
1620.033809
 20
1426.942320
 11
1622.999987
 21
1412.030223
  0
LINE
  8
0
  6
CONTINUOUS
 62
1
 10
1622.767255
 20
1412.099638
 11
1623.204863
 21
1405.422963
  0
LINE
  8
0
  6
CONTINUOUS
 62
1
 10
1620.054683
 20
1426.947904
 11
1623.021415
 21
1412.033111
  0
LINE
  8
0
  6
CONTINUOUS
 62
1
 10
1645.759605
 20
1255.958569
 11
1645.759605
 21
1387.430276
  0
LINE
  8
0
  6
CONTINUOUS
 62
1
 10
1393.023482
 20
1498.009289
 11
1395.399699
 21
1495.185116
  0
LINE
  8
0
  6
CONTINUOUS
 62
1
 10
1391.833658
 20
1501.503097
 11
1393.023482
 21
1498.009289
  0
LINE
  8
0
  6
CONTINUOUS
 62
1
 10
1391.833658
 20
1501.503097
 11
1391.992232
 21
1505.190549
  0
LINE
  8
0
  6
CONTINUOUS
 62
1
 10
1391.992232
 20
1505.190549
 11
1393.477584
 21
1508.569275
  0
LINE
  8
0
  6
CONTINUOUS
 62
1
 10
1393.477584
 20
1508.569275
 11
1396.087389
 21
1511.179136
  0
LINE
  8
0
  6
CONTINUOUS
 62
1
 10
1392.497847
 20
1412.033111
 11
1395.464587
 21
1426.947969
  0
LINE
  8
0
  6
CONTINUOUS
 62
1
 10
1392.751998
 20
1412.099638
 11
1395.712198
 21
1426.981601
  0
LINE
  8
0
  6
CONTINUOUS
 62
1
 10
1392.519266
 20
1412.030223
 11
1395.485462
 21
1426.942320
  0
LINE
  8
0
  6
CONTINUOUS
 62
1
 10
1369.759623
 20
1406.486882
 11
1369.759623
 21
1544.958560
  0
LINE
  8
0
  6
CONTINUOUS
 62
1
 10
1502.759616
 20
1438.958583
 11
1512.759620
 21
1438.958583
  0
LINE
  8
0
  6
CONTINUOUS
 62
1
 10
1497.975143
 20
1549.958581
 11
1517.544110
 21
1549.958581
  0
LINE
  8
0
  6
CONTINUOUS
 62
1
 10
1517.593670
 20
1553.494109
 11
1517.647257
 21
1552.352142
  0
LINE
  8
0
  6
CONTINUOUS
 62
1
 10
1497.871997
 20
1552.352142
 11
1497.925583
 21
1553.494109
  0
LINE
  8
0
  6
CONTINUOUS
 62
1
 10
1497.871997
 20
1552.352142
 11
1502.759616
 21
1438.958583
  0
LINE
  8
0
  6
CONTINUOUS
 62
1
 10
1512.759620
 20
1438.958583
 11
1517.647257
 21
1552.352142
  0
LINE
  8
0
  6
CONTINUOUS
 62
1
 10
1433.906346
 20
1463.679292
 11
1440.977394
 21
1470.750348
  0
LINE
  8
0
  6
CONTINUOUS
 62
1
 10
1409.471654
 20
1509.257073
 11
1440.977394
 21
1470.750348
  0
LINE
  8
0
  6
CONTINUOUS
 62
1
 10
1396.087389
 20
1511.179136
 11
1399.466172
 21
1512.664489
  0
LINE
  8
0
  6
CONTINUOUS
 62
1
 10
1399.466172
 20
1512.664489
 11
1403.153599
 21
1512.823025
  0
LINE
  8
0
  6
CONTINUOUS
 62
1
 10
1403.153599
 20
1512.823025
 11
1406.647434
 21
1511.633176
  0
LINE
  8
0
  6
CONTINUOUS
 62
1
 10
1406.647434
 20
1511.633176
 11
1409.471654
 21
1509.257073
  0
LINE
  8
0
  6
CONTINUOUS
 62
1
 10
1395.399699
 20
1495.185116
 11
1433.906346
 21
1463.679292
  0
LINE
  8
0
  6
CONTINUOUS
 62
1
 10
1415.527255
 20
1467.631055
 11
1421.187722
 21
1474.085556
  0
LINE
  8
0
  6
CONTINUOUS
 62
1
 10
1430.573426
 20
1483.466219
 11
1436.987231
 21
1489.090946
  0
LINE
  8
0
  6
CONTINUOUS
 62
1
 10
1522.934139
 20
1512.120399
 11
1537.848979
 21
1509.153673
  0
LINE
  8
0
  6
CONTINUOUS
 62
1
 10
1515.932904
 20
1512.579253
 11
1522.934122
 21
1512.120399
  0
LINE
  8
0
  6
CONTINUOUS
 62
1
 10
1492.585235
 20
1512.120399
 11
1499.586349
 21
1512.579253
  0
LINE
  8
0
  6
CONTINUOUS
 62
1
 10
1477.670429
 20
1509.153737
 11
1492.585131
 21
1512.120399
  0
LINE
  8
0
  6
CONTINUOUS
 62
1
 10
1463.270251
 20
1504.265461
 11
1477.670274
 21
1509.153673
  0
LINE
  8
0
  6
CONTINUOUS
 62
1
 10
1449.631533
 20
1497.539653
 11
1463.270251
 21
1504.265461
  0
LINE
  8
0
  6
CONTINUOUS
 62
1
 10
1436.987318
 20
1489.091010
 11
1449.631446
 21
1497.539589
  0
LINE
  8
0
  6
CONTINUOUS
 62
1
 10
1407.078649
 20
1454.986749
 11
1415.527203
 21
1467.630991
  0
LINE
  8
0
  6
CONTINUOUS
 62
1
 10
1400.352707
 20
1441.347972
 11
1407.078649
 21
1454.986749
  0
LINE
  8
0
  6
CONTINUOUS
 62
1
 10
1395.464587
 20
1426.947969
 11
1400.352707
 21
1441.347972
  0
LINE
  8
0
  6
CONTINUOUS
 62
1
 10
1531.602275
 20
1485.840461
 11
1543.012739
 21
1481.967131
  0
LINE
  8
0
  6
CONTINUOUS
 62
1
 10
1519.783786
 20
1488.191339
 11
1531.602275
 21
1485.840461
  0
LINE
  8
0
  6
CONTINUOUS
 62
1
 10
1514.895545
 20
1488.511683
 11
1519.783786
 21
1488.191339
  0
LINE
  8
0
  6
CONTINUOUS
 62
1
 10
1495.735449
 20
1488.191339
 11
1500.623708
 21
1488.511683
  0
LINE
  8
0
  6
CONTINUOUS
 62
1
 10
1483.916978
 20
1485.840461
 11
1495.735449
 21
1488.191339
  0
LINE
  8
0
  6
CONTINUOUS
 62
1
 10
1472.506514
 20
1481.967131
 11
1483.916978
 21
1485.840461
  0
LINE
  8
0
  6
CONTINUOUS
 62
1
 10
1461.699204
 20
1476.637588
 11
1472.506514
 21
1481.967131
  0
LINE
  8
0
  6
CONTINUOUS
 62
1
 10
1451.680036
 20
1469.942974
 11
1461.699204
 21
1476.637588
  0
LINE
  8
0
  6
CONTINUOUS
 62
1
 10
1442.620344
 20
1461.997857
 11
1451.680036
 21
1469.942974
  0
LINE
  8
0
  6
CONTINUOUS
 62
1
 10
1434.675271
 20
1452.938179
 11
1442.620344
 21
1461.997857
  0
LINE
  8
0
  6
CONTINUOUS
 62
1
 10
1427.980625
 20
1442.919011
 11
1434.675271
 21
1452.938179
  0
LINE
  8
0
  6
CONTINUOUS
 62
1
 10
1422.651042
 20
1432.111723
 11
1427.980625
 21
1442.919011
  0
LINE
  8
0
  6
CONTINUOUS
 62
1
 10
1418.777747
 20
1420.701168
 11
1422.651042
 21
1432.111723
  0
LINE
  8
0
  6
CONTINUOUS
 62
1
 10
1532.639254
 20
1456.923382
 11
1540.266454
 21
1453.162054
  0
LINE
  8
0
  6
CONTINUOUS
 62
1
 10
1524.586403
 20
1459.656927
 11
1532.639254
 21
1456.923382
  0
LINE
  8
0
  6
CONTINUOUS
 62
1
 10
1516.245593
 20
1461.316027
 11
1524.586403
 21
1459.656927
  0
LINE
  8
0
  6
CONTINUOUS
 62
1
 10
1513.730380
 20
1461.480916
 11
1516.245593
 21
1461.316027
  0
LINE
  8
0
  6
CONTINUOUS
 62
1
 10
1499.273661
 20
1461.316027
 11
1501.788821
 21
1461.480852
  0
LINE
  8
0
  6
CONTINUOUS
 62
1
 10
1490.932833
 20
1459.656927
 11
1499.273661
 21
1461.316027
  0
LINE
  8
0
  6
CONTINUOUS
 62
1
 10
1482.879982
 20
1456.923382
 11
1490.932833
 21
1459.656927
  0
LINE
  8
0
  6
CONTINUOUS
 62
1
 10
1475.252782
 20
1453.162054
 11
1482.879982
 21
1456.923382
  0
LINE
  8
0
  6
CONTINUOUS
 62
1
 10
1468.181803
 20
1448.437384
 11
1475.252782
 21
1453.162054
  0
LINE
  8
0
  6
CONTINUOUS
 62
1
 10
1461.788008
 20
1442.830180
 11
1468.181803
 21
1448.437384
  0
LINE
  8
0
  6
CONTINUOUS
 62
1
 10
1456.180834
 20
1436.436333
 11
1461.788008
 21
1442.830180
  0
LINE
  8
0
  6
CONTINUOUS
 62
1
 10
1451.456151
 20
1429.365406
 11
1456.180834
 21
1436.436333
  0
LINE
  8
0
  6
CONTINUOUS
 62
1
 10
1447.694868
 20
1421.738258
 11
1451.456151
 21
1429.365406
  0
LINE
  8
0
  6
CONTINUOUS
 62
1
 10
1437.097446
 20
1488.947366
 11
1437.143239
 21
1488.987481
  0
LINE
  8
0
  6
CONTINUOUS
 62
1
 10
1415.730627
 20
1467.574894
 11
1421.334778
 21
1473.965211
  0
LINE
  8
0
  6
CONTINUOUS
 62
1
 10
1395.712198
 20
1426.981601
 11
1400.589587
 21
1441.349897
  0
LINE
  8
0
  6
CONTINUOUS
 62
1
 10
1400.559865
 20
1441.262157
 11
1400.589587
 21
1441.349897
  0
LINE
  8
0
  6
CONTINUOUS
 62
1
 10
1407.300702
 20
1454.958572
 11
1415.730627
 21
1467.574894
  0
LINE
  8
0
  6
CONTINUOUS
 62
1
 10
1415.686442
 20
1467.508784
 11
1415.730593
 21
1467.574830
  0
LINE
  8
0
  6
CONTINUOUS
 62
1
 10
1437.143360
 20
1488.987609
 11
1449.759477
 21
1497.417382
  0
LINE
  8
0
  6
CONTINUOUS
 62
1
 10
1463.368334
 20
1504.128620
 11
1477.736613
 21
1509.005985
  0
LINE
  8
0
  6
CONTINUOUS
 62
1
 10
1477.712075
 20
1508.997641
 11
1477.736475
 21
1509.005920
  0
LINE
  8
0
  6
CONTINUOUS
 62
1
 10
1477.736613
 20
1509.005985
 11
1492.618569
 21
1511.966228
  0
LINE
  8
0
  6
CONTINUOUS
 62
1
 10
1522.900667
 20
1511.966228
 11
1537.782640
 21
1509.005985
  0
LINE
  8
0
  6
CONTINUOUS
 62
1
 10
1537.782640
 20
1509.005985
 11
1552.150919
 21
1504.128620
  0
LINE
  8
0
  6
CONTINUOUS
 62
1
 10
1400.589587
 20
1441.349897
 11
1407.300702
 21
1454.958572
  0
LINE
  8
0
  6
CONTINUOUS
 62
1
 10
1421.204449
 20
1474.071885
 11
1421.334761
 21
1473.965211
  0
LINE
  8
0
  6
CONTINUOUS
 62
1
 10
1415.544345
 20
1467.617833
 11
1421.204449
 21
1474.071885
  0
LINE
  8
0
  6
CONTINUOUS
 62
1
 10
1407.097329
 20
1454.975966
 11
1415.544345
 21
1467.617833
  0
LINE
  8
0
  6
CONTINUOUS
 62
1
 10
1400.372718
 20
1441.339692
 11
1407.097329
 21
1454.975966
  0
LINE
  8
0
  6
CONTINUOUS
 62
1
 10
1395.485462
 20
1426.942320
 11
1400.372718
 21
1441.339692
  0
LINE
  8
0
  6
CONTINUOUS
 62
1
 10
1522.931323
 20
1512.098961
 11
1537.843363
 21
1509.132749
  0
LINE
  8
0
  6
CONTINUOUS
 62
1
 10
1515.931971
 20
1512.557751
 11
1522.931323
 21
1512.098961
  0
LINE
  8
0
  6
CONTINUOUS
 62
1
 10
1492.587931
 20
1512.098961
 11
1499.587265
 21
1512.557687
  0
LINE
  8
0
  6
CONTINUOUS
 62
1
 10
1477.675821
 20
1509.132749
 11
1492.587931
 21
1512.098961
  0
LINE
  8
0
  6
CONTINUOUS
 62
1
 10
1463.278476
 20
1504.245500
 11
1477.675821
 21
1509.132749
  0
LINE
  8
0
  6
CONTINUOUS
 62
1
 10
1449.642246
 20
1497.520847
 11
1463.278476
 21
1504.245500
  0
LINE
  8
0
  6
CONTINUOUS
 62
1
 10
1437.000399
 20
1489.073809
 11
1449.642246
 21
1497.520847
  0
LINE
  8
0
  6
CONTINUOUS
 62
1
 10
1430.587077
 20
1483.449531
 11
1437.000399
 21
1489.073809
  0
LINE
  8
0
  6
CONTINUOUS
 62
1
 10
1430.687908
 20
1483.326298
 11
1437.143291
 21
1488.987545
  0
LINE
  8
0
  6
CONTINUOUS
 62
1
 10
1449.759632
 20
1497.417510
 11
1463.368334
 21
1504.128620
  0
LINE
  8
0
  6
CONTINUOUS
 62
1
 10
1492.618569
 20
1511.966228
 11
1499.593054
 21
1512.423285
  0
LINE
  8
0
  6
CONTINUOUS
 62
1
 10
1499.590738
 20
1512.475916
 11
1499.593054
 21
1512.423285
  0
LINE
  8
0
  6
CONTINUOUS
 62
1
 10
1515.926182
 20
1512.423285
 11
1522.900667
 21
1511.966228
  0
LINE
  8
0
  6
CONTINUOUS
 62
1
 10
1537.848979
 20
1509.153673
 11
1552.249002
 21
1504.265461
  0
LINE
  8
0
  6
CONTINUOUS
 62
1
 10
1369.759623
 20
1544.958560
 11
1498.190681
 21
1544.958560
  0
LINE
  8
0
  6
CONTINUOUS
 62
1
 10
1359.759627
 20
1554.958602
 11
1655.759626
 21
1554.958602
  0
LINE
  8
0
  6
CONTINUOUS
 62
1
 10
1497.925583
 20
1553.494109
 11
1498.326212
 21
1554.958602
  0
LINE
  8
0
  6
CONTINUOUS
 62
1
 10
1517.193042
 20
1554.958602
 11
1517.593670
 21
1553.494109
  0
LINE
  8
0
  6
CONTINUOUS
 62
1
 10
1581.651408
 20
1463.779292
 11
1620.158055
 21
1495.285051
  0
LINE
  8
0
  6
CONTINUOUS
 62
1
 10
1606.086083
 20
1509.357008
 11
1608.910320
 21
1511.733175
  0
LINE
  8
0
  6
CONTINUOUS
 62
1
 10
1608.910320
 20
1511.733175
 11
1612.404103
 21
1512.923088
  0
LINE
  8
0
  6
CONTINUOUS
 62
1
 10
1612.404103
 20
1512.923088
 11
1616.091599
 21
1512.764488
  0
LINE
  8
0
  6
CONTINUOUS
 62
1
 10
1616.091599
 20
1512.764488
 11
1619.470330
 21
1511.279135
  0
LINE
  8
0
  6
CONTINUOUS
 62
1
 10
1619.470330
 20
1511.279135
 11
1622.080187
 21
1508.669338
  0
LINE
  8
0
  6
CONTINUOUS
 62
1
 10
1622.080187
 20
1508.669338
 11
1623.565540
 21
1505.290548
  0
LINE
  8
0
  6
CONTINUOUS
 62
1
 10
1623.565540
 20
1505.290548
 11
1623.724104
 21
1501.603032
  0
LINE
  8
0
  6
CONTINUOUS
 62
1
 10
1622.534212
 20
1498.109288
 11
1623.724104
 21
1501.603032
  0
LINE
  8
0
  6
CONTINUOUS
 62
1
 10
1620.158055
 20
1495.285051
 11
1622.534212
 21
1498.109288
  0
LINE
  8
0
  6
CONTINUOUS
 62
1
 10
1574.580308
 20
1470.850347
 11
1606.086083
 21
1509.357008
  0
LINE
  8
0
  6
CONTINUOUS
 62
1
 10
1574.580308
 20
1470.850347
 11
1581.651408
 21
1463.779292
  0
LINE
  8
0
  6
CONTINUOUS
 62
1
 10
1615.166477
 20
1441.347972
 11
1620.054649
 21
1426.947969
  0
LINE
  8
0
  6
CONTINUOUS
 62
1
 10
1608.440708
 20
1454.986557
 11
1615.166477
 21
1441.347972
  0
LINE
  8
0
  6
CONTINUOUS
 62
1
 10
1599.991981
 20
1467.630991
 11
1608.440604
 21
1454.986749
  0
LINE
  8
0
  6
CONTINUOUS
 62
1
 10
1594.296539
 20
1474.125479
 11
1599.991981
 21
1467.630991
  0
LINE
  8
0
  6
CONTINUOUS
 62
1
 10
1578.532022
 20
1489.090946
 11
1584.920581
 21
1483.488363
  0
LINE
  8
0
  6
CONTINUOUS
 62
1
 10
1565.887790
 20
1497.539589
 11
1578.532022
 21
1489.090946
  0
LINE
  8
0
  6
CONTINUOUS
 62
1
 10
1552.249244
 20
1504.265333
 11
1565.887790
 21
1497.539589
  0
LINE
  8
0
  6
CONTINUOUS
 62
1
 10
1592.868211
 20
1432.111723
 11
1596.741506
 21
1420.701168
  0
LINE
  8
0
  6
CONTINUOUS
 62
1
 10
1587.538629
 20
1442.919011
 11
1592.868211
 21
1432.111723
  0
LINE
  8
0
  6
CONTINUOUS
 62
1
 10
1580.843965
 20
1452.938179
 11
1587.538629
 21
1442.919011
  0
LINE
  8
0
  6
CONTINUOUS
 62
1
 10
1572.898892
 20
1461.997857
 11
1580.843965
 21
1452.938179
  0
LINE
  8
0
  6
CONTINUOUS
 62
1
 10
1563.839200
 20
1469.942974
 11
1572.898892
 21
1461.997857
  0
LINE
  8
0
  6
CONTINUOUS
 62
1
 10
1553.820032
 20
1476.637588
 11
1563.839200
 21
1469.942974
  0
LINE
  8
0
  6
CONTINUOUS
 62
1
 10
1543.012739
 20
1481.967131
 11
1553.820032
 21
1476.637588
  0
LINE
  8
0
  6
CONTINUOUS
 62
1
 10
1564.063085
 20
1429.365406
 11
1567.824368
 21
1421.738258
  0
LINE
  8
0
  6
CONTINUOUS
 62
1
 10
1559.338419
 20
1436.436333
 11
1564.063085
 21
1429.365406
  0
LINE
  8
0
  6
CONTINUOUS
 62
1
 10
1553.731176
 20
1442.830180
 11
1559.338419
 21
1436.436333
  0
LINE
  8
0
  6
CONTINUOUS
 62
1
 10
1547.337433
 20
1448.437384
 11
1553.731176
 21
1442.830180
  0
LINE
  8
0
  6
CONTINUOUS
 62
1
 10
1540.266454
 20
1453.162054
 11
1547.337433
 21
1448.437384
  0
LINE
  8
0
  6
CONTINUOUS
 62
1
 10
1578.375945
 20
1488.987545
 11
1584.806116
 21
1483.348505
  0
LINE
  8
0
  6
CONTINUOUS
 62
1
 10
1552.150919
 20
1504.128620
 11
1565.759638
 21
1497.417510
  0
LINE
  8
0
  6
CONTINUOUS
 62
1
 10
1565.759638
 20
1497.417510
 11
1578.375945
 21
1488.987545
  0
LINE
  8
0
  6
CONTINUOUS
 62
1
 10
1599.788626
 20
1467.574894
 11
1608.218551
 21
1454.958572
  0
LINE
  8
0
  6
CONTINUOUS
 62
1
 10
1614.929666
 20
1441.349833
 11
1614.959389
 21
1441.262157
  0
LINE
  8
0
  6
CONTINUOUS
 62
1
 10
1614.929666
 20
1441.349897
 11
1619.806986
 21
1426.981601
  0
LINE
  8
0
  6
CONTINUOUS
 62
1
 10
1594.149448
 20
1474.005069
 11
1599.788626
 21
1467.574894
  0
LINE
  8
0
  6
CONTINUOUS
 62
1
 10
1599.788626
 20
1467.574894
 11
1608.218551
 21
1454.958572
  0
LINE
  8
0
  6
CONTINUOUS
 62
1
 10
1608.218551
 20
1454.958572
 11
1614.929666
 21
1441.349897
  0
LINE
  8
0
  6
CONTINUOUS
 62
1
 10
1619.806986
 20
1426.981601
 11
1622.767255
 21
1412.099638
  0
LINE
  8
0
  6
CONTINUOUS
 62
1
 10
1615.146535
 20
1441.339692
 11
1620.033809
 21
1426.942320
  0
LINE
  8
0
  6
CONTINUOUS
 62
1
 10
1608.421838
 20
1454.975966
 11
1615.146535
 21
1441.339692
  0
LINE
  8
0
  6
CONTINUOUS
 62
1
 10
1599.974839
 20
1467.617833
 11
1608.421838
 21
1454.975966
  0
LINE
  8
0
  6
CONTINUOUS
 62
1
 10
1594.279811
 20
1474.111808
 11
1599.974839
 21
1467.617833
  0
LINE
  8
0
  6
CONTINUOUS
 62
1
 10
1578.518854
 20
1489.073809
 11
1584.906895
 21
1483.471675
  0
LINE
  8
0
  6
CONTINUOUS
 62
1
 10
1565.877007
 20
1497.520847
 11
1578.518854
 21
1489.073809
  0
LINE
  8
0
  6
CONTINUOUS
 62
1
 10
1552.240777
 20
1504.245500
 11
1565.877007
 21
1497.520847
  0
LINE
  8
0
  6
CONTINUOUS
 62
1
 10
1537.843363
 20
1509.132749
 11
1552.240777
 21
1504.245500
  0
LINE
  8
0
  6
CONTINUOUS
 62
1
 10
1537.782640
 20
1509.005985
 11
1552.150919
 21
1504.128620
  0
LINE
  8
0
  6
CONTINUOUS
 62
1
 10
1552.150919
 20
1504.128620
 11
1565.759638
 21
1497.417510
  0
LINE
  8
0
  6
CONTINUOUS
 62
1
 10
1565.759638
 20
1497.417510
 11
1578.375945
 21
1488.987545
  0
LINE
  8
0
  6
CONTINUOUS
 62
1
 10
1517.328589
 20
1544.958560
 11
1645.759605
 21
1544.958560
  0
LINE
  8
0
  6
CONTINUOUS
 62
1
 10
1645.759605
 20
1406.486882
 11
1645.759605
 21
1544.958560
  0
LINE
  8
0
  6
CONTINUOUS
 62
1
 10
1658.759627
 20
946.958551
 11
1954.759626
 21
946.958551
  0
LINE
  8
0
  6
CONTINUOUS
 62
1
 10
1658.759627
 20
946.958551
 11
1658.759627
 21
1554.958602
  0
LINE
  8
0
  6
CONTINUOUS
 62
1
 10
1692.439066
 20
993.247839
 11
1695.048871
 21
990.638001
  0
LINE
  8
0
  6
CONTINUOUS
 62
1
 10
1690.953713
 20
996.626613
 11
1692.439066
 21
993.247839
  0
LINE
  8
0
  6
CONTINUOUS
 62
1
 10
1690.795149
 20
1000.314056
 11
1690.953713
 21
996.626613
  0
LINE
  8
0
  6
CONTINUOUS
 62
1
 10
1690.795149
 20
1000.314056
 11
1691.985024
 21
1003.807856
  0
LINE
  8
0
  6
CONTINUOUS
 62
1
 10
1691.985024
 20
1003.807856
 11
1694.361190
 21
1006.632078
  0
LINE
  8
0
  6
CONTINUOUS
 62
1
 10
1708.433153
 20
992.560120
 11
1739.938945
 21
1031.066782
  0
LINE
  8
0
  6
CONTINUOUS
 62
1
 10
1705.608933
 20
990.183946
 11
1708.433153
 21
992.560120
  0
LINE
  8
0
  6
CONTINUOUS
 62
1
 10
1702.115098
 20
988.994089
 11
1705.608933
 21
990.183946
  0
LINE
  8
0
  6
CONTINUOUS
 62
1
 10
1698.427654
 20
989.152648
 11
1702.115098
 21
988.994089
  0
LINE
  8
0
  6
CONTINUOUS
 62
1
 10
1695.048871
 20
990.638001
 11
1698.427654
 21
989.152648
  0
LINE
  8
0
  6
CONTINUOUS
 62
1
 10
1796.975143
 20
952.058555
 11
1816.544110
 21
952.058555
  0
LINE
  8
0
  6
CONTINUOUS
 62
1
 10
1796.871996
 20
949.665026
 11
1796.925583
 21
948.523027
  0
LINE
  8
0
  6
CONTINUOUS
 62
1
 10
1816.593670
 20
948.523027
 11
1816.647257
 21
949.665026
  0
LINE
  8
0
  6
CONTINUOUS
 62
1
 10
1816.193577
 20
947.060684
 11
1816.593670
 21
948.523027
  0
LINE
  8
0
  6
CONTINUOUS
 62
1
 10
1796.925583
 20
948.523027
 11
1797.325607
 21
947.060684
  0
LINE
  8
0
  6
CONTINUOUS
 62
1
 10
1811.759620
 20
1063.058561
 11
1816.647257
 21
949.665026
  0
LINE
  8
0
  6
CONTINUOUS
 62
1
 10
1796.871996
 20
949.665026
 11
1801.759616
 21
1063.058561
  0
LINE
  8
0
  6
CONTINUOUS
 62
1
 10
1798.590738
 20
989.541212
 11
1798.593054
 21
989.593819
  0
LINE
  8
0
  6
CONTINUOUS
 62
1
 10
1813.899831
 20
1013.405719
 11
1818.783786
 21
1013.725830
  0
LINE
  8
0
  6
CONTINUOUS
 62
1
 10
1794.735449
 20
1013.725830
 11
1799.619388
 21
1013.405727
  0
LINE
  8
0
  6
CONTINUOUS
 62
1
 10
1814.932904
 20
989.437883
 11
1814.937241
 21
989.338165
  0
LINE
  8
0
  6
CONTINUOUS
 62
1
 10
1791.585148
 20
989.796762
 11
1798.582012
 21
989.338165
  0
LINE
  8
0
  6
CONTINUOUS
 62
1
 10
1814.937241
 20
989.338165
 11
1821.934122
 21
989.796762
  0
LINE
  8
0
  6
CONTINUOUS
 62
1
 10
1821.934139
 20
989.796762
 11
1836.848979
 21
992.763512
  0
LINE
  8
0
  6
CONTINUOUS
 62
1
 10
1776.670274
 20
992.763512
 11
1791.585131
 21
989.796762
  0
LINE
  8
0
  6
CONTINUOUS
 62
1
 10
1762.270251
 20
997.651668
 11
1776.670274
 21
992.763512
  0
LINE
  8
0
  6
CONTINUOUS
 62
1
 10
1748.631446
 20
1004.377580
 11
1762.270251
 21
997.651668
  0
LINE
  8
0
  6
CONTINUOUS
 62
1
 10
1735.987249
 20
1012.826151
 11
1748.631446
 21
1004.377580
  0
LINE
  8
0
  6
CONTINUOUS
 62
1
 10
1729.713120
 20
1018.568688
 11
1736.143291
 21
1012.929560
  0
LINE
  8
0
  6
CONTINUOUS
 62
1
 10
1836.782640
 20
992.911160
 11
1851.150919
 21
997.788525
  0
LINE
  8
0
  6
CONTINUOUS
 62
1
 10
1814.930519
 20
989.494109
 11
1821.900667
 21
989.950957
  0
LINE
  8
0
  6
CONTINUOUS
 62
1
 10
1762.368334
 20
997.788525
 11
1776.736561
 21
992.911176
  0
LINE
  8
0
  6
CONTINUOUS
 62
1
 10
1748.759667
 20
1004.499611
 11
1762.368300
 21
997.788541
  0
LINE
  8
0
  6
CONTINUOUS
 62
1
 10
1729.598638
 20
1018.428766
 11
1735.987231
 21
1012.826167
  0
LINE
  8
0
  6
CONTINUOUS
 62
1
 10
1736.063455
 20
1012.925492
 11
1748.694018
 21
1004.486004
  0
LINE
  8
0
  6
CONTINUOUS
 62
1
 10
1748.694018
 20
1004.486004
 11
1762.318152
 21
997.767328
  0
LINE
  8
0
  6
CONTINUOUS
 62
1
 10
1762.318152
 20
997.767328
 11
1776.702674
 21
992.884444
  0
LINE
  8
0
  6
CONTINUOUS
 62
1
 10
1776.702674
 20
992.884444
 11
1791.601478
 21
989.920886
  0
LINE
  8
0
  6
CONTINUOUS
 62
1
 10
1791.601478
 20
989.920886
 11
1798.587403
 21
989.463004
  0
LINE
  8
0
  6
CONTINUOUS
 62
1
 10
1814.931850
 20
989.463004
 11
1821.917757
 21
989.920886
  0
LINE
  8
0
  6
CONTINUOUS
 62
1
 10
1821.917757
 20
989.920886
 11
1836.816561
 21
992.884444
  0
LINE
  8
0
  6
CONTINUOUS
 62
1
 10
1821.900667
 20
989.950957
 11
1836.782640
 21
992.911160
  0
LINE
  8
0
  6
CONTINUOUS
 62
1
 10
1791.618569
 20
989.950957
 11
1798.588751
 21
989.494109
  0
LINE
  8
0
  6
CONTINUOUS
 62
1
 10
1776.736613
 20
992.911160
 11
1791.618569
 21
989.950957
  0
LINE
  8
0
  6
CONTINUOUS
 62
1
 10
1762.368334
 20
997.788525
 11
1776.736613
 21
992.911160
  0
LINE
  8
0
  6
CONTINUOUS
 62
1
 10
1748.759632
 20
1004.499619
 11
1762.368334
 21
997.788525
  0
LINE
  8
0
  6
CONTINUOUS
 62
1
 10
1736.143291
 20
1012.929560
 11
1748.759632
 21
1004.499619
  0
LINE
  8
0
  6
CONTINUOUS
 62
1
 10
1797.325607
 20
947.060684
 11
1816.193577
 21
947.060684
  0
LINE
  8
0
  6
CONTINUOUS
 62
1
 10
1668.759622
 20
956.958552
 11
1797.186344
 21
956.958552
  0
LINE
  8
0
  6
CONTINUOUS
 62
1
 10
1658.759627
 20
1114.391972
 11
1660.224105
 21
1114.792611
  0
LINE
  8
0
  6
CONTINUOUS
 62
1
 10
1660.224105
 20
1114.792611
 11
1661.253463
 21
1114.840925
  0
LINE
  8
0
  6
CONTINUOUS
 62
1
 10
1660.224105
 20
1095.124521
 11
1661.253463
 21
1095.076190
  0
LINE
  8
0
  6
CONTINUOUS
 62
1
 10
1658.759627
 20
1095.525143
 11
1660.224105
 21
1095.124521
  0
LINE
  8
0
  6
CONTINUOUS
 62
1
 10
1661.253463
 20
1114.840925
 11
1764.759629
 21
1109.958554
  0
LINE
  8
0
  6
CONTINUOUS
 62
1
 10
1661.253463
 20
1095.076190
 11
1764.759629
 21
1099.958561
  0
LINE
  8
0
  6
CONTINUOUS
 62
1
 10
1691.052298
 20
1113.435305
 11
1691.497847
 21
1120.233064
  0
LINE
  8
0
  6
CONTINUOUS
 62
1
 10
1691.065388
 20
1096.482436
 11
1691.497847
 21
1089.884066
  0
LINE
  8
0
  6
CONTINUOUS
 62
1
 10
1691.497847
 20
1120.233064
 11
1694.464587
 21
1135.147921
  0
LINE
  8
0
  6
CONTINUOUS
 62
1
 10
1691.497847
 20
1089.884066
 11
1694.464587
 21
1074.969192
  0
LINE
  8
0
  6
CONTINUOUS
 62
1
 10
1691.314433
 20
1113.422950
 11
1691.751998
 21
1120.099593
  0
LINE
  8
0
  6
CONTINUOUS
 62
1
 10
1691.314424
 20
1096.494182
 11
1691.751998
 21
1089.817523
  0
LINE
  8
0
  6
CONTINUOUS
 62
1
 10
1691.751998
 20
1089.817523
 11
1694.712198
 21
1074.935544
  0
LINE
  8
0
  6
CONTINUOUS
 62
1
 10
1691.751998
 20
1120.099609
 11
1691.771404
 21
1120.197057
  0
LINE
  8
0
  6
CONTINUOUS
 62
1
 10
1691.751998
 20
1120.099593
 11
1694.712198
 21
1134.981572
  0
LINE
  8
0
  6
CONTINUOUS
 62
1
 10
1691.621929
 20
1120.216729
 11
1694.585498
 21
1135.115508
  0
LINE
  8
0
  6
CONTINUOUS
 62
1
 10
1691.177114
 20
1113.429432
 11
1691.621929
 21
1120.216729
  0
LINE
  8
0
  6
CONTINUOUS
 62
1
 10
1691.190144
 20
1096.488309
 11
1691.621929
 21
1089.900417
  0
LINE
  8
0
  6
CONTINUOUS
 62
1
 10
1691.621929
 20
1089.900417
 11
1694.585498
 21
1075.001605
  0
LINE
  8
0
  6
CONTINUOUS
 62
1
 10
1691.314390
 20
1096.494182
 11
1691.751998
 21
1089.817523
  0
LINE
  8
0
  6
CONTINUOUS
 62
1
 10
1668.759622
 20
956.958552
 11
1668.759622
 21
1095.430263
  0
LINE
  8
0
  6
CONTINUOUS
 62
1
 10
1764.759629
 20
1099.958561
 11
1764.759629
 21
1109.958554
  0
LINE
  8
0
  6
CONTINUOUS
 62
1
 10
1732.867845
 20
1038.137869
 11
1739.938945
 21
1031.066782
  0
LINE
  8
0
  6
CONTINUOUS
 62
1
 10
1694.361190
 20
1006.632078
 11
1732.867845
 21
1038.137869
  0
LINE
  8
0
  6
CONTINUOUS
 62
1
 10
1801.759616
 20
1063.058561
 11
1811.759620
 21
1063.058561
  0
LINE
  8
0
  6
CONTINUOUS
 62
1
 10
1801.759616
 20
1146.958570
 11
1811.759620
 21
1146.958570
  0
LINE
  8
0
  6
CONTINUOUS
 62
1
 10
1742.167769
 20
1093.791734
 11
1742.883644
 21
1093.649325
  0
LINE
  8
0
  6
CONTINUOUS
 62
1
 10
1738.274636
 20
1096.393011
 11
1742.167769
 21
1093.791734
  0
LINE
  8
0
  6
CONTINUOUS
 62
1
 10
1736.774267
 20
1098.638499
 11
1738.274636
 21
1096.393011
  0
LINE
  8
0
  6
CONTINUOUS
 62
1
 10
1736.878243
 20
1111.273723
 11
1738.274636
 21
1113.363579
  0
LINE
  8
0
  6
CONTINUOUS
 62
1
 10
1738.274636
 20
1113.363579
 11
1742.167769
 21
1115.964840
  0
LINE
  8
0
  6
CONTINUOUS
 62
1
 10
1742.167769
 20
1115.964840
 11
1742.809010
 21
1116.092391
  0
LINE
  8
0
  6
CONTINUOUS
 62
1
 10
1831.639254
 20
1044.993795
 11
1839.266454
 21
1048.755091
  0
LINE
  8
0
  6
CONTINUOUS
 62
1
 10
1823.586403
 20
1042.260202
 11
1831.639254
 21
1044.993795
  0
LINE
  8
0
  6
CONTINUOUS
 62
1
 10
1815.245593
 20
1040.601118
 11
1823.586403
 21
1042.260202
  0
LINE
  8
0
  6
CONTINUOUS
 62
1
 10
1812.734700
 20
1040.436550
 11
1815.245593
 21
1040.601118
  0
LINE
  8
0
  6
CONTINUOUS
 62
1
 10
1798.273660
 20
1040.601118
 11
1800.784518
 21
1040.436550
  0
LINE
  8
0
  6
CONTINUOUS
 62
1
 10
1789.932832
 20
1042.260202
 11
1798.273660
 21
1040.601118
  0
LINE
  8
0
  6
CONTINUOUS
 62
1
 10
1781.879982
 20
1044.993795
 11
1789.932832
 21
1042.260202
  0
LINE
  8
0
  6
CONTINUOUS
 62
1
 10
1774.252782
 20
1048.755091
 11
1781.879982
 21
1044.993795
  0
LINE
  8
0
  6
CONTINUOUS
 62
1
 10
1767.181803
 20
1053.479761
 11
1774.252782
 21
1048.755091
  0
LINE
  8
0
  6
CONTINUOUS
 62
1
 10
1760.788008
 20
1059.086981
 11
1767.181803
 21
1053.479761
  0
LINE
  8
0
  6
CONTINUOUS
 62
1
 10
1755.180834
 20
1065.480764
 11
1760.788008
 21
1059.086981
  0
LINE
  8
0
  6
CONTINUOUS
 62
1
 10
1750.456151
 20
1072.551739
 11
1755.180834
 21
1065.480764
  0
LINE
  8
0
  6
CONTINUOUS
 62
1
 10
1746.694868
 20
1080.178919
 11
1750.456151
 21
1072.551739
  0
LINE
  8
0
  6
CONTINUOUS
 62
1
 10
1743.961283
 20
1088.231802
 11
1746.694868
 21
1080.178919
  0
LINE
  8
0
  6
CONTINUOUS
 62
1
 10
1742.883644
 20
1093.649325
 11
1743.961283
 21
1088.231802
  0
LINE
  8
0
  6
CONTINUOUS
 62
1
 10
1742.809010
 20
1116.092391
 11
1743.961283
 21
1121.885328
  0
LINE
  8
0
  6
CONTINUOUS
 62
1
 10
1743.961283
 20
1121.885328
 11
1746.694868
 21
1129.938211
  0
LINE
  8
0
  6
CONTINUOUS
 62
1
 10
1746.694868
 20
1129.938211
 11
1750.456151
 21
1137.565375
  0
LINE
  8
0
  6
CONTINUOUS
 62
1
 10
1750.456151
 20
1137.565375
 11
1755.180834
 21
1144.636366
  0
LINE
  8
0
  6
CONTINUOUS
 62
1
 10
1755.180834
 20
1144.636366
 11
1760.788008
 21
1151.030149
  0
LINE
  8
0
  6
CONTINUOUS
 62
1
 10
1715.113474
 20
1112.300367
 11
1715.426854
 21
1117.082754
  0
LINE
  8
0
  6
CONTINUOUS
 62
1
 10
1715.126486
 20
1097.617391
 11
1715.426854
 21
1093.034375
  0
LINE
  8
0
  6
CONTINUOUS
 62
1
 10
1717.777747
 20
1128.901185
 11
1721.651042
 21
1140.311676
  0
LINE
  8
0
  6
CONTINUOUS
 62
1
 10
1721.651042
 20
1140.311676
 11
1726.980625
 21
1151.118980
  0
LINE
  8
0
  6
CONTINUOUS
 62
1
 10
1830.602275
 20
1016.076652
 11
1842.012739
 21
1019.950014
  0
LINE
  8
0
  6
CONTINUOUS
 62
1
 10
1818.783786
 20
1013.725830
 11
1830.602275
 21
1016.076652
  0
LINE
  8
0
  6
CONTINUOUS
 62
1
 10
1782.916978
 20
1016.076652
 11
1794.735449
 21
1013.725830
  0
LINE
  8
0
  6
CONTINUOUS
 62
1
 10
1771.506514
 20
1019.950014
 11
1782.916978
 21
1016.076652
  0
LINE
  8
0
  6
CONTINUOUS
 62
1
 10
1760.699204
 20
1025.279573
 11
1771.506514
 21
1019.950014
  0
LINE
  8
0
  6
CONTINUOUS
 62
1
 10
1750.680036
 20
1031.974187
 11
1760.699204
 21
1025.279573
  0
LINE
  8
0
  6
CONTINUOUS
 62
1
 10
1741.620344
 20
1039.919288
 11
1750.680036
 21
1031.974187
  0
LINE
  8
0
  6
CONTINUOUS
 62
1
 10
1733.675271
 20
1048.978950
 11
1741.620344
 21
1039.919288
  0
LINE
  8
0
  6
CONTINUOUS
 62
1
 10
1726.980625
 20
1058.998134
 11
1733.675271
 21
1048.978950
  0
LINE
  8
0
  6
CONTINUOUS
 62
1
 10
1715.426854
 20
1093.034375
 11
1717.777747
 21
1081.215929
  0
LINE
  8
0
  6
CONTINUOUS
 62
1
 10
1715.426854
 20
1117.082754
 11
1717.777747
 21
1128.901185
  0
LINE
  8
0
  6
CONTINUOUS
 62
1
 10
1721.651042
 20
1069.805437
 11
1726.980625
 21
1058.998134
  0
LINE
  8
0
  6
CONTINUOUS
 62
1
 10
1717.777747
 20
1081.215929
 11
1721.651042
 21
1069.805437
  0
LINE
  8
0
  6
CONTINUOUS
 62
1
 10
1714.527220
 20
1034.286138
 11
1720.222697
 21
1027.791714
  0
LINE
  8
0
  6
CONTINUOUS
 62
1
 10
1694.464587
 20
1135.147937
 11
1699.352707
 21
1149.547941
  0
LINE
  8
0
  6
CONTINUOUS
 62
1
 10
1706.078649
 20
1046.930363
 11
1714.527203
 21
1034.286170
  0
LINE
  8
0
  6
CONTINUOUS
 62
1
 10
1699.352707
 20
1060.569173
 11
1706.078649
 21
1046.930379
  0
LINE
  8
0
  6
CONTINUOUS
 62
1
 10
1694.464604
 20
1074.969160
 11
1699.352707
 21
1060.569173
  0
LINE
  8
0
  6
CONTINUOUS
 62
1
 10
1714.730627
 20
1034.342235
 11
1720.369736
 21
1027.912044
  0
LINE
  8
0
  6
CONTINUOUS
 62
1
 10
1706.300702
 20
1046.958556
 11
1714.730627
 21
1034.342235
  0
LINE
  8
0
  6
CONTINUOUS
 62
1
 10
1699.559865
 20
1060.654955
 11
1699.589587
 21
1060.567280
  0
LINE
  8
0
  6
CONTINUOUS
 62
1
 10
1694.712198
 20
1074.935544
 11
1699.589587
 21
1060.567280
  0
LINE
  8
0
  6
CONTINUOUS
 62
1
 10
1694.712198
 20
1134.981588
 11
1699.589587
 21
1149.349868
  0
LINE
  8
0
  6
CONTINUOUS
 62
1
 10
1694.585498
 20
1135.115508
 11
1699.468365
 21
1149.500027
  0
LINE
  8
0
  6
CONTINUOUS
 62
1
 10
1694.712198
 20
1134.981572
 11
1699.589587
 21
1149.349868
  0
LINE
  8
0
  6
CONTINUOUS
 62
1
 10
1694.585498
 20
1075.001605
 11
1699.468365
 21
1060.617087
  0
LINE
  8
0
  6
CONTINUOUS
 62
1
 10
1699.468365
 20
1060.617087
 11
1706.187048
 21
1046.992959
  0
LINE
  8
0
  6
CONTINUOUS
 62
1
 10
1706.187048
 20
1046.992959
 11
1714.626565
 21
1034.362373
  0
LINE
  8
0
  6
CONTINUOUS
 62
1
 10
1714.626565
 20
1034.362373
 11
1720.319433
 21
1027.870885
  0
LINE
  8
0
  6
CONTINUOUS
 62
1
 10
1699.589587
 20
1060.567280
 11
1706.300702
 21
1046.958556
  0
LINE
  8
0
  6
CONTINUOUS
 62
1
 10
1729.677782
 20
1018.525540
 11
1736.063455
 21
1012.925492
  0
LINE
  8
0
  6
CONTINUOUS
 62
1
 10
1729.713120
 20
1018.568688
 11
1736.143291
 21
1012.929560
  0
LINE
  8
0
  6
CONTINUOUS
 62
1
 10
1919.158055
 20
1006.632078
 11
1921.534211
 21
1003.807856
  0
LINE
  8
0
  6
CONTINUOUS
 62
1
 10
1921.534211
 20
1003.807856
 11
1922.724104
 21
1000.314056
  0
LINE
  8
0
  6
CONTINUOUS
 62
1
 10
1922.565540
 20
996.626613
 11
1922.724104
 21
1000.314056
  0
LINE
  8
0
  6
CONTINUOUS
 62
1
 10
1921.080187
 20
993.247839
 11
1922.565540
 21
996.626613
  0
LINE
  8
0
  6
CONTINUOUS
 62
1
 10
1918.470330
 20
990.638001
 11
1921.080187
 21
993.247839
  0
LINE
  8
0
  6
CONTINUOUS
 62
1
 10
1915.091599
 20
989.152648
 11
1918.470330
 21
990.638001
  0
LINE
  8
0
  6
CONTINUOUS
 62
1
 10
1911.404103
 20
988.994089
 11
1915.091599
 21
989.152648
  0
LINE
  8
0
  6
CONTINUOUS
 62
1
 10
1907.910320
 20
990.183946
 11
1911.404103
 21
988.994089
  0
LINE
  8
0
  6
CONTINUOUS
 62
1
 10
1905.086083
 20
992.560120
 11
1907.910320
 21
990.183946
  0
LINE
  8
0
  6
CONTINUOUS
 62
1
 10
1873.580308
 20
1031.066782
 11
1905.086083
 21
992.560120
  0
LINE
  8
0
  6
CONTINUOUS
 62
1
 10
1864.887790
 20
1004.377580
 11
1877.532022
 21
1012.826167
  0
LINE
  8
0
  6
CONTINUOUS
 62
1
 10
1851.249002
 20
997.651668
 11
1864.887790
 21
1004.377580
  0
LINE
  8
0
  6
CONTINUOUS
 62
1
 10
1836.848979
 20
992.763512
 11
1851.249002
 21
997.651668
  0
LINE
  8
0
  6
CONTINUOUS
 62
1
 10
1877.375945
 20
1012.929560
 11
1883.806115
 21
1018.568688
  0
LINE
  8
0
  6
CONTINUOUS
 62
1
 10
1864.759638
 20
1004.499619
 11
1877.375945
 21
1012.929560
  0
LINE
  8
0
  6
CONTINUOUS
 62
1
 10
1851.150919
 20
997.788525
 11
1864.759638
 21
1004.499619
  0
LINE
  8
0
  6
CONTINUOUS
 62
1
 10
1836.816561
 20
992.884444
 11
1851.201101
 21
997.767328
  0
LINE
  8
0
  6
CONTINUOUS
 62
1
 10
1851.201101
 20
997.767328
 11
1864.825235
 21
1004.486004
  0
LINE
  8
0
  6
CONTINUOUS
 62
1
 10
1864.825235
 20
1004.486004
 11
1877.455781
 21
1012.925492
  0
LINE
  8
0
  6
CONTINUOUS
 62
1
 10
1836.782640
 20
992.911160
 11
1851.150919
 21
997.788525
  0
LINE
  8
0
  6
CONTINUOUS
 62
1
 10
1816.332874
 20
956.958552
 11
1944.759605
 21
956.958552
  0
LINE
  8
0
  6
CONTINUOUS
 62
1
 10
1880.651408
 20
1038.137869
 11
1919.158055
 21
1006.632078
  0
LINE
  8
0
  6
CONTINUOUS
 62
1
 10
1873.580308
 20
1031.066782
 11
1880.651408
 21
1038.137869
  0
LINE
  8
0
  6
CONTINUOUS
 62
1
 10
1848.759624
 20
1099.958561
 11
1848.759624
 21
1109.958554
  0
LINE
  8
0
  6
CONTINUOUS
 62
1
 10
1952.265790
 20
1114.840925
 11
1953.295148
 21
1114.792611
  0
LINE
  8
0
  6
CONTINUOUS
 62
1
 10
1953.295148
 20
1114.792611
 11
1954.759626
 21
1114.391972
  0
LINE
  8
0
  6
CONTINUOUS
 62
1
 10
1953.295148
 20
1095.124521
 11
1954.759626
 21
1095.525143
  0
LINE
  8
0
  6
CONTINUOUS
 62
1
 10
1952.265790
 20
1095.076190
 11
1953.295148
 21
1095.124521
  0
LINE
  8
0
  6
CONTINUOUS
 62
1
 10
1848.759624
 20
1109.958554
 11
1952.265790
 21
1114.840925
  0
LINE
  8
0
  6
CONTINUOUS
 62
1
 10
1848.759624
 20
1099.958561
 11
1952.265790
 21
1095.076190
  0
LINE
  8
0
  6
CONTINUOUS
 62
1
 10
1852.731176
 20
1151.030149
 11
1858.338419
 21
1144.636366
  0
LINE
  8
0
  6
CONTINUOUS
 62
1
 10
1858.338419
 20
1144.636366
 11
1863.063084
 21
1137.565375
  0
LINE
  8
0
  6
CONTINUOUS
 62
1
 10
1863.063084
 20
1137.565375
 11
1866.824368
 21
1129.938211
  0
LINE
  8
0
  6
CONTINUOUS
 62
1
 10
1866.824368
 20
1129.938211
 11
1869.557952
 21
1121.885328
  0
LINE
  8
0
  6
CONTINUOUS
 62
1
 10
1869.557952
 20
1121.885328
 11
1871.217077
 21
1113.544547
  0
LINE
  8
0
  6
CONTINUOUS
 62
1
 10
1871.217077
 20
1113.544547
 11
1871.382174
 21
1111.025666
  0
LINE
  8
0
  6
CONTINUOUS
 62
1
 10
1871.217077
 20
1096.572567
 11
1871.369110
 21
1098.892091
  0
LINE
  8
0
  6
CONTINUOUS
 62
1
 10
1869.557952
 20
1088.231802
 11
1871.217077
 21
1096.572567
  0
LINE
  8
0
  6
CONTINUOUS
 62
1
 10
1866.824368
 20
1080.178919
 11
1869.557952
 21
1088.231802
  0
LINE
  8
0
  6
CONTINUOUS
 62
1
 10
1863.063084
 20
1072.551739
 11
1866.824368
 21
1080.178919
  0
LINE
  8
0
  6
CONTINUOUS
 62
1
 10
1858.338419
 20
1065.480764
 11
1863.063084
 21
1072.551739
  0
LINE
  8
0
  6
CONTINUOUS
 62
1
 10
1852.731176
 20
1059.086981
 11
1858.338419
 21
1065.480764
  0
LINE
  8
0
  6
CONTINUOUS
 62
1
 10
1846.337432
 20
1053.479761
 11
1852.731176
 21
1059.086981
  0
LINE
  8
0
  6
CONTINUOUS
 62
1
 10
1839.266454
 20
1048.755091
 11
1846.337432
 21
1053.479761
  0
LINE
  8
0
  6
CONTINUOUS
 62
1
 10
1895.741506
 20
1128.901185
 11
1898.092330
 21
1117.082754
  0
LINE
  8
0
  6
CONTINUOUS
 62
1
 10
1891.868211
 20
1069.805437
 11
1895.741506
 21
1081.215929
  0
LINE
  8
0
  6
CONTINUOUS
 62
1
 10
1886.538628
 20
1058.998134
 11
1891.868211
 21
1069.805437
  0
LINE
  8
0
  6
CONTINUOUS
 62
1
 10
1879.843965
 20
1048.978950
 11
1886.538628
 21
1058.998134
  0
LINE
  8
0
  6
CONTINUOUS
 62
1
 10
1852.820031
 20
1025.279573
 11
1862.839200
 21
1031.974187
  0
LINE
  8
0
  6
CONTINUOUS
 62
1
 10
1842.012739
 20
1019.950014
 11
1852.820031
 21
1025.279573
  0
LINE
  8
0
  6
CONTINUOUS
 62
1
 10
1862.839200
 20
1031.974187
 11
1871.898892
 21
1039.919288
  0
LINE
  8
0
  6
CONTINUOUS
 62
1
 10
1871.898892
 20
1039.919288
 11
1879.843965
 21
1048.978950
  0
LINE
  8
0
  6
CONTINUOUS
 62
1
 10
1898.092330
 20
1093.034375
 11
1898.392767
 21
1097.617375
  0
LINE
  8
0
  6
CONTINUOUS
 62
1
 10
1898.092330
 20
1117.082754
 11
1898.405796
 21
1112.300367
  0
LINE
  8
0
  6
CONTINUOUS
 62
1
 10
1886.538628
 20
1151.118980
 11
1891.868211
 21
1140.311676
  0
LINE
  8
0
  6
CONTINUOUS
 62
1
 10
1891.868211
 20
1140.311676
 11
1895.741506
 21
1128.901185
  0
LINE
  8
0
  6
CONTINUOUS
 62
1
 10
1895.741506
 20
1081.215929
 11
1898.092330
 21
1093.034375
  0
LINE
  8
0
  6
CONTINUOUS
 62
1
 10
1883.841471
 20
1018.525540
 11
1883.920581
 21
1018.428798
  0
LINE
  8
0
  6
CONTINUOUS
 62
1
 10
1922.021415
 20
1089.884146
 11
1922.453874
 21
1096.482420
  0
LINE
  8
0
  6
CONTINUOUS
 62
1
 10
1877.532056
 20
1012.826191
 11
1883.920581
 21
1018.428798
  0
LINE
  8
0
  6
CONTINUOUS
 62
1
 10
1893.296573
 20
1027.791730
 11
1898.991981
 21
1034.286170
  0
LINE
  8
0
  6
CONTINUOUS
 62
1
 10
1922.021415
 20
1120.233064
 11
1922.466938
 21
1113.435321
  0
LINE
  8
0
  6
CONTINUOUS
 62
1
 10
1914.166477
 20
1149.547877
 11
1919.054649
 21
1135.147921
  0
LINE
  8
0
  6
CONTINUOUS
 62
1
 10
1919.054649
 20
1135.147809
 11
1922.021415
 21
1120.233064
  0
LINE
  8
0
  6
CONTINUOUS
 62
1
 10
1919.054649
 20
1074.969192
 11
1922.021415
 21
1089.884066
  0
LINE
  8
0
  6
CONTINUOUS
 62
1
 10
1914.166477
 20
1060.569173
 11
1919.054649
 21
1074.969192
  0
LINE
  8
0
  6
CONTINUOUS
 62
1
 10
1907.440639
 20
1046.930476
 11
1914.166477
 21
1060.569173
  0
LINE
  8
0
  6
CONTINUOUS
 62
1
 10
1898.991981
 20
1034.286170
 11
1907.440604
 21
1046.930379
  0
LINE
  8
0
  6
CONTINUOUS
 62
1
 10
1921.767255
 20
1089.817523
 11
1922.204829
 21
1096.494166
  0
LINE
  8
0
  6
CONTINUOUS
 62
1
 10
1921.767255
 20
1120.099593
 11
1922.204829
 21
1113.422966
  0
LINE
  8
0
  6
CONTINUOUS
 62
1
 10
1913.929666
 20
1060.567280
 11
1918.806986
 21
1074.935544
  0
LINE
  8
0
  6
CONTINUOUS
 62
1
 10
1913.929666
 20
1060.567280
 11
1913.959388
 21
1060.654955
  0
LINE
  8
0
  6
CONTINUOUS
 62
1
 10
1898.788626
 20
1034.342235
 11
1907.218551
 21
1046.958556
  0
LINE
  8
0
  6
CONTINUOUS
 62
1
 10
1918.806986
 20
1134.981572
 11
1921.767255
 21
1120.099593
  0
LINE
  8
0
  6
CONTINUOUS
 62
1
 10
1921.747832
 20
1120.197057
 11
1921.767255
 21
1120.099593
  0
LINE
  8
0
  6
CONTINUOUS
 62
1
 10
1918.806986
 20
1074.935544
 11
1921.767255
 21
1089.817523
  0
LINE
  8
0
  6
CONTINUOUS
 62
1
 10
1877.455781
 20
1012.925492
 11
1883.841471
 21
1018.525540
  0
LINE
  8
0
  6
CONTINUOUS
 62
1
 10
1893.199803
 20
1027.870885
 11
1898.892688
 21
1034.362373
  0
LINE
  8
0
  6
CONTINUOUS
 62
1
 10
1898.892688
 20
1034.362373
 11
1907.332187
 21
1046.992959
  0
LINE
  8
0
  6
CONTINUOUS
 62
1
 10
1907.332187
 20
1046.992959
 11
1914.050836
 21
1060.617087
  0
LINE
  8
0
  6
CONTINUOUS
 62
1
 10
1914.050836
 20
1060.617087
 11
1918.933755
 21
1075.001605
  0
LINE
  8
0
  6
CONTINUOUS
 62
1
 10
1918.933755
 20
1075.001605
 11
1921.897272
 21
1089.900417
  0
LINE
  8
0
  6
CONTINUOUS
 62
1
 10
1907.218551
 20
1046.958556
 11
1913.929666
 21
1060.567280
  0
LINE
  8
0
  6
CONTINUOUS
 62
1
 10
1893.149482
 20
1027.912076
 11
1898.788626
 21
1034.342235
  0
LINE
  8
0
  6
CONTINUOUS
 62
1
 10
1921.897272
 20
1089.900417
 11
1922.329109
 21
1096.488309
  0
LINE
  8
0
  6
CONTINUOUS
 62
1
 10
1921.897272
 20
1120.216729
 11
1922.342104
 21
1113.429432
  0
LINE
  8
0
  6
CONTINUOUS
 62
1
 10
1918.933755
 20
1135.115508
 11
1921.897272
 21
1120.216729
  0
LINE
  8
0
  6
CONTINUOUS
 62
1
 10
1913.929666
 20
1149.349868
 11
1918.806986
 21
1134.981572
  0
LINE
  8
0
  6
CONTINUOUS
 62
1
 10
1914.050836
 20
1149.500027
 11
1918.933755
 21
1135.115508
  0
LINE
  8
0
  6
CONTINUOUS
 62
1
 10
1954.759626
 20
946.958551
 11
1954.759626
 21
1554.958602
  0
LINE
  8
0
  6
CONTINUOUS
 62
1
 10
1944.759605
 20
956.958552
 11
1944.759605
 21
1095.430263
  0
LINE
  8
0
  6
CONTINUOUS
 62
1
 10
1692.439066
 20
1216.669276
 11
1695.048871
 21
1219.279138
  0
LINE
  8
0
  6
CONTINUOUS
 62
1
 10
1690.953713
 20
1213.290519
 11
1692.439066
 21
1216.669276
  0
LINE
  8
0
  6
CONTINUOUS
 62
1
 10
1690.795149
 20
1209.603067
 11
1690.953713
 21
1213.290519
  0
LINE
  8
0
  6
CONTINUOUS
 62
1
 10
1690.795149
 20
1209.603067
 11
1691.985024
 21
1206.109259
  0
LINE
  8
0
  6
CONTINUOUS
 62
1
 10
1691.985024
 20
1206.109259
 11
1694.361190
 21
1203.285054
  0
LINE
  8
0
  6
CONTINUOUS
 62
1
 10
1668.759622
 20
1114.486853
 11
1668.759622
 21
1245.958560
  0
LINE
  8
0
  6
CONTINUOUS
 62
1
 10
1708.433153
 20
1217.357011
 11
1739.938945
 21
1178.850350
  0
LINE
  8
0
  6
CONTINUOUS
 62
1
 10
1705.608933
 20
1219.733210
 11
1708.433153
 21
1217.357011
  0
LINE
  8
0
  6
CONTINUOUS
 62
1
 10
1702.115098
 20
1220.923058
 11
1705.608933
 21
1219.733210
  0
LINE
  8
0
  6
CONTINUOUS
 62
1
 10
1698.427654
 20
1220.764491
 11
1702.115098
 21
1220.923058
  0
LINE
  8
0
  6
CONTINUOUS
 62
1
 10
1695.048871
 20
1219.279138
 11
1698.427654
 21
1220.764491
  0
LINE
  8
0
  6
CONTINUOUS
 62
1
 10
1694.361190
 20
1203.285054
 11
1732.867845
 21
1171.779262
  0
LINE
  8
0
  6
CONTINUOUS
 62
1
 10
1732.867845
 20
1171.779262
 11
1739.938945
 21
1178.850350
  0
LINE
  8
0
  6
CONTINUOUS
 62
1
 10
1796.759622
 20
1245.958560
 11
1796.759622
 21
1255.958569
  0
LINE
  8
0
  6
CONTINUOUS
 62
1
 10
1816.759631
 20
1245.958560
 11
1816.759631
 21
1255.958569
  0
LINE
  8
0
  6
CONTINUOUS
 62
1
 10
1796.759622
 20
1245.958560
 11
1801.759616
 21
1146.958570
  0
LINE
  8
0
  6
CONTINUOUS
 62
1
 10
1811.759620
 20
1146.958570
 11
1816.759631
 21
1245.958560
  0
LINE
  8
0
  6
CONTINUOUS
 62
1
 10
1705.608933
 20
1282.183983
 11
1708.433153
 21
1284.560150
  0
LINE
  8
0
  6
CONTINUOUS
 62
1
 10
1702.115098
 20
1280.994102
 11
1705.608933
 21
1282.183983
  0
LINE
  8
0
  6
CONTINUOUS
 62
1
 10
1698.427654
 20
1281.152670
 11
1702.115098
 21
1280.994102
  0
LINE
  8
0
  6
CONTINUOUS
 62
1
 10
1695.048871
 20
1282.638023
 11
1698.427654
 21
1281.152670
  0
LINE
  8
0
  6
CONTINUOUS
 62
1
 10
1791.585131
 20
1281.596793
 11
1798.033135
 21
1281.174171
  0
LINE
  8
0
  6
CONTINUOUS
 62
1
 10
1815.486101
 20
1281.174139
 11
1821.934122
 21
1281.596793
  0
LINE
  8
0
  6
CONTINUOUS
 62
1
 10
1776.670395
 20
1284.563487
 11
1791.585131
 21
1281.596793
  0
LINE
  8
0
  6
CONTINUOUS
 62
1
 10
1821.934191
 20
1281.596825
 11
1836.848979
 21
1284.563519
  0
LINE
  8
0
  6
CONTINUOUS
 62
1
 10
1760.788008
 20
1151.030149
 11
1767.181803
 21
1156.637353
  0
LINE
  8
0
  6
CONTINUOUS
 62
1
 10
1767.181803
 20
1156.637353
 11
1774.252782
 21
1161.362023
  0
LINE
  8
0
  6
CONTINUOUS
 62
1
 10
1774.252782
 20
1161.362023
 11
1781.879982
 21
1165.123319
  0
LINE
  8
0
  6
CONTINUOUS
 62
1
 10
1781.879982
 20
1165.123319
 11
1789.932832
 21
1167.856896
  0
LINE
  8
0
  6
CONTINUOUS
 62
1
 10
1789.932832
 20
1167.856896
 11
1798.273660
 21
1169.515996
  0
LINE
  8
0
  6
CONTINUOUS
 62
1
 10
1798.273660
 20
1169.515996
 11
1800.612613
 21
1169.669300
  0
LINE
  8
0
  6
CONTINUOUS
 62
1
 10
1812.906640
 20
1169.669300
 11
1815.245593
 21
1169.515996
  0
LINE
  8
0
  6
CONTINUOUS
 62
1
 10
1815.245593
 20
1169.515996
 11
1823.586403
 21
1167.856896
  0
LINE
  8
0
  6
CONTINUOUS
 62
1
 10
1823.586403
 20
1167.856896
 11
1831.639254
 21
1165.123319
  0
LINE
  8
0
  6
CONTINUOUS
 62
1
 10
1831.639254
 20
1165.123319
 11
1839.266454
 21
1161.362023
  0
LINE
  8
0
  6
CONTINUOUS
 62
1
 10
1726.980625
 20
1151.118980
 11
1733.675271
 21
1161.138180
  0
LINE
  8
0
  6
CONTINUOUS
 62
1
 10
1733.675271
 20
1161.138180
 11
1741.620344
 21
1170.197825
  0
LINE
  8
0
  6
CONTINUOUS
 62
1
 10
1741.620344
 20
1170.197825
 11
1750.680036
 21
1178.142942
  0
LINE
  8
0
  6
CONTINUOUS
 62
1
 10
1750.680036
 20
1178.142942
 11
1760.699204
 21
1184.837557
  0
LINE
  8
0
  6
CONTINUOUS
 62
1
 10
1814.271169
 20
1196.687069
 11
1818.783786
 21
1196.391308
  0
LINE
  8
0
  6
CONTINUOUS
 62
1
 10
1794.735449
 20
1196.391308
 11
1799.248067
 21
1196.687069
  0
LINE
  8
0
  6
CONTINUOUS
 62
1
 10
1760.699204
 20
1184.837557
 11
1771.506514
 21
1190.167132
  0
LINE
  8
0
  6
CONTINUOUS
 62
1
 10
1771.506514
 20
1190.167132
 11
1782.916978
 21
1194.040462
  0
LINE
  8
0
  6
CONTINUOUS
 62
1
 10
1782.916978
 20
1194.040462
 11
1794.735449
 21
1196.391308
  0
LINE
  8
0
  6
CONTINUOUS
 62
1
 10
1818.783786
 20
1196.391308
 11
1830.602275
 21
1194.040462
  0
LINE
  8
0
  6
CONTINUOUS
 62
1
 10
1830.602275
 20
1194.040462
 11
1842.012739
 21
1190.167132
  0
LINE
  8
0
  6
CONTINUOUS
 62
1
 10
1714.527203
 20
1175.830960
 11
1720.120587
 21
1182.208953
  0
LINE
  8
0
  6
CONTINUOUS
 62
1
 10
1729.503388
 20
1191.604796
 11
1735.987231
 21
1197.290979
  0
LINE
  8
0
  6
CONTINUOUS
 62
1
 10
1815.486118
 20
1220.742989
 11
1821.934122
 21
1220.320368
  0
LINE
  8
0
  6
CONTINUOUS
 62
1
 10
1791.585131
 20
1220.320368
 11
1798.033135
 21
1220.742989
  0
LINE
  8
0
  6
CONTINUOUS
 62
1
 10
1699.352707
 20
1149.547941
 11
1706.078649
 21
1163.186750
  0
LINE
  8
0
  6
CONTINUOUS
 62
1
 10
1706.078649
 20
1163.186750
 11
1714.527203
 21
1175.830960
  0
LINE
  8
0
  6
CONTINUOUS
 62
1
 10
1735.987300
 20
1197.291011
 11
1748.631446
 21
1205.739558
  0
LINE
  8
0
  6
CONTINUOUS
 62
1
 10
1748.631446
 20
1205.739558
 11
1762.270251
 21
1212.465462
  0
LINE
  8
0
  6
CONTINUOUS
 62
1
 10
1762.270268
 20
1212.465462
 11
1776.670274
 21
1217.353609
  0
LINE
  8
0
  6
CONTINUOUS
 62
1
 10
1776.670274
 20
1217.353609
 11
1791.585131
 21
1220.320368
  0
LINE
  8
0
  6
CONTINUOUS
 62
1
 10
1821.934243
 20
1220.320336
 11
1836.848979
 21
1217.353609
  0
LINE
  8
0
  6
CONTINUOUS
 62
1
 10
1791.618569
 20
1281.950962
 11
1798.051089
 21
1281.529367
  0
LINE
  8
0
  6
CONTINUOUS
 62
1
 10
1815.468181
 20
1281.529367
 11
1821.900667
 21
1281.950962
  0
LINE
  8
0
  6
CONTINUOUS
 62
1
 10
1821.900667
 20
1281.950962
 11
1836.782640
 21
1284.911174
  0
LINE
  8
0
  6
CONTINUOUS
 62
1
 10
1776.736613
 20
1284.911174
 11
1791.618569
 21
1281.950962
  0
LINE
  8
0
  6
CONTINUOUS
 62
1
 10
1729.713120
 20
1191.348444
 11
1736.143291
 21
1196.987548
  0
LINE
  8
0
  6
CONTINUOUS
 62
1
 10
1714.730627
 20
1175.574897
 11
1720.369736
 21
1182.005072
  0
LINE
  8
0
  6
CONTINUOUS
 62
1
 10
1699.589587
 20
1149.349868
 11
1706.300702
 21
1162.958575
  0
LINE
  8
0
  6
CONTINUOUS
 62
1
 10
1748.759632
 20
1205.417513
 11
1762.368334
 21
1212.128623
  0
LINE
  8
0
  6
CONTINUOUS
 62
1
 10
1762.368369
 20
1212.128623
 11
1776.736613
 21
1217.005955
  0
LINE
  8
0
  6
CONTINUOUS
 62
1
 10
1821.900667
 20
1219.966167
 11
1836.782640
 21
1217.005955
  0
LINE
  8
0
  6
CONTINUOUS
 62
1
 10
1736.143291
 20
1196.987548
 11
1748.759632
 21
1205.417513
  0
LINE
  8
0
  6
CONTINUOUS
 62
1
 10
1762.368334
 20
1212.128623
 11
1776.736613
 21
1217.005955
  0
LINE
  8
0
  6
CONTINUOUS
 62
1
 10
1776.736613
 20
1217.005955
 11
1791.618569
 21
1219.966167
  0
LINE
  8
0
  6
CONTINUOUS
 62
1
 10
1791.618569
 20
1219.966167
 11
1798.051072
 21
1220.387761
  0
LINE
  8
0
  6
CONTINUOUS
 62
1
 10
1791.601478
 20
1220.196235
 11
1798.039425
 21
1220.618215
  0
LINE
  8
0
  6
CONTINUOUS
 62
1
 10
1776.702674
 20
1217.232686
 11
1791.601478
 21
1220.196235
  0
LINE
  8
0
  6
CONTINUOUS
 62
1
 10
1762.318152
 20
1212.349802
 11
1776.702674
 21
1217.232686
  0
LINE
  8
0
  6
CONTINUOUS
 62
1
 10
1748.694018
 20
1205.631118
 11
1762.318152
 21
1212.349802
  0
LINE
  8
0
  6
CONTINUOUS
 62
1
 10
1736.063455
 20
1197.191622
 11
1748.694018
 21
1205.631118
  0
LINE
  8
0
  6
CONTINUOUS
 62
1
 10
1729.582498
 20
1191.508038
 11
1736.063455
 21
1197.191622
  0
LINE
  8
0
  6
CONTINUOUS
 62
1
 10
1714.626565
 20
1175.754773
 11
1720.217323
 21
1182.129814
  0
LINE
  8
0
  6
CONTINUOUS
 62
1
 10
1706.187048
 20
1163.124138
 11
1714.626565
 21
1175.754773
  0
LINE
  8
0
  6
CONTINUOUS
 62
1
 10
1699.468365
 20
1149.500027
 11
1706.187048
 21
1163.124138
  0
LINE
  8
0
  6
CONTINUOUS
 62
1
 10
1699.589587
 20
1149.349868
 11
1706.300702
 21
1162.958575
  0
LINE
  8
0
  6
CONTINUOUS
 62
1
 10
1706.300702
 20
1162.958575
 11
1714.730627
 21
1175.574897
  0
LINE
  8
0
  6
CONTINUOUS
 62
1
 10
1821.917757
 20
1220.196235
 11
1836.816561
 21
1217.232686
  0
LINE
  8
0
  6
CONTINUOUS
 62
1
 10
1815.479828
 20
1220.618247
 11
1821.917757
 21
1220.196235
  0
LINE
  8
0
  6
CONTINUOUS
 62
1
 10
1815.468164
 20
1220.387761
 11
1821.900667
 21
1219.966167
  0
LINE
  8
0
  6
CONTINUOUS
 62
1
 10
1776.675821
 20
1284.584411
 11
1791.587931
 21
1281.618198
  0
LINE
  8
0
  6
CONTINUOUS
 62
1
 10
1791.587931
 20
1281.618198
 11
1798.034223
 21
1281.195673
  0
LINE
  8
0
  6
CONTINUOUS
 62
1
 10
1815.485030
 20
1281.195673
 11
1821.931322
 21
1281.618198
  0
LINE
  8
0
  6
CONTINUOUS
 62
1
 10
1821.931322
 20
1281.618198
 11
1836.843363
 21
1284.584411
  0
LINE
  8
0
  6
CONTINUOUS
 62
1
 10
1815.468164
 20
1281.529367
 11
1821.900667
 21
1281.950962
  0
LINE
  8
0
  6
CONTINUOUS
 62
1
 10
1668.759622
 20
1255.958569
 11
1796.759622
 21
1255.958569
  0
LINE
  8
0
  6
CONTINUOUS
 62
1
 10
1668.759622
 20
1245.958560
 11
1796.759622
 21
1245.958560
  0
LINE
  8
0
  6
CONTINUOUS
 62
1
 10
1658.759627
 20
1406.391986
 11
1660.224105
 21
1406.792624
  0
LINE
  8
0
  6
CONTINUOUS
 62
1
 10
1660.224105
 20
1406.792624
 11
1661.253463
 21
1406.840955
  0
LINE
  8
0
  6
CONTINUOUS
 62
1
 10
1660.224105
 20
1387.124534
 11
1661.253463
 21
1387.076203
  0
LINE
  8
0
  6
CONTINUOUS
 62
1
 10
1658.759627
 20
1387.525173
 11
1660.224105
 21
1387.124534
  0
LINE
  8
0
  6
CONTINUOUS
 62
1
 10
1661.253463
 20
1406.840955
 11
1764.759629
 21
1401.958584
  0
LINE
  8
0
  6
CONTINUOUS
 62
1
 10
1661.253463
 20
1387.076203
 11
1764.759629
 21
1391.958574
  0
LINE
  8
0
  6
CONTINUOUS
 62
1
 10
1692.439066
 20
1285.247852
 11
1695.048871
 21
1282.638023
  0
LINE
  8
0
  6
CONTINUOUS
 62
1
 10
1690.953713
 20
1288.626642
 11
1692.439066
 21
1285.247852
  0
LINE
  8
0
  6
CONTINUOUS
 62
1
 10
1690.795149
 20
1292.314062
 11
1690.953713
 21
1288.626642
  0
LINE
  8
0
  6
CONTINUOUS
 62
1
 10
1690.795149
 20
1292.314062
 11
1691.985024
 21
1295.807870
  0
LINE
  8
0
  6
CONTINUOUS
 62
1
 10
1691.985024
 20
1295.807870
 11
1694.361190
 21
1298.632107
  0
LINE
  8
0
  6
CONTINUOUS
 62
1
 10
1691.065379
 20
1405.434741
 11
1691.497847
 21
1412.033111
  0
LINE
  8
0
  6
CONTINUOUS
 62
1
 10
1691.052307
 20
1388.481807
 11
1691.497847
 21
1381.684113
  0
LINE
  8
0
  6
CONTINUOUS
 62
1
 10
1691.497864
 20
1381.684049
 11
1694.464587
 21
1366.769223
  0
LINE
  8
0
  6
CONTINUOUS
 62
1
 10
1691.314416
 20
1405.422995
 11
1691.751998
 21
1412.099638
  0
LINE
  8
0
  6
CONTINUOUS
 62
1
 10
1691.751998
 20
1381.817520
 11
1694.712198
 21
1366.935557
  0
LINE
  8
0
  6
CONTINUOUS
 62
1
 10
1691.752015
 20
1381.817392
 11
1691.771404
 21
1381.720120
  0
LINE
  8
0
  6
CONTINUOUS
 62
1
 10
1691.314390
 20
1388.494163
 11
1691.751998
 21
1381.817520
  0
LINE
  8
0
  6
CONTINUOUS
 62
1
 10
1691.086919
 20
1405.433714
 11
1691.519266
 21
1412.030223
  0
LINE
  8
0
  6
CONTINUOUS
 62
1
 10
1691.073847
 20
1388.482834
 11
1691.519266
 21
1381.686905
  0
LINE
  8
0
  6
CONTINUOUS
 62
1
 10
1691.519266
 20
1381.686905
 11
1694.485462
 21
1366.774807
  0
LINE
  8
0
  6
CONTINUOUS
 62
1
 10
1668.759622
 20
1255.958569
 11
1668.759622
 21
1387.430276
  0
LINE
  8
0
  6
CONTINUOUS
 62
1
 10
1801.759616
 20
1354.958575
 11
1811.759620
 21
1354.958575
  0
LINE
  8
0
  6
CONTINUOUS
 62
1
 10
1796.759622
 20
1255.958569
 11
1801.759616
 21
1354.958575
  0
LINE
  8
0
  6
CONTINUOUS
 62
1
 10
1811.759620
 20
1354.958575
 11
1816.759631
 21
1255.958569
  0
LINE
  8
0
  6
CONTINUOUS
 62
1
 10
1764.759629
 20
1391.958574
 11
1764.759629
 21
1401.958584
  0
LINE
  8
0
  6
CONTINUOUS
 62
1
 10
1732.867845
 20
1330.137867
 11
1739.938945
 21
1323.066811
  0
LINE
  8
0
  6
CONTINUOUS
 62
1
 10
1694.361190
 20
1298.632107
 11
1732.867845
 21
1330.137867
  0
LINE
  8
0
  6
CONTINUOUS
 62
1
 10
1708.433153
 20
1284.560150
 11
1739.938945
 21
1323.066811
  0
LINE
  8
0
  6
CONTINUOUS
 62
1
 10
1694.464587
 20
1366.769223
 11
1699.352707
 21
1352.369188
  0
LINE
  8
0
  6
CONTINUOUS
 62
1
 10
1699.352794
 20
1352.369028
 11
1706.078649
 21
1338.730411
  0
LINE
  8
0
  6
CONTINUOUS
 62
1
 10
1706.078683
 20
1338.730346
 11
1714.527203
 21
1326.086169
  0
LINE
  8
0
  6
CONTINUOUS
 62
1
 10
1714.527203
 20
1326.086169
 11
1720.120587
 21
1319.708175
  0
LINE
  8
0
  6
CONTINUOUS
 62
1
 10
1729.503336
 20
1310.312365
 11
1735.987231
 21
1304.626182
  0
LINE
  8
0
  6
CONTINUOUS
 62
1
 10
1735.987231
 20
1304.626182
 11
1748.631446
 21
1296.177603
  0
LINE
  8
0
  6
CONTINUOUS
 62
1
 10
1748.631498
 20
1296.177571
 11
1762.270251
 21
1289.451667
  0
LINE
  8
0
  6
CONTINUOUS
 62
1
 10
1762.270251
 20
1289.451667
 11
1776.670274
 21
1284.563519
  0
LINE
  8
0
  6
CONTINUOUS
 62
1
 10
1794.735449
 20
1305.525821
 11
1799.248084
 21
1305.230060
  0
LINE
  8
0
  6
CONTINUOUS
 62
1
 10
1814.271152
 20
1305.230060
 11
1818.783786
 21
1305.525821
  0
LINE
  8
0
  6
CONTINUOUS
 62
1
 10
1715.426854
 20
1408.882785
 11
1717.777747
 21
1420.701168
  0
LINE
  8
0
  6
CONTINUOUS
 62
1
 10
1715.126486
 20
1404.299770
 11
1715.426854
 21
1408.882785
  0
LINE
  8
0
  6
CONTINUOUS
 62
1
 10
1715.113422
 20
1389.616778
 11
1715.426854
 21
1384.834374
  0
LINE
  8
0
  6
CONTINUOUS
 62
1
 10
1715.426854
 20
1384.834374
 11
1717.777747
 21
1373.015960
  0
LINE
  8
0
  6
CONTINUOUS
 62
1
 10
1717.777747
 20
1373.015960
 11
1721.651042
 21
1361.605469
  0
LINE
  8
0
  6
CONTINUOUS
 62
1
 10
1721.651042
 20
1361.605469
 11
1726.980625
 21
1350.798181
  0
LINE
  8
0
  6
CONTINUOUS
 62
1
 10
1726.980625
 20
1350.798181
 11
1733.675271
 21
1340.778981
  0
LINE
  8
0
  6
CONTINUOUS
 62
1
 10
1733.675271
 20
1340.778981
 11
1741.620344
 21
1331.719303
  0
LINE
  8
0
  6
CONTINUOUS
 62
1
 10
1741.620344
 20
1331.719303
 11
1750.680036
 21
1323.774218
  0
LINE
  8
0
  6
CONTINUOUS
 62
1
 10
1750.680036
 20
1323.774218
 11
1760.699204
 21
1317.079604
  0
LINE
  8
0
  6
CONTINUOUS
 62
1
 10
1760.699204
 20
1317.079604
 11
1771.506514
 21
1311.750029
  0
LINE
  8
0
  6
CONTINUOUS
 62
1
 10
1771.506514
 20
1311.750029
 11
1782.916978
 21
1307.876699
  0
LINE
  8
0
  6
CONTINUOUS
 62
1
 10
1782.916978
 20
1307.876699
 11
1794.735449
 21
1305.525821
  0
LINE
  8
0
  6
CONTINUOUS
 62
1
 10
1818.783786
 20
1305.525821
 11
1830.602275
 21
1307.876699
  0
LINE
  8
0
  6
CONTINUOUS
 62
1
 10
1830.602275
 20
1307.876699
 11
1842.012739
 21
1311.750029
  0
LINE
  8
0
  6
CONTINUOUS
 62
1
 10
1743.961283
 20
1413.685311
 11
1746.694868
 21
1421.738258
  0
LINE
  8
0
  6
CONTINUOUS
 62
1
 10
1742.302159
 20
1405.344562
 11
1743.961283
 21
1413.685311
  0
LINE
  8
0
  6
CONTINUOUS
 62
1
 10
1742.150126
 20
1403.025070
 11
1742.302159
 21
1405.344562
  0
LINE
  8
0
  6
CONTINUOUS
 62
1
 10
1742.137062
 20
1390.891478
 11
1742.302159
 21
1388.372566
  0
LINE
  8
0
  6
CONTINUOUS
 62
1
 10
1742.302159
 20
1388.372566
 11
1743.961283
 21
1380.031817
  0
LINE
  8
0
  6
CONTINUOUS
 62
1
 10
1743.961283
 20
1380.031817
 11
1746.694868
 21
1371.978934
  0
LINE
  8
0
  6
CONTINUOUS
 62
1
 10
1746.694868
 20
1371.978934
 11
1750.456151
 21
1364.351754
  0
LINE
  8
0
  6
CONTINUOUS
 62
1
 10
1750.456151
 20
1364.351754
 11
1755.180834
 21
1357.280795
  0
LINE
  8
0
  6
CONTINUOUS
 62
1
 10
1755.180834
 20
1357.280795
 11
1760.788008
 21
1350.886980
  0
LINE
  8
0
  6
CONTINUOUS
 62
1
 10
1760.788008
 20
1350.886980
 11
1767.181803
 21
1345.279776
  0
LINE
  8
0
  6
CONTINUOUS
 62
1
 10
1767.181803
 20
1345.279776
 11
1774.252782
 21
1340.555106
  0
LINE
  8
0
  6
CONTINUOUS
 62
1
 10
1774.252782
 20
1340.555106
 11
1781.879982
 21
1336.793810
  0
LINE
  8
0
  6
CONTINUOUS
 62
1
 10
1781.879982
 20
1336.793810
 11
1789.932832
 21
1334.060233
  0
LINE
  8
0
  6
CONTINUOUS
 62
1
 10
1789.932832
 20
1334.060233
 11
1798.273660
 21
1332.401133
  0
LINE
  8
0
  6
CONTINUOUS
 62
1
 10
1798.273660
 20
1332.401133
 11
1800.612613
 21
1332.247797
  0
LINE
  8
0
  6
CONTINUOUS
 62
1
 10
1812.906640
 20
1332.247829
 11
1815.245593
 21
1332.401133
  0
LINE
  8
0
  6
CONTINUOUS
 62
1
 10
1815.245593
 20
1332.401133
 11
1823.586403
 21
1334.060233
  0
LINE
  8
0
  6
CONTINUOUS
 62
1
 10
1823.586403
 20
1334.060233
 11
1831.639254
 21
1336.793810
  0
LINE
  8
0
  6
CONTINUOUS
 62
1
 10
1831.639254
 20
1336.793810
 11
1839.266454
 21
1340.555106
  0
LINE
  8
0
  6
CONTINUOUS
 62
1
 10
1714.730645
 20
1326.342200
 11
1720.369736
 21
1319.912057
  0
LINE
  8
0
  6
CONTINUOUS
 62
1
 10
1748.759632
 20
1296.499616
 11
1762.368334
 21
1289.788570
  0
LINE
  8
0
  6
CONTINUOUS
 62
1
 10
1699.589587
 20
1352.567325
 11
1706.300702
 21
1338.958586
  0
LINE
  8
0
  6
CONTINUOUS
 62
1
 10
1694.712198
 20
1366.935557
 11
1699.589587
 21
1352.567325
  0
LINE
  8
0
  6
CONTINUOUS
 62
1
 10
1762.368334
 20
1289.788570
 11
1776.736613
 21
1284.911174
  0
LINE
  8
0
  6
CONTINUOUS
 62
1
 10
1736.143291
 20
1304.929581
 11
1748.759632
 21
1296.499616
  0
LINE
  8
0
  6
CONTINUOUS
 62
1
 10
1729.713120
 20
1310.568717
 11
1736.143291
 21
1304.929581
  0
LINE
  8
0
  6
CONTINUOUS
 62
1
 10
1706.300702
 20
1338.958586
 11
1714.730627
 21
1326.342232
  0
LINE
  8
0
  6
CONTINUOUS
 62
1
 10
1694.485462
 20
1366.774807
 11
1699.372718
 21
1352.377468
  0
LINE
  8
0
  6
CONTINUOUS
 62
1
 10
1699.372718
 20
1352.377468
 11
1706.097329
 21
1338.741194
  0
LINE
  8
0
  6
CONTINUOUS
 62
1
 10
1706.097329
 20
1338.741194
 11
1714.544345
 21
1326.099327
  0
LINE
  8
0
  6
CONTINUOUS
 62
1
 10
1714.544345
 20
1326.099327
 11
1720.137298
 21
1319.721847
  0
LINE
  8
0
  6
CONTINUOUS
 62
1
 10
1729.517022
 20
1310.329117
 11
1736.000399
 21
1304.643319
  0
LINE
  8
0
  6
CONTINUOUS
 62
1
 10
1736.000399
 20
1304.643319
 11
1748.642246
 21
1296.196313
  0
LINE
  8
0
  6
CONTINUOUS
 62
1
 10
1748.642246
 20
1296.196313
 11
1762.278476
 21
1289.471660
  0
LINE
  8
0
  6
CONTINUOUS
 62
1
 10
1762.278476
 20
1289.471660
 11
1776.675821
 21
1284.584411
  0
LINE
  8
0
  6
CONTINUOUS
 62
1
 10
1905.086083
 20
1217.357011
 11
1907.910320
 21
1219.733210
  0
LINE
  8
0
  6
CONTINUOUS
 62
1
 10
1907.910320
 20
1219.733210
 11
1911.404103
 21
1220.923058
  0
LINE
  8
0
  6
CONTINUOUS
 62
1
 10
1911.404103
 20
1220.923058
 11
1915.091599
 21
1220.764491
  0
LINE
  8
0
  6
CONTINUOUS
 62
1
 10
1915.091599
 20
1220.764491
 11
1918.470330
 21
1219.279138
  0
LINE
  8
0
  6
CONTINUOUS
 62
1
 10
1918.470330
 20
1219.279138
 11
1921.080187
 21
1216.669276
  0
LINE
  8
0
  6
CONTINUOUS
 62
1
 10
1921.080187
 20
1216.669276
 11
1922.565540
 21
1213.290519
  0
LINE
  8
0
  6
CONTINUOUS
 62
1
 10
1922.565540
 20
1213.290519
 11
1922.724104
 21
1209.603067
  0
LINE
  8
0
  6
CONTINUOUS
 62
1
 10
1921.534211
 20
1206.109259
 11
1922.724104
 21
1209.603067
  0
LINE
  8
0
  6
CONTINUOUS
 62
1
 10
1919.158055
 20
1203.285054
 11
1921.534211
 21
1206.109259
  0
LINE
  8
0
  6
CONTINUOUS
 62
1
 10
1873.580308
 20
1178.850350
 11
1905.086083
 21
1217.357011
  0
LINE
  8
0
  6
CONTINUOUS
 62
1
 10
1873.580308
 20
1178.850350
 11
1880.651408
 21
1171.779262
  0
LINE
  8
0
  6
CONTINUOUS
 62
1
 10
1880.651408
 20
1171.779262
 11
1919.158055
 21
1203.285054
  0
LINE
  8
0
  6
CONTINUOUS
 62
1
 10
1905.086083
 20
1284.560150
 11
1907.910320
 21
1282.183983
  0
LINE
  8
0
  6
CONTINUOUS
 62
1
 10
1907.910320
 20
1282.183983
 11
1911.404103
 21
1280.994102
  0
LINE
  8
0
  6
CONTINUOUS
 62
1
 10
1911.404103
 20
1280.994102
 11
1915.091599
 21
1281.152670
  0
LINE
  8
0
  6
CONTINUOUS
 62
1
 10
1915.091599
 20
1281.152670
 11
1918.470330
 21
1282.638023
  0
LINE
  8
0
  6
CONTINUOUS
 62
1
 10
1839.266454
 20
1161.362023
 11
1846.337432
 21
1156.637353
  0
LINE
  8
0
  6
CONTINUOUS
 62
1
 10
1846.337432
 20
1156.637353
 11
1852.731176
 21
1151.030149
  0
LINE
  8
0
  6
CONTINUOUS
 62
1
 10
1871.898892
 20
1170.197825
 11
1879.843965
 21
1161.138180
  0
LINE
  8
0
  6
CONTINUOUS
 62
1
 10
1879.843965
 20
1161.138180
 11
1886.538628
 21
1151.118980
  0
LINE
  8
0
  6
CONTINUOUS
 62
1
 10
1862.839200
 20
1178.142942
 11
1871.898892
 21
1170.197825
  0
LINE
  8
0
  6
CONTINUOUS
 62
1
 10
1842.012739
 20
1190.167132
 11
1852.820031
 21
1184.837557
  0
LINE
  8
0
  6
CONTINUOUS
 62
1
 10
1852.820031
 20
1184.837557
 11
1862.839200
 21
1178.142942
  0
LINE
  8
0
  6
CONTINUOUS
 62
1
 10
1893.398666
 20
1182.208953
 11
1898.991981
 21
1175.830960
  0
LINE
  8
0
  6
CONTINUOUS
 62
1
 10
1877.532056
 20
1197.290947
 11
1884.015865
 21
1191.604764
  0
LINE
  8
0
  6
CONTINUOUS
 62
1
 10
1836.848979
 20
1217.353609
 11
1851.249002
 21
1212.465462
  0
LINE
  8
0
  6
CONTINUOUS
 62
1
 10
1851.249141
 20
1212.465398
 11
1864.887790
 21
1205.739558
  0
LINE
  8
0
  6
CONTINUOUS
 62
1
 10
1864.887790
 20
1205.739558
 11
1877.532022
 21
1197.290979
  0
LINE
  8
0
  6
CONTINUOUS
 62
1
 10
1898.991981
 20
1175.830960
 11
1907.440604
 21
1163.186750
  0
LINE
  8
0
  6
CONTINUOUS
 62
1
 10
1907.440604
 20
1163.186750
 11
1914.166477
 21
1149.547941
  0
LINE
  8
0
  6
CONTINUOUS
 62
1
 10
1893.149448
 20
1182.005040
 11
1898.788626
 21
1175.574897
  0
LINE
  8
0
  6
CONTINUOUS
 62
1
 10
1836.782640
 20
1217.005955
 11
1851.150919
 21
1212.128623
  0
LINE
  8
0
  6
CONTINUOUS
 62
1
 10
1851.150919
 20
1212.128623
 11
1864.759638
 21
1205.417513
  0
LINE
  8
0
  6
CONTINUOUS
 62
1
 10
1907.218551
 20
1162.958575
 11
1913.929632
 21
1149.349900
  0
LINE
  8
0
  6
CONTINUOUS
 62
1
 10
1898.788626
 20
1175.574897
 11
1907.218551
 21
1162.958575
  0
LINE
  8
0
  6
CONTINUOUS
 62
1
 10
1907.332187
 20
1163.124138
 11
1914.050836
 21
1149.500027
  0
LINE
  8
0
  6
CONTINUOUS
 62
1
 10
1898.892688
 20
1175.754773
 11
1907.332187
 21
1163.124138
  0
LINE
  8
0
  6
CONTINUOUS
 62
1
 10
1893.301930
 20
1182.129814
 11
1898.892688
 21
1175.754773
  0
LINE
  8
0
  6
CONTINUOUS
 62
1
 10
1877.455781
 20
1197.191622
 11
1883.936755
 21
1191.508038
  0
LINE
  8
0
  6
CONTINUOUS
 62
1
 10
1864.825235
 20
1205.631118
 11
1877.455781
 21
1197.191622
  0
LINE
  8
0
  6
CONTINUOUS
 62
1
 10
1851.201101
 20
1212.349802
 11
1864.825235
 21
1205.631118
  0
LINE
  8
0
  6
CONTINUOUS
 62
1
 10
1836.816561
 20
1217.232686
 11
1851.201101
 21
1212.349802
  0
LINE
  8
0
  6
CONTINUOUS
 62
1
 10
1864.759638
 20
1205.417513
 11
1877.375945
 21
1196.987548
  0
LINE
  8
0
  6
CONTINUOUS
 62
1
 10
1877.375945
 20
1196.987548
 11
1883.806115
 21
1191.348444
  0
LINE
  8
0
  6
CONTINUOUS
 62
1
 10
1816.759648
 20
1255.958569
 11
1944.759605
 21
1255.958569
  0
LINE
  8
0
  6
CONTINUOUS
 62
1
 10
1816.759631
 20
1245.958560
 11
1944.759605
 21
1245.958560
  0
LINE
  8
0
  6
CONTINUOUS
 62
1
 10
1944.759605
 20
1114.486869
 11
1944.759605
 21
1245.958560
  0
LINE
  8
0
  6
CONTINUOUS
 62
1
 10
1873.580308
 20
1323.066811
 11
1905.086083
 21
1284.560150
  0
LINE
  8
0
  6
CONTINUOUS
 62
1
 10
1918.470330
 20
1282.638023
 11
1921.080187
 21
1285.247852
  0
LINE
  8
0
  6
CONTINUOUS
 62
1
 10
1921.080187
 20
1285.247852
 11
1922.565540
 21
1288.626642
  0
LINE
  8
0
  6
CONTINUOUS
 62
1
 10
1922.565540
 20
1288.626642
 11
1922.724104
 21
1292.314062
  0
LINE
  8
0
  6
CONTINUOUS
 62
1
 10
1921.534211
 20
1295.807870
 11
1922.724104
 21
1292.314062
  0
LINE
  8
0
  6
CONTINUOUS
 62
1
 10
1919.158055
 20
1298.632107
 11
1921.534211
 21
1295.807870
  0
LINE
  8
0
  6
CONTINUOUS
 62
1
 10
1880.651408
 20
1330.137867
 11
1919.158055
 21
1298.632107
  0
LINE
  8
0
  6
CONTINUOUS
 62
1
 10
1873.580308
 20
1323.066811
 11
1880.651408
 21
1330.137867
  0
LINE
  8
0
  6
CONTINUOUS
 62
1
 10
1848.759624
 20
1391.958574
 11
1848.759624
 21
1401.958584
  0
LINE
  8
0
  6
CONTINUOUS
 62
1
 10
1952.265790
 20
1406.840955
 11
1953.295148
 21
1406.792624
  0
LINE
  8
0
  6
CONTINUOUS
 62
1
 10
1953.295148
 20
1406.792624
 11
1954.759626
 21
1406.391986
  0
LINE
  8
0
  6
CONTINUOUS
 62
1
 10
1953.295148
 20
1387.124534
 11
1954.759626
 21
1387.525173
  0
LINE
  8
0
  6
CONTINUOUS
 62
1
 10
1952.265790
 20
1387.076203
 11
1953.295148
 21
1387.124534
  0
LINE
  8
0
  6
CONTINUOUS
 62
1
 10
1848.759624
 20
1401.958584
 11
1952.265790
 21
1406.840955
  0
LINE
  8
0
  6
CONTINUOUS
 62
1
 10
1848.759624
 20
1391.958574
 11
1952.265790
 21
1387.076203
  0
LINE
  8
0
  6
CONTINUOUS
 62
1
 10
1893.398666
 20
1319.708175
 11
1898.991981
 21
1326.086169
  0
LINE
  8
0
  6
CONTINUOUS
 62
1
 10
1877.532022
 20
1304.626182
 11
1884.015865
 21
1310.312365
  0
LINE
  8
0
  6
CONTINUOUS
 62
1
 10
1922.021415
 20
1381.684209
 11
1922.466938
 21
1388.481807
  0
LINE
  8
0
  6
CONTINUOUS
 62
1
 10
1922.021415
 20
1412.033111
 11
1922.453874
 21
1405.434709
  0
LINE
  8
0
  6
CONTINUOUS
 62
1
 10
1836.848979
 20
1284.563519
 11
1851.249002
 21
1289.451667
  0
LINE
  8
0
  6
CONTINUOUS
 62
1
 10
1851.249071
 20
1289.451699
 11
1864.887790
 21
1296.177603
  0
LINE
  8
0
  6
CONTINUOUS
 62
1
 10
1864.887824
 20
1296.177635
 11
1877.532022
 21
1304.626182
  0
LINE
  8
0
  6
CONTINUOUS
 62
1
 10
1898.991981
 20
1326.086169
 11
1907.440604
 21
1338.730411
  0
LINE
  8
0
  6
CONTINUOUS
 62
1
 10
1907.440604
 20
1338.730411
 11
1914.166477
 21
1352.369188
  0
LINE
  8
0
  6
CONTINUOUS
 62
1
 10
1914.166477
 20
1352.369188
 11
1919.054649
 21
1366.769223
  0
LINE
  8
0
  6
CONTINUOUS
 62
1
 10
1919.054649
 20
1366.769288
 11
1922.021415
 21
1381.684113
  0
LINE
  8
0
  6
CONTINUOUS
 62
1
 10
1898.092330
 20
1408.882785
 11
1898.392767
 21
1404.299770
  0
LINE
  8
0
  6
CONTINUOUS
 62
1
 10
1895.741506
 20
1420.701168
 11
1898.092330
 21
1408.882785
  0
LINE
  8
0
  6
CONTINUOUS
 62
1
 10
1842.012739
 20
1311.750029
 11
1852.820031
 21
1317.079604
  0
LINE
  8
0
  6
CONTINUOUS
 62
1
 10
1852.820031
 20
1317.079604
 11
1862.839200
 21
1323.774218
  0
LINE
  8
0
  6
CONTINUOUS
 62
1
 10
1862.839200
 20
1323.774218
 11
1871.898892
 21
1331.719303
  0
LINE
  8
0
  6
CONTINUOUS
 62
1
 10
1871.898892
 20
1331.719303
 11
1879.843965
 21
1340.778981
  0
LINE
  8
0
  6
CONTINUOUS
 62
1
 10
1879.843965
 20
1340.778981
 11
1886.538628
 21
1350.798181
  0
LINE
  8
0
  6
CONTINUOUS
 62
1
 10
1886.538628
 20
1350.798181
 11
1891.868211
 21
1361.605469
  0
LINE
  8
0
  6
CONTINUOUS
 62
1
 10
1891.868211
 20
1361.605469
 11
1895.741506
 21
1373.015960
  0
LINE
  8
0
  6
CONTINUOUS
 62
1
 10
1895.741506
 20
1373.015960
 11
1898.092330
 21
1384.834374
  0
LINE
  8
0
  6
CONTINUOUS
 62
1
 10
1898.092330
 20
1384.834374
 11
1898.405831
 21
1389.616778
  0
LINE
  8
0
  6
CONTINUOUS
 62
1
 10
1870.668874
 20
1408.100668
 11
1871.351484
 21
1407.964854
  0
LINE
  8
0
  6
CONTINUOUS
 62
1
 10
1871.351484
 20
1407.964854
 11
1875.244617
 21
1405.363625
  0
LINE
  8
0
  6
CONTINUOUS
 62
1
 10
1875.244617
 20
1405.363625
 11
1876.641010
 21
1403.273720
  0
LINE
  8
0
  6
CONTINUOUS
 62
1
 10
1875.244617
 20
1388.393041
 11
1876.745004
 21
1390.638528
  0
LINE
  8
0
  6
CONTINUOUS
 62
1
 10
1871.351484
 20
1385.791779
 11
1875.244617
 21
1388.393041
  0
LINE
  8
0
  6
CONTINUOUS
 62
1
 10
1870.677030
 20
1385.657602
 11
1871.351484
 21
1385.791779
  0
LINE
  8
0
  6
CONTINUOUS
 62
1
 10
1869.557952
 20
1413.685311
 11
1870.668874
 21
1408.100668
  0
LINE
  8
0
  6
CONTINUOUS
 62
1
 10
1869.557952
 20
1380.031817
 11
1870.677030
 21
1385.657602
  0
LINE
  8
0
  6
CONTINUOUS
 62
1
 10
1866.824368
 20
1421.738258
 11
1869.557952
 21
1413.685311
  0
LINE
  8
0
  6
CONTINUOUS
 62
1
 10
1839.266454
 20
1340.555106
 11
1846.337432
 21
1345.279776
  0
LINE
  8
0
  6
CONTINUOUS
 62
1
 10
1846.337432
 20
1345.279776
 11
1852.731176
 21
1350.886980
  0
LINE
  8
0
  6
CONTINUOUS
 62
1
 10
1852.731176
 20
1350.886980
 11
1858.338419
 21
1357.280795
  0
LINE
  8
0
  6
CONTINUOUS
 62
1
 10
1858.338419
 20
1357.280795
 11
1863.063084
 21
1364.351754
  0
LINE
  8
0
  6
CONTINUOUS
 62
1
 10
1863.063084
 20
1364.351754
 11
1866.824368
 21
1371.978934
  0
LINE
  8
0
  6
CONTINUOUS
 62
1
 10
1866.824368
 20
1371.978934
 11
1869.557952
 21
1380.031817
  0
LINE
  8
0
  6
CONTINUOUS
 62
1
 10
1893.149482
 20
1319.912089
 11
1898.788626
 21
1326.342232
  0
LINE
  8
0
  6
CONTINUOUS
 62
1
 10
1921.767255
 20
1412.099638
 11
1922.204829
 21
1405.422963
  0
LINE
  8
0
  6
CONTINUOUS
 62
1
 10
1918.806986
 20
1366.935557
 11
1921.767255
 21
1381.817520
  0
LINE
  8
0
  6
CONTINUOUS
 62
1
 10
1921.747832
 20
1381.720120
 11
1921.767255
 21
1381.817520
  0
LINE
  8
0
  6
CONTINUOUS
 62
1
 10
1864.759638
 20
1296.499616
 11
1877.375945
 21
1304.929581
  0
LINE
  8
0
  6
CONTINUOUS
 62
1
 10
1851.150988
 20
1289.788602
 11
1864.759604
 21
1296.499616
  0
LINE
  8
0
  6
CONTINUOUS
 62
1
 10
1836.782640
 20
1284.911174
 11
1851.150919
 21
1289.788570
  0
LINE
  8
0
  6
CONTINUOUS
 62
1
 10
1836.843363
 20
1284.584411
 11
1851.240777
 21
1289.471660
  0
LINE
  8
0
  6
CONTINUOUS
 62
1
 10
1851.240777
 20
1289.471660
 11
1864.877007
 21
1296.196313
  0
LINE
  8
0
  6
CONTINUOUS
 62
1
 10
1864.877007
 20
1296.196313
 11
1877.518854
 21
1304.643319
  0
LINE
  8
0
  6
CONTINUOUS
 62
1
 10
1877.518854
 20
1304.643319
 11
1884.002179
 21
1310.329085
  0
LINE
  8
0
  6
CONTINUOUS
 62
1
 10
1877.375945
 20
1304.929581
 11
1883.806115
 21
1310.568717
  0
LINE
  8
0
  6
CONTINUOUS
 62
1
 10
1851.150919
 20
1289.788570
 11
1864.759638
 21
1296.499616
  0
LINE
  8
0
  6
CONTINUOUS
 62
1
 10
1921.080187
 20
1285.247852
 11
1921.767255
 21
1286.810708
  0
LINE
  8
0
  6
CONTINUOUS
 62
1
 10
1893.381938
 20
1319.721847
 11
1898.974839
 21
1326.099327
  0
LINE
  8
0
  6
CONTINUOUS
 62
1
 10
1898.974839
 20
1326.099327
 11
1907.421838
 21
1338.741194
  0
LINE
  8
0
  6
CONTINUOUS
 62
1
 10
1907.421838
 20
1338.741194
 11
1914.146535
 21
1352.377468
  0
LINE
  8
0
  6
CONTINUOUS
 62
1
 10
1914.146535
 20
1352.377468
 11
1919.033809
 21
1366.774807
  0
LINE
  8
0
  6
CONTINUOUS
 62
1
 10
1919.033809
 20
1366.774807
 11
1921.999987
 21
1381.686905
  0
LINE
  8
0
  6
CONTINUOUS
 62
1
 10
1913.929666
 20
1352.567325
 11
1918.806986
 21
1366.935557
  0
LINE
  8
0
  6
CONTINUOUS
 62
1
 10
1907.218551
 20
1338.958586
 11
1913.929666
 21
1352.567325
  0
LINE
  8
0
  6
CONTINUOUS
 62
1
 10
1898.788626
 20
1326.342232
 11
1907.218551
 21
1338.958586
  0
LINE
  8
0
  6
CONTINUOUS
 62
1
 10
1893.149448
 20
1319.912057
 11
1898.788626
 21
1326.342232
  0
LINE
  8
0
  6
CONTINUOUS
 62
1
 10
1921.767255
 20
1381.817520
 11
1922.204863
 21
1388.494195
  0
LINE
  8
0
  6
CONTINUOUS
 62
1
 10
1921.999987
 20
1381.686905
 11
1922.445372
 21
1388.482834
  0
LINE
  8
0
  6
CONTINUOUS
 62
1
 10
1921.999987
 20
1412.030223
 11
1922.432342
 21
1405.433714
  0
LINE
  8
0
  6
CONTINUOUS
 62
1
 10
1919.033809
 20
1426.942320
 11
1921.999987
 21
1412.030223
  0
LINE
  8
0
  6
CONTINUOUS
 62
1
 10
1921.767255
 20
1412.099638
 11
1922.204863
 21
1405.422963
  0
LINE
  8
0
  6
CONTINUOUS
 62
1
 10
1919.054683
 20
1426.947904
 11
1922.021415
 21
1412.033111
  0
LINE
  8
0
  6
CONTINUOUS
 62
1
 10
1944.759605
 20
1255.958569
 11
1944.759605
 21
1387.430276
  0
LINE
  8
0
  6
CONTINUOUS
 62
1
 10
1692.023482
 20
1498.009289
 11
1694.399699
 21
1495.185116
  0
LINE
  8
0
  6
CONTINUOUS
 62
1
 10
1690.833658
 20
1501.503097
 11
1692.023482
 21
1498.009289
  0
LINE
  8
0
  6
CONTINUOUS
 62
1
 10
1690.833658
 20
1501.503097
 11
1690.992231
 21
1505.190549
  0
LINE
  8
0
  6
CONTINUOUS
 62
1
 10
1690.992231
 20
1505.190549
 11
1692.477584
 21
1508.569275
  0
LINE
  8
0
  6
CONTINUOUS
 62
1
 10
1692.477584
 20
1508.569275
 11
1695.087389
 21
1511.179136
  0
LINE
  8
0
  6
CONTINUOUS
 62
1
 10
1691.497847
 20
1412.033111
 11
1694.464587
 21
1426.947969
  0
LINE
  8
0
  6
CONTINUOUS
 62
1
 10
1691.751998
 20
1412.099638
 11
1694.712198
 21
1426.981601
  0
LINE
  8
0
  6
CONTINUOUS
 62
1
 10
1691.519266
 20
1412.030223
 11
1694.485462
 21
1426.942320
  0
LINE
  8
0
  6
CONTINUOUS
 62
1
 10
1668.759622
 20
1406.486882
 11
1668.759622
 21
1544.958560
  0
LINE
  8
0
  6
CONTINUOUS
 62
1
 10
1801.759616
 20
1438.958583
 11
1811.759620
 21
1438.958583
  0
LINE
  8
0
  6
CONTINUOUS
 62
1
 10
1796.975143
 20
1549.958581
 11
1816.544110
 21
1549.958581
  0
LINE
  8
0
  6
CONTINUOUS
 62
1
 10
1816.593670
 20
1553.494109
 11
1816.647257
 21
1552.352142
  0
LINE
  8
0
  6
CONTINUOUS
 62
1
 10
1796.871996
 20
1552.352142
 11
1796.925583
 21
1553.494109
  0
LINE
  8
0
  6
CONTINUOUS
 62
1
 10
1796.871996
 20
1552.352142
 11
1801.759616
 21
1438.958583
  0
LINE
  8
0
  6
CONTINUOUS
 62
1
 10
1811.759620
 20
1438.958583
 11
1816.647257
 21
1552.352142
  0
LINE
  8
0
  6
CONTINUOUS
 62
1
 10
1732.906346
 20
1463.679292
 11
1739.977394
 21
1470.750348
  0
LINE
  8
0
  6
CONTINUOUS
 62
1
 10
1708.471654
 20
1509.257073
 11
1739.977394
 21
1470.750348
  0
LINE
  8
0
  6
CONTINUOUS
 62
1
 10
1695.087389
 20
1511.179136
 11
1698.466172
 21
1512.664489
  0
LINE
  8
0
  6
CONTINUOUS
 62
1
 10
1698.466172
 20
1512.664489
 11
1702.153599
 21
1512.823025
  0
LINE
  8
0
  6
CONTINUOUS
 62
1
 10
1702.153599
 20
1512.823025
 11
1705.647434
 21
1511.633176
  0
LINE
  8
0
  6
CONTINUOUS
 62
1
 10
1705.647434
 20
1511.633176
 11
1708.471654
 21
1509.257073
  0
LINE
  8
0
  6
CONTINUOUS
 62
1
 10
1694.399699
 20
1495.185116
 11
1732.906346
 21
1463.679292
  0
LINE
  8
0
  6
CONTINUOUS
 62
1
 10
1714.527254
 20
1467.631055
 11
1720.187722
 21
1474.085556
  0
LINE
  8
0
  6
CONTINUOUS
 62
1
 10
1729.573426
 20
1483.466219
 11
1735.987231
 21
1489.090946
  0
LINE
  8
0
  6
CONTINUOUS
 62
1
 10
1821.934139
 20
1512.120399
 11
1836.848979
 21
1509.153673
  0
LINE
  8
0
  6
CONTINUOUS
 62
1
 10
1814.932904
 20
1512.579253
 11
1821.934122
 21
1512.120399
  0
LINE
  8
0
  6
CONTINUOUS
 62
1
 10
1791.585235
 20
1512.120399
 11
1798.586349
 21
1512.579253
  0
LINE
  8
0
  6
CONTINUOUS
 62
1
 10
1776.670429
 20
1509.153737
 11
1791.585131
 21
1512.120399
  0
LINE
  8
0
  6
CONTINUOUS
 62
1
 10
1762.270251
 20
1504.265461
 11
1776.670274
 21
1509.153673
  0
LINE
  8
0
  6
CONTINUOUS
 62
1
 10
1748.631532
 20
1497.539653
 11
1762.270251
 21
1504.265461
  0
LINE
  8
0
  6
CONTINUOUS
 62
1
 10
1735.987318
 20
1489.091010
 11
1748.631446
 21
1497.539589
  0
LINE
  8
0
  6
CONTINUOUS
 62
1
 10
1706.078649
 20
1454.986749
 11
1714.527203
 21
1467.630991
  0
LINE
  8
0
  6
CONTINUOUS
 62
1
 10
1699.352707
 20
1441.347972
 11
1706.078649
 21
1454.986749
  0
LINE
  8
0
  6
CONTINUOUS
 62
1
 10
1694.464587
 20
1426.947969
 11
1699.352707
 21
1441.347972
  0
LINE
  8
0
  6
CONTINUOUS
 62
1
 10
1830.602275
 20
1485.840461
 11
1842.012739
 21
1481.967131
  0
LINE
  8
0
  6
CONTINUOUS
 62
1
 10
1818.783786
 20
1488.191339
 11
1830.602275
 21
1485.840461
  0
LINE
  8
0
  6
CONTINUOUS
 62
1
 10
1813.895545
 20
1488.511683
 11
1818.783786
 21
1488.191339
  0
LINE
  8
0
  6
CONTINUOUS
 62
1
 10
1794.735449
 20
1488.191339
 11
1799.623708
 21
1488.511683
  0
LINE
  8
0
  6
CONTINUOUS
 62
1
 10
1782.916978
 20
1485.840461
 11
1794.735449
 21
1488.191339
  0
LINE
  8
0
  6
CONTINUOUS
 62
1
 10
1771.506514
 20
1481.967131
 11
1782.916978
 21
1485.840461
  0
LINE
  8
0
  6
CONTINUOUS
 62
1
 10
1760.699204
 20
1476.637588
 11
1771.506514
 21
1481.967131
  0
LINE
  8
0
  6
CONTINUOUS
 62
1
 10
1750.680036
 20
1469.942974
 11
1760.699204
 21
1476.637588
  0
LINE
  8
0
  6
CONTINUOUS
 62
1
 10
1741.620344
 20
1461.997857
 11
1750.680036
 21
1469.942974
  0
LINE
  8
0
  6
CONTINUOUS
 62
1
 10
1733.675271
 20
1452.938179
 11
1741.620344
 21
1461.997857
  0
LINE
  8
0
  6
CONTINUOUS
 62
1
 10
1726.980625
 20
1442.919011
 11
1733.675271
 21
1452.938179
  0
LINE
  8
0
  6
CONTINUOUS
 62
1
 10
1721.651042
 20
1432.111723
 11
1726.980625
 21
1442.919011
  0
LINE
  8
0
  6
CONTINUOUS
 62
1
 10
1717.777747
 20
1420.701168
 11
1721.651042
 21
1432.111723
  0
LINE
  8
0
  6
CONTINUOUS
 62
1
 10
1831.639254
 20
1456.923382
 11
1839.266454
 21
1453.162054
  0
LINE
  8
0
  6
CONTINUOUS
 62
1
 10
1823.586403
 20
1459.656927
 11
1831.639254
 21
1456.923382
  0
LINE
  8
0
  6
CONTINUOUS
 62
1
 10
1815.245593
 20
1461.316027
 11
1823.586403
 21
1459.656927
  0
LINE
  8
0
  6
CONTINUOUS
 62
1
 10
1812.730380
 20
1461.480916
 11
1815.245593
 21
1461.316027
  0
LINE
  8
0
  6
CONTINUOUS
 62
1
 10
1798.273660
 20
1461.316027
 11
1800.788821
 21
1461.480852
  0
LINE
  8
0
  6
CONTINUOUS
 62
1
 10
1789.932832
 20
1459.656927
 11
1798.273660
 21
1461.316027
  0
LINE
  8
0
  6
CONTINUOUS
 62
1
 10
1781.879982
 20
1456.923382
 11
1789.932832
 21
1459.656927
  0
LINE
  8
0
  6
CONTINUOUS
 62
1
 10
1774.252782
 20
1453.162054
 11
1781.879982
 21
1456.923382
  0
LINE
  8
0
  6
CONTINUOUS
 62
1
 10
1767.181803
 20
1448.437384
 11
1774.252782
 21
1453.162054
  0
LINE
  8
0
  6
CONTINUOUS
 62
1
 10
1760.788008
 20
1442.830180
 11
1767.181803
 21
1448.437384
  0
LINE
  8
0
  6
CONTINUOUS
 62
1
 10
1755.180834
 20
1436.436333
 11
1760.788008
 21
1442.830180
  0
LINE
  8
0
  6
CONTINUOUS
 62
1
 10
1750.456151
 20
1429.365406
 11
1755.180834
 21
1436.436333
  0
LINE
  8
0
  6
CONTINUOUS
 62
1
 10
1746.694868
 20
1421.738258
 11
1750.456151
 21
1429.365406
  0
LINE
  8
0
  6
CONTINUOUS
 62
1
 10
1736.097446
 20
1488.947366
 11
1736.143239
 21
1488.987481
  0
LINE
  8
0
  6
CONTINUOUS
 62
1
 10
1714.730627
 20
1467.574894
 11
1720.334778
 21
1473.965211
  0
LINE
  8
0
  6
CONTINUOUS
 62
1
 10
1694.712198
 20
1426.981601
 11
1699.589587
 21
1441.349897
  0
LINE
  8
0
  6
CONTINUOUS
 62
1
 10
1699.559865
 20
1441.262157
 11
1699.589587
 21
1441.349897
  0
LINE
  8
0
  6
CONTINUOUS
 62
1
 10
1706.300702
 20
1454.958572
 11
1714.730627
 21
1467.574894
  0
LINE
  8
0
  6
CONTINUOUS
 62
1
 10
1714.686441
 20
1467.508784
 11
1714.730593
 21
1467.574830
  0
LINE
  8
0
  6
CONTINUOUS
 62
1
 10
1736.143360
 20
1488.987609
 11
1748.759476
 21
1497.417382
  0
LINE
  8
0
  6
CONTINUOUS
 62
1
 10
1762.368334
 20
1504.128620
 11
1776.736613
 21
1509.005985
  0
LINE
  8
0
  6
CONTINUOUS
 62
1
 10
1776.712075
 20
1508.997641
 11
1776.736475
 21
1509.005920
  0
LINE
  8
0
  6
CONTINUOUS
 62
1
 10
1776.736613
 20
1509.005985
 11
1791.618569
 21
1511.966228
  0
LINE
  8
0
  6
CONTINUOUS
 62
1
 10
1821.900667
 20
1511.966228
 11
1836.782640
 21
1509.005985
  0
LINE
  8
0
  6
CONTINUOUS
 62
1
 10
1836.782640
 20
1509.005985
 11
1851.150919
 21
1504.128620
  0
LINE
  8
0
  6
CONTINUOUS
 62
1
 10
1699.589587
 20
1441.349897
 11
1706.300702
 21
1454.958572
  0
LINE
  8
0
  6
CONTINUOUS
 62
1
 10
1720.204449
 20
1474.071885
 11
1720.334761
 21
1473.965211
  0
LINE
  8
0
  6
CONTINUOUS
 62
1
 10
1714.544345
 20
1467.617833
 11
1720.204449
 21
1474.071885
  0
LINE
  8
0
  6
CONTINUOUS
 62
1
 10
1706.097329
 20
1454.975966
 11
1714.544345
 21
1467.617833
  0
LINE
  8
0
  6
CONTINUOUS
 62
1
 10
1699.372718
 20
1441.339692
 11
1706.097329
 21
1454.975966
  0
LINE
  8
0
  6
CONTINUOUS
 62
1
 10
1694.485462
 20
1426.942320
 11
1699.372718
 21
1441.339692
  0
LINE
  8
0
  6
CONTINUOUS
 62
1
 10
1821.931322
 20
1512.098961
 11
1836.843363
 21
1509.132749
  0
LINE
  8
0
  6
CONTINUOUS
 62
1
 10
1814.931971
 20
1512.557751
 11
1821.931322
 21
1512.098961
  0
LINE
  8
0
  6
CONTINUOUS
 62
1
 10
1791.587931
 20
1512.098961
 11
1798.587265
 21
1512.557687
  0
LINE
  8
0
  6
CONTINUOUS
 62
1
 10
1776.675821
 20
1509.132749
 11
1791.587931
 21
1512.098961
  0
LINE
  8
0
  6
CONTINUOUS
 62
1
 10
1762.278476
 20
1504.245500
 11
1776.675821
 21
1509.132749
  0
LINE
  8
0
  6
CONTINUOUS
 62
1
 10
1748.642246
 20
1497.520847
 11
1762.278476
 21
1504.245500
  0
LINE
  8
0
  6
CONTINUOUS
 62
1
 10
1736.000399
 20
1489.073809
 11
1748.642246
 21
1497.520847
  0
LINE
  8
0
  6
CONTINUOUS
 62
1
 10
1729.587077
 20
1483.449531
 11
1736.000399
 21
1489.073809
  0
LINE
  8
0
  6
CONTINUOUS
 62
1
 10
1729.687908
 20
1483.326298
 11
1736.143291
 21
1488.987545
  0
LINE
  8
0
  6
CONTINUOUS
 62
1
 10
1748.759632
 20
1497.417510
 11
1762.368334
 21
1504.128620
  0
LINE
  8
0
  6
CONTINUOUS
 62
1
 10
1791.618569
 20
1511.966228
 11
1798.593054
 21
1512.423285
  0
LINE
  8
0
  6
CONTINUOUS
 62
1
 10
1798.590738
 20
1512.475916
 11
1798.593054
 21
1512.423285
  0
LINE
  8
0
  6
CONTINUOUS
 62
1
 10
1814.926182
 20
1512.423285
 11
1821.900667
 21
1511.966228
  0
LINE
  8
0
  6
CONTINUOUS
 62
1
 10
1836.848979
 20
1509.153673
 11
1851.249002
 21
1504.265461
  0
LINE
  8
0
  6
CONTINUOUS
 62
1
 10
1668.759622
 20
1544.958560
 11
1797.190681
 21
1544.958560
  0
LINE
  8
0
  6
CONTINUOUS
 62
1
 10
1658.759627
 20
1554.958602
 11
1954.759626
 21
1554.958602
  0
LINE
  8
0
  6
CONTINUOUS
 62
1
 10
1796.925583
 20
1553.494109
 11
1797.326211
 21
1554.958602
  0
LINE
  8
0
  6
CONTINUOUS
 62
1
 10
1816.193042
 20
1554.958602
 11
1816.593670
 21
1553.494109
  0
LINE
  8
0
  6
CONTINUOUS
 62
1
 10
1880.651408
 20
1463.779292
 11
1919.158055
 21
1495.285051
  0
LINE
  8
0
  6
CONTINUOUS
 62
1
 10
1905.086083
 20
1509.357008
 11
1907.910320
 21
1511.733175
  0
LINE
  8
0
  6
CONTINUOUS
 62
1
 10
1907.910320
 20
1511.733175
 11
1911.404103
 21
1512.923088
  0
LINE
  8
0
  6
CONTINUOUS
 62
1
 10
1911.404103
 20
1512.923088
 11
1915.091599
 21
1512.764488
  0
LINE
  8
0
  6
CONTINUOUS
 62
1
 10
1915.091599
 20
1512.764488
 11
1918.470330
 21
1511.279135
  0
LINE
  8
0
  6
CONTINUOUS
 62
1
 10
1918.470330
 20
1511.279135
 11
1921.080187
 21
1508.669338
  0
LINE
  8
0
  6
CONTINUOUS
 62
1
 10
1921.080187
 20
1508.669338
 11
1922.565540
 21
1505.290548
  0
LINE
  8
0
  6
CONTINUOUS
 62
1
 10
1922.565540
 20
1505.290548
 11
1922.724104
 21
1501.603032
  0
LINE
  8
0
  6
CONTINUOUS
 62
1
 10
1921.534211
 20
1498.109288
 11
1922.724104
 21
1501.603032
  0
LINE
  8
0
  6
CONTINUOUS
 62
1
 10
1919.158055
 20
1495.285051
 11
1921.534211
 21
1498.109288
  0
LINE
  8
0
  6
CONTINUOUS
 62
1
 10
1873.580308
 20
1470.850347
 11
1905.086083
 21
1509.357008
  0
LINE
  8
0
  6
CONTINUOUS
 62
1
 10
1873.580308
 20
1470.850347
 11
1880.651408
 21
1463.779292
  0
LINE
  8
0
  6
CONTINUOUS
 62
1
 10
1914.166477
 20
1441.347972
 11
1919.054649
 21
1426.947969
  0
LINE
  8
0
  6
CONTINUOUS
 62
1
 10
1907.440708
 20
1454.986557
 11
1914.166477
 21
1441.347972
  0
LINE
  8
0
  6
CONTINUOUS
 62
1
 10
1898.991981
 20
1467.630991
 11
1907.440604
 21
1454.986749
  0
LINE
  8
0
  6
CONTINUOUS
 62
1
 10
1893.296538
 20
1474.125479
 11
1898.991981
 21
1467.630991
  0
LINE
  8
0
  6
CONTINUOUS
 62
1
 10
1877.532022
 20
1489.090946
 11
1883.920581
 21
1483.488363
  0
LINE
  8
0
  6
CONTINUOUS
 62
1
 10
1864.887790
 20
1497.539589
 11
1877.532022
 21
1489.090946
  0
LINE
  8
0
  6
CONTINUOUS
 62
1
 10
1851.249244
 20
1504.265333
 11
1864.887790
 21
1497.539589
  0
LINE
  8
0
  6
CONTINUOUS
 62
1
 10
1891.868211
 20
1432.111723
 11
1895.741506
 21
1420.701168
  0
LINE
  8
0
  6
CONTINUOUS
 62
1
 10
1886.538628
 20
1442.919011
 11
1891.868211
 21
1432.111723
  0
LINE
  8
0
  6
CONTINUOUS
 62
1
 10
1879.843965
 20
1452.938179
 11
1886.538628
 21
1442.919011
  0
LINE
  8
0
  6
CONTINUOUS
 62
1
 10
1871.898892
 20
1461.997857
 11
1879.843965
 21
1452.938179
  0
LINE
  8
0
  6
CONTINUOUS
 62
1
 10
1862.839200
 20
1469.942974
 11
1871.898892
 21
1461.997857
  0
LINE
  8
0
  6
CONTINUOUS
 62
1
 10
1852.820031
 20
1476.637588
 11
1862.839200
 21
1469.942974
  0
LINE
  8
0
  6
CONTINUOUS
 62
1
 10
1842.012739
 20
1481.967131
 11
1852.820031
 21
1476.637588
  0
LINE
  8
0
  6
CONTINUOUS
 62
1
 10
1863.063084
 20
1429.365406
 11
1866.824368
 21
1421.738258
  0
LINE
  8
0
  6
CONTINUOUS
 62
1
 10
1858.338419
 20
1436.436333
 11
1863.063084
 21
1429.365406
  0
LINE
  8
0
  6
CONTINUOUS
 62
1
 10
1852.731176
 20
1442.830180
 11
1858.338419
 21
1436.436333
  0
LINE
  8
0
  6
CONTINUOUS
 62
1
 10
1846.337432
 20
1448.437384
 11
1852.731176
 21
1442.830180
  0
LINE
  8
0
  6
CONTINUOUS
 62
1
 10
1839.266454
 20
1453.162054
 11
1846.337432
 21
1448.437384
  0
LINE
  8
0
  6
CONTINUOUS
 62
1
 10
1877.375945
 20
1488.987545
 11
1883.806115
 21
1483.348505
  0
LINE
  8
0
  6
CONTINUOUS
 62
1
 10
1851.150919
 20
1504.128620
 11
1864.759638
 21
1497.417510
  0
LINE
  8
0
  6
CONTINUOUS
 62
1
 10
1864.759638
 20
1497.417510
 11
1877.375945
 21
1488.987545
  0
LINE
  8
0
  6
CONTINUOUS
 62
1
 10
1898.788626
 20
1467.574894
 11
1907.218551
 21
1454.958572
  0
LINE
  8
0
  6
CONTINUOUS
 62
1
 10
1913.929666
 20
1441.349833
 11
1913.959388
 21
1441.262157
  0
LINE
  8
0
  6
CONTINUOUS
 62
1
 10
1913.929666
 20
1441.349897
 11
1918.806986
 21
1426.981601
  0
LINE
  8
0
  6
CONTINUOUS
 62
1
 10
1893.149448
 20
1474.005069
 11
1898.788626
 21
1467.574894
  0
LINE
  8
0
  6
CONTINUOUS
 62
1
 10
1898.788626
 20
1467.574894
 11
1907.218551
 21
1454.958572
  0
LINE
  8
0
  6
CONTINUOUS
 62
1
 10
1907.218551
 20
1454.958572
 11
1913.929666
 21
1441.349897
  0
LINE
  8
0
  6
CONTINUOUS
 62
1
 10
1918.806986
 20
1426.981601
 11
1921.767255
 21
1412.099638
  0
LINE
  8
0
  6
CONTINUOUS
 62
1
 10
1914.146535
 20
1441.339692
 11
1919.033809
 21
1426.942320
  0
LINE
  8
0
  6
CONTINUOUS
 62
1
 10
1907.421838
 20
1454.975966
 11
1914.146535
 21
1441.339692
  0
LINE
  8
0
  6
CONTINUOUS
 62
1
 10
1898.974839
 20
1467.617833
 11
1907.421838
 21
1454.975966
  0
LINE
  8
0
  6
CONTINUOUS
 62
1
 10
1893.279811
 20
1474.111808
 11
1898.974839
 21
1467.617833
  0
LINE
  8
0
  6
CONTINUOUS
 62
1
 10
1877.518854
 20
1489.073809
 11
1883.906895
 21
1483.471675
  0
LINE
  8
0
  6
CONTINUOUS
 62
1
 10
1864.877007
 20
1497.520847
 11
1877.518854
 21
1489.073809
  0
LINE
  8
0
  6
CONTINUOUS
 62
1
 10
1851.240777
 20
1504.245500
 11
1864.877007
 21
1497.520847
  0
LINE
  8
0
  6
CONTINUOUS
 62
1
 10
1836.843363
 20
1509.132749
 11
1851.240777
 21
1504.245500
  0
LINE
  8
0
  6
CONTINUOUS
 62
1
 10
1836.782640
 20
1509.005985
 11
1851.150919
 21
1504.128620
  0
LINE
  8
0
  6
CONTINUOUS
 62
1
 10
1851.150919
 20
1504.128620
 11
1864.759638
 21
1497.417510
  0
LINE
  8
0
  6
CONTINUOUS
 62
1
 10
1864.759638
 20
1497.417510
 11
1877.375945
 21
1488.987545
  0
LINE
  8
0
  6
CONTINUOUS
 62
1
 10
1816.328589
 20
1544.958560
 11
1944.759605
 21
1544.958560
  0
LINE
  8
0
  6
CONTINUOUS
 62
1
 10
1944.759605
 20
1406.486882
 11
1944.759605
 21
1544.958560
  0
LINE
  8
0
  6
CONTINUOUS
 62
1
 10
1060.759627
 20
946.958551
 11
1356.759626
 21
946.958551
  0
LINE
  8
0
  6
CONTINUOUS
 62
1
 10
1060.759627
 20
946.958551
 11
1060.759627
 21
1554.958602
  0
LINE
  8
0
  6
CONTINUOUS
 62
1
 10
1094.439067
 20
993.247839
 11
1097.048872
 21
990.638001
  0
LINE
  8
0
  6
CONTINUOUS
 62
1
 10
1092.953714
 20
996.626613
 11
1094.439067
 21
993.247839
  0
LINE
  8
0
  6
CONTINUOUS
 62
1
 10
1092.795149
 20
1000.314056
 11
1092.953714
 21
996.626613
  0
LINE
  8
0
  6
CONTINUOUS
 62
1
 10
1092.795149
 20
1000.314056
 11
1093.985024
 21
1003.807856
  0
LINE
  8
0
  6
CONTINUOUS
 62
1
 10
1093.985024
 20
1003.807856
 11
1096.361190
 21
1006.632078
  0
LINE
  8
0
  6
CONTINUOUS
 62
1
 10
1110.433153
 20
992.560120
 11
1141.938945
 21
1031.066782
  0
LINE
  8
0
  6
CONTINUOUS
 62
1
 10
1107.608933
 20
990.183946
 11
1110.433153
 21
992.560120
  0
LINE
  8
0
  6
CONTINUOUS
 62
1
 10
1104.115098
 20
988.994089
 11
1107.608933
 21
990.183946
  0
LINE
  8
0
  6
CONTINUOUS
 62
1
 10
1100.427654
 20
989.152648
 11
1104.115098
 21
988.994089
  0
LINE
  8
0
  6
CONTINUOUS
 62
1
 10
1097.048872
 20
990.638001
 11
1100.427654
 21
989.152648
  0
LINE
  8
0
  6
CONTINUOUS
 62
1
 10
1198.975143
 20
952.058555
 11
1218.544110
 21
952.058555
  0
LINE
  8
0
  6
CONTINUOUS
 62
1
 10
1198.871997
 20
949.665026
 11
1198.925583
 21
948.523027
  0
LINE
  8
0
  6
CONTINUOUS
 62
1
 10
1218.593670
 20
948.523027
 11
1218.647257
 21
949.665026
  0
LINE
  8
0
  6
CONTINUOUS
 62
1
 10
1218.193578
 20
947.060684
 11
1218.593670
 21
948.523027
  0
LINE
  8
0
  6
CONTINUOUS
 62
1
 10
1198.925583
 20
948.523027
 11
1199.325607
 21
947.060684
  0
LINE
  8
0
  6
CONTINUOUS
 62
1
 10
1213.759620
 20
1063.058561
 11
1218.647257
 21
949.665026
  0
LINE
  8
0
  6
CONTINUOUS
 62
1
 10
1198.871997
 20
949.665026
 11
1203.759616
 21
1063.058561
  0
LINE
  8
0
  6
CONTINUOUS
 62
1
 10
1200.590739
 20
989.541212
 11
1200.593054
 21
989.593819
  0
LINE
  8
0
  6
CONTINUOUS
 62
1
 10
1215.899831
 20
1013.405719
 11
1220.783787
 21
1013.725830
  0
LINE
  8
0
  6
CONTINUOUS
 62
1
 10
1196.735450
 20
1013.725830
 11
1201.619388
 21
1013.405727
  0
LINE
  8
0
  6
CONTINUOUS
 62
1
 10
1216.932904
 20
989.437883
 11
1216.937242
 21
989.338165
  0
LINE
  8
0
  6
CONTINUOUS
 62
1
 10
1193.585149
 20
989.796762
 11
1200.582012
 21
989.338165
  0
LINE
  8
0
  6
CONTINUOUS
 62
1
 10
1216.937242
 20
989.338165
 11
1223.934122
 21
989.796762
  0
LINE
  8
0
  6
CONTINUOUS
 62
1
 10
1223.934139
 20
989.796762
 11
1238.848980
 21
992.763512
  0
LINE
  8
0
  6
CONTINUOUS
 62
1
 10
1178.670274
 20
992.763512
 11
1193.585131
 21
989.796762
  0
LINE
  8
0
  6
CONTINUOUS
 62
1
 10
1164.270251
 20
997.651668
 11
1178.670274
 21
992.763512
  0
LINE
  8
0
  6
CONTINUOUS
 62
1
 10
1150.631446
 20
1004.377580
 11
1164.270251
 21
997.651668
  0
LINE
  8
0
  6
CONTINUOUS
 62
1
 10
1137.987249
 20
1012.826151
 11
1150.631446
 21
1004.377580
  0
LINE
  8
0
  6
CONTINUOUS
 62
1
 10
1131.713121
 20
1018.568688
 11
1138.143291
 21
1012.929560
  0
LINE
  8
0
  6
CONTINUOUS
 62
1
 10
1238.782640
 20
992.911160
 11
1253.150919
 21
997.788525
  0
LINE
  8
0
  6
CONTINUOUS
 62
1
 10
1216.930519
 20
989.494109
 11
1223.900667
 21
989.950957
  0
LINE
  8
0
  6
CONTINUOUS
 62
1
 10
1164.368334
 20
997.788525
 11
1178.736561
 21
992.911176
  0
LINE
  8
0
  6
CONTINUOUS
 62
1
 10
1150.759667
 20
1004.499611
 11
1164.368300
 21
997.788541
  0
LINE
  8
0
  6
CONTINUOUS
 62
1
 10
1131.598638
 20
1018.428766
 11
1137.987232
 21
1012.826167
  0
LINE
  8
0
  6
CONTINUOUS
 62
1
 10
1138.063455
 20
1012.925492
 11
1150.694019
 21
1004.486004
  0
LINE
  8
0
  6
CONTINUOUS
 62
1
 10
1150.694019
 20
1004.486004
 11
1164.318152
 21
997.767328
  0
LINE
  8
0
  6
CONTINUOUS
 62
1
 10
1164.318152
 20
997.767328
 11
1178.702675
 21
992.884444
  0
LINE
  8
0
  6
CONTINUOUS
 62
1
 10
1178.702675
 20
992.884444
 11
1193.601479
 21
989.920886
  0
LINE
  8
0
  6
CONTINUOUS
 62
1
 10
1193.601479
 20
989.920886
 11
1200.587403
 21
989.463004
  0
LINE
  8
0
  6
CONTINUOUS
 62
1
 10
1216.931850
 20
989.463004
 11
1223.917758
 21
989.920886
  0
LINE
  8
0
  6
CONTINUOUS
 62
1
 10
1223.917758
 20
989.920886
 11
1238.816562
 21
992.884444
  0
LINE
  8
0
  6
CONTINUOUS
 62
1
 10
1223.900667
 20
989.950957
 11
1238.782640
 21
992.911160
  0
LINE
  8
0
  6
CONTINUOUS
 62
1
 10
1193.618569
 20
989.950957
 11
1200.588751
 21
989.494109
  0
LINE
  8
0
  6
CONTINUOUS
 62
1
 10
1178.736613
 20
992.911160
 11
1193.618569
 21
989.950957
  0
LINE
  8
0
  6
CONTINUOUS
 62
1
 10
1164.368334
 20
997.788525
 11
1178.736613
 21
992.911160
  0
LINE
  8
0
  6
CONTINUOUS
 62
1
 10
1150.759632
 20
1004.499619
 11
1164.368334
 21
997.788525
  0
LINE
  8
0
  6
CONTINUOUS
 62
1
 10
1138.143291
 20
1012.929560
 11
1150.759632
 21
1004.499619
  0
LINE
  8
0
  6
CONTINUOUS
 62
1
 10
1199.325607
 20
947.060684
 11
1218.193578
 21
947.060684
  0
LINE
  8
0
  6
CONTINUOUS
 62
1
 10
1070.759623
 20
956.958552
 11
1199.186344
 21
956.958552
  0
LINE
  8
0
  6
CONTINUOUS
 62
1
 10
1060.759627
 20
1114.391972
 11
1062.224105
 21
1114.792611
  0
LINE
  8
0
  6
CONTINUOUS
 62
1
 10
1062.224105
 20
1114.792611
 11
1063.253463
 21
1114.840925
  0
LINE
  8
0
  6
CONTINUOUS
 62
1
 10
1062.224105
 20
1095.124521
 11
1063.253463
 21
1095.076190
  0
LINE
  8
0
  6
CONTINUOUS
 62
1
 10
1060.759627
 20
1095.525143
 11
1062.224105
 21
1095.124521
  0
LINE
  8
0
  6
CONTINUOUS
 62
1
 10
1063.253463
 20
1114.840925
 11
1166.759629
 21
1109.958554
  0
LINE
  8
0
  6
CONTINUOUS
 62
1
 10
1063.253463
 20
1095.076190
 11
1166.759629
 21
1099.958561
  0
LINE
  8
0
  6
CONTINUOUS
 62
1
 10
1093.052298
 20
1113.435305
 11
1093.497847
 21
1120.233064
  0
LINE
  8
0
  6
CONTINUOUS
 62
1
 10
1093.065388
 20
1096.482436
 11
1093.497847
 21
1089.884066
  0
LINE
  8
0
  6
CONTINUOUS
 62
1
 10
1093.497847
 20
1120.233064
 11
1096.464587
 21
1135.147921
  0
LINE
  8
0
  6
CONTINUOUS
 62
1
 10
1093.497847
 20
1089.884066
 11
1096.464587
 21
1074.969192
  0
LINE
  8
0
  6
CONTINUOUS
 62
1
 10
1093.314433
 20
1113.422950
 11
1093.751998
 21
1120.099593
  0
LINE
  8
0
  6
CONTINUOUS
 62
1
 10
1093.314424
 20
1096.494182
 11
1093.751998
 21
1089.817523
  0
LINE
  8
0
  6
CONTINUOUS
 62
1
 10
1093.751998
 20
1089.817523
 11
1096.712198
 21
1074.935544
  0
LINE
  8
0
  6
CONTINUOUS
 62
1
 10
1093.751998
 20
1120.099609
 11
1093.771404
 21
1120.197057
  0
LINE
  8
0
  6
CONTINUOUS
 62
1
 10
1093.751998
 20
1120.099593
 11
1096.712198
 21
1134.981572
  0
LINE
  8
0
  6
CONTINUOUS
 62
1
 10
1093.621929
 20
1120.216729
 11
1096.585498
 21
1135.115508
  0
LINE
  8
0
  6
CONTINUOUS
 62
1
 10
1093.177115
 20
1113.429432
 11
1093.621929
 21
1120.216729
  0
LINE
  8
0
  6
CONTINUOUS
 62
1
 10
1093.190144
 20
1096.488309
 11
1093.621929
 21
1089.900417
  0
LINE
  8
0
  6
CONTINUOUS
 62
1
 10
1093.621929
 20
1089.900417
 11
1096.585498
 21
1075.001605
  0
LINE
  8
0
  6
CONTINUOUS
 62
1
 10
1093.314390
 20
1096.494182
 11
1093.751998
 21
1089.817523
  0
LINE
  8
0
  6
CONTINUOUS
 62
1
 10
1070.759623
 20
956.958552
 11
1070.759623
 21
1095.430263
  0
LINE
  8
0
  6
CONTINUOUS
 62
1
 10
1166.759629
 20
1099.958561
 11
1166.759629
 21
1109.958554
  0
LINE
  8
0
  6
CONTINUOUS
 62
1
 10
1134.867845
 20
1038.137869
 11
1141.938945
 21
1031.066782
  0
LINE
  8
0
  6
CONTINUOUS
 62
1
 10
1096.361190
 20
1006.632078
 11
1134.867845
 21
1038.137869
  0
LINE
  8
0
  6
CONTINUOUS
 62
1
 10
1203.759616
 20
1063.058561
 11
1213.759620
 21
1063.058561
  0
LINE
  8
0
  6
CONTINUOUS
 62
1
 10
1203.759616
 20
1146.958570
 11
1213.759620
 21
1146.958570
  0
LINE
  8
0
  6
CONTINUOUS
 62
1
 10
1144.167769
 20
1093.791734
 11
1144.883644
 21
1093.649325
  0
LINE
  8
0
  6
CONTINUOUS
 62
1
 10
1140.274636
 20
1096.393011
 11
1144.167769
 21
1093.791734
  0
LINE
  8
0
  6
CONTINUOUS
 62
1
 10
1138.774267
 20
1098.638499
 11
1140.274636
 21
1096.393011
  0
LINE
  8
0
  6
CONTINUOUS
 62
1
 10
1138.878243
 20
1111.273723
 11
1140.274636
 21
1113.363579
  0
LINE
  8
0
  6
CONTINUOUS
 62
1
 10
1140.274636
 20
1113.363579
 11
1144.167769
 21
1115.964840
  0
LINE
  8
0
  6
CONTINUOUS
 62
1
 10
1144.167769
 20
1115.964840
 11
1144.809010
 21
1116.092391
  0
LINE
  8
0
  6
CONTINUOUS
 62
1
 10
1233.639254
 20
1044.993795
 11
1241.266454
 21
1048.755091
  0
LINE
  8
0
  6
CONTINUOUS
 62
1
 10
1225.586404
 20
1042.260202
 11
1233.639254
 21
1044.993795
  0
LINE
  8
0
  6
CONTINUOUS
 62
1
 10
1217.245593
 20
1040.601118
 11
1225.586404
 21
1042.260202
  0
LINE
  8
0
  6
CONTINUOUS
 62
1
 10
1214.734701
 20
1040.436550
 11
1217.245593
 21
1040.601118
  0
LINE
  8
0
  6
CONTINUOUS
 62
1
 10
1200.273661
 20
1040.601118
 11
1202.784518
 21
1040.436550
  0
LINE
  8
0
  6
CONTINUOUS
 62
1
 10
1191.932833
 20
1042.260202
 11
1200.273661
 21
1040.601118
  0
LINE
  8
0
  6
CONTINUOUS
 62
1
 10
1183.879982
 20
1044.993795
 11
1191.932833
 21
1042.260202
  0
LINE
  8
0
  6
CONTINUOUS
 62
1
 10
1176.252782
 20
1048.755091
 11
1183.879982
 21
1044.993795
  0
LINE
  8
0
  6
CONTINUOUS
 62
1
 10
1169.181803
 20
1053.479761
 11
1176.252782
 21
1048.755091
  0
LINE
  8
0
  6
CONTINUOUS
 62
1
 10
1162.788008
 20
1059.086981
 11
1169.181803
 21
1053.479761
  0
LINE
  8
0
  6
CONTINUOUS
 62
1
 10
1157.180834
 20
1065.480764
 11
1162.788008
 21
1059.086981
  0
LINE
  8
0
  6
CONTINUOUS
 62
1
 10
1152.456151
 20
1072.551739
 11
1157.180834
 21
1065.480764
  0
LINE
  8
0
  6
CONTINUOUS
 62
1
 10
1148.694868
 20
1080.178919
 11
1152.456151
 21
1072.551739
  0
LINE
  8
0
  6
CONTINUOUS
 62
1
 10
1145.961283
 20
1088.231802
 11
1148.694868
 21
1080.178919
  0
LINE
  8
0
  6
CONTINUOUS
 62
1
 10
1144.883644
 20
1093.649325
 11
1145.961283
 21
1088.231802
  0
LINE
  8
0
  6
CONTINUOUS
 62
1
 10
1144.809010
 20
1116.092391
 11
1145.961283
 21
1121.885328
  0
LINE
  8
0
  6
CONTINUOUS
 62
1
 10
1145.961283
 20
1121.885328
 11
1148.694868
 21
1129.938211
  0
LINE
  8
0
  6
CONTINUOUS
 62
1
 10
1148.694868
 20
1129.938211
 11
1152.456151
 21
1137.565375
  0
LINE
  8
0
  6
CONTINUOUS
 62
1
 10
1152.456151
 20
1137.565375
 11
1157.180834
 21
1144.636366
  0
LINE
  8
0
  6
CONTINUOUS
 62
1
 10
1157.180834
 20
1144.636366
 11
1162.788008
 21
1151.030149
  0
LINE
  8
0
  6
CONTINUOUS
 62
1
 10
1117.113475
 20
1112.300367
 11
1117.426854
 21
1117.082754
  0
LINE
  8
0
  6
CONTINUOUS
 62
1
 10
1117.126487
 20
1097.617391
 11
1117.426854
 21
1093.034375
  0
LINE
  8
0
  6
CONTINUOUS
 62
1
 10
1119.777747
 20
1128.901185
 11
1123.651042
 21
1140.311676
  0
LINE
  8
0
  6
CONTINUOUS
 62
1
 10
1123.651042
 20
1140.311676
 11
1128.980625
 21
1151.118980
  0
LINE
  8
0
  6
CONTINUOUS
 62
1
 10
1232.602275
 20
1016.076652
 11
1244.012739
 21
1019.950014
  0
LINE
  8
0
  6
CONTINUOUS
 62
1
 10
1220.783787
 20
1013.725830
 11
1232.602275
 21
1016.076652
  0
LINE
  8
0
  6
CONTINUOUS
 62
1
 10
1184.916978
 20
1016.076652
 11
1196.735450
 21
1013.725830
  0
LINE
  8
0
  6
CONTINUOUS
 62
1
 10
1173.506514
 20
1019.950014
 11
1184.916978
 21
1016.076652
  0
LINE
  8
0
  6
CONTINUOUS
 62
1
 10
1162.699205
 20
1025.279573
 11
1173.506514
 21
1019.950014
  0
LINE
  8
0
  6
CONTINUOUS
 62
1
 10
1152.680036
 20
1031.974187
 11
1162.699205
 21
1025.279573
  0
LINE
  8
0
  6
CONTINUOUS
 62
1
 10
1143.620344
 20
1039.919288
 11
1152.680036
 21
1031.974187
  0
LINE
  8
0
  6
CONTINUOUS
 62
1
 10
1135.675271
 20
1048.978950
 11
1143.620344
 21
1039.919288
  0
LINE
  8
0
  6
CONTINUOUS
 62
1
 10
1128.980625
 20
1058.998134
 11
1135.675271
 21
1048.978950
  0
LINE
  8
0
  6
CONTINUOUS
 62
1
 10
1117.426854
 20
1093.034375
 11
1119.777747
 21
1081.215929
  0
LINE
  8
0
  6
CONTINUOUS
 62
1
 10
1117.426854
 20
1117.082754
 11
1119.777747
 21
1128.901185
  0
LINE
  8
0
  6
CONTINUOUS
 62
1
 10
1123.651042
 20
1069.805437
 11
1128.980625
 21
1058.998134
  0
LINE
  8
0
  6
CONTINUOUS
 62
1
 10
1119.777747
 20
1081.215929
 11
1123.651042
 21
1069.805437
  0
LINE
  8
0
  6
CONTINUOUS
 62
1
 10
1116.527220
 20
1034.286138
 11
1122.222697
 21
1027.791714
  0
LINE
  8
0
  6
CONTINUOUS
 62
1
 10
1096.464587
 20
1135.147937
 11
1101.352708
 21
1149.547941
  0
LINE
  8
0
  6
CONTINUOUS
 62
1
 10
1108.078649
 20
1046.930363
 11
1116.527203
 21
1034.286170
  0
LINE
  8
0
  6
CONTINUOUS
 62
1
 10
1101.352708
 20
1060.569173
 11
1108.078649
 21
1046.930379
  0
LINE
  8
0
  6
CONTINUOUS
 62
1
 10
1096.464604
 20
1074.969160
 11
1101.352708
 21
1060.569173
  0
LINE
  8
0
  6
CONTINUOUS
 62
1
 10
1116.730628
 20
1034.342235
 11
1122.369736
 21
1027.912044
  0
LINE
  8
0
  6
CONTINUOUS
 62
1
 10
1108.300702
 20
1046.958556
 11
1116.730628
 21
1034.342235
  0
LINE
  8
0
  6
CONTINUOUS
 62
1
 10
1101.559865
 20
1060.654955
 11
1101.589587
 21
1060.567280
  0
LINE
  8
0
  6
CONTINUOUS
 62
1
 10
1096.712198
 20
1074.935544
 11
1101.589587
 21
1060.567280
  0
LINE
  8
0
  6
CONTINUOUS
 62
1
 10
1096.712198
 20
1134.981588
 11
1101.589587
 21
1149.349868
  0
LINE
  8
0
  6
CONTINUOUS
 62
1
 10
1096.585498
 20
1135.115508
 11
1101.468365
 21
1149.500027
  0
LINE
  8
0
  6
CONTINUOUS
 62
1
 10
1096.712198
 20
1134.981572
 11
1101.589587
 21
1149.349868
  0
LINE
  8
0
  6
CONTINUOUS
 62
1
 10
1096.585498
 20
1075.001605
 11
1101.468365
 21
1060.617087
  0
LINE
  8
0
  6
CONTINUOUS
 62
1
 10
1101.468365
 20
1060.617087
 11
1108.187049
 21
1046.992959
  0
LINE
  8
0
  6
CONTINUOUS
 62
1
 10
1108.187049
 20
1046.992959
 11
1116.626565
 21
1034.362373
  0
LINE
  8
0
  6
CONTINUOUS
 62
1
 10
1116.626565
 20
1034.362373
 11
1122.319433
 21
1027.870885
  0
LINE
  8
0
  6
CONTINUOUS
 62
1
 10
1101.589587
 20
1060.567280
 11
1108.300702
 21
1046.958556
  0
LINE
  8
0
  6
CONTINUOUS
 62
1
 10
1131.677782
 20
1018.525540
 11
1138.063455
 21
1012.925492
  0
LINE
  8
0
  6
CONTINUOUS
 62
1
 10
1131.713121
 20
1018.568688
 11
1138.143291
 21
1012.929560
  0
LINE
  8
0
  6
CONTINUOUS
 62
1
 10
1321.158055
 20
1006.632078
 11
1323.534212
 21
1003.807856
  0
LINE
  8
0
  6
CONTINUOUS
 62
1
 10
1323.534212
 20
1003.807856
 11
1324.724105
 21
1000.314056
  0
LINE
  8
0
  6
CONTINUOUS
 62
1
 10
1324.565540
 20
996.626613
 11
1324.724105
 21
1000.314056
  0
LINE
  8
0
  6
CONTINUOUS
 62
1
 10
1323.080187
 20
993.247839
 11
1324.565540
 21
996.626613
  0
LINE
  8
0
  6
CONTINUOUS
 62
1
 10
1320.470330
 20
990.638001
 11
1323.080187
 21
993.247839
  0
LINE
  8
0
  6
CONTINUOUS
 62
1
 10
1317.091600
 20
989.152648
 11
1320.470330
 21
990.638001
  0
LINE
  8
0
  6
CONTINUOUS
 62
1
 10
1313.404103
 20
988.994089
 11
1317.091600
 21
989.152648
  0
LINE
  8
0
  6
CONTINUOUS
 62
1
 10
1309.910320
 20
990.183946
 11
1313.404103
 21
988.994089
  0
LINE
  8
0
  6
CONTINUOUS
 62
1
 10
1307.086083
 20
992.560120
 11
1309.910320
 21
990.183946
  0
LINE
  8
0
  6
CONTINUOUS
 62
1
 10
1275.580308
 20
1031.066782
 11
1307.086083
 21
992.560120
  0
LINE
  8
0
  6
CONTINUOUS
 62
1
 10
1266.887790
 20
1004.377580
 11
1279.532022
 21
1012.826167
  0
LINE
  8
0
  6
CONTINUOUS
 62
1
 10
1253.249003
 20
997.651668
 11
1266.887790
 21
1004.377580
  0
LINE
  8
0
  6
CONTINUOUS
 62
1
 10
1238.848980
 20
992.763512
 11
1253.249003
 21
997.651668
  0
LINE
  8
0
  6
CONTINUOUS
 62
1
 10
1279.375945
 20
1012.929560
 11
1285.806116
 21
1018.568688
  0
LINE
  8
0
  6
CONTINUOUS
 62
1
 10
1266.759639
 20
1004.499619
 11
1279.375945
 21
1012.929560
  0
LINE
  8
0
  6
CONTINUOUS
 62
1
 10
1253.150919
 20
997.788525
 11
1266.759639
 21
1004.499619
  0
LINE
  8
0
  6
CONTINUOUS
 62
1
 10
1238.816562
 20
992.884444
 11
1253.201101
 21
997.767328
  0
LINE
  8
0
  6
CONTINUOUS
 62
1
 10
1253.201101
 20
997.767328
 11
1266.825235
 21
1004.486004
  0
LINE
  8
0
  6
CONTINUOUS
 62
1
 10
1266.825235
 20
1004.486004
 11
1279.455781
 21
1012.925492
  0
LINE
  8
0
  6
CONTINUOUS
 62
1
 10
1238.782640
 20
992.911160
 11
1253.150919
 21
997.788525
  0
LINE
  8
0
  6
CONTINUOUS
 62
1
 10
1218.332875
 20
956.958552
 11
1346.759605
 21
956.958552
  0
LINE
  8
0
  6
CONTINUOUS
 62
1
 10
1282.651408
 20
1038.137869
 11
1321.158055
 21
1006.632078
  0
LINE
  8
0
  6
CONTINUOUS
 62
1
 10
1275.580308
 20
1031.066782
 11
1282.651408
 21
1038.137869
  0
LINE
  8
0
  6
CONTINUOUS
 62
1
 10
1250.759625
 20
1099.958561
 11
1250.759625
 21
1109.958554
  0
LINE
  8
0
  6
CONTINUOUS
 62
1
 10
1354.265790
 20
1114.840925
 11
1355.295148
 21
1114.792611
  0
LINE
  8
0
  6
CONTINUOUS
 62
1
 10
1355.295148
 20
1114.792611
 11
1356.759626
 21
1114.391972
  0
LINE
  8
0
  6
CONTINUOUS
 62
1
 10
1355.295148
 20
1095.124521
 11
1356.759626
 21
1095.525143
  0
LINE
  8
0
  6
CONTINUOUS
 62
1
 10
1354.265790
 20
1095.076190
 11
1355.295148
 21
1095.124521
  0
LINE
  8
0
  6
CONTINUOUS
 62
1
 10
1250.759625
 20
1109.958554
 11
1354.265790
 21
1114.840925
  0
LINE
  8
0
  6
CONTINUOUS
 62
1
 10
1250.759625
 20
1099.958561
 11
1354.265790
 21
1095.076190
  0
LINE
  8
0
  6
CONTINUOUS
 62
1
 10
1254.731176
 20
1151.030149
 11
1260.338420
 21
1144.636366
  0
LINE
  8
0
  6
CONTINUOUS
 62
1
 10
1260.338420
 20
1144.636366
 11
1265.063085
 21
1137.565375
  0
LINE
  8
0
  6
CONTINUOUS
 62
1
 10
1265.063085
 20
1137.565375
 11
1268.824368
 21
1129.938211
  0
LINE
  8
0
  6
CONTINUOUS
 62
1
 10
1268.824368
 20
1129.938211
 11
1271.557953
 21
1121.885328
  0
LINE
  8
0
  6
CONTINUOUS
 62
1
 10
1271.557953
 20
1121.885328
 11
1273.217077
 21
1113.544547
  0
LINE
  8
0
  6
CONTINUOUS
 62
1
 10
1273.217077
 20
1113.544547
 11
1273.382174
 21
1111.025666
  0
LINE
  8
0
  6
CONTINUOUS
 62
1
 10
1273.217077
 20
1096.572567
 11
1273.369110
 21
1098.892091
  0
LINE
  8
0
  6
CONTINUOUS
 62
1
 10
1271.557953
 20
1088.231802
 11
1273.217077
 21
1096.572567
  0
LINE
  8
0
  6
CONTINUOUS
 62
1
 10
1268.824368
 20
1080.178919
 11
1271.557953
 21
1088.231802
  0
LINE
  8
0
  6
CONTINUOUS
 62
1
 10
1265.063085
 20
1072.551739
 11
1268.824368
 21
1080.178919
  0
LINE
  8
0
  6
CONTINUOUS
 62
1
 10
1260.338420
 20
1065.480764
 11
1265.063085
 21
1072.551739
  0
LINE
  8
0
  6
CONTINUOUS
 62
1
 10
1254.731176
 20
1059.086981
 11
1260.338420
 21
1065.480764
  0
LINE
  8
0
  6
CONTINUOUS
 62
1
 10
1248.337433
 20
1053.479761
 11
1254.731176
 21
1059.086981
  0
LINE
  8
0
  6
CONTINUOUS
 62
1
 10
1241.266454
 20
1048.755091
 11
1248.337433
 21
1053.479761
  0
LINE
  8
0
  6
CONTINUOUS
 62
1
 10
1297.741506
 20
1128.901185
 11
1300.092330
 21
1117.082754
  0
LINE
  8
0
  6
CONTINUOUS
 62
1
 10
1293.868211
 20
1069.805437
 11
1297.741506
 21
1081.215929
  0
LINE
  8
0
  6
CONTINUOUS
 62
1
 10
1288.538629
 20
1058.998134
 11
1293.868211
 21
1069.805437
  0
LINE
  8
0
  6
CONTINUOUS
 62
1
 10
1281.843965
 20
1048.978950
 11
1288.538629
 21
1058.998134
  0
LINE
  8
0
  6
CONTINUOUS
 62
1
 10
1254.820032
 20
1025.279573
 11
1264.839200
 21
1031.974187
  0
LINE
  8
0
  6
CONTINUOUS
 62
1
 10
1244.012739
 20
1019.950014
 11
1254.820032
 21
1025.279573
  0
LINE
  8
0
  6
CONTINUOUS
 62
1
 10
1264.839200
 20
1031.974187
 11
1273.898892
 21
1039.919288
  0
LINE
  8
0
  6
CONTINUOUS
 62
1
 10
1273.898892
 20
1039.919288
 11
1281.843965
 21
1048.978950
  0
LINE
  8
0
  6
CONTINUOUS
 62
1
 10
1300.092330
 20
1093.034375
 11
1300.392767
 21
1097.617375
  0
LINE
  8
0
  6
CONTINUOUS
 62
1
 10
1300.092330
 20
1117.082754
 11
1300.405796
 21
1112.300367
  0
LINE
  8
0
  6
CONTINUOUS
 62
1
 10
1288.538629
 20
1151.118980
 11
1293.868211
 21
1140.311676
  0
LINE
  8
0
  6
CONTINUOUS
 62
1
 10
1293.868211
 20
1140.311676
 11
1297.741506
 21
1128.901185
  0
LINE
  8
0
  6
CONTINUOUS
 62
1
 10
1297.741506
 20
1081.215929
 11
1300.092330
 21
1093.034375
  0
LINE
  8
0
  6
CONTINUOUS
 62
1
 10
1285.841471
 20
1018.525540
 11
1285.920581
 21
1018.428798
  0
LINE
  8
0
  6
CONTINUOUS
 62
1
 10
1324.021415
 20
1089.884146
 11
1324.453874
 21
1096.482420
  0
LINE
  8
0
  6
CONTINUOUS
 62
1
 10
1279.532056
 20
1012.826191
 11
1285.920581
 21
1018.428798
  0
LINE
  8
0
  6
CONTINUOUS
 62
1
 10
1295.296573
 20
1027.791730
 11
1300.991981
 21
1034.286170
  0
LINE
  8
0
  6
CONTINUOUS
 62
1
 10
1324.021415
 20
1120.233064
 11
1324.466938
 21
1113.435321
  0
LINE
  8
0
  6
CONTINUOUS
 62
1
 10
1316.166477
 20
1149.547877
 11
1321.054649
 21
1135.147921
  0
LINE
  8
0
  6
CONTINUOUS
 62
1
 10
1321.054649
 20
1135.147809
 11
1324.021415
 21
1120.233064
  0
LINE
  8
0
  6
CONTINUOUS
 62
1
 10
1321.054649
 20
1074.969192
 11
1324.021415
 21
1089.884066
  0
LINE
  8
0
  6
CONTINUOUS
 62
1
 10
1316.166477
 20
1060.569173
 11
1321.054649
 21
1074.969192
  0
LINE
  8
0
  6
CONTINUOUS
 62
1
 10
1309.440639
 20
1046.930476
 11
1316.166477
 21
1060.569173
  0
LINE
  8
0
  6
CONTINUOUS
 62
1
 10
1300.991981
 20
1034.286170
 11
1309.440605
 21
1046.930379
  0
LINE
  8
0
  6
CONTINUOUS
 62
1
 10
1323.767255
 20
1089.817523
 11
1324.204829
 21
1096.494166
  0
LINE
  8
0
  6
CONTINUOUS
 62
1
 10
1323.767255
 20
1120.099593
 11
1324.204829
 21
1113.422966
  0
LINE
  8
0
  6
CONTINUOUS
 62
1
 10
1315.929666
 20
1060.567280
 11
1320.806986
 21
1074.935544
  0
LINE
  8
0
  6
CONTINUOUS
 62
1
 10
1315.929666
 20
1060.567280
 11
1315.959389
 21
1060.654955
  0
LINE
  8
0
  6
CONTINUOUS
 62
1
 10
1300.788626
 20
1034.342235
 11
1309.218552
 21
1046.958556
  0
LINE
  8
0
  6
CONTINUOUS
 62
1
 10
1320.806986
 20
1134.981572
 11
1323.767255
 21
1120.099593
  0
LINE
  8
0
  6
CONTINUOUS
 62
1
 10
1323.747832
 20
1120.197057
 11
1323.767255
 21
1120.099593
  0
LINE
  8
0
  6
CONTINUOUS
 62
1
 10
1320.806986
 20
1074.935544
 11
1323.767255
 21
1089.817523
  0
LINE
  8
0
  6
CONTINUOUS
 62
1
 10
1279.455781
 20
1012.925492
 11
1285.841471
 21
1018.525540
  0
LINE
  8
0
  6
CONTINUOUS
 62
1
 10
1295.199803
 20
1027.870885
 11
1300.892688
 21
1034.362373
  0
LINE
  8
0
  6
CONTINUOUS
 62
1
 10
1300.892688
 20
1034.362373
 11
1309.332187
 21
1046.992959
  0
LINE
  8
0
  6
CONTINUOUS
 62
1
 10
1309.332187
 20
1046.992959
 11
1316.050836
 21
1060.617087
  0
LINE
  8
0
  6
CONTINUOUS
 62
1
 10
1316.050836
 20
1060.617087
 11
1320.933755
 21
1075.001605
  0
LINE
  8
0
  6
CONTINUOUS
 62
1
 10
1320.933755
 20
1075.001605
 11
1323.897273
 21
1089.900417
  0
LINE
  8
0
  6
CONTINUOUS
 62
1
 10
1309.218552
 20
1046.958556
 11
1315.929666
 21
1060.567280
  0
LINE
  8
0
  6
CONTINUOUS
 62
1
 10
1295.149483
 20
1027.912076
 11
1300.788626
 21
1034.342235
  0
LINE
  8
0
  6
CONTINUOUS
 62
1
 10
1323.897273
 20
1089.900417
 11
1324.329110
 21
1096.488309
  0
LINE
  8
0
  6
CONTINUOUS
 62
1
 10
1323.897273
 20
1120.216729
 11
1324.342104
 21
1113.429432
  0
LINE
  8
0
  6
CONTINUOUS
 62
1
 10
1320.933755
 20
1135.115508
 11
1323.897273
 21
1120.216729
  0
LINE
  8
0
  6
CONTINUOUS
 62
1
 10
1315.929666
 20
1149.349868
 11
1320.806986
 21
1134.981572
  0
LINE
  8
0
  6
CONTINUOUS
 62
1
 10
1316.050836
 20
1149.500027
 11
1320.933755
 21
1135.115508
  0
LINE
  8
0
  6
CONTINUOUS
 62
1
 10
1356.759626
 20
946.958551
 11
1356.759626
 21
1554.958602
  0
LINE
  8
0
  6
CONTINUOUS
 62
1
 10
1346.759605
 20
956.958552
 11
1346.759605
 21
1095.430263
  0
LINE
  8
0
  6
CONTINUOUS
 62
1
 10
1094.439067
 20
1216.669276
 11
1097.048872
 21
1219.279138
  0
LINE
  8
0
  6
CONTINUOUS
 62
1
 10
1092.953714
 20
1213.290519
 11
1094.439067
 21
1216.669276
  0
LINE
  8
0
  6
CONTINUOUS
 62
1
 10
1092.795149
 20
1209.603067
 11
1092.953714
 21
1213.290519
  0
LINE
  8
0
  6
CONTINUOUS
 62
1
 10
1092.795149
 20
1209.603067
 11
1093.985024
 21
1206.109259
  0
LINE
  8
0
  6
CONTINUOUS
 62
1
 10
1093.985024
 20
1206.109259
 11
1096.361190
 21
1203.285054
  0
LINE
  8
0
  6
CONTINUOUS
 62
1
 10
1070.759623
 20
1114.486853
 11
1070.759623
 21
1245.958560
  0
LINE
  8
0
  6
CONTINUOUS
 62
1
 10
1110.433153
 20
1217.357011
 11
1141.938945
 21
1178.850350
  0
LINE
  8
0
  6
CONTINUOUS
 62
1
 10
1107.608933
 20
1219.733210
 11
1110.433153
 21
1217.357011
  0
LINE
  8
0
  6
CONTINUOUS
 62
1
 10
1104.115098
 20
1220.923058
 11
1107.608933
 21
1219.733210
  0
LINE
  8
0
  6
CONTINUOUS
 62
1
 10
1100.427654
 20
1220.764491
 11
1104.115098
 21
1220.923058
  0
LINE
  8
0
  6
CONTINUOUS
 62
1
 10
1097.048872
 20
1219.279138
 11
1100.427654
 21
1220.764491
  0
LINE
  8
0
  6
CONTINUOUS
 62
1
 10
1096.361190
 20
1203.285054
 11
1134.867845
 21
1171.779262
  0
LINE
  8
0
  6
CONTINUOUS
 62
1
 10
1134.867845
 20
1171.779262
 11
1141.938945
 21
1178.850350
  0
LINE
  8
0
  6
CONTINUOUS
 62
1
 10
1198.759622
 20
1245.958560
 11
1198.759622
 21
1255.958569
  0
LINE
  8
0
  6
CONTINUOUS
 62
1
 10
1218.759631
 20
1245.958560
 11
1218.759631
 21
1255.958569
  0
LINE
  8
0
  6
CONTINUOUS
 62
1
 10
1198.759622
 20
1245.958560
 11
1203.759616
 21
1146.958570
  0
LINE
  8
0
  6
CONTINUOUS
 62
1
 10
1213.759620
 20
1146.958570
 11
1218.759631
 21
1245.958560
  0
LINE
  8
0
  6
CONTINUOUS
 62
1
 10
1107.608933
 20
1282.183983
 11
1110.433153
 21
1284.560150
  0
LINE
  8
0
  6
CONTINUOUS
 62
1
 10
1104.115098
 20
1280.994102
 11
1107.608933
 21
1282.183983
  0
LINE
  8
0
  6
CONTINUOUS
 62
1
 10
1100.427654
 20
1281.152670
 11
1104.115098
 21
1280.994102
  0
LINE
  8
0
  6
CONTINUOUS
 62
1
 10
1097.048872
 20
1282.638023
 11
1100.427654
 21
1281.152670
  0
LINE
  8
0
  6
CONTINUOUS
 62
1
 10
1193.585131
 20
1281.596793
 11
1200.033135
 21
1281.174171
  0
LINE
  8
0
  6
CONTINUOUS
 62
1
 10
1217.486101
 20
1281.174139
 11
1223.934122
 21
1281.596793
  0
LINE
  8
0
  6
CONTINUOUS
 62
1
 10
1178.670395
 20
1284.563487
 11
1193.585131
 21
1281.596793
  0
LINE
  8
0
  6
CONTINUOUS
 62
1
 10
1223.934191
 20
1281.596825
 11
1238.848980
 21
1284.563519
  0
LINE
  8
0
  6
CONTINUOUS
 62
1
 10
1162.788008
 20
1151.030149
 11
1169.181803
 21
1156.637353
  0
LINE
  8
0
  6
CONTINUOUS
 62
1
 10
1169.181803
 20
1156.637353
 11
1176.252782
 21
1161.362023
  0
LINE
  8
0
  6
CONTINUOUS
 62
1
 10
1176.252782
 20
1161.362023
 11
1183.879982
 21
1165.123319
  0
LINE
  8
0
  6
CONTINUOUS
 62
1
 10
1183.879982
 20
1165.123319
 11
1191.932833
 21
1167.856896
  0
LINE
  8
0
  6
CONTINUOUS
 62
1
 10
1191.932833
 20
1167.856896
 11
1200.273661
 21
1169.515996
  0
LINE
  8
0
  6
CONTINUOUS
 62
1
 10
1200.273661
 20
1169.515996
 11
1202.612613
 21
1169.669300
  0
LINE
  8
0
  6
CONTINUOUS
 62
1
 10
1214.906641
 20
1169.669300
 11
1217.245593
 21
1169.515996
  0
LINE
  8
0
  6
CONTINUOUS
 62
1
 10
1217.245593
 20
1169.515996
 11
1225.586404
 21
1167.856896
  0
LINE
  8
0
  6
CONTINUOUS
 62
1
 10
1225.586404
 20
1167.856896
 11
1233.639254
 21
1165.123319
  0
LINE
  8
0
  6
CONTINUOUS
 62
1
 10
1233.639254
 20
1165.123319
 11
1241.266454
 21
1161.362023
  0
LINE
  8
0
  6
CONTINUOUS
 62
1
 10
1128.980625
 20
1151.118980
 11
1135.675271
 21
1161.138180
  0
LINE
  8
0
  6
CONTINUOUS
 62
1
 10
1135.675271
 20
1161.138180
 11
1143.620344
 21
1170.197825
  0
LINE
  8
0
  6
CONTINUOUS
 62
1
 10
1143.620344
 20
1170.197825
 11
1152.680036
 21
1178.142942
  0
LINE
  8
0
  6
CONTINUOUS
 62
1
 10
1152.680036
 20
1178.142942
 11
1162.699205
 21
1184.837557
  0
LINE
  8
0
  6
CONTINUOUS
 62
1
 10
1216.271169
 20
1196.687069
 11
1220.783787
 21
1196.391308
  0
LINE
  8
0
  6
CONTINUOUS
 62
1
 10
1196.735450
 20
1196.391308
 11
1201.248067
 21
1196.687069
  0
LINE
  8
0
  6
CONTINUOUS
 62
1
 10
1162.699205
 20
1184.837557
 11
1173.506514
 21
1190.167132
  0
LINE
  8
0
  6
CONTINUOUS
 62
1
 10
1173.506514
 20
1190.167132
 11
1184.916978
 21
1194.040462
  0
LINE
  8
0
  6
CONTINUOUS
 62
1
 10
1184.916978
 20
1194.040462
 11
1196.735450
 21
1196.391308
  0
LINE
  8
0
  6
CONTINUOUS
 62
1
 10
1220.783787
 20
1196.391308
 11
1232.602275
 21
1194.040462
  0
LINE
  8
0
  6
CONTINUOUS
 62
1
 10
1232.602275
 20
1194.040462
 11
1244.012739
 21
1190.167132
  0
LINE
  8
0
  6
CONTINUOUS
 62
1
 10
1116.527203
 20
1175.830960
 11
1122.120588
 21
1182.208953
  0
LINE
  8
0
  6
CONTINUOUS
 62
1
 10
1131.503388
 20
1191.604796
 11
1137.987232
 21
1197.290979
  0
LINE
  8
0
  6
CONTINUOUS
 62
1
 10
1217.486118
 20
1220.742989
 11
1223.934122
 21
1220.320368
  0
LINE
  8
0
  6
CONTINUOUS
 62
1
 10
1193.585131
 20
1220.320368
 11
1200.033135
 21
1220.742989
  0
LINE
  8
0
  6
CONTINUOUS
 62
1
 10
1101.352708
 20
1149.547941
 11
1108.078649
 21
1163.186750
  0
LINE
  8
0
  6
CONTINUOUS
 62
1
 10
1108.078649
 20
1163.186750
 11
1116.527203
 21
1175.830960
  0
LINE
  8
0
  6
CONTINUOUS
 62
1
 10
1137.987301
 20
1197.291011
 11
1150.631446
 21
1205.739558
  0
LINE
  8
0
  6
CONTINUOUS
 62
1
 10
1150.631446
 20
1205.739558
 11
1164.270251
 21
1212.465462
  0
LINE
  8
0
  6
CONTINUOUS
 62
1
 10
1164.270268
 20
1212.465462
 11
1178.670274
 21
1217.353609
  0
LINE
  8
0
  6
CONTINUOUS
 62
1
 10
1178.670274
 20
1217.353609
 11
1193.585131
 21
1220.320368
  0
LINE
  8
0
  6
CONTINUOUS
 62
1
 10
1223.934243
 20
1220.320336
 11
1238.848980
 21
1217.353609
  0
LINE
  8
0
  6
CONTINUOUS
 62
1
 10
1193.618569
 20
1281.950962
 11
1200.051089
 21
1281.529367
  0
LINE
  8
0
  6
CONTINUOUS
 62
1
 10
1217.468181
 20
1281.529367
 11
1223.900667
 21
1281.950962
  0
LINE
  8
0
  6
CONTINUOUS
 62
1
 10
1223.900667
 20
1281.950962
 11
1238.782640
 21
1284.911174
  0
LINE
  8
0
  6
CONTINUOUS
 62
1
 10
1178.736613
 20
1284.911174
 11
1193.618569
 21
1281.950962
  0
LINE
  8
0
  6
CONTINUOUS
 62
1
 10
1131.713121
 20
1191.348444
 11
1138.143291
 21
1196.987548
  0
LINE
  8
0
  6
CONTINUOUS
 62
1
 10
1116.730628
 20
1175.574897
 11
1122.369736
 21
1182.005072
  0
LINE
  8
0
  6
CONTINUOUS
 62
1
 10
1101.589587
 20
1149.349868
 11
1108.300702
 21
1162.958575
  0
LINE
  8
0
  6
CONTINUOUS
 62
1
 10
1150.759632
 20
1205.417513
 11
1164.368334
 21
1212.128623
  0
LINE
  8
0
  6
CONTINUOUS
 62
1
 10
1164.368369
 20
1212.128623
 11
1178.736613
 21
1217.005955
  0
LINE
  8
0
  6
CONTINUOUS
 62
1
 10
1223.900667
 20
1219.966167
 11
1238.782640
 21
1217.005955
  0
LINE
  8
0
  6
CONTINUOUS
 62
1
 10
1138.143291
 20
1196.987548
 11
1150.759632
 21
1205.417513
  0
LINE
  8
0
  6
CONTINUOUS
 62
1
 10
1164.368334
 20
1212.128623
 11
1178.736613
 21
1217.005955
  0
LINE
  8
0
  6
CONTINUOUS
 62
1
 10
1178.736613
 20
1217.005955
 11
1193.618569
 21
1219.966167
  0
LINE
  8
0
  6
CONTINUOUS
 62
1
 10
1193.618569
 20
1219.966167
 11
1200.051072
 21
1220.387761
  0
LINE
  8
0
  6
CONTINUOUS
 62
1
 10
1193.601479
 20
1220.196235
 11
1200.039425
 21
1220.618215
  0
LINE
  8
0
  6
CONTINUOUS
 62
1
 10
1178.702675
 20
1217.232686
 11
1193.601479
 21
1220.196235
  0
LINE
  8
0
  6
CONTINUOUS
 62
1
 10
1164.318152
 20
1212.349802
 11
1178.702675
 21
1217.232686
  0
LINE
  8
0
  6
CONTINUOUS
 62
1
 10
1150.694019
 20
1205.631118
 11
1164.318152
 21
1212.349802
  0
LINE
  8
0
  6
CONTINUOUS
 62
1
 10
1138.063455
 20
1197.191622
 11
1150.694019
 21
1205.631118
  0
LINE
  8
0
  6
CONTINUOUS
 62
1
 10
1131.582498
 20
1191.508038
 11
1138.063455
 21
1197.191622
  0
LINE
  8
0
  6
CONTINUOUS
 62
1
 10
1116.626565
 20
1175.754773
 11
1122.217323
 21
1182.129814
  0
LINE
  8
0
  6
CONTINUOUS
 62
1
 10
1108.187049
 20
1163.124138
 11
1116.626565
 21
1175.754773
  0
LINE
  8
0
  6
CONTINUOUS
 62
1
 10
1101.468365
 20
1149.500027
 11
1108.187049
 21
1163.124138
  0
LINE
  8
0
  6
CONTINUOUS
 62
1
 10
1101.589587
 20
1149.349868
 11
1108.300702
 21
1162.958575
  0
LINE
  8
0
  6
CONTINUOUS
 62
1
 10
1108.300702
 20
1162.958575
 11
1116.730628
 21
1175.574897
  0
LINE
  8
0
  6
CONTINUOUS
 62
1
 10
1223.917758
 20
1220.196235
 11
1238.816562
 21
1217.232686
  0
LINE
  8
0
  6
CONTINUOUS
 62
1
 10
1217.479828
 20
1220.618247
 11
1223.917758
 21
1220.196235
  0
LINE
  8
0
  6
CONTINUOUS
 62
1
 10
1217.468164
 20
1220.387761
 11
1223.900667
 21
1219.966167
  0
LINE
  8
0
  6
CONTINUOUS
 62
1
 10
1178.675821
 20
1284.584411
 11
1193.587931
 21
1281.618198
  0
LINE
  8
0
  6
CONTINUOUS
 62
1
 10
1193.587931
 20
1281.618198
 11
1200.034224
 21
1281.195673
  0
LINE
  8
0
  6
CONTINUOUS
 62
1
 10
1217.485030
 20
1281.195673
 11
1223.931323
 21
1281.618198
  0
LINE
  8
0
  6
CONTINUOUS
 62
1
 10
1223.931323
 20
1281.618198
 11
1238.843363
 21
1284.584411
  0
LINE
  8
0
  6
CONTINUOUS
 62
1
 10
1217.468164
 20
1281.529367
 11
1223.900667
 21
1281.950962
  0
LINE
  8
0
  6
CONTINUOUS
 62
1
 10
1070.759623
 20
1255.958569
 11
1198.759622
 21
1255.958569
  0
LINE
  8
0
  6
CONTINUOUS
 62
1
 10
1070.759623
 20
1245.958560
 11
1198.759622
 21
1245.958560
  0
LINE
  8
0
  6
CONTINUOUS
 62
1
 10
1060.759627
 20
1406.391986
 11
1062.224105
 21
1406.792624
  0
LINE
  8
0
  6
CONTINUOUS
 62
1
 10
1062.224105
 20
1406.792624
 11
1063.253463
 21
1406.840955
  0
LINE
  8
0
  6
CONTINUOUS
 62
1
 10
1062.224105
 20
1387.124534
 11
1063.253463
 21
1387.076203
  0
LINE
  8
0
  6
CONTINUOUS
 62
1
 10
1060.759627
 20
1387.525173
 11
1062.224105
 21
1387.124534
  0
LINE
  8
0
  6
CONTINUOUS
 62
1
 10
1063.253463
 20
1406.840955
 11
1166.759629
 21
1401.958584
  0
LINE
  8
0
  6
CONTINUOUS
 62
1
 10
1063.253463
 20
1387.076203
 11
1166.759629
 21
1391.958574
  0
LINE
  8
0
  6
CONTINUOUS
 62
1
 10
1094.439067
 20
1285.247852
 11
1097.048872
 21
1282.638023
  0
LINE
  8
0
  6
CONTINUOUS
 62
1
 10
1092.953714
 20
1288.626642
 11
1094.439067
 21
1285.247852
  0
LINE
  8
0
  6
CONTINUOUS
 62
1
 10
1092.795149
 20
1292.314062
 11
1092.953714
 21
1288.626642
  0
LINE
  8
0
  6
CONTINUOUS
 62
1
 10
1092.795149
 20
1292.314062
 11
1093.985024
 21
1295.807870
  0
LINE
  8
0
  6
CONTINUOUS
 62
1
 10
1093.985024
 20
1295.807870
 11
1096.361190
 21
1298.632107
  0
LINE
  8
0
  6
CONTINUOUS
 62
1
 10
1093.065380
 20
1405.434741
 11
1093.497847
 21
1412.033111
  0
LINE
  8
0
  6
CONTINUOUS
 62
1
 10
1093.052307
 20
1388.481807
 11
1093.497847
 21
1381.684113
  0
LINE
  8
0
  6
CONTINUOUS
 62
1
 10
1093.497864
 20
1381.684049
 11
1096.464587
 21
1366.769223
  0
LINE
  8
0
  6
CONTINUOUS
 62
1
 10
1093.314416
 20
1405.422995
 11
1093.751998
 21
1412.099638
  0
LINE
  8
0
  6
CONTINUOUS
 62
1
 10
1093.751998
 20
1381.817520
 11
1096.712198
 21
1366.935557
  0
LINE
  8
0
  6
CONTINUOUS
 62
1
 10
1093.752016
 20
1381.817392
 11
1093.771404
 21
1381.720120
  0
LINE
  8
0
  6
CONTINUOUS
 62
1
 10
1093.314390
 20
1388.494163
 11
1093.751998
 21
1381.817520
  0
LINE
  8
0
  6
CONTINUOUS
 62
1
 10
1093.086920
 20
1405.433714
 11
1093.519266
 21
1412.030223
  0
LINE
  8
0
  6
CONTINUOUS
 62
1
 10
1093.073847
 20
1388.482834
 11
1093.519266
 21
1381.686905
  0
LINE
  8
0
  6
CONTINUOUS
 62
1
 10
1093.519266
 20
1381.686905
 11
1096.485462
 21
1366.774807
  0
LINE
  8
0
  6
CONTINUOUS
 62
1
 10
1070.759623
 20
1255.958569
 11
1070.759623
 21
1387.430276
  0
LINE
  8
0
  6
CONTINUOUS
 62
1
 10
1203.759616
 20
1354.958575
 11
1213.759620
 21
1354.958575
  0
LINE
  8
0
  6
CONTINUOUS
 62
1
 10
1198.759622
 20
1255.958569
 11
1203.759616
 21
1354.958575
  0
LINE
  8
0
  6
CONTINUOUS
 62
1
 10
1213.759620
 20
1354.958575
 11
1218.759631
 21
1255.958569
  0
LINE
  8
0
  6
CONTINUOUS
 62
1
 10
1166.759629
 20
1391.958574
 11
1166.759629
 21
1401.958584
  0
LINE
  8
0
  6
CONTINUOUS
 62
1
 10
1134.867845
 20
1330.137867
 11
1141.938945
 21
1323.066811
  0
LINE
  8
0
  6
CONTINUOUS
 62
1
 10
1096.361190
 20
1298.632107
 11
1134.867845
 21
1330.137867
  0
LINE
  8
0
  6
CONTINUOUS
 62
1
 10
1110.433153
 20
1284.560150
 11
1141.938945
 21
1323.066811
  0
LINE
  8
0
  6
CONTINUOUS
 62
1
 10
1096.464587
 20
1366.769223
 11
1101.352708
 21
1352.369188
  0
LINE
  8
0
  6
CONTINUOUS
 62
1
 10
1101.352794
 20
1352.369028
 11
1108.078649
 21
1338.730411
  0
LINE
  8
0
  6
CONTINUOUS
 62
1
 10
1108.078683
 20
1338.730346
 11
1116.527203
 21
1326.086169
  0
LINE
  8
0
  6
CONTINUOUS
 62
1
 10
1116.527203
 20
1326.086169
 11
1122.120588
 21
1319.708175
  0
LINE
  8
0
  6
CONTINUOUS
 62
1
 10
1131.503337
 20
1310.312365
 11
1137.987232
 21
1304.626182
  0
LINE
  8
0
  6
CONTINUOUS
 62
1
 10
1137.987232
 20
1304.626182
 11
1150.631446
 21
1296.177603
  0
LINE
  8
0
  6
CONTINUOUS
 62
1
 10
1150.631498
 20
1296.177571
 11
1164.270251
 21
1289.451667
  0
LINE
  8
0
  6
CONTINUOUS
 62
1
 10
1164.270251
 20
1289.451667
 11
1178.670274
 21
1284.563519
  0
LINE
  8
0
  6
CONTINUOUS
 62
1
 10
1196.735450
 20
1305.525821
 11
1201.248084
 21
1305.230060
  0
LINE
  8
0
  6
CONTINUOUS
 62
1
 10
1216.271152
 20
1305.230060
 11
1220.783787
 21
1305.525821
  0
LINE
  8
0
  6
CONTINUOUS
 62
1
 10
1117.426854
 20
1408.882785
 11
1119.777747
 21
1420.701168
  0
LINE
  8
0
  6
CONTINUOUS
 62
1
 10
1117.126487
 20
1404.299770
 11
1117.426854
 21
1408.882785
  0
LINE
  8
0
  6
CONTINUOUS
 62
1
 10
1117.113423
 20
1389.616778
 11
1117.426854
 21
1384.834374
  0
LINE
  8
0
  6
CONTINUOUS
 62
1
 10
1117.426854
 20
1384.834374
 11
1119.777747
 21
1373.015960
  0
LINE
  8
0
  6
CONTINUOUS
 62
1
 10
1119.777747
 20
1373.015960
 11
1123.651042
 21
1361.605469
  0
LINE
  8
0
  6
CONTINUOUS
 62
1
 10
1123.651042
 20
1361.605469
 11
1128.980625
 21
1350.798181
  0
LINE
  8
0
  6
CONTINUOUS
 62
1
 10
1128.980625
 20
1350.798181
 11
1135.675271
 21
1340.778981
  0
LINE
  8
0
  6
CONTINUOUS
 62
1
 10
1135.675271
 20
1340.778981
 11
1143.620344
 21
1331.719303
  0
LINE
  8
0
  6
CONTINUOUS
 62
1
 10
1143.620344
 20
1331.719303
 11
1152.680036
 21
1323.774218
  0
LINE
  8
0
  6
CONTINUOUS
 62
1
 10
1152.680036
 20
1323.774218
 11
1162.699205
 21
1317.079604
  0
LINE
  8
0
  6
CONTINUOUS
 62
1
 10
1162.699205
 20
1317.079604
 11
1173.506514
 21
1311.750029
  0
LINE
  8
0
  6
CONTINUOUS
 62
1
 10
1173.506514
 20
1311.750029
 11
1184.916978
 21
1307.876699
  0
LINE
  8
0
  6
CONTINUOUS
 62
1
 10
1184.916978
 20
1307.876699
 11
1196.735450
 21
1305.525821
  0
LINE
  8
0
  6
CONTINUOUS
 62
1
 10
1220.783787
 20
1305.525821
 11
1232.602275
 21
1307.876699
  0
LINE
  8
0
  6
CONTINUOUS
 62
1
 10
1232.602275
 20
1307.876699
 11
1244.012739
 21
1311.750029
  0
LINE
  8
0
  6
CONTINUOUS
 62
1
 10
1145.961283
 20
1413.685311
 11
1148.694868
 21
1421.738258
  0
LINE
  8
0
  6
CONTINUOUS
 62
1
 10
1144.302159
 20
1405.344562
 11
1145.961283
 21
1413.685311
  0
LINE
  8
0
  6
CONTINUOUS
 62
1
 10
1144.150126
 20
1403.025070
 11
1144.302159
 21
1405.344562
  0
LINE
  8
0
  6
CONTINUOUS
 62
1
 10
1144.137062
 20
1390.891478
 11
1144.302159
 21
1388.372566
  0
LINE
  8
0
  6
CONTINUOUS
 62
1
 10
1144.302159
 20
1388.372566
 11
1145.961283
 21
1380.031817
  0
LINE
  8
0
  6
CONTINUOUS
 62
1
 10
1145.961283
 20
1380.031817
 11
1148.694868
 21
1371.978934
  0
LINE
  8
0
  6
CONTINUOUS
 62
1
 10
1148.694868
 20
1371.978934
 11
1152.456151
 21
1364.351754
  0
LINE
  8
0
  6
CONTINUOUS
 62
1
 10
1152.456151
 20
1364.351754
 11
1157.180834
 21
1357.280795
  0
LINE
  8
0
  6
CONTINUOUS
 62
1
 10
1157.180834
 20
1357.280795
 11
1162.788008
 21
1350.886980
  0
LINE
  8
0
  6
CONTINUOUS
 62
1
 10
1162.788008
 20
1350.886980
 11
1169.181803
 21
1345.279776
  0
LINE
  8
0
  6
CONTINUOUS
 62
1
 10
1169.181803
 20
1345.279776
 11
1176.252782
 21
1340.555106
  0
LINE
  8
0
  6
CONTINUOUS
 62
1
 10
1176.252782
 20
1340.555106
 11
1183.879982
 21
1336.793810
  0
LINE
  8
0
  6
CONTINUOUS
 62
1
 10
1183.879982
 20
1336.793810
 11
1191.932833
 21
1334.060233
  0
LINE
  8
0
  6
CONTINUOUS
 62
1
 10
1191.932833
 20
1334.060233
 11
1200.273661
 21
1332.401133
  0
LINE
  8
0
  6
CONTINUOUS
 62
1
 10
1200.273661
 20
1332.401133
 11
1202.612613
 21
1332.247797
  0
LINE
  8
0
  6
CONTINUOUS
 62
1
 10
1214.906641
 20
1332.247829
 11
1217.245593
 21
1332.401133
  0
LINE
  8
0
  6
CONTINUOUS
 62
1
 10
1217.245593
 20
1332.401133
 11
1225.586404
 21
1334.060233
  0
LINE
  8
0
  6
CONTINUOUS
 62
1
 10
1225.586404
 20
1334.060233
 11
1233.639254
 21
1336.793810
  0
LINE
  8
0
  6
CONTINUOUS
 62
1
 10
1233.639254
 20
1336.793810
 11
1241.266454
 21
1340.555106
  0
LINE
  8
0
  6
CONTINUOUS
 62
1
 10
1116.730645
 20
1326.342200
 11
1122.369736
 21
1319.912057
  0
LINE
  8
0
  6
CONTINUOUS
 62
1
 10
1150.759632
 20
1296.499616
 11
1164.368334
 21
1289.788570
  0
LINE
  8
0
  6
CONTINUOUS
 62
1
 10
1101.589587
 20
1352.567325
 11
1108.300702
 21
1338.958586
  0
LINE
  8
0
  6
CONTINUOUS
 62
1
 10
1096.712198
 20
1366.935557
 11
1101.589587
 21
1352.567325
  0
LINE
  8
0
  6
CONTINUOUS
 62
1
 10
1164.368334
 20
1289.788570
 11
1178.736613
 21
1284.911174
  0
LINE
  8
0
  6
CONTINUOUS
 62
1
 10
1138.143291
 20
1304.929581
 11
1150.759632
 21
1296.499616
  0
LINE
  8
0
  6
CONTINUOUS
 62
1
 10
1131.713121
 20
1310.568717
 11
1138.143291
 21
1304.929581
  0
LINE
  8
0
  6
CONTINUOUS
 62
1
 10
1108.300702
 20
1338.958586
 11
1116.730628
 21
1326.342232
  0
LINE
  8
0
  6
CONTINUOUS
 62
1
 10
1096.485462
 20
1366.774807
 11
1101.372718
 21
1352.377468
  0
LINE
  8
0
  6
CONTINUOUS
 62
1
 10
1101.372718
 20
1352.377468
 11
1108.097329
 21
1338.741194
  0
LINE
  8
0
  6
CONTINUOUS
 62
1
 10
1108.097329
 20
1338.741194
 11
1116.544345
 21
1326.099327
  0
LINE
  8
0
  6
CONTINUOUS
 62
1
 10
1116.544345
 20
1326.099327
 11
1122.137298
 21
1319.721847
  0
LINE
  8
0
  6
CONTINUOUS
 62
1
 10
1131.517023
 20
1310.329117
 11
1138.000399
 21
1304.643319
  0
LINE
  8
0
  6
CONTINUOUS
 62
1
 10
1138.000399
 20
1304.643319
 11
1150.642247
 21
1296.196313
  0
LINE
  8
0
  6
CONTINUOUS
 62
1
 10
1150.642247
 20
1296.196313
 11
1164.278476
 21
1289.471660
  0
LINE
  8
0
  6
CONTINUOUS
 62
1
 10
1164.278476
 20
1289.471660
 11
1178.675821
 21
1284.584411
  0
LINE
  8
0
  6
CONTINUOUS
 62
1
 10
1307.086083
 20
1217.357011
 11
1309.910320
 21
1219.733210
  0
LINE
  8
0
  6
CONTINUOUS
 62
1
 10
1309.910320
 20
1219.733210
 11
1313.404103
 21
1220.923058
  0
LINE
  8
0
  6
CONTINUOUS
 62
1
 10
1313.404103
 20
1220.923058
 11
1317.091600
 21
1220.764491
  0
LINE
  8
0
  6
CONTINUOUS
 62
1
 10
1317.091600
 20
1220.764491
 11
1320.470330
 21
1219.279138
  0
LINE
  8
0
  6
CONTINUOUS
 62
1
 10
1320.470330
 20
1219.279138
 11
1323.080187
 21
1216.669276
  0
LINE
  8
0
  6
CONTINUOUS
 62
1
 10
1323.080187
 20
1216.669276
 11
1324.565540
 21
1213.290519
  0
LINE
  8
0
  6
CONTINUOUS
 62
1
 10
1324.565540
 20
1213.290519
 11
1324.724105
 21
1209.603067
  0
LINE
  8
0
  6
CONTINUOUS
 62
1
 10
1323.534212
 20
1206.109259
 11
1324.724105
 21
1209.603067
  0
LINE
  8
0
  6
CONTINUOUS
 62
1
 10
1321.158055
 20
1203.285054
 11
1323.534212
 21
1206.109259
  0
LINE
  8
0
  6
CONTINUOUS
 62
1
 10
1275.580308
 20
1178.850350
 11
1307.086083
 21
1217.357011
  0
LINE
  8
0
  6
CONTINUOUS
 62
1
 10
1275.580308
 20
1178.850350
 11
1282.651408
 21
1171.779262
  0
LINE
  8
0
  6
CONTINUOUS
 62
1
 10
1282.651408
 20
1171.779262
 11
1321.158055
 21
1203.285054
  0
LINE
  8
0
  6
CONTINUOUS
 62
1
 10
1307.086083
 20
1284.560150
 11
1309.910320
 21
1282.183983
  0
LINE
  8
0
  6
CONTINUOUS
 62
1
 10
1309.910320
 20
1282.183983
 11
1313.404103
 21
1280.994102
  0
LINE
  8
0
  6
CONTINUOUS
 62
1
 10
1313.404103
 20
1280.994102
 11
1317.091600
 21
1281.152670
  0
LINE
  8
0
  6
CONTINUOUS
 62
1
 10
1317.091600
 20
1281.152670
 11
1320.470330
 21
1282.638023
  0
LINE
  8
0
  6
CONTINUOUS
 62
1
 10
1241.266454
 20
1161.362023
 11
1248.337433
 21
1156.637353
  0
LINE
  8
0
  6
CONTINUOUS
 62
1
 10
1248.337433
 20
1156.637353
 11
1254.731176
 21
1151.030149
  0
LINE
  8
0
  6
CONTINUOUS
 62
1
 10
1273.898892
 20
1170.197825
 11
1281.843965
 21
1161.138180
  0
LINE
  8
0
  6
CONTINUOUS
 62
1
 10
1281.843965
 20
1161.138180
 11
1288.538629
 21
1151.118980
  0
LINE
  8
0
  6
CONTINUOUS
 62
1
 10
1264.839200
 20
1178.142942
 11
1273.898892
 21
1170.197825
  0
LINE
  8
0
  6
CONTINUOUS
 62
1
 10
1244.012739
 20
1190.167132
 11
1254.820032
 21
1184.837557
  0
LINE
  8
0
  6
CONTINUOUS
 62
1
 10
1254.820032
 20
1184.837557
 11
1264.839200
 21
1178.142942
  0
LINE
  8
0
  6
CONTINUOUS
 62
1
 10
1295.398666
 20
1182.208953
 11
1300.991981
 21
1175.830960
  0
LINE
  8
0
  6
CONTINUOUS
 62
1
 10
1279.532056
 20
1197.290947
 11
1286.015865
 21
1191.604764
  0
LINE
  8
0
  6
CONTINUOUS
 62
1
 10
1238.848980
 20
1217.353609
 11
1253.249003
 21
1212.465462
  0
LINE
  8
0
  6
CONTINUOUS
 62
1
 10
1253.249141
 20
1212.465398
 11
1266.887790
 21
1205.739558
  0
LINE
  8
0
  6
CONTINUOUS
 62
1
 10
1266.887790
 20
1205.739558
 11
1279.532022
 21
1197.290979
  0
LINE
  8
0
  6
CONTINUOUS
 62
1
 10
1300.991981
 20
1175.830960
 11
1309.440605
 21
1163.186750
  0
LINE
  8
0
  6
CONTINUOUS
 62
1
 10
1309.440605
 20
1163.186750
 11
1316.166477
 21
1149.547941
  0
LINE
  8
0
  6
CONTINUOUS
 62
1
 10
1295.149448
 20
1182.005040
 11
1300.788626
 21
1175.574897
  0
LINE
  8
0
  6
CONTINUOUS
 62
1
 10
1238.782640
 20
1217.005955
 11
1253.150919
 21
1212.128623
  0
LINE
  8
0
  6
CONTINUOUS
 62
1
 10
1253.150919
 20
1212.128623
 11
1266.759639
 21
1205.417513
  0
LINE
  8
0
  6
CONTINUOUS
 62
1
 10
1309.218552
 20
1162.958575
 11
1315.929632
 21
1149.349900
  0
LINE
  8
0
  6
CONTINUOUS
 62
1
 10
1300.788626
 20
1175.574897
 11
1309.218552
 21
1162.958575
  0
LINE
  8
0
  6
CONTINUOUS
 62
1
 10
1309.332187
 20
1163.124138
 11
1316.050836
 21
1149.500027
  0
LINE
  8
0
  6
CONTINUOUS
 62
1
 10
1300.892688
 20
1175.754773
 11
1309.332187
 21
1163.124138
  0
LINE
  8
0
  6
CONTINUOUS
 62
1
 10
1295.301930
 20
1182.129814
 11
1300.892688
 21
1175.754773
  0
LINE
  8
0
  6
CONTINUOUS
 62
1
 10
1279.455781
 20
1197.191622
 11
1285.936755
 21
1191.508038
  0
LINE
  8
0
  6
CONTINUOUS
 62
1
 10
1266.825235
 20
1205.631118
 11
1279.455781
 21
1197.191622
  0
LINE
  8
0
  6
CONTINUOUS
 62
1
 10
1253.201101
 20
1212.349802
 11
1266.825235
 21
1205.631118
  0
LINE
  8
0
  6
CONTINUOUS
 62
1
 10
1238.816562
 20
1217.232686
 11
1253.201101
 21
1212.349802
  0
LINE
  8
0
  6
CONTINUOUS
 62
1
 10
1266.759639
 20
1205.417513
 11
1279.375945
 21
1196.987548
  0
LINE
  8
0
  6
CONTINUOUS
 62
1
 10
1279.375945
 20
1196.987548
 11
1285.806116
 21
1191.348444
  0
LINE
  8
0
  6
CONTINUOUS
 62
1
 10
1218.759648
 20
1255.958569
 11
1346.759605
 21
1255.958569
  0
LINE
  8
0
  6
CONTINUOUS
 62
1
 10
1218.759631
 20
1245.958560
 11
1346.759605
 21
1245.958560
  0
LINE
  8
0
  6
CONTINUOUS
 62
1
 10
1346.759605
 20
1114.486869
 11
1346.759605
 21
1245.958560
  0
LINE
  8
0
  6
CONTINUOUS
 62
1
 10
1275.580308
 20
1323.066811
 11
1307.086083
 21
1284.560150
  0
LINE
  8
0
  6
CONTINUOUS
 62
1
 10
1320.470330
 20
1282.638023
 11
1323.080187
 21
1285.247852
  0
LINE
  8
0
  6
CONTINUOUS
 62
1
 10
1323.080187
 20
1285.247852
 11
1324.565540
 21
1288.626642
  0
LINE
  8
0
  6
CONTINUOUS
 62
1
 10
1324.565540
 20
1288.626642
 11
1324.724105
 21
1292.314062
  0
LINE
  8
0
  6
CONTINUOUS
 62
1
 10
1323.534212
 20
1295.807870
 11
1324.724105
 21
1292.314062
  0
LINE
  8
0
  6
CONTINUOUS
 62
1
 10
1321.158055
 20
1298.632107
 11
1323.534212
 21
1295.807870
  0
LINE
  8
0
  6
CONTINUOUS
 62
1
 10
1282.651408
 20
1330.137867
 11
1321.158055
 21
1298.632107
  0
LINE
  8
0
  6
CONTINUOUS
 62
1
 10
1275.580308
 20
1323.066811
 11
1282.651408
 21
1330.137867
  0
LINE
  8
0
  6
CONTINUOUS
 62
1
 10
1250.759625
 20
1391.958574
 11
1250.759625
 21
1401.958584
  0
LINE
  8
0
  6
CONTINUOUS
 62
1
 10
1354.265790
 20
1406.840955
 11
1355.295148
 21
1406.792624
  0
LINE
  8
0
  6
CONTINUOUS
 62
1
 10
1355.295148
 20
1406.792624
 11
1356.759626
 21
1406.391986
  0
LINE
  8
0
  6
CONTINUOUS
 62
1
 10
1355.295148
 20
1387.124534
 11
1356.759626
 21
1387.525173
  0
LINE
  8
0
  6
CONTINUOUS
 62
1
 10
1354.265790
 20
1387.076203
 11
1355.295148
 21
1387.124534
  0
LINE
  8
0
  6
CONTINUOUS
 62
1
 10
1250.759625
 20
1401.958584
 11
1354.265790
 21
1406.840955
  0
LINE
  8
0
  6
CONTINUOUS
 62
1
 10
1250.759625
 20
1391.958574
 11
1354.265790
 21
1387.076203
  0
LINE
  8
0
  6
CONTINUOUS
 62
1
 10
1295.398666
 20
1319.708175
 11
1300.991981
 21
1326.086169
  0
LINE
  8
0
  6
CONTINUOUS
 62
1
 10
1279.532022
 20
1304.626182
 11
1286.015865
 21
1310.312365
  0
LINE
  8
0
  6
CONTINUOUS
 62
1
 10
1324.021415
 20
1381.684209
 11
1324.466938
 21
1388.481807
  0
LINE
  8
0
  6
CONTINUOUS
 62
1
 10
1324.021415
 20
1412.033111
 11
1324.453874
 21
1405.434709
  0
LINE
  8
0
  6
CONTINUOUS
 62
1
 10
1238.848980
 20
1284.563519
 11
1253.249003
 21
1289.451667
  0
LINE
  8
0
  6
CONTINUOUS
 62
1
 10
1253.249072
 20
1289.451699
 11
1266.887790
 21
1296.177603
  0
LINE
  8
0
  6
CONTINUOUS
 62
1
 10
1266.887824
 20
1296.177635
 11
1279.532022
 21
1304.626182
  0
LINE
  8
0
  6
CONTINUOUS
 62
1
 10
1300.991981
 20
1326.086169
 11
1309.440605
 21
1338.730411
  0
LINE
  8
0
  6
CONTINUOUS
 62
1
 10
1309.440605
 20
1338.730411
 11
1316.166477
 21
1352.369188
  0
LINE
  8
0
  6
CONTINUOUS
 62
1
 10
1316.166477
 20
1352.369188
 11
1321.054649
 21
1366.769223
  0
LINE
  8
0
  6
CONTINUOUS
 62
1
 10
1321.054649
 20
1366.769288
 11
1324.021415
 21
1381.684113
  0
LINE
  8
0
  6
CONTINUOUS
 62
1
 10
1300.092330
 20
1408.882785
 11
1300.392767
 21
1404.299770
  0
LINE
  8
0
  6
CONTINUOUS
 62
1
 10
1297.741506
 20
1420.701168
 11
1300.092330
 21
1408.882785
  0
LINE
  8
0
  6
CONTINUOUS
 62
1
 10
1244.012739
 20
1311.750029
 11
1254.820032
 21
1317.079604
  0
LINE
  8
0
  6
CONTINUOUS
 62
1
 10
1254.820032
 20
1317.079604
 11
1264.839200
 21
1323.774218
  0
LINE
  8
0
  6
CONTINUOUS
 62
1
 10
1264.839200
 20
1323.774218
 11
1273.898892
 21
1331.719303
  0
LINE
  8
0
  6
CONTINUOUS
 62
1
 10
1273.898892
 20
1331.719303
 11
1281.843965
 21
1340.778981
  0
LINE
  8
0
  6
CONTINUOUS
 62
1
 10
1281.843965
 20
1340.778981
 11
1288.538629
 21
1350.798181
  0
LINE
  8
0
  6
CONTINUOUS
 62
1
 10
1288.538629
 20
1350.798181
 11
1293.868211
 21
1361.605469
  0
LINE
  8
0
  6
CONTINUOUS
 62
1
 10
1293.868211
 20
1361.605469
 11
1297.741506
 21
1373.015960
  0
LINE
  8
0
  6
CONTINUOUS
 62
1
 10
1297.741506
 20
1373.015960
 11
1300.092330
 21
1384.834374
  0
LINE
  8
0
  6
CONTINUOUS
 62
1
 10
1300.092330
 20
1384.834374
 11
1300.405831
 21
1389.616778
  0
LINE
  8
0
  6
CONTINUOUS
 62
1
 10
1272.668874
 20
1408.100668
 11
1273.351484
 21
1407.964854
  0
LINE
  8
0
  6
CONTINUOUS
 62
1
 10
1273.351484
 20
1407.964854
 11
1277.244617
 21
1405.363625
  0
LINE
  8
0
  6
CONTINUOUS
 62
1
 10
1277.244617
 20
1405.363625
 11
1278.641011
 21
1403.273720
  0
LINE
  8
0
  6
CONTINUOUS
 62
1
 10
1277.244617
 20
1388.393041
 11
1278.745004
 21
1390.638528
  0
LINE
  8
0
  6
CONTINUOUS
 62
1
 10
1273.351484
 20
1385.791779
 11
1277.244617
 21
1388.393041
  0
LINE
  8
0
  6
CONTINUOUS
 62
1
 10
1272.677031
 20
1385.657602
 11
1273.351484
 21
1385.791779
  0
LINE
  8
0
  6
CONTINUOUS
 62
1
 10
1271.557953
 20
1413.685311
 11
1272.668874
 21
1408.100668
  0
LINE
  8
0
  6
CONTINUOUS
 62
1
 10
1271.557953
 20
1380.031817
 11
1272.677031
 21
1385.657602
  0
LINE
  8
0
  6
CONTINUOUS
 62
1
 10
1268.824368
 20
1421.738258
 11
1271.557953
 21
1413.685311
  0
LINE
  8
0
  6
CONTINUOUS
 62
1
 10
1241.266454
 20
1340.555106
 11
1248.337433
 21
1345.279776
  0
LINE
  8
0
  6
CONTINUOUS
 62
1
 10
1248.337433
 20
1345.279776
 11
1254.731176
 21
1350.886980
  0
LINE
  8
0
  6
CONTINUOUS
 62
1
 10
1254.731176
 20
1350.886980
 11
1260.338420
 21
1357.280795
  0
LINE
  8
0
  6
CONTINUOUS
 62
1
 10
1260.338420
 20
1357.280795
 11
1265.063085
 21
1364.351754
  0
LINE
  8
0
  6
CONTINUOUS
 62
1
 10
1265.063085
 20
1364.351754
 11
1268.824368
 21
1371.978934
  0
LINE
  8
0
  6
CONTINUOUS
 62
1
 10
1268.824368
 20
1371.978934
 11
1271.557953
 21
1380.031817
  0
LINE
  8
0
  6
CONTINUOUS
 62
1
 10
1295.149483
 20
1319.912089
 11
1300.788626
 21
1326.342232
  0
LINE
  8
0
  6
CONTINUOUS
 62
1
 10
1323.767255
 20
1412.099638
 11
1324.204829
 21
1405.422963
  0
LINE
  8
0
  6
CONTINUOUS
 62
1
 10
1320.806986
 20
1366.935557
 11
1323.767255
 21
1381.817520
  0
LINE
  8
0
  6
CONTINUOUS
 62
1
 10
1323.747832
 20
1381.720120
 11
1323.767255
 21
1381.817520
  0
LINE
  8
0
  6
CONTINUOUS
 62
1
 10
1266.759639
 20
1296.499616
 11
1279.375945
 21
1304.929581
  0
LINE
  8
0
  6
CONTINUOUS
 62
1
 10
1253.150988
 20
1289.788602
 11
1266.759604
 21
1296.499616
  0
LINE
  8
0
  6
CONTINUOUS
 62
1
 10
1238.782640
 20
1284.911174
 11
1253.150919
 21
1289.788570
  0
LINE
  8
0
  6
CONTINUOUS
 62
1
 10
1238.843363
 20
1284.584411
 11
1253.240777
 21
1289.471660
  0
LINE
  8
0
  6
CONTINUOUS
 62
1
 10
1253.240777
 20
1289.471660
 11
1266.877007
 21
1296.196313
  0
LINE
  8
0
  6
CONTINUOUS
 62
1
 10
1266.877007
 20
1296.196313
 11
1279.518854
 21
1304.643319
  0
LINE
  8
0
  6
CONTINUOUS
 62
1
 10
1279.518854
 20
1304.643319
 11
1286.002179
 21
1310.329085
  0
LINE
  8
0
  6
CONTINUOUS
 62
1
 10
1279.375945
 20
1304.929581
 11
1285.806116
 21
1310.568717
  0
LINE
  8
0
  6
CONTINUOUS
 62
1
 10
1253.150919
 20
1289.788570
 11
1266.759639
 21
1296.499616
  0
LINE
  8
0
  6
CONTINUOUS
 62
1
 10
1323.080187
 20
1285.247852
 11
1323.767255
 21
1286.810708
  0
LINE
  8
0
  6
CONTINUOUS
 62
1
 10
1295.381938
 20
1319.721847
 11
1300.974839
 21
1326.099327
  0
LINE
  8
0
  6
CONTINUOUS
 62
1
 10
1300.974839
 20
1326.099327
 11
1309.421838
 21
1338.741194
  0
LINE
  8
0
  6
CONTINUOUS
 62
1
 10
1309.421838
 20
1338.741194
 11
1316.146535
 21
1352.377468
  0
LINE
  8
0
  6
CONTINUOUS
 62
1
 10
1316.146535
 20
1352.377468
 11
1321.033809
 21
1366.774807
  0
LINE
  8
0
  6
CONTINUOUS
 62
1
 10
1321.033809
 20
1366.774807
 11
1323.999987
 21
1381.686905
  0
LINE
  8
0
  6
CONTINUOUS
 62
1
 10
1315.929666
 20
1352.567325
 11
1320.806986
 21
1366.935557
  0
LINE
  8
0
  6
CONTINUOUS
 62
1
 10
1309.218552
 20
1338.958586
 11
1315.929666
 21
1352.567325
  0
LINE
  8
0
  6
CONTINUOUS
 62
1
 10
1300.788626
 20
1326.342232
 11
1309.218552
 21
1338.958586
  0
LINE
  8
0
  6
CONTINUOUS
 62
1
 10
1295.149448
 20
1319.912057
 11
1300.788626
 21
1326.342232
  0
LINE
  8
0
  6
CONTINUOUS
 62
1
 10
1323.767255
 20
1381.817520
 11
1324.204864
 21
1388.494195
  0
LINE
  8
0
  6
CONTINUOUS
 62
1
 10
1323.999987
 20
1381.686905
 11
1324.445372
 21
1388.482834
  0
LINE
  8
0
  6
CONTINUOUS
 62
1
 10
1323.999987
 20
1412.030223
 11
1324.432343
 21
1405.433714
  0
LINE
  8
0
  6
CONTINUOUS
 62
1
 10
1321.033809
 20
1426.942320
 11
1323.999987
 21
1412.030223
  0
LINE
  8
0
  6
CONTINUOUS
 62
1
 10
1323.767255
 20
1412.099638
 11
1324.204864
 21
1405.422963
  0
LINE
  8
0
  6
CONTINUOUS
 62
1
 10
1321.054684
 20
1426.947904
 11
1324.021415
 21
1412.033111
  0
LINE
  8
0
  6
CONTINUOUS
 62
1
 10
1346.759605
 20
1255.958569
 11
1346.759605
 21
1387.430276
  0
LINE
  8
0
  6
CONTINUOUS
 62
1
 10
1094.023482
 20
1498.009289
 11
1096.399699
 21
1495.185116
  0
LINE
  8
0
  6
CONTINUOUS
 62
1
 10
1092.833658
 20
1501.503097
 11
1094.023482
 21
1498.009289
  0
LINE
  8
0
  6
CONTINUOUS
 62
1
 10
1092.833658
 20
1501.503097
 11
1092.992232
 21
1505.190549
  0
LINE
  8
0
  6
CONTINUOUS
 62
1
 10
1092.992232
 20
1505.190549
 11
1094.477585
 21
1508.569275
  0
LINE
  8
0
  6
CONTINUOUS
 62
1
 10
1094.477585
 20
1508.569275
 11
1097.087390
 21
1511.179136
  0
LINE
  8
0
  6
CONTINUOUS
 62
1
 10
1093.497847
 20
1412.033111
 11
1096.464587
 21
1426.947969
  0
LINE
  8
0
  6
CONTINUOUS
 62
1
 10
1093.751998
 20
1412.099638
 11
1096.712198
 21
1426.981601
  0
LINE
  8
0
  6
CONTINUOUS
 62
1
 10
1093.519266
 20
1412.030223
 11
1096.485462
 21
1426.942320
  0
LINE
  8
0
  6
CONTINUOUS
 62
1
 10
1070.759623
 20
1406.486882
 11
1070.759623
 21
1544.958560
  0
LINE
  8
0
  6
CONTINUOUS
 62
1
 10
1203.759616
 20
1438.958583
 11
1213.759620
 21
1438.958583
  0
LINE
  8
0
  6
CONTINUOUS
 62
1
 10
1198.975143
 20
1549.958581
 11
1218.544110
 21
1549.958581
  0
LINE
  8
0
  6
CONTINUOUS
 62
1
 10
1218.593670
 20
1553.494109
 11
1218.647257
 21
1552.352142
  0
LINE
  8
0
  6
CONTINUOUS
 62
1
 10
1198.871997
 20
1552.352142
 11
1198.925583
 21
1553.494109
  0
LINE
  8
0
  6
CONTINUOUS
 62
1
 10
1198.871997
 20
1552.352142
 11
1203.759616
 21
1438.958583
  0
LINE
  8
0
  6
CONTINUOUS
 62
1
 10
1213.759620
 20
1438.958583
 11
1218.647257
 21
1552.352142
  0
LINE
  8
0
  6
CONTINUOUS
 62
1
 10
1134.906346
 20
1463.679292
 11
1141.977394
 21
1470.750348
  0
LINE
  8
0
  6
CONTINUOUS
 62
1
 10
1110.471654
 20
1509.257073
 11
1141.977394
 21
1470.750348
  0
LINE
  8
0
  6
CONTINUOUS
 62
1
 10
1097.087390
 20
1511.179136
 11
1100.466172
 21
1512.664489
  0
LINE
  8
0
  6
CONTINUOUS
 62
1
 10
1100.466172
 20
1512.664489
 11
1104.153599
 21
1512.823025
  0
LINE
  8
0
  6
CONTINUOUS
 62
1
 10
1104.153599
 20
1512.823025
 11
1107.647434
 21
1511.633176
  0
LINE
  8
0
  6
CONTINUOUS
 62
1
 10
1107.647434
 20
1511.633176
 11
1110.471654
 21
1509.257073
  0
LINE
  8
0
  6
CONTINUOUS
 62
1
 10
1096.399699
 20
1495.185116
 11
1134.906346
 21
1463.679292
  0
LINE
  8
0
  6
CONTINUOUS
 62
1
 10
1116.527255
 20
1467.631055
 11
1122.187722
 21
1474.085556
  0
LINE
  8
0
  6
CONTINUOUS
 62
1
 10
1131.573426
 20
1483.466219
 11
1137.987232
 21
1489.090946
  0
LINE
  8
0
  6
CONTINUOUS
 62
1
 10
1223.934139
 20
1512.120399
 11
1238.848980
 21
1509.153673
  0
LINE
  8
0
  6
CONTINUOUS
 62
1
 10
1216.932904
 20
1512.579253
 11
1223.934122
 21
1512.120399
  0
LINE
  8
0
  6
CONTINUOUS
 62
1
 10
1193.585235
 20
1512.120399
 11
1200.586349
 21
1512.579253
  0
LINE
  8
0
  6
CONTINUOUS
 62
1
 10
1178.670429
 20
1509.153737
 11
1193.585131
 21
1512.120399
  0
LINE
  8
0
  6
CONTINUOUS
 62
1
 10
1164.270251
 20
1504.265461
 11
1178.670274
 21
1509.153673
  0
LINE
  8
0
  6
CONTINUOUS
 62
1
 10
1150.631533
 20
1497.539653
 11
1164.270251
 21
1504.265461
  0
LINE
  8
0
  6
CONTINUOUS
 62
1
 10
1137.987318
 20
1489.091010
 11
1150.631446
 21
1497.539589
  0
LINE
  8
0
  6
CONTINUOUS
 62
1
 10
1108.078649
 20
1454.986749
 11
1116.527203
 21
1467.630991
  0
LINE
  8
0
  6
CONTINUOUS
 62
1
 10
1101.352708
 20
1441.347972
 11
1108.078649
 21
1454.986749
  0
LINE
  8
0
  6
CONTINUOUS
 62
1
 10
1096.464587
 20
1426.947969
 11
1101.352708
 21
1441.347972
  0
LINE
  8
0
  6
CONTINUOUS
 62
1
 10
1232.602275
 20
1485.840461
 11
1244.012739
 21
1481.967131
  0
LINE
  8
0
  6
CONTINUOUS
 62
1
 10
1220.783787
 20
1488.191339
 11
1232.602275
 21
1485.840461
  0
LINE
  8
0
  6
CONTINUOUS
 62
1
 10
1215.895545
 20
1488.511683
 11
1220.783787
 21
1488.191339
  0
LINE
  8
0
  6
CONTINUOUS
 62
1
 10
1196.735450
 20
1488.191339
 11
1201.623708
 21
1488.511683
  0
LINE
  8
0
  6
CONTINUOUS
 62
1
 10
1184.916978
 20
1485.840461
 11
1196.735450
 21
1488.191339
  0
LINE
  8
0
  6
CONTINUOUS
 62
1
 10
1173.506514
 20
1481.967131
 11
1184.916978
 21
1485.840461
  0
LINE
  8
0
  6
CONTINUOUS
 62
1
 10
1162.699205
 20
1476.637588
 11
1173.506514
 21
1481.967131
  0
LINE
  8
0
  6
CONTINUOUS
 62
1
 10
1152.680036
 20
1469.942974
 11
1162.699205
 21
1476.637588
  0
LINE
  8
0
  6
CONTINUOUS
 62
1
 10
1143.620344
 20
1461.997857
 11
1152.680036
 21
1469.942974
  0
LINE
  8
0
  6
CONTINUOUS
 62
1
 10
1135.675271
 20
1452.938179
 11
1143.620344
 21
1461.997857
  0
LINE
  8
0
  6
CONTINUOUS
 62
1
 10
1128.980625
 20
1442.919011
 11
1135.675271
 21
1452.938179
  0
LINE
  8
0
  6
CONTINUOUS
 62
1
 10
1123.651042
 20
1432.111723
 11
1128.980625
 21
1442.919011
  0
LINE
  8
0
  6
CONTINUOUS
 62
1
 10
1119.777747
 20
1420.701168
 11
1123.651042
 21
1432.111723
  0
LINE
  8
0
  6
CONTINUOUS
 62
1
 10
1233.639254
 20
1456.923382
 11
1241.266454
 21
1453.162054
  0
LINE
  8
0
  6
CONTINUOUS
 62
1
 10
1225.586404
 20
1459.656927
 11
1233.639254
 21
1456.923382
  0
LINE
  8
0
  6
CONTINUOUS
 62
1
 10
1217.245593
 20
1461.316027
 11
1225.586404
 21
1459.656927
  0
LINE
  8
0
  6
CONTINUOUS
 62
1
 10
1214.730381
 20
1461.480916
 11
1217.245593
 21
1461.316027
  0
LINE
  8
0
  6
CONTINUOUS
 62
1
 10
1200.273661
 20
1461.316027
 11
1202.788821
 21
1461.480852
  0
LINE
  8
0
  6
CONTINUOUS
 62
1
 10
1191.932833
 20
1459.656927
 11
1200.273661
 21
1461.316027
  0
LINE
  8
0
  6
CONTINUOUS
 62
1
 10
1183.879982
 20
1456.923382
 11
1191.932833
 21
1459.656927
  0
LINE
  8
0
  6
CONTINUOUS
 62
1
 10
1176.252782
 20
1453.162054
 11
1183.879982
 21
1456.923382
  0
LINE
  8
0
  6
CONTINUOUS
 62
1
 10
1169.181803
 20
1448.437384
 11
1176.252782
 21
1453.162054
  0
LINE
  8
0
  6
CONTINUOUS
 62
1
 10
1162.788008
 20
1442.830180
 11
1169.181803
 21
1448.437384
  0
LINE
  8
0
  6
CONTINUOUS
 62
1
 10
1157.180834
 20
1436.436333
 11
1162.788008
 21
1442.830180
  0
LINE
  8
0
  6
CONTINUOUS
 62
1
 10
1152.456151
 20
1429.365406
 11
1157.180834
 21
1436.436333
  0
LINE
  8
0
  6
CONTINUOUS
 62
1
 10
1148.694868
 20
1421.738258
 11
1152.456151
 21
1429.365406
  0
LINE
  8
0
  6
CONTINUOUS
 62
1
 10
1138.097446
 20
1488.947366
 11
1138.143239
 21
1488.987481
  0
LINE
  8
0
  6
CONTINUOUS
 62
1
 10
1116.730628
 20
1467.574894
 11
1122.334778
 21
1473.965211
  0
LINE
  8
0
  6
CONTINUOUS
 62
1
 10
1096.712198
 20
1426.981601
 11
1101.589587
 21
1441.349897
  0
LINE
  8
0
  6
CONTINUOUS
 62
1
 10
1101.559865
 20
1441.262157
 11
1101.589587
 21
1441.349897
  0
LINE
  8
0
  6
CONTINUOUS
 62
1
 10
1108.300702
 20
1454.958572
 11
1116.730628
 21
1467.574894
  0
LINE
  8
0
  6
CONTINUOUS
 62
1
 10
1116.686442
 20
1467.508784
 11
1116.730593
 21
1467.574830
  0
LINE
  8
0
  6
CONTINUOUS
 62
1
 10
1138.143360
 20
1488.987609
 11
1150.759477
 21
1497.417382
  0
LINE
  8
0
  6
CONTINUOUS
 62
1
 10
1164.368334
 20
1504.128620
 11
1178.736613
 21
1509.005985
  0
LINE
  8
0
  6
CONTINUOUS
 62
1
 10
1178.712075
 20
1508.997641
 11
1178.736475
 21
1509.005920
  0
LINE
  8
0
  6
CONTINUOUS
 62
1
 10
1178.736613
 20
1509.005985
 11
1193.618569
 21
1511.966228
  0
LINE
  8
0
  6
CONTINUOUS
 62
1
 10
1223.900667
 20
1511.966228
 11
1238.782640
 21
1509.005985
  0
LINE
  8
0
  6
CONTINUOUS
 62
1
 10
1238.782640
 20
1509.005985
 11
1253.150919
 21
1504.128620
  0
LINE
  8
0
  6
CONTINUOUS
 62
1
 10
1101.589587
 20
1441.349897
 11
1108.300702
 21
1454.958572
  0
LINE
  8
0
  6
CONTINUOUS
 62
1
 10
1122.204449
 20
1474.071885
 11
1122.334761
 21
1473.965211
  0
LINE
  8
0
  6
CONTINUOUS
 62
1
 10
1116.544345
 20
1467.617833
 11
1122.204449
 21
1474.071885
  0
LINE
  8
0
  6
CONTINUOUS
 62
1
 10
1108.097329
 20
1454.975966
 11
1116.544345
 21
1467.617833
  0
LINE
  8
0
  6
CONTINUOUS
 62
1
 10
1101.372718
 20
1441.339692
 11
1108.097329
 21
1454.975966
  0
LINE
  8
0
  6
CONTINUOUS
 62
1
 10
1096.485462
 20
1426.942320
 11
1101.372718
 21
1441.339692
  0
LINE
  8
0
  6
CONTINUOUS
 62
1
 10
1223.931323
 20
1512.098961
 11
1238.843363
 21
1509.132749
  0
LINE
  8
0
  6
CONTINUOUS
 62
1
 10
1216.931971
 20
1512.557751
 11
1223.931323
 21
1512.098961
  0
LINE
  8
0
  6
CONTINUOUS
 62
1
 10
1193.587931
 20
1512.098961
 11
1200.587265
 21
1512.557687
  0
LINE
  8
0
  6
CONTINUOUS
 62
1
 10
1178.675821
 20
1509.132749
 11
1193.587931
 21
1512.098961
  0
LINE
  8
0
  6
CONTINUOUS
 62
1
 10
1164.278476
 20
1504.245500
 11
1178.675821
 21
1509.132749
  0
LINE
  8
0
  6
CONTINUOUS
 62
1
 10
1150.642247
 20
1497.520847
 11
1164.278476
 21
1504.245500
  0
LINE
  8
0
  6
CONTINUOUS
 62
1
 10
1138.000399
 20
1489.073809
 11
1150.642247
 21
1497.520847
  0
LINE
  8
0
  6
CONTINUOUS
 62
1
 10
1131.587077
 20
1483.449531
 11
1138.000399
 21
1489.073809
  0
LINE
  8
0
  6
CONTINUOUS
 62
1
 10
1131.687908
 20
1483.326298
 11
1138.143291
 21
1488.987545
  0
LINE
  8
0
  6
CONTINUOUS
 62
1
 10
1150.759632
 20
1497.417510
 11
1164.368334
 21
1504.128620
  0
LINE
  8
0
  6
CONTINUOUS
 62
1
 10
1193.618569
 20
1511.966228
 11
1200.593054
 21
1512.423285
  0
LINE
  8
0
  6
CONTINUOUS
 62
1
 10
1200.590739
 20
1512.475916
 11
1200.593054
 21
1512.423285
  0
LINE
  8
0
  6
CONTINUOUS
 62
1
 10
1216.926182
 20
1512.423285
 11
1223.900667
 21
1511.966228
  0
LINE
  8
0
  6
CONTINUOUS
 62
1
 10
1238.848980
 20
1509.153673
 11
1253.249003
 21
1504.265461
  0
LINE
  8
0
  6
CONTINUOUS
 62
1
 10
1070.759623
 20
1544.958560
 11
1199.190682
 21
1544.958560
  0
LINE
  8
0
  6
CONTINUOUS
 62
1
 10
1060.759627
 20
1554.958602
 11
1356.759626
 21
1554.958602
  0
LINE
  8
0
  6
CONTINUOUS
 62
1
 10
1198.925583
 20
1553.494109
 11
1199.326212
 21
1554.958602
  0
LINE
  8
0
  6
CONTINUOUS
 62
1
 10
1218.193042
 20
1554.958602
 11
1218.593670
 21
1553.494109
  0
LINE
  8
0
  6
CONTINUOUS
 62
1
 10
1282.651408
 20
1463.779292
 11
1321.158055
 21
1495.285051
  0
LINE
  8
0
  6
CONTINUOUS
 62
1
 10
1307.086083
 20
1509.357008
 11
1309.910320
 21
1511.733175
  0
LINE
  8
0
  6
CONTINUOUS
 62
1
 10
1309.910320
 20
1511.733175
 11
1313.404103
 21
1512.923088
  0
LINE
  8
0
  6
CONTINUOUS
 62
1
 10
1313.404103
 20
1512.923088
 11
1317.091600
 21
1512.764488
  0
LINE
  8
0
  6
CONTINUOUS
 62
1
 10
1317.091600
 20
1512.764488
 11
1320.470330
 21
1511.279135
  0
LINE
  8
0
  6
CONTINUOUS
 62
1
 10
1320.470330
 20
1511.279135
 11
1323.080187
 21
1508.669338
  0
LINE
  8
0
  6
CONTINUOUS
 62
1
 10
1323.080187
 20
1508.669338
 11
1324.565540
 21
1505.290548
  0
LINE
  8
0
  6
CONTINUOUS
 62
1
 10
1324.565540
 20
1505.290548
 11
1324.724105
 21
1501.603032
  0
LINE
  8
0
  6
CONTINUOUS
 62
1
 10
1323.534212
 20
1498.109288
 11
1324.724105
 21
1501.603032
  0
LINE
  8
0
  6
CONTINUOUS
 62
1
 10
1321.158055
 20
1495.285051
 11
1323.534212
 21
1498.109288
  0
LINE
  8
0
  6
CONTINUOUS
 62
1
 10
1275.580308
 20
1470.850347
 11
1307.086083
 21
1509.357008
  0
LINE
  8
0
  6
CONTINUOUS
 62
1
 10
1275.580308
 20
1470.850347
 11
1282.651408
 21
1463.779292
  0
LINE
  8
0
  6
CONTINUOUS
 62
1
 10
1316.166477
 20
1441.347972
 11
1321.054649
 21
1426.947969
  0
LINE
  8
0
  6
CONTINUOUS
 62
1
 10
1309.440708
 20
1454.986557
 11
1316.166477
 21
1441.347972
  0
LINE
  8
0
  6
CONTINUOUS
 62
1
 10
1300.991981
 20
1467.630991
 11
1309.440605
 21
1454.986749
  0
LINE
  8
0
  6
CONTINUOUS
 62
1
 10
1295.296539
 20
1474.125479
 11
1300.991981
 21
1467.630991
  0
LINE
  8
0
  6
CONTINUOUS
 62
1
 10
1279.532022
 20
1489.090946
 11
1285.920581
 21
1483.488363
  0
LINE
  8
0
  6
CONTINUOUS
 62
1
 10
1266.887790
 20
1497.539589
 11
1279.532022
 21
1489.090946
  0
LINE
  8
0
  6
CONTINUOUS
 62
1
 10
1253.249244
 20
1504.265333
 11
1266.887790
 21
1497.539589
  0
LINE
  8
0
  6
CONTINUOUS
 62
1
 10
1293.868211
 20
1432.111723
 11
1297.741506
 21
1420.701168
  0
LINE
  8
0
  6
CONTINUOUS
 62
1
 10
1288.538629
 20
1442.919011
 11
1293.868211
 21
1432.111723
  0
LINE
  8
0
  6
CONTINUOUS
 62
1
 10
1281.843965
 20
1452.938179
 11
1288.538629
 21
1442.919011
  0
LINE
  8
0
  6
CONTINUOUS
 62
1
 10
1273.898892
 20
1461.997857
 11
1281.843965
 21
1452.938179
  0
LINE
  8
0
  6
CONTINUOUS
 62
1
 10
1264.839200
 20
1469.942974
 11
1273.898892
 21
1461.997857
  0
LINE
  8
0
  6
CONTINUOUS
 62
1
 10
1254.820032
 20
1476.637588
 11
1264.839200
 21
1469.942974
  0
LINE
  8
0
  6
CONTINUOUS
 62
1
 10
1244.012739
 20
1481.967131
 11
1254.820032
 21
1476.637588
  0
LINE
  8
0
  6
CONTINUOUS
 62
1
 10
1265.063085
 20
1429.365406
 11
1268.824368
 21
1421.738258
  0
LINE
  8
0
  6
CONTINUOUS
 62
1
 10
1260.338420
 20
1436.436333
 11
1265.063085
 21
1429.365406
  0
LINE
  8
0
  6
CONTINUOUS
 62
1
 10
1254.731176
 20
1442.830180
 11
1260.338420
 21
1436.436333
  0
LINE
  8
0
  6
CONTINUOUS
 62
1
 10
1248.337433
 20
1448.437384
 11
1254.731176
 21
1442.830180
  0
LINE
  8
0
  6
CONTINUOUS
 62
1
 10
1241.266454
 20
1453.162054
 11
1248.337433
 21
1448.437384
  0
LINE
  8
0
  6
CONTINUOUS
 62
1
 10
1279.375945
 20
1488.987545
 11
1285.806116
 21
1483.348505
  0
LINE
  8
0
  6
CONTINUOUS
 62
1
 10
1253.150919
 20
1504.128620
 11
1266.759639
 21
1497.417510
  0
LINE
  8
0
  6
CONTINUOUS
 62
1
 10
1266.759639
 20
1497.417510
 11
1279.375945
 21
1488.987545
  0
LINE
  8
0
  6
CONTINUOUS
 62
1
 10
1300.788626
 20
1467.574894
 11
1309.218552
 21
1454.958572
  0
LINE
  8
0
  6
CONTINUOUS
 62
1
 10
1315.929666
 20
1441.349833
 11
1315.959389
 21
1441.262157
  0
LINE
  8
0
  6
CONTINUOUS
 62
1
 10
1315.929666
 20
1441.349897
 11
1320.806986
 21
1426.981601
  0
LINE
  8
0
  6
CONTINUOUS
 62
1
 10
1295.149448
 20
1474.005069
 11
1300.788626
 21
1467.574894
  0
LINE
  8
0
  6
CONTINUOUS
 62
1
 10
1300.788626
 20
1467.574894
 11
1309.218552
 21
1454.958572
  0
LINE
  8
0
  6
CONTINUOUS
 62
1
 10
1309.218552
 20
1454.958572
 11
1315.929666
 21
1441.349897
  0
LINE
  8
0
  6
CONTINUOUS
 62
1
 10
1320.806986
 20
1426.981601
 11
1323.767255
 21
1412.099638
  0
LINE
  8
0
  6
CONTINUOUS
 62
1
 10
1316.146535
 20
1441.339692
 11
1321.033809
 21
1426.942320
  0
LINE
  8
0
  6
CONTINUOUS
 62
1
 10
1309.421838
 20
1454.975966
 11
1316.146535
 21
1441.339692
  0
LINE
  8
0
  6
CONTINUOUS
 62
1
 10
1300.974839
 20
1467.617833
 11
1309.421838
 21
1454.975966
  0
LINE
  8
0
  6
CONTINUOUS
 62
1
 10
1295.279811
 20
1474.111808
 11
1300.974839
 21
1467.617833
  0
LINE
  8
0
  6
CONTINUOUS
 62
1
 10
1279.518854
 20
1489.073809
 11
1285.906895
 21
1483.471675
  0
LINE
  8
0
  6
CONTINUOUS
 62
1
 10
1266.877007
 20
1497.520847
 11
1279.518854
 21
1489.073809
  0
LINE
  8
0
  6
CONTINUOUS
 62
1
 10
1253.240777
 20
1504.245500
 11
1266.877007
 21
1497.520847
  0
LINE
  8
0
  6
CONTINUOUS
 62
1
 10
1238.843363
 20
1509.132749
 11
1253.240777
 21
1504.245500
  0
LINE
  8
0
  6
CONTINUOUS
 62
1
 10
1238.782640
 20
1509.005985
 11
1253.150919
 21
1504.128620
  0
LINE
  8
0
  6
CONTINUOUS
 62
1
 10
1253.150919
 20
1504.128620
 11
1266.759639
 21
1497.417510
  0
LINE
  8
0
  6
CONTINUOUS
 62
1
 10
1266.759639
 20
1497.417510
 11
1279.375945
 21
1488.987545
  0
LINE
  8
0
  6
CONTINUOUS
 62
1
 10
1218.328589
 20
1544.958560
 11
1346.759605
 21
1544.958560
  0
LINE
  8
0
  6
CONTINUOUS
 62
1
 10
1346.759605
 20
1406.486882
 11
1346.759605
 21
1544.958560
  0
LINE
  8
0
  6
CONTINUOUS
 62
1
 10
1130.759083
 20
1571.974027
 11
1164.759083
 21
1571.967868
  0
ARC
  8
0
  6
CONTINUOUS
 62
1
 10
1164.759627
 20
1574.967868
 40
3.000000
 50
269.989620
 51
0.000000
  0
ARC
  8
0
  6
CONTINUOUS
 62
1
 10
1130.759627
 20
1574.974027
 40
3.000000
 50
180.000000
 51
269.989620
  0
LINE
  8
0
  6
CONTINUOUS
 62
1
 10
1190.759083
 20
1571.974027
 11
1224.759083
 21
1571.967868
  0
ARC
  8
0
  6
CONTINUOUS
 62
1
 10
1224.759627
 20
1574.967868
 40
3.000000
 50
269.989620
 51
0.000000
  0
ARC
  8
0
  6
CONTINUOUS
 62
1
 10
1190.759627
 20
1574.974027
 40
3.000000
 50
180.000000
 51
269.989620
  0
LINE
  8
0
  6
CONTINUOUS
 62
1
 10
1250.759083
 20
1571.974027
 11
1284.759083
 21
1571.967868
  0
ARC
  8
0
  6
CONTINUOUS
 62
1
 10
1284.759627
 20
1574.967868
 40
3.000000
 50
269.989620
 51
0.000000
  0
ARC
  8
0
  6
CONTINUOUS
 62
1
 10
1250.759627
 20
1574.974027
 40
3.000000
 50
180.000000
 51
269.989620
  0
LINE
  8
0
  6
CONTINUOUS
 62
1
 10
1310.759083
 20
1571.974027
 11
1344.759083
 21
1571.967868
  0
ARC
  8
0
  6
CONTINUOUS
 62
1
 10
1344.759627
 20
1574.967868
 40
3.000000
 50
269.989620
 51
0.000000
  0
ARC
  8
0
  6
CONTINUOUS
 62
1
 10
1310.759627
 20
1574.974027
 40
3.000000
 50
180.000000
 51
269.989620
  0
LINE
  8
0
  6
CONTINUOUS
 62
1
 10
1370.759083
 20
1571.974027
 11
1404.759083
 21
1571.967868
  0
ARC
  8
0
  6
CONTINUOUS
 62
1
 10
1404.759627
 20
1574.967868
 40
3.000000
 50
269.989620
 51
0.000000
  0
ARC
  8
0
  6
CONTINUOUS
 62
1
 10
1370.759627
 20
1574.974027
 40
3.000000
 50
180.000000
 51
269.989620
  0
LINE
  8
0
  6
CONTINUOUS
 62
1
 10
1430.759083
 20
1571.974027
 11
1464.759083
 21
1571.967868
  0
ARC
  8
0
  6
CONTINUOUS
 62
1
 10
1464.759627
 20
1574.967868
 40
3.000000
 50
269.989620
 51
0.000000
  0
ARC
  8
0
  6
CONTINUOUS
 62
1
 10
1430.759627
 20
1574.974027
 40
3.000000
 50
180.000000
 51
269.989620
  0
LINE
  8
0
  6
CONTINUOUS
 62
1
 10
1490.759083
 20
1571.974027
 11
1524.759083
 21
1571.967868
  0
ARC
  8
0
  6
CONTINUOUS
 62
1
 10
1524.759627
 20
1574.967868
 40
3.000000
 50
269.989620
 51
0.000000
  0
ARC
  8
0
  6
CONTINUOUS
 62
1
 10
1490.759627
 20
1574.974027
 40
3.000000
 50
180.000000
 51
269.989620
  0
LINE
  8
0
  6
CONTINUOUS
 62
1
 10
1550.759083
 20
1571.974027
 11
1584.759083
 21
1571.967868
  0
ARC
  8
0
  6
CONTINUOUS
 62
1
 10
1584.759627
 20
1574.967868
 40
3.000000
 50
269.989620
 51
0.000000
  0
ARC
  8
0
  6
CONTINUOUS
 62
1
 10
1550.759627
 20
1574.974027
 40
3.000000
 50
180.000000
 51
269.989620
  0
LINE
  8
0
  6
CONTINUOUS
 62
1
 10
1610.759083
 20
1571.974027
 11
1644.759083
 21
1571.967868
  0
ARC
  8
0
  6
CONTINUOUS
 62
1
 10
1644.759627
 20
1574.967868
 40
3.000000
 50
269.989620
 51
0.000000
  0
ARC
  8
0
  6
CONTINUOUS
 62
1
 10
1610.759627
 20
1574.974027
 40
3.000000
 50
180.000000
 51
269.989620
  0
LINE
  8
0
  6
CONTINUOUS
 62
1
 10
1670.759083
 20
1571.974027
 11
1704.759083
 21
1571.967868
  0
ARC
  8
0
  6
CONTINUOUS
 62
1
 10
1704.759627
 20
1574.967868
 40
3.000000
 50
269.989620
 51
0.000000
  0
ARC
  8
0
  6
CONTINUOUS
 62
1
 10
1670.759627
 20
1574.974027
 40
3.000000
 50
180.000000
 51
269.989620
  0
LINE
  8
0
  6
CONTINUOUS
 62
1
 10
1730.759083
 20
1571.974027
 11
1764.759083
 21
1571.967868
  0
ARC
  8
0
  6
CONTINUOUS
 62
1
 10
1764.759627
 20
1574.967868
 40
3.000000
 50
269.989620
 51
0.000000
  0
ARC
  8
0
  6
CONTINUOUS
 62
1
 10
1730.759627
 20
1574.974027
 40
3.000000
 50
180.000000
 51
269.989620
  0
LINE
  8
0
  6
CONTINUOUS
 62
1
 10
1790.759083
 20
1571.974027
 11
1824.759083
 21
1571.967868
  0
ARC
  8
0
  6
CONTINUOUS
 62
1
 10
1824.759627
 20
1574.967868
 40
3.000000
 50
269.989620
 51
0.000000
  0
ARC
  8
0
  6
CONTINUOUS
 62
1
 10
1790.759627
 20
1574.974027
 40
3.000000
 50
180.000000
 51
269.989620
  0
LINE
  8
0
  6
CONTINUOUS
 62
1
 10
1850.759083
 20
1571.974027
 11
1884.759083
 21
1571.967868
  0
ARC
  8
0
  6
CONTINUOUS
 62
1
 10
1884.759627
 20
1574.967868
 40
3.000000
 50
269.989620
 51
0.000000
  0
ARC
  8
0
  6
CONTINUOUS
 62
1
 10
1850.759627
 20
1574.974027
 40
3.000000
 50
180.000000
 51
269.989620
  0
LINE
  8
0
  6
CONTINUOUS
 62
1
 10
1130.759083
 20
1675.154680
 11
1164.759083
 21
1675.160840
  0
ARC
  8
0
  6
CONTINUOUS
 62
1
 10
1164.759627
 20
1672.160840
 40
3.000000
 50
0.000000
 51
90.010380
  0
ARC
  8
0
  6
CONTINUOUS
 62
1
 10
1130.759627
 20
1672.154680
 40
3.000000
 50
90.010380
 51
180.000000
  0
LINE
  8
0
  6
CONTINUOUS
 62
1
 10
1190.759083
 20
1675.154680
 11
1224.759083
 21
1675.160840
  0
ARC
  8
0
  6
CONTINUOUS
 62
1
 10
1224.759627
 20
1672.160840
 40
3.000000
 50
0.000000
 51
90.010380
  0
ARC
  8
0
  6
CONTINUOUS
 62
1
 10
1190.759627
 20
1672.154680
 40
3.000000
 50
90.010380
 51
180.000000
  0
LINE
  8
0
  6
CONTINUOUS
 62
1
 10
1250.759083
 20
1675.154680
 11
1284.759083
 21
1675.160840
  0
ARC
  8
0
  6
CONTINUOUS
 62
1
 10
1284.759627
 20
1672.160840
 40
3.000000
 50
0.000000
 51
90.010380
  0
ARC
  8
0
  6
CONTINUOUS
 62
1
 10
1250.759627
 20
1672.154680
 40
3.000000
 50
90.010380
 51
180.000000
  0
LINE
  8
0
  6
CONTINUOUS
 62
1
 10
1310.759083
 20
1675.154680
 11
1344.759083
 21
1675.160840
  0
ARC
  8
0
  6
CONTINUOUS
 62
1
 10
1344.759627
 20
1672.160840
 40
3.000000
 50
0.000000
 51
90.010380
  0
ARC
  8
0
  6
CONTINUOUS
 62
1
 10
1310.759627
 20
1672.154680
 40
3.000000
 50
90.010380
 51
180.000000
  0
LINE
  8
0
  6
CONTINUOUS
 62
1
 10
1370.759083
 20
1675.154680
 11
1404.759083
 21
1675.160840
  0
ARC
  8
0
  6
CONTINUOUS
 62
1
 10
1404.759627
 20
1672.160840
 40
3.000000
 50
0.000000
 51
90.010380
  0
ARC
  8
0
  6
CONTINUOUS
 62
1
 10
1370.759627
 20
1672.154680
 40
3.000000
 50
90.010380
 51
180.000000
  0
LINE
  8
0
  6
CONTINUOUS
 62
1
 10
1430.759083
 20
1675.154680
 11
1464.759083
 21
1675.160840
  0
ARC
  8
0
  6
CONTINUOUS
 62
1
 10
1464.759627
 20
1672.160840
 40
3.000000
 50
0.000000
 51
90.010380
  0
ARC
  8
0
  6
CONTINUOUS
 62
1
 10
1430.759627
 20
1672.154680
 40
3.000000
 50
90.010380
 51
180.000000
  0
LINE
  8
0
  6
CONTINUOUS
 62
1
 10
1490.759083
 20
1675.154680
 11
1524.759083
 21
1675.160840
  0
ARC
  8
0
  6
CONTINUOUS
 62
1
 10
1524.759627
 20
1672.160840
 40
3.000000
 50
0.000000
 51
90.010380
  0
ARC
  8
0
  6
CONTINUOUS
 62
1
 10
1490.759627
 20
1672.154680
 40
3.000000
 50
90.010380
 51
180.000000
  0
LINE
  8
0
  6
CONTINUOUS
 62
1
 10
1550.759083
 20
1675.154680
 11
1584.759083
 21
1675.160840
  0
ARC
  8
0
  6
CONTINUOUS
 62
1
 10
1584.759627
 20
1672.160840
 40
3.000000
 50
0.000000
 51
90.010380
  0
ARC
  8
0
  6
CONTINUOUS
 62
1
 10
1550.759627
 20
1672.154680
 40
3.000000
 50
90.010380
 51
180.000000
  0
LINE
  8
0
  6
CONTINUOUS
 62
1
 10
1610.759083
 20
1675.154680
 11
1644.759083
 21
1675.160840
  0
ARC
  8
0
  6
CONTINUOUS
 62
1
 10
1644.759627
 20
1672.160840
 40
3.000000
 50
0.000000
 51
90.010380
  0
ARC
  8
0
  6
CONTINUOUS
 62
1
 10
1610.759627
 20
1672.154680
 40
3.000000
 50
90.010380
 51
180.000000
  0
LINE
  8
0
  6
CONTINUOUS
 62
1
 10
1670.759083
 20
1675.154680
 11
1704.759083
 21
1675.160840
  0
ARC
  8
0
  6
CONTINUOUS
 62
1
 10
1704.759627
 20
1672.160840
 40
3.000000
 50
0.000000
 51
90.010380
  0
ARC
  8
0
  6
CONTINUOUS
 62
1
 10
1670.759627
 20
1672.154680
 40
3.000000
 50
90.010380
 51
180.000000
  0
LINE
  8
0
  6
CONTINUOUS
 62
1
 10
1730.759083
 20
1675.154680
 11
1764.759083
 21
1675.160840
  0
ARC
  8
0
  6
CONTINUOUS
 62
1
 10
1764.759627
 20
1672.160840
 40
3.000000
 50
0.000000
 51
90.010380
  0
ARC
  8
0
  6
CONTINUOUS
 62
1
 10
1730.759627
 20
1672.154680
 40
3.000000
 50
90.010380
 51
180.000000
  0
LINE
  8
0
  6
CONTINUOUS
 62
1
 10
1790.759083
 20
1675.154680
 11
1824.759083
 21
1675.160840
  0
ARC
  8
0
  6
CONTINUOUS
 62
1
 10
1824.759627
 20
1672.160840
 40
3.000000
 50
0.000000
 51
90.010380
  0
ARC
  8
0
  6
CONTINUOUS
 62
1
 10
1790.759627
 20
1672.154680
 40
3.000000
 50
90.010380
 51
180.000000
  0
LINE
  8
0
  6
CONTINUOUS
 62
1
 10
1850.759083
 20
1675.154680
 11
1884.759083
 21
1675.160840
  0
ARC
  8
0
  6
CONTINUOUS
 62
1
 10
1884.759627
 20
1672.160840
 40
3.000000
 50
0.000000
 51
90.010380
  0
ARC
  8
0
  6
CONTINUOUS
 62
1
 10
1850.759627
 20
1672.154680
 40
3.000000
 50
90.010380
 51
180.000000
  0
LINE
  8
0
  6
CONTINUOUS
 62
1
 10
1955.259627
 20
1558.516800
 11
1060.259627
 21
1558.678947
  0
LINE
  8
0
  6
CONTINUOUS
 62
1
 10
1952.259627
 20
1688.458576
 11
1063.259627
 21
1688.458576
  0
LINE
  8
0
  6
CONTINUOUS
 62
1
 10
1955.259627
 20
1558.516800
 11
1955.259627
 21
1685.458576
  0
LINE
  8
0
  6
CONTINUOUS
 62
1
 10
1060.259627
 20
1558.678947
 11
1060.259627
 21
1685.458576
  0
LINE
  8
0
  6
CONTINUOUS
 62
1
 10
1068.759627
 20
1688.458576
 11
1068.759627
 21
1558.677145
  0
LINE
  8
0
  6
CONTINUOUS
 62
1
 10
1943.759627
 20
1688.458576
 11
1943.759627
 21
1558.516800
  0
LINE
  8
0
  6
CONTINUOUS
 62
1
 10
1110.759627
 20
1558.669938
 11
1110.759627
 21
1688.458576
  0
LINE
  8
0
  6
CONTINUOUS
 62
1
 10
1127.759627
 20
1688.458576
 11
1127.759627
 21
1558.678947
  0
LINE
  8
0
  6
CONTINUOUS
 62
1
 10
1167.759627
 20
1558.669938
 11
1167.759627
 21
1688.458576
  0
LINE
  8
0
  6
CONTINUOUS
 62
1
 10
1187.759627
 20
1688.458576
 11
1187.759627
 21
1558.678947
  0
LINE
  8
0
  6
CONTINUOUS
 62
1
 10
1227.759627
 20
1558.669938
 11
1227.759627
 21
1688.458576
  0
LINE
  8
0
  6
CONTINUOUS
 62
1
 10
1247.759627
 20
1688.458576
 11
1247.759627
 21
1558.678947
  0
LINE
  8
0
  6
CONTINUOUS
 62
1
 10
1287.759627
 20
1558.669938
 11
1287.759627
 21
1688.458576
  0
LINE
  8
0
  6
CONTINUOUS
 62
1
 10
1307.759627
 20
1688.458576
 11
1307.759627
 21
1558.678947
  0
LINE
  8
0
  6
CONTINUOUS
 62
1
 10
1347.759627
 20
1558.669938
 11
1347.759627
 21
1688.458576
  0
LINE
  8
0
  6
CONTINUOUS
 62
1
 10
1367.759627
 20
1688.458576
 11
1367.759627
 21
1558.678947
  0
LINE
  8
0
  6
CONTINUOUS
 62
1
 10
1407.759627
 20
1558.669938
 11
1407.759627
 21
1688.458576
  0
LINE
  8
0
  6
CONTINUOUS
 62
1
 10
1427.759627
 20
1688.458576
 11
1427.759627
 21
1558.678947
  0
LINE
  8
0
  6
CONTINUOUS
 62
1
 10
1467.759627
 20
1558.669938
 11
1467.759627
 21
1688.458576
  0
LINE
  8
0
  6
CONTINUOUS
 62
1
 10
1487.759627
 20
1688.458576
 11
1487.759627
 21
1558.678947
  0
LINE
  8
0
  6
CONTINUOUS
 62
1
 10
1527.759627
 20
1558.669938
 11
1527.759627
 21
1688.458576
  0
LINE
  8
0
  6
CONTINUOUS
 62
1
 10
1547.759627
 20
1688.458576
 11
1547.759627
 21
1558.678947
  0
LINE
  8
0
  6
CONTINUOUS
 62
1
 10
1587.759627
 20
1558.669938
 11
1587.759627
 21
1688.458576
  0
LINE
  8
0
  6
CONTINUOUS
 62
1
 10
1607.759627
 20
1688.458576
 11
1607.759627
 21
1558.678947
  0
LINE
  8
0
  6
CONTINUOUS
 62
1
 10
1647.759627
 20
1558.669938
 11
1647.759627
 21
1688.458576
  0
LINE
  8
0
  6
CONTINUOUS
 62
1
 10
1667.759627
 20
1688.458576
 11
1667.759627
 21
1558.678947
  0
LINE
  8
0
  6
CONTINUOUS
 62
1
 10
1707.759627
 20
1558.669938
 11
1707.759627
 21
1688.458576
  0
LINE
  8
0
  6
CONTINUOUS
 62
1
 10
1727.759627
 20
1688.458576
 11
1727.759627
 21
1558.678947
  0
LINE
  8
0
  6
CONTINUOUS
 62
1
 10
1767.759627
 20
1558.669938
 11
1767.759627
 21
1688.458576
  0
LINE
  8
0
  6
CONTINUOUS
 62
1
 10
1787.759627
 20
1688.458576
 11
1787.759627
 21
1558.678947
  0
LINE
  8
0
  6
CONTINUOUS
 62
1
 10
1827.759627
 20
1558.669938
 11
1827.759627
 21
1688.458576
  0
LINE
  8
0
  6
CONTINUOUS
 62
1
 10
1847.759627
 20
1688.458576
 11
1847.759627
 21
1558.678947
  0
LINE
  8
0
  6
CONTINUOUS
 62
1
 10
1887.759627
 20
1558.669938
 11
1887.759627
 21
1688.458576
  0
LINE
  8
0
  6
CONTINUOUS
 62
1
 10
1904.759627
 20
1688.458576
 11
1904.759627
 21
1558.678947
  0
LINE
  8
0
  6
CONTINUOUS
 62
1
 10
1497.759627
 20
1662.566059
 11
1497.759627
 21
1584.566059
  0
LINE
  8
0
  6
CONTINUOUS
 62
1
 10
1517.759627
 20
1662.566059
 11
1517.759627
 21
1584.566059
  0
ARC
  8
0
  6
CONTINUOUS
 62
1
 10
1507.759627
 20
1662.566059
 40
10.000000
 50
90.000000
 51
180.000000
  0
ARC
  8
0
  6
CONTINUOUS
 62
1
 10
1507.759627
 20
1662.566059
 40
10.000000
 50
0.000000
 51
90.000000
  0
ARC
  8
0
  6
CONTINUOUS
 62
1
 10
1507.759627
 20
1584.566059
 40
10.000000
 50
270.000000
 51
0.000000
  0
ARC
  8
0
  6
CONTINUOUS
 62
1
 10
1507.759627
 20
1584.566059
 40
10.000000
 50
180.000000
 51
270.000000
  0
LINE
  8
0
  6
CONTINUOUS
 62
1
 10
1557.759627
 20
1662.566059
 11
1557.759627
 21
1584.566059
  0
LINE
  8
0
  6
CONTINUOUS
 62
1
 10
1577.759627
 20
1662.566059
 11
1577.759627
 21
1584.566059
  0
ARC
  8
0
  6
CONTINUOUS
 62
1
 10
1567.759627
 20
1662.566059
 40
10.000000
 50
90.000000
 51
180.000000
  0
ARC
  8
0
  6
CONTINUOUS
 62
1
 10
1567.759627
 20
1662.566059
 40
10.000000
 50
0.000000
 51
90.000000
  0
ARC
  8
0
  6
CONTINUOUS
 62
1
 10
1567.759627
 20
1584.566059
 40
10.000000
 50
270.000000
 51
0.000000
  0
ARC
  8
0
  6
CONTINUOUS
 62
1
 10
1567.759627
 20
1584.566059
 40
10.000000
 50
180.000000
 51
270.000000
  0
LINE
  8
0
  6
CONTINUOUS
 62
1
 10
1617.759627
 20
1662.566059
 11
1617.759627
 21
1584.566059
  0
LINE
  8
0
  6
CONTINUOUS
 62
1
 10
1637.759627
 20
1662.566059
 11
1637.759627
 21
1584.566059
  0
ARC
  8
0
  6
CONTINUOUS
 62
1
 10
1627.759627
 20
1662.566059
 40
10.000000
 50
90.000000
 51
180.000000
  0
ARC
  8
0
  6
CONTINUOUS
 62
1
 10
1627.759627
 20
1662.566059
 40
10.000000
 50
0.000000
 51
90.000000
  0
ARC
  8
0
  6
CONTINUOUS
 62
1
 10
1627.759627
 20
1584.566059
 40
10.000000
 50
270.000000
 51
0.000000
  0
ARC
  8
0
  6
CONTINUOUS
 62
1
 10
1627.759627
 20
1584.566059
 40
10.000000
 50
180.000000
 51
270.000000
  0
LINE
  8
0
  6
CONTINUOUS
 62
1
 10
1437.759627
 20
1662.566059
 11
1437.759627
 21
1584.566059
  0
LINE
  8
0
  6
CONTINUOUS
 62
1
 10
1457.759627
 20
1662.566059
 11
1457.759627
 21
1584.566059
  0
ARC
  8
0
  6
CONTINUOUS
 62
1
 10
1447.759627
 20
1662.566059
 40
10.000000
 50
90.000000
 51
180.000000
  0
ARC
  8
0
  6
CONTINUOUS
 62
1
 10
1447.759627
 20
1662.566059
 40
10.000000
 50
0.000000
 51
90.000000
  0
ARC
  8
0
  6
CONTINUOUS
 62
1
 10
1447.759627
 20
1584.566059
 40
10.000000
 50
270.000000
 51
0.000000
  0
ARC
  8
0
  6
CONTINUOUS
 62
1
 10
1447.759627
 20
1584.566059
 40
10.000000
 50
180.000000
 51
270.000000
  0
LINE
  8
0
  6
CONTINUOUS
 62
1
 10
1397.759627
 20
1662.566059
 11
1397.759627
 21
1584.566059
  0
LINE
  8
0
  6
CONTINUOUS
 62
1
 10
1377.759627
 20
1662.566059
 11
1377.759627
 21
1584.566059
  0
ARC
  8
0
  6
CONTINUOUS
 62
1
 10
1387.759627
 20
1662.566059
 40
10.000000
 50
0.000000
 51
90.000000
  0
ARC
  8
0
  6
CONTINUOUS
 62
1
 10
1387.759627
 20
1662.566059
 40
10.000000
 50
90.000000
 51
180.000000
  0
ARC
  8
0
  6
CONTINUOUS
 62
1
 10
1387.759627
 20
1584.566059
 40
10.000000
 50
180.000000
 51
270.000000
  0
ARC
  8
0
  6
CONTINUOUS
 62
1
 10
1387.759627
 20
1584.566059
 40
10.000000
 50
270.000000
 51
0.000000
  0
CIRCLE
  8
0
  6
CONTINUOUS
 62
1
 10
1084.759627
 20
1596.564338
 40
4.000000
  0
CIRCLE
  8
0
  6
CONTINUOUS
 62
1
 10
1094.759627
 20
1666.564338
 40
4.000000
  0
CIRCLE
  8
0
  6
CONTINUOUS
 62
1
 10
1084.759627
 20
1596.564338
 40
5.500000
  0
CIRCLE
  8
0
  6
CONTINUOUS
 62
1
 10
1094.759627
 20
1666.564338
 40
5.500000
  0
LINE
  8
0
  6
CENTER
 62
4
 10
1094.759627
 20
1674.064338
 11
1094.759627
 21
1659.064338
  0
LINE
  8
0
  6
CENTER
 62
4
 10
1087.259627
 20
1666.564338
 11
1102.259627
 21
1666.564338
  0
LINE
  8
0
  6
CENTER
 62
4
 10
1084.759627
 20
1604.064338
 11
1084.759627
 21
1589.064338
  0
LINE
  8
0
  6
CENTER
 62
4
 10
1077.259627
 20
1596.564338
 11
1092.259627
 21
1596.564338
  0
CIRCLE
  8
0
  6
CONTINUOUS
 62
1
 10
1930.759627
 20
1596.464338
 40
4.000000
  0
CIRCLE
  8
0
  6
CONTINUOUS
 62
1
 10
1920.759627
 20
1666.464338
 40
4.000000
  0
CIRCLE
  8
0
  6
CONTINUOUS
 62
1
 10
1930.759627
 20
1596.464338
 40
5.500000
  0
CIRCLE
  8
0
  6
CONTINUOUS
 62
1
 10
1920.759627
 20
1666.464338
 40
5.500000
  0
LINE
  8
0
  6
CENTER
 62
4
 10
1920.759627
 20
1673.964338
 11
1920.759627
 21
1658.964338
  0
LINE
  8
0
  6
CENTER
 62
4
 10
1928.259627
 20
1666.464338
 11
1913.259627
 21
1666.464338
  0
LINE
  8
0
  6
CENTER
 62
4
 10
1930.759627
 20
1603.964338
 11
1930.759627
 21
1588.964338
  0
LINE
  8
0
  6
CENTER
 62
4
 10
1938.259627
 20
1596.464338
 11
1923.259627
 21
1596.464338
  0
ARC
  8
0
  6
CONTINUOUS
 62
1
 10
1952.259627
 20
1685.458576
 40
3.000000
 50
0.000000
 51
90.000000
  0
ARC
  8
0
  6
CONTINUOUS
 62
1
 10
1063.259627
 20
1685.458576
 40
3.000000
 50
90.000000
 51
180.000000
  0
ENDSEC
  0
EOF
