  0
SECTION
  2
HEADER
  9
$LIMMIN
 10
0.000000
 20
0.000000
  9
$LIMMAX
 10
3500.000000
 20
2500.000000
  9
$EXTMIN
 10
0.000000
 20
0.000000
  9
$EXTMAX
 10
3500.000000
 20
2500.000000
  9
$ANGBASE
 50
0.0
  9
$ANGDIR
 70
0
  9
$DIMRND
 40
0.100000
  9
$DIMSE1
 70
0
  9
$DIMSE2
 70
0
  9
$DIMTXT
 40
3.500000
  9
$LTSCALE
 40
1.000000
  9
$LUPREC
 70
5
  9
$AUPREC
 70
5
  9
$PDMODE
 70
2
  9
$PDSIZE
 40
17.500000
  0
ENDSEC
  0
SECTION
  2
TABLES
  0
TABLE
  2
VPORT
  70
1
  0
VPORT
  2
*ACTIVE
 70
0
  10
0.0
 20
0.0
 11
1.0
 21
1.0
 12
594.0
 22
420.0
 13
0.0
 23
0.0
 14
10.0
 24
10.0
 15
10.0
 25
10.0
 16
0.0
 26
0.0
 36
1.0
 17
594.0
 27
420.0
 37
100.0
 40
1000.0
 41
1.0
 42
50.0
 43
0.0
 44
0.0
 50
0.0
 51
0.0
 71
0
 72
2000
 73
1
 74
3
 75
0
 76
0
 77
0
 78
1
  0
ENDTAB
  0
TABLE
  2
LTYPE
 70
4
  0
LTYPE
  2
CONTINUOUS
 70
0
  3
Solid line
 72
65
 73
0
 40
0.0
  0
LTYPE
  2
DASHED
 70
0
  3
Dashed line
 72
65
 73
2
 40
6.000000
 49
3.000000
 49
-3.000000
  0
LTYPE
  2
CENTER
 70
0
  3
Chain line
 72
65
 73
4
 40
24.000000
 49
15.000000
 49
-3.000000
 49
3.000000
 49
-3.000000
  0
LTYPE
  2
RANDOM
 70
0
  3
Random line
 72
65
 73
4
 40
22.500000
 49
6.000000
 49
-3.000000
 49
4.500000
 49
-9.000000
  0
ENDTAB
  0
TABLE
  2
STYLE
 70
9
  0
STYLE
  2
STANDARD
 40
0
 41
1.0
 50
0.0
 71
0
 42
0
  3
simplex
  4

 70
0
  0
ENDTAB
  0
TABLE
  2
LAYER
 70
3
  0
LAYER
  2
0
 70
0
 62
7
  6
CONTINUOUS
  0
LAYER
  2
0
 62
1
  6
CONTINUOUS
 70
0
  0
LAYER
  2
73CONTINUOUS
 62
1
  6
CONTINUOUS
 70
0
  0
ENDTAB
  0
ENDSEC
  0
SECTION
  2
BLOCKS
  0
ENDSEC
  0
SECTION
  2
ENTITIES
  0
LINE
  8
73CONTINUOUS
  6
CONTINUOUS
 62
1
 10
995.758856
 20
1175.542590
 11
1605.758856
 21
1175.542590
  0
LINE
  8
73CONTINUOUS
  6
CONTINUOUS
 62
1
 10
1605.758856
 20
1175.542590
 11
1605.758856
 21
1215.542590
  0
LINE
  8
73CONTINUOUS
  6
CONTINUOUS
 62
1
 10
1605.758856
 20
1215.542590
 11
1015.758856
 21
1215.542590
  0
ARC
  8
73CONTINUOUS
  6
CONTINUOUS
 62
1
 10
1015.758856
 20
1220.542590
 40
5.000000
 50
179.999000
 51
270.000000
  0
LINE
  8
73CONTINUOUS
  6
CONTINUOUS
 62
1
 10
1010.758856
 20
1220.542590
 11
1010.758856
 21
1240.542590
  0
ARC
  8
73CONTINUOUS
  6
CONTINUOUS
 62
1
 10
1005.758856
 20
1240.542590
 40
5.000000
 50
0.001000
 51
89.999000
  0
LINE
  8
73CONTINUOUS
  6
CONTINUOUS
 62
1
 10
1005.758856
 20
1245.542590
 11
995.758856
 21
1245.542590
  0
LINE
  8
73CONTINUOUS
  6
CONTINUOUS
 62
1
 10
995.758856
 20
1245.542590
 11
995.758856
 21
1175.542590
  0
LINE
  8
73CONTINUOUS
  6
CONTINUOUS
 62
1
 10
1030.758856
 20
770.542590
 11
1080.758856
 21
770.542590
  0
LINE
  8
73CONTINUOUS
  6
CONTINUOUS
 62
1
 10
1080.758856
 20
770.542590
 11
1080.758856
 21
1175.542590
  0
LINE
  8
73CONTINUOUS
  6
CONTINUOUS
 62
1
 10
1080.758856
 20
1175.542590
 11
1030.758856
 21
1175.542590
  0
LINE
  8
73CONTINUOUS
  6
CONTINUOUS
 62
1
 10
1030.758856
 20
1175.542590
 11
1030.758856
 21
770.542590
  0
LINE
  8
73CONTINUOUS
  6
CONTINUOUS
 62
1
 10
1047.428856
 20
770.542590
 11
1047.428856
 21
763.042590
  0
LINE
  8
73CONTINUOUS
  6
CONTINUOUS
 62
1
 10
1064.088856
 20
763.042590
 11
1064.088856
 21
770.542590
  0
LINE
  8
73CONTINUOUS
  6
CONTINUOUS
 62
1
 10
1047.428856
 20
763.042590
 11
1030.758856
 21
759.292590
  0
LINE
  8
73CONTINUOUS
  6
CONTINUOUS
 62
1
 10
1030.758856
 20
759.292590
 11
1030.758856
 21
755.542590
  0
LINE
  8
73CONTINUOUS
  6
CONTINUOUS
 62
1
 10
1030.758856
 20
755.542590
 11
1080.758856
 21
755.542590
  0
LINE
  8
73CONTINUOUS
  6
CONTINUOUS
 62
1
 10
1080.758856
 20
755.542590
 11
1080.758856
 21
759.292590
  0
LINE
  8
73CONTINUOUS
  6
CONTINUOUS
 62
1
 10
1080.758856
 20
759.292590
 11
1064.088856
 21
763.042590
  0
LINE
  8
73CONTINUOUS
  6
CONTINUOUS
 62
1
 10
1064.088856
 20
763.042590
 11
1047.428856
 21
763.042590
  0
LINE
  8
73CONTINUOUS
  6
CONTINUOUS
 62
1
 10
1530.758856
 20
770.542590
 11
1580.758856
 21
770.542590
  0
LINE
  8
73CONTINUOUS
  6
CONTINUOUS
 62
1
 10
1580.758856
 20
770.542590
 11
1580.758856
 21
1175.542590
  0
LINE
  8
73CONTINUOUS
  6
CONTINUOUS
 62
1
 10
1580.758856
 20
1175.542590
 11
1530.758856
 21
1175.542590
  0
LINE
  8
73CONTINUOUS
  6
CONTINUOUS
 62
1
 10
1530.758856
 20
1175.542590
 11
1530.758856
 21
770.542590
  0
LINE
  8
73CONTINUOUS
  6
CONTINUOUS
 62
1
 10
1547.428856
 20
770.542590
 11
1547.428856
 21
763.042590
  0
LINE
  8
73CONTINUOUS
  6
CONTINUOUS
 62
1
 10
1564.088856
 20
763.042590
 11
1564.088856
 21
770.542590
  0
LINE
  8
73CONTINUOUS
  6
CONTINUOUS
 62
1
 10
1547.428856
 20
763.042590
 11
1530.758856
 21
759.292590
  0
LINE
  8
73CONTINUOUS
  6
CONTINUOUS
 62
1
 10
1530.758856
 20
759.292590
 11
1530.758856
 21
755.542590
  0
LINE
  8
73CONTINUOUS
  6
CONTINUOUS
 62
1
 10
1530.758856
 20
755.542590
 11
1580.758856
 21
755.542590
  0
LINE
  8
73CONTINUOUS
  6
CONTINUOUS
 62
1
 10
1580.758856
 20
755.542590
 11
1580.758856
 21
759.292590
  0
LINE
  8
73CONTINUOUS
  6
CONTINUOUS
 62
1
 10
1580.758856
 20
759.292590
 11
1564.088856
 21
763.042590
  0
LINE
  8
73CONTINUOUS
  6
CONTINUOUS
 62
1
 10
1564.088856
 20
763.042590
 11
1547.428856
 21
763.042590
  0
LINE
  8
73CONTINUOUS
  6
CONTINUOUS
 62
1
 10
1080.758856
 20
1030.542590
 11
1530.758856
 21
1030.542590
  0
LINE
  8
73CONTINUOUS
  6
CONTINUOUS
 62
1
 10
1030.758856
 20
1094.542590
 11
1005.758856
 21
1094.542590
  0
LINE
  8
73CONTINUOUS
  6
CONTINUOUS
 62
1
 10
1005.758856
 20
1094.542590
 11
1005.758856
 21
1076.542590
  0
LINE
  8
73CONTINUOUS
  6
CONTINUOUS
 62
1
 10
1005.758856
 20
1076.542590
 11
1030.758856
 21
1076.542590
  0
ENDSEC
  0
EOF
