  0
SECTION
  2
HEADER
  9
$LIMMIN
 10
0.000000
 20
0.000000
  9
$LIMMAX
 10
3500.000000
 20
2500.000000
  9
$EXTMIN
 10
0.000000
 20
0.000000
  9
$EXTMAX
 10
3500.000000
 20
2500.000000
  9
$ANGBASE
 50
0.0
  9
$ANGDIR
 70
0
  9
$DIMRND
 40
0.100000
  9
$DIMSE1
 70
0
  9
$DIMSE2
 70
0
  9
$DIMTXT
 40
3.500000
  9
$LTSCALE
 40
1.000000
  9
$LUPREC
 70
5
  9
$AUPREC
 70
5
  9
$PDMODE
 70
2
  9
$PDSIZE
 40
17.500000
  0
ENDSEC
  0
SECTION
  2
TABLES
  0
TABLE
  2
VPORT
  70
1
  0
VPORT
  2
*ACTIVE
 70
0
  10
0.0
 20
0.0
 11
1.0
 21
1.0
 12
594.0
 22
420.0
 13
0.0
 23
0.0
 14
10.0
 24
10.0
 15
10.0
 25
10.0
 16
0.0
 26
0.0
 36
1.0
 17
594.0
 27
420.0
 37
100.0
 40
1000.0
 41
1.0
 42
50.0
 43
0.0
 44
0.0
 50
0.0
 51
0.0
 71
0
 72
2000
 73
1
 74
3
 75
0
 76
0
 77
0
 78
1
  0
ENDTAB
  0
TABLE
  2
LTYPE
 70
4
  0
LTYPE
  2
CONTINUOUS
 70
0
  3
Solid line
 72
65
 73
0
 40
0.0
  0
LTYPE
  2
DASHED
 70
0
  3
Dashed line
 72
65
 73
2
 40
6.000000
 49
3.000000
 49
-3.000000
  0
LTYPE
  2
CENTER
 70
0
  3
Chain line
 72
65
 73
4
 40
24.000000
 49
15.000000
 49
-3.000000
 49
3.000000
 49
-3.000000
  0
LTYPE
  2
RANDOM
 70
0
  3
Random line
 72
65
 73
4
 40
22.500000
 49
6.000000
 49
-3.000000
 49
4.500000
 49
-9.000000
  0
ENDTAB
  0
TABLE
  2
STYLE
 70
9
  0
STYLE
  2
STANDARD
 40
0
 41
1.0
 50
0.0
 71
0
 42
0
  3
simplex
  4

 70
0
  0
ENDTAB
  0
TABLE
  2
LAYER
 70
3
  0
LAYER
  2
0
 70
0
 62
7
  6
CONTINUOUS
  0
LAYER
  2
0
 62
1
  6
CONTINUOUS
 70
0
  0
LAYER
  2
73CONTINUOUS
 62
1
  6
CONTINUOUS
 70
0
  0
ENDTAB
  0
ENDSEC
  0
SECTION
  2
BLOCKS
  0
ENDSEC
  0
SECTION
  2
ENTITIES
  0
LINE
  8
73CONTINUOUS
  6
CONTINUOUS
 62
1
 10
977.759627
 20
1486.581097
 11
1587.759627
 21
1486.581097
  0
LINE
  8
73CONTINUOUS
  6
CONTINUOUS
 62
1
 10
1587.759627
 20
1486.581097
 11
1587.759627
 21
1526.581097
  0
LINE
  8
73CONTINUOUS
  6
CONTINUOUS
 62
1
 10
1587.759627
 20
1526.581097
 11
977.759627
 21
1526.581097
  0
LINE
  8
73CONTINUOUS
  6
CONTINUOUS
 62
1
 10
977.759627
 20
1526.581097
 11
977.759627
 21
1486.581097
  0
LINE
  8
73CONTINUOUS
  6
CONTINUOUS
 62
1
 10
1007.759627
 20
1081.581097
 11
1057.759627
 21
1081.581097
  0
LINE
  8
73CONTINUOUS
  6
CONTINUOUS
 62
1
 10
1057.759627
 20
1081.581097
 11
1057.759627
 21
1486.581097
  0
LINE
  8
73CONTINUOUS
  6
CONTINUOUS
 62
1
 10
1057.759627
 20
1486.581097
 11
1007.759627
 21
1486.581097
  0
LINE
  8
73CONTINUOUS
  6
CONTINUOUS
 62
1
 10
1007.759627
 20
1486.581097
 11
1007.759627
 21
1081.581097
  0
LINE
  8
73CONTINUOUS
  6
CONTINUOUS
 62
1
 10
1557.759627
 20
1081.581097
 11
1557.759627
 21
1486.581097
  0
LINE
  8
73CONTINUOUS
  6
CONTINUOUS
 62
1
 10
1557.759627
 20
1486.581097
 11
1507.759627
 21
1486.581097
  0
LINE
  8
73CONTINUOUS
  6
CONTINUOUS
 62
1
 10
1507.759627
 20
1486.581097
 11
1507.759627
 21
1081.581097
  0
LINE
  8
73CONTINUOUS
  6
CONTINUOUS
 62
1
 10
1507.759627
 20
1081.581097
 11
1557.759627
 21
1081.581097
  0
LINE
  8
73CONTINUOUS
  6
CONTINUOUS
 62
1
 10
1507.759627
 20
1341.581097
 11
1057.759627
 21
1341.581097
  0
LINE
  8
73CONTINUOUS
  6
CONTINUOUS
 62
1
 10
1024.419627
 20
1081.581097
 11
1024.419627
 21
1074.081097
  0
LINE
  8
73CONTINUOUS
  6
CONTINUOUS
 62
1
 10
1041.089627
 20
1074.081097
 11
1041.089627
 21
1081.581097
  0
LINE
  8
73CONTINUOUS
  6
CONTINUOUS
 62
1
 10
1024.419627
 20
1074.081097
 11
1007.759627
 21
1070.331097
  0
LINE
  8
73CONTINUOUS
  6
CONTINUOUS
 62
1
 10
1007.759627
 20
1070.331097
 11
1007.759627
 21
1066.581097
  0
LINE
  8
73CONTINUOUS
  6
CONTINUOUS
 62
1
 10
1007.759627
 20
1066.581097
 11
1057.759627
 21
1066.581097
  0
LINE
  8
73CONTINUOUS
  6
CONTINUOUS
 62
1
 10
1057.759627
 20
1066.581097
 11
1057.759627
 21
1070.331097
  0
LINE
  8
73CONTINUOUS
  6
CONTINUOUS
 62
1
 10
1057.759627
 20
1070.331097
 11
1041.089627
 21
1074.081097
  0
LINE
  8
73CONTINUOUS
  6
CONTINUOUS
 62
1
 10
1041.089627
 20
1074.081097
 11
1024.419627
 21
1074.081097
  0
LINE
  8
73CONTINUOUS
  6
CONTINUOUS
 62
1
 10
1541.089627
 20
1074.081097
 11
1557.759627
 21
1070.331097
  0
LINE
  8
73CONTINUOUS
  6
CONTINUOUS
 62
1
 10
1557.759627
 20
1070.331097
 11
1557.759627
 21
1066.581097
  0
LINE
  8
73CONTINUOUS
  6
CONTINUOUS
 62
1
 10
1557.759627
 20
1066.581097
 11
1507.759627
 21
1066.581097
  0
LINE
  8
73CONTINUOUS
  6
CONTINUOUS
 62
1
 10
1507.759627
 20
1066.581097
 11
1507.759627
 21
1070.331097
  0
LINE
  8
73CONTINUOUS
  6
CONTINUOUS
 62
1
 10
1507.759627
 20
1070.331097
 11
1524.419627
 21
1074.081097
  0
LINE
  8
73CONTINUOUS
  6
CONTINUOUS
 62
1
 10
1524.419627
 20
1074.081097
 11
1541.089627
 21
1074.081097
  0
LINE
  8
73CONTINUOUS
  6
CONTINUOUS
 62
1
 10
1541.089627
 20
1081.581097
 11
1541.089627
 21
1074.081097
  0
LINE
  8
73CONTINUOUS
  6
CONTINUOUS
 62
1
 10
1524.419627
 20
1074.081097
 11
1524.419627
 21
1081.581097
  0
LINE
  8
73CONTINUOUS
  6
CONTINUOUS
 62
1
 10
977.759627
 20
1526.581097
 11
1282.759627
 21
1556.581097
  0
LINE
  8
73CONTINUOUS
  6
CONTINUOUS
 62
1
 10
1282.759627
 20
1556.581097
 11
1587.759627
 21
1526.581097
  0
ARC
  8
73CONTINUOUS
  6
CONTINUOUS
 62
1
 10
1245.259627
 20
1446.581097
 40
25.000000
 50
180.000000
 51
0.000000
  0
ARC
  8
73CONTINUOUS
  6
CONTINUOUS
 62
1
 10
1245.259627
 20
1446.581097
 40
25.000000
 50
0.000000
 51
180.000000
  0
LINE
  8
73CONTINUOUS
  6
CONTINUOUS
 62
1
 10
1220.989627
 20
1452.581097
 11
1269.529627
 21
1452.581097
  0
LINE
  8
73CONTINUOUS
  6
CONTINUOUS
 62
1
 10
1269.529627
 20
1440.581097
 11
1220.989627
 21
1440.581097
  0
ARC
  8
73CONTINUOUS
  6
CONTINUOUS
 62
1
 10
1320.259627
 20
1446.581097
 40
25.000000
 50
180.000000
 51
0.000000
  0
ARC
  8
73CONTINUOUS
  6
CONTINUOUS
 62
1
 10
1320.259627
 20
1446.581097
 40
25.000000
 50
0.000000
 51
180.000000
  0
LINE
  8
73CONTINUOUS
  6
CONTINUOUS
 62
1
 10
1295.989627
 20
1440.581097
 11
1344.529627
 21
1440.581097
  0
LINE
  8
73CONTINUOUS
  6
CONTINUOUS
 62
1
 10
1344.529627
 20
1452.581097
 11
1295.989627
 21
1452.581097
  0
ENDSEC
  0
EOF
