  0
SECTION
  2
HEADER
  9
$LIMMIN
 10
0.000000
 20
0.000000
  9
$LIMMAX
 10
3500.000000
 20
2500.000000
  9
$EXTMIN
 10
0.000000
 20
0.000000
  9
$EXTMAX
 10
3500.000000
 20
2500.000000
  9
$ANGBASE
 50
0.0
  9
$ANGDIR
 70
0
  9
$DIMRND
 40
0.100000
  9
$DIMSE1
 70
0
  9
$DIMSE2
 70
0
  9
$DIMTXT
 40
3.500000
  9
$LTSCALE
 40
1.000000
  9
$LUPREC
 70
5
  9
$AUPREC
 70
5
  9
$PDMODE
 70
2
  9
$PDSIZE
 40
17.500000
  0
ENDSEC
  0
SECTION
  2
TABLES
  0
TABLE
  2
VPORT
  70
1
  0
VPORT
  2
*ACTIVE
 70
0
  10
0.0
 20
0.0
 11
1.0
 21
1.0
 12
594.0
 22
420.0
 13
0.0
 23
0.0
 14
10.0
 24
10.0
 15
10.0
 25
10.0
 16
0.0
 26
0.0
 36
1.0
 17
594.0
 27
420.0
 37
100.0
 40
1000.0
 41
1.0
 42
50.0
 43
0.0
 44
0.0
 50
0.0
 51
0.0
 71
0
 72
2000
 73
1
 74
3
 75
0
 76
0
 77
0
 78
1
  0
ENDTAB
  0
TABLE
  2
LTYPE
 70
4
  0
LTYPE
  2
CONTINUOUS
 70
0
  3
Solid line
 72
65
 73
0
 40
0.0
  0
LTYPE
  2
DASHED
 70
0
  3
Dashed line
 72
65
 73
2
 40
6.000000
 49
3.000000
 49
-3.000000
  0
LTYPE
  2
CENTER
 70
0
  3
Chain line
 72
65
 73
4
 40
24.000000
 49
15.000000
 49
-3.000000
 49
3.000000
 49
-3.000000
  0
LTYPE
  2
RANDOM
 70
0
  3
Random line
 72
65
 73
4
 40
22.500000
 49
6.000000
 49
-3.000000
 49
4.500000
 49
-9.000000
  0
ENDTAB
  0
TABLE
  2
STYLE
 70
9
  0
STYLE
  2
STANDARD
 40
0
 41
1.0
 50
0.0
 71
0
 42
0
  3
simplex
  4

 70
0
  0
ENDTAB
  0
TABLE
  2
LAYER
 70
2
  0
LAYER
  2
0
 70
0
 62
7
  6
CONTINUOUS
  0
LAYER
  2
0
 62
1
  6
CONTINUOUS
 70
0
  0
ENDTAB
  0
ENDSEC
  0
SECTION
  2
BLOCKS
  0
ENDSEC
  0
SECTION
  2
ENTITIES
  0
LINE
  8
0
  6
CONTINUOUS
 62
1
 10
1442.607846
 20
1468.204128
 11
842.608026
 21
1468.204128
  0
LINE
  8
0
  6
CONTINUOUS
 62
1
 10
842.608026
 20
1430.204139
 11
1442.607846
 21
1430.204139
  0
LINE
  8
0
  6
CONTINUOUS
 62
1
 10
842.608026
 20
1323.204171
 11
1442.607846
 21
1323.204171
  0
LINE
  8
0
  6
CONTINUOUS
 62
1
 10
1442.607846
 20
1283.204183
 11
842.608026
 21
1283.204183
  0
LINE
  8
0
  6
CONTINUOUS
 62
1
 10
842.608026
 20
1275.204186
 11
1442.607846
 21
1275.204186
  0
LINE
  8
0
  6
CONTINUOUS
 62
1
 10
1127.607941
 20
1225.204201
 11
1127.607941
 21
1210.204205
  0
LINE
  8
0
  6
CONTINUOUS
 62
1
 10
1127.607941
 20
1210.204205
 11
1147.607935
 21
1210.204205
  0
LINE
  8
0
  6
CONTINUOUS
 62
1
 10
1147.607935
 20
1210.204205
 11
1147.607935
 21
1225.204201
  0
LINE
  8
0
  6
CONTINUOUS
 62
1
 10
887.608013
 20
1225.204201
 11
887.608013
 21
1210.204205
  0
LINE
  8
0
  6
CONTINUOUS
 62
1
 10
887.608013
 20
1210.204205
 11
867.608019
 21
1210.204205
  0
LINE
  8
0
  6
CONTINUOUS
 62
1
 10
867.608019
 20
1210.204205
 11
867.608019
 21
1225.204201
  0
LINE
  8
0
  6
CONTINUOUS
 62
1
 10
867.608019
 20
1225.204201
 11
1147.607935
 21
1225.204201
  0
LINE
  8
0
  6
CONTINUOUS
 62
1
 10
1147.607935
 20
1225.204201
 11
1147.607935
 21
1250.204193
  0
LINE
  8
0
  6
CONTINUOUS
 62
1
 10
1147.607935
 20
1250.204193
 11
867.608019
 21
1250.204193
  0
LINE
  8
0
  6
CONTINUOUS
 62
1
 10
867.608019
 20
1250.204193
 11
867.608019
 21
1225.204201
  0
LINE
  8
0
  6
CONTINUOUS
 62
1
 10
852.608023
 20
748.214344
 11
1432.607849
 21
748.214344
  0
LINE
  8
0
  6
CONTINUOUS
 62
1
 10
1422.607852
 20
738.214347
 11
1072.607957
 21
738.214347
  0
LINE
  8
0
  6
CONTINUOUS
 62
1
 10
1072.607957
 20
738.214347
 11
912.608005
 21
738.214347
  0
LINE
  8
0
  6
CONTINUOUS
 62
1
 10
912.608005
 20
738.214347
 11
862.608020
 21
738.214347
  0
LINE
  8
0
  6
CONTINUOUS
 62
1
 10
862.608020
 20
738.214347
 11
857.608022
 21
738.204347
  0
LINE
  8
0
  6
CONTINUOUS
 62
1
 10
857.608022
 20
738.204347
 11
852.608023
 21
748.214344
  0
LINE
  8
0
  6
CONTINUOUS
 62
1
 10
852.608023
 20
748.214344
 11
842.608026
 21
748.214344
  0
LINE
  8
0
  6
CONTINUOUS
 62
1
 10
842.608026
 20
748.214344
 11
842.608026
 21
1768.218674
  0
LINE
  8
0
  6
CONTINUOUS
 62
1
 10
1442.607846
 20
1768.218674
 11
1442.607846
 21
748.214344
  0
LINE
  8
0
  6
CONTINUOUS
 62
1
 10
1442.607846
 20
748.214344
 11
1432.607849
 21
748.214344
  0
LINE
  8
0
  6
CONTINUOUS
 62
1
 10
1432.607849
 20
748.214344
 11
1427.607851
 21
738.214347
  0
LINE
  8
0
  6
CONTINUOUS
 62
1
 10
1427.607851
 20
738.214347
 11
1422.607852
 21
738.214347
  0
LINE
  8
0
  6
CONTINUOUS
 62
1
 10
897.608010
 20
738.214347
 11
902.608008
 21
628.214380
  0
LINE
  8
0
  6
CONTINUOUS
 62
1
 10
902.608008
 20
628.214380
 11
907.608007
 21
628.214380
  0
LINE
  8
0
  6
CONTINUOUS
 62
1
 10
907.608007
 20
628.214380
 11
907.608007
 21
608.204386
  0
LINE
  8
0
  6
CONTINUOUS
 62
1
 10
907.608007
 20
608.204386
 11
897.608010
 21
598.204389
  0
LINE
  8
0
  6
CONTINUOUS
 62
1
 10
897.608010
 20
598.204389
 11
947.607995
 21
598.214389
  0
LINE
  8
0
  6
CONTINUOUS
 62
1
 10
947.607995
 20
598.214389
 11
937.607998
 21
608.214386
  0
LINE
  8
0
  6
CONTINUOUS
 62
1
 10
937.607998
 20
608.214386
 11
937.607998
 21
628.214380
  0
LINE
  8
0
  6
CONTINUOUS
 62
1
 10
937.607998
 20
628.214380
 11
942.607996
 21
628.214380
  0
LINE
  8
0
  6
CONTINUOUS
 62
1
 10
942.607996
 20
628.214380
 11
947.607995
 21
738.214347
  0
LINE
  8
0
  6
CONTINUOUS
 62
1
 10
937.607998
 20
608.214386
 11
907.608007
 21
608.204386
  0
LINE
  8
0
  6
CONTINUOUS
 62
1
 10
907.608007
 20
628.214380
 11
937.607998
 21
628.214380
  0
LINE
  8
0
  6
CONTINUOUS
 62
1
 10
1387.607863
 20
738.204347
 11
1382.607864
 21
628.204380
  0
LINE
  8
0
  6
CONTINUOUS
 62
1
 10
1382.607864
 20
628.204380
 11
1377.607866
 21
628.204380
  0
LINE
  8
0
  6
CONTINUOUS
 62
1
 10
1377.607866
 20
628.204380
 11
1377.607866
 21
608.204386
  0
LINE
  8
0
  6
CONTINUOUS
 62
1
 10
1377.607866
 20
608.204386
 11
1387.607863
 21
598.204389
  0
LINE
  8
0
  6
CONTINUOUS
 62
1
 10
1387.607863
 20
598.204389
 11
1337.607878
 21
598.204389
  0
LINE
  8
0
  6
CONTINUOUS
 62
1
 10
1337.607878
 20
598.204389
 11
1347.607875
 21
608.204386
  0
LINE
  8
0
  6
CONTINUOUS
 62
1
 10
1347.607875
 20
608.204386
 11
1347.607875
 21
628.204380
  0
LINE
  8
0
  6
CONTINUOUS
 62
1
 10
1347.607875
 20
628.204380
 11
1342.607876
 21
628.204380
  0
LINE
  8
0
  6
CONTINUOUS
 62
1
 10
1342.607876
 20
628.204380
 11
1337.607878
 21
738.204347
  0
LINE
  8
0
  6
CONTINUOUS
 62
1
 10
1347.607875
 20
608.204386
 11
1377.607866
 21
608.204386
  0
LINE
  8
0
  6
CONTINUOUS
 62
1
 10
1377.607866
 20
628.204380
 11
1347.607875
 21
628.204380
  0
ARC
  8
0
  6
CONTINUOUS
 62
1
 10
982.097393
 20
1378.204155
 40
24.999992
 50
180.000000
 51
0.000000
  0
ARC
  8
0
  6
CONTINUOUS
 62
1
 10
982.097393
 20
1378.204155
 40
24.999993
 50
0.000000
 51
180.000000
  0
ARC
  8
0
  6
CONTINUOUS
 62
1
 10
982.097393
 20
1378.204155
 40
17.999995
 50
180.000000
 51
0.000000
  0
ARC
  8
0
  6
CONTINUOUS
 62
1
 10
982.097393
 20
1378.204155
 40
17.999995
 50
0.000000
 51
180.000000
  0
LINE
  8
0
  6
CONTINUOUS
 62
1
 10
982.097393
 20
1396.204149
 11
974.097395
 21
1366.094158
  0
LINE
  8
0
  6
CONTINUOUS
 62
1
 10
974.097395
 20
1366.094158
 11
990.097390
 21
1366.094158
  0
LINE
  8
0
  6
CONTINUOUS
 62
1
 10
990.097390
 20
1366.094158
 11
982.097393
 21
1396.204149
  0
ARC
  8
0
  6
CONTINUOUS
 62
1
 10
1301.980878
 20
1378.204155
 40
24.999992
 50
180.000000
 51
0.000000
  0
ARC
  8
0
  6
CONTINUOUS
 62
1
 10
1301.980878
 20
1378.204155
 40
24.999992
 50
0.000000
 51
180.000000
  0
ARC
  8
0
  6
CONTINUOUS
 62
1
 10
1301.980878
 20
1378.204155
 40
17.999995
 50
180.000000
 51
0.000000
  0
ARC
  8
0
  6
CONTINUOUS
 62
1
 10
1301.980878
 20
1378.204155
 40
17.999995
 50
0.000000
 51
180.000000
  0
LINE
  8
0
  6
CONTINUOUS
 62
1
 10
1301.980878
 20
1396.204149
 11
1293.980880
 21
1366.094158
  0
LINE
  8
0
  6
CONTINUOUS
 62
1
 10
1293.980880
 20
1366.094158
 11
1309.980875
 21
1366.094158
  0
LINE
  8
0
  6
CONTINUOUS
 62
1
 10
1309.980875
 20
1366.094158
 11
1301.980878
 21
1396.204149
  0
LINE
  8
0
  6
CONTINUOUS
 62
1
 10
1442.607846
 20
1730.569358
 11
842.608026
 21
1730.569358
  0
LINE
  8
0
  6
CONTINUOUS
 62
1
 10
1442.607846
 20
1768.218674
 11
842.608026
 21
1768.218674
  0
LINE
  8
0
  6
CONTINUOUS
 62
1
 10
1442.607846
 20
1530.714080
 11
842.608026
 21
1530.714080
  0
LINE
  8
0
  6
CONTINUOUS
 62
1
 10
1312.607885
 20
843.214315
 11
1312.607885
 21
808.214326
  0
LINE
  8
0
  6
CONTINUOUS
 62
1
 10
1312.607885
 20
808.214326
 11
1417.607854
 21
808.214326
  0
LINE
  8
0
  6
CONTINUOUS
 62
1
 10
1417.607854
 20
808.214326
 11
1417.607854
 21
843.214315
  0
LINE
  8
0
  6
CONTINUOUS
 62
1
 10
1417.607854
 20
843.214315
 11
1312.607885
 21
843.214315
  0
ENDSEC
  0
EOF
