  0
SECTION
  2
HEADER
  9
$LIMMIN
 10
0.000000
 20
0.000000
  9
$LIMMAX
 10
3363.600000
 20
2378.400000
  9
$EXTMIN
 10
0.000000
 20
0.000000
  9
$EXTMAX
 10
3363.600000
 20
2378.400000
  9
$ANGBASE
 50
0.0
  9
$ANGDIR
 70
0
  9
$DIMRND
 40
0.100000
  9
$DIMSE1
 70
0
  9
$DIMSE2
 70
0
  9
$DIMTXT
 40
3.500000
  9
$LTSCALE
 40
1.000000
  9
$LUPREC
 70
5
  9
$AUPREC
 70
5
  9
$PDMODE
 70
2
  9
$PDSIZE
 40
16.818000
  0
ENDSEC
  0
SECTION
  2
TABLES
  0
TABLE
  2
VPORT
  70
1
  0
VPORT
  2
*ACTIVE
 70
0
  10
0.0
 20
0.0
 11
1.0
 21
1.0
 12
594.0
 22
420.0
 13
0.0
 23
0.0
 14
10.0
 24
10.0
 15
10.0
 25
10.0
 16
0.0
 26
0.0
 36
1.0
 17
594.0
 27
420.0
 37
100.0
 40
1000.0
 41
1.0
 42
50.0
 43
0.0
 44
0.0
 50
0.0
 51
0.0
 71
0
 72
2000
 73
1
 74
3
 75
0
 76
0
 77
0
 78
1
  0
ENDTAB
  0
TABLE
  2
LTYPE
 70
4
  0
LTYPE
  2
CONTINUOUS
 70
0
  3
Solid line
 72
65
 73
0
 40
0.0
  0
LTYPE
  2
DASHED
 70
0
  3
Dashed line
 72
65
 73
2
 40
6.000000
 49
3.000000
 49
-3.000000
  0
LTYPE
  2
CENTER
 70
0
  3
Chain line
 72
65
 73
4
 40
24.000000
 49
15.000000
 49
-3.000000
 49
3.000000
 49
-3.000000
  0
LTYPE
  2
RANDOM
 70
0
  3
Random line
 72
65
 73
4
 40
22.500000
 49
6.000000
 49
-3.000000
 49
4.500000
 49
-9.000000
  0
ENDTAB
  0
TABLE
  2
STYLE
 70
9
  0
STYLE
  2
STANDARD
 40
0
 41
1.0
 50
0.0
 71
0
 42
0
  3
simplex
  4

 70
0
  0
ENDTAB
  0
TABLE
  2
LAYER
 70
2
  0
LAYER
  2
0
 70
0
 62
7
  6
CONTINUOUS
  0
LAYER
  2
0
 62
1
  6
CONTINUOUS
 70
0
  0
ENDTAB
  0
ENDSEC
  0
SECTION
  2
BLOCKS
  0
ENDSEC
  0
SECTION
  2
ENTITIES
  0
LINE
  8
0
  6
CONTINUOUS
 62
1
 10
1601.769530
 20
1131.578596
 11
1601.769530
 21
1187.578596
  0
LINE
  8
0
  6
CONTINUOUS
 62
1
 10
841.769530
 20
1122.050811
 11
939.769530
 21
1122.050811
  0
LINE
  8
0
  6
CONTINUOUS
 62
1
 10
939.769530
 20
1122.050811
 11
939.769530
 21
1199.050811
  0
LINE
  8
0
  6
CONTINUOUS
 62
1
 10
939.769530
 20
1199.050811
 11
841.769530
 21
1199.050811
  0
LINE
  8
0
  6
CONTINUOUS
 62
1
 10
841.769530
 20
1199.050811
 11
841.769530
 21
1122.050811
  0
LINE
  8
0
  6
CONTINUOUS
 62
1
 10
811.769530
 20
1202.578596
 11
1711.769530
 21
1202.578596
  0
LINE
  8
0
  6
CONTINUOUS
 62
1
 10
811.769530
 20
1097.578596
 11
1711.769530
 21
1097.578596
  0
LINE
  8
0
  6
CONTINUOUS
 62
1
 10
811.769530
 20
1112.578596
 11
1711.769530
 21
1112.578596
  0
LINE
  8
0
  6
CONTINUOUS
 62
1
 10
1696.769530
 20
1037.578596
 11
826.769530
 21
1037.578596
  0
LINE
  8
0
  6
CONTINUOUS
 62
1
 10
826.769530
 20
1037.578596
 11
826.769530
 21
1052.578596
  0
LINE
  8
0
  6
CONTINUOUS
 62
1
 10
826.769530
 20
1052.578596
 11
826.769530
 21
1037.578596
  0
LINE
  8
0
  6
CONTINUOUS
 62
1
 10
826.769530
 20
1037.578596
 11
826.769530
 21
1052.578596
  0
LINE
  8
0
  6
CONTINUOUS
 62
1
 10
826.769530
 20
1052.578596
 11
811.769530
 21
1052.578596
  0
LINE
  8
0
  6
CONTINUOUS
 62
1
 10
811.769530
 20
1052.578596
 11
811.769530
 21
1202.578596
  0
LINE
  8
0
  6
CONTINUOUS
 62
1
 10
811.769530
 20
1202.578596
 11
811.769530
 21
1727.578596
  0
LINE
  8
0
  6
CONTINUOUS
 62
1
 10
811.769530
 20
1727.578596
 11
811.769515
 21
1818.278596
  0
LINE
  8
0
  6
CONTINUOUS
 62
1
 10
1711.769515
 20
1818.278596
 11
1711.769530
 21
1052.578596
  0
LINE
  8
0
  6
CONTINUOUS
 62
1
 10
1711.769530
 20
1052.578596
 11
1696.769530
 21
1052.578596
  0
LINE
  8
0
  6
CONTINUOUS
 62
1
 10
1696.769530
 20
1052.578596
 11
1696.769530
 21
1037.578596
  0
LINE
  8
0
  6
CONTINUOUS
 62
1
 10
1696.769530
 20
1037.578596
 11
1696.769530
 21
1052.578596
  0
LINE
  8
0
  6
CONTINUOUS
 62
1
 10
1696.769530
 20
1052.578596
 11
1696.769530
 21
1037.578596
  0
LINE
  8
0
  6
CONTINUOUS
 62
1
 10
1601.769530
 20
1682.578596
 11
1221.769530
 21
1682.578596
  0
LINE
  8
0
  6
CONTINUOUS
 62
1
 10
1221.769530
 20
1682.578596
 11
1221.769530
 21
1212.578596
  0
LINE
  8
0
  6
CONTINUOUS
 62
1
 10
1221.769530
 20
1212.578596
 11
1601.769530
 21
1212.578596
  0
LINE
  8
0
  6
CONTINUOUS
 62
1
 10
1601.769530
 20
1212.578596
 11
1601.769530
 21
1682.578596
  0
LINE
  8
0
  6
CONTINUOUS
 62
1
 10
1201.769530
 20
1682.578596
 11
821.769530
 21
1682.578596
  0
LINE
  8
0
  6
CONTINUOUS
 62
1
 10
821.769530
 20
1682.578596
 11
821.769530
 21
1212.578596
  0
LINE
  8
0
  6
CONTINUOUS
 62
1
 10
821.769530
 20
1212.578596
 11
1201.769530
 21
1212.578596
  0
LINE
  8
0
  6
CONTINUOUS
 62
1
 10
1201.769530
 20
1212.578596
 11
1201.769530
 21
1682.578596
  0
LINE
  8
0
  6
CONTINUOUS
 62
1
 10
1106.769530
 20
1632.578596
 11
906.769530
 21
1632.578596
  0
ARC
  8
0
  6
CONTINUOUS
 62
1
 10
906.769530
 20
1597.578596
 40
35.000000
 50
90.000000
 51
180.000000
  0
LINE
  8
0
  6
CONTINUOUS
 62
1
 10
871.769530
 20
1597.578596
 11
871.769530
 21
1297.578596
  0
ARC
  8
0
  6
CONTINUOUS
 62
1
 10
906.769530
 20
1297.578596
 40
35.000000
 50
180.000000
 51
270.000000
  0
LINE
  8
0
  6
CONTINUOUS
 62
1
 10
906.769530
 20
1262.578596
 11
1106.769530
 21
1262.578596
  0
ARC
  8
0
  6
CONTINUOUS
 62
1
 10
1106.769530
 20
1297.578596
 40
35.000000
 50
270.000000
 51
0.000000
  0
LINE
  8
0
  6
CONTINUOUS
 62
1
 10
1141.769530
 20
1297.578596
 11
1141.769530
 21
1597.578596
  0
ARC
  8
0
  6
CONTINUOUS
 62
1
 10
1106.769530
 20
1597.578596
 40
35.000000
 50
0.000000
 51
90.000000
  0
ARC
  8
0
  6
CONTINUOUS
 62
1
 10
1316.769530
 20
1597.578596
 40
35.000000
 50
90.001000
 51
180.001000
  0
LINE
  8
0
  6
CONTINUOUS
 62
1
 10
1281.769530
 20
1597.578596
 11
1281.769530
 21
1297.578596
  0
ARC
  8
0
  6
CONTINUOUS
 62
1
 10
1316.769530
 20
1297.578596
 40
35.000000
 50
180.000000
 51
270.000000
  0
LINE
  8
0
  6
CONTINUOUS
 62
1
 10
1316.769530
 20
1262.578596
 11
1516.769530
 21
1262.578596
  0
ARC
  8
0
  6
CONTINUOUS
 62
1
 10
1516.769530
 20
1297.578596
 40
35.000000
 50
270.000000
 51
0.000000
  0
LINE
  8
0
  6
CONTINUOUS
 62
1
 10
1551.769530
 20
1297.578596
 11
1551.769530
 21
1597.578596
  0
ARC
  8
0
  6
CONTINUOUS
 62
1
 10
1516.769530
 20
1597.578596
 40
35.000000
 50
0.000000
 51
90.000000
  0
LINE
  8
0
  6
CONTINUOUS
 62
1
 10
1516.769530
 20
1632.578596
 11
1316.769530
 21
1632.578596
  0
LINE
  8
0
  6
CONTINUOUS
 62
1
 10
1581.769530
 20
1131.578596
 11
1581.769530
 21
1187.578596
  0
LINE
  8
0
  6
CONTINUOUS
 62
1
 10
1561.769530
 20
1187.578596
 11
1561.769530
 21
1131.578596
  0
LINE
  8
0
  6
CONTINUOUS
 62
1
 10
1541.769530
 20
1131.578596
 11
1541.769530
 21
1187.578596
  0
LINE
  8
0
  6
CONTINUOUS
 62
1
 10
1521.769530
 20
1187.578596
 11
1521.769530
 21
1131.578596
  0
LINE
  8
0
  6
CONTINUOUS
 62
1
 10
1501.769530
 20
1131.578596
 11
1501.769530
 21
1187.578596
  0
LINE
  8
0
  6
CONTINUOUS
 62
1
 10
1481.769530
 20
1187.578596
 11
1481.769530
 21
1131.578596
  0
LINE
  8
0
  6
CONTINUOUS
 62
1
 10
1461.769530
 20
1131.578596
 11
1461.769530
 21
1187.578596
  0
LINE
  8
0
  6
CONTINUOUS
 62
1
 10
1441.769530
 20
1187.578596
 11
1441.769530
 21
1131.578596
  0
LINE
  8
0
  6
CONTINUOUS
 62
1
 10
1421.769530
 20
1131.578596
 11
1421.769530
 21
1187.578596
  0
LINE
  8
0
  6
CONTINUOUS
 62
1
 10
1401.769530
 20
1187.578596
 11
1401.769530
 21
1131.578596
  0
LINE
  8
0
  6
CONTINUOUS
 62
1
 10
1381.769530
 20
1131.578596
 11
1381.769530
 21
1187.578596
  0
LINE
  8
0
  6
CONTINUOUS
 62
1
 10
1361.769530
 20
1187.578596
 11
1361.769530
 21
1131.578596
  0
LINE
  8
0
  6
CONTINUOUS
 62
1
 10
1341.769530
 20
1131.578596
 11
1341.769530
 21
1187.578596
  0
LINE
  8
0
  6
CONTINUOUS
 62
1
 10
1321.769530
 20
1187.578596
 11
1321.769530
 21
1131.578596
  0
LINE
  8
0
  6
CONTINUOUS
 62
1
 10
1301.769530
 20
1131.578596
 11
1301.769530
 21
1187.578596
  0
LINE
  8
0
  6
CONTINUOUS
 62
1
 10
1281.769530
 20
1187.578596
 11
1281.769530
 21
1131.578596
  0
LINE
  8
0
  6
CONTINUOUS
 62
1
 10
1261.769530
 20
1131.578596
 11
1261.769530
 21
1187.578596
  0
LINE
  8
0
  6
CONTINUOUS
 62
1
 10
1241.769530
 20
1187.578596
 11
1241.769530
 21
1131.578596
  0
LINE
  8
0
  6
CONTINUOUS
 62
1
 10
1221.769530
 20
1131.578596
 11
1221.769530
 21
1187.578596
  0
LINE
  8
0
  6
CONTINUOUS
 62
1
 10
1201.769530
 20
1187.578596
 11
1201.769530
 21
1131.578596
  0
LINE
  8
0
  6
CONTINUOUS
 62
1
 10
1181.769530
 20
1131.578596
 11
1181.769530
 21
1187.578596
  0
LINE
  8
0
  6
CONTINUOUS
 62
1
 10
1161.769530
 20
1187.578596
 11
1161.769530
 21
1131.578596
  0
LINE
  8
0
  6
CONTINUOUS
 62
1
 10
1141.769530
 20
1131.578596
 11
1141.769530
 21
1187.578596
  0
LINE
  8
0
  6
CONTINUOUS
 62
1
 10
1121.769530
 20
1187.578596
 11
1121.769530
 21
1131.578596
  0
LINE
  8
0
  6
CONTINUOUS
 62
1
 10
1101.769530
 20
1131.578596
 11
1101.769530
 21
1187.578596
  0
LINE
  8
0
  6
CONTINUOUS
 62
1
 10
1081.769530
 20
1187.578596
 11
1081.769530
 21
1131.578596
  0
LINE
  8
0
  6
CONTINUOUS
 62
1
 10
1061.769530
 20
1131.578596
 11
1061.769530
 21
1187.578596
  0
LINE
  8
0
  6
CONTINUOUS
 62
1
 10
1041.769530
 20
1187.578596
 11
1041.769530
 21
1131.578596
  0
LINE
  8
0
  6
CONTINUOUS
 62
1
 10
1021.769530
 20
1131.578596
 11
1021.769530
 21
1187.578596
  0
LINE
  8
0
  6
CONTINUOUS
 62
1
 10
1001.769530
 20
1187.578596
 11
1001.769530
 21
1131.578596
  0
LINE
  8
0
  6
CONTINUOUS
 62
1
 10
981.769530
 20
1131.578596
 11
981.769530
 21
1187.578596
  0
LINE
  8
0
  6
CONTINUOUS
 62
1
 10
961.769530
 20
1187.578596
 11
961.769530
 21
1131.578596
  0
LINE
  8
0
  6
CONTINUOUS
 62
1
 10
941.769530
 20
1131.578596
 11
941.769530
 21
1187.578596
  0
LINE
  8
0
  6
CONTINUOUS
 62
1
 10
841.769530
 20
1187.578596
 11
841.769530
 21
1131.578596
  0
LINE
  8
0
  6
CONTINUOUS
 62
1
 10
826.769530
 20
1052.578596
 11
1696.769530
 21
1052.578596
  0
LINE
  8
0
  6
CONTINUOUS
 62
1
 10
811.769530
 20
1701.677607
 11
1711.769530
 21
1701.677607
  0
LINE
  8
0
  6
CONTINUOUS
 62
1
 10
811.769515
 20
1833.278522
 11
811.769515
 21
1742.278596
  0
LINE
  8
0
  6
CONTINUOUS
 62
1
 10
1711.769530
 20
1780.278596
 11
812.669509
 21
1780.278596
  0
LINE
  8
0
  6
CONTINUOUS
 62
1
 10
1711.769530
 20
1742.278596
 11
1711.769530
 21
1833.278522
  0
LINE
  8
0
  6
CONTINUOUS
 62
1
 10
812.669509
 20
1751.778596
 11
1711.769530
 21
1751.778596
  0
LINE
  8
0
  6
CONTINUOUS
 62
1
 10
1711.769530
 20
1833.278522
 11
811.769515
 21
1833.278522
  0
LINE
  8
0
  6
CONTINUOUS
 62
1
 10
1711.769530
 20
1818.241303
 11
811.769515
 21
1818.241303
  0
LINE
  8
0
  6
CONTINUOUS
 62
1
 10
1659.269346
 20
1831.302281
 11
1633.269346
 21
1831.302281
  0
LINE
  8
0
  6
CONTINUOUS
 62
1
 10
1659.269346
 20
1825.465809
 11
1633.269346
 21
1825.465809
  0
LINE
  8
0
  6
CONTINUOUS
 62
1
 10
862.269346
 20
1825.465809
 11
862.269346
 21
1831.302281
  0
LINE
  8
0
  6
CONTINUOUS
 62
1
 10
888.269346
 20
1825.465809
 11
888.269346
 21
1831.302281
  0
LINE
  8
0
  6
CONTINUOUS
 62
1
 10
1633.269346
 20
1825.465809
 11
1633.269346
 21
1831.302281
  0
LINE
  8
0
  6
CONTINUOUS
 62
1
 10
1659.269346
 20
1825.465809
 11
1659.269346
 21
1831.302281
  0
LINE
  8
0
  6
CONTINUOUS
 62
1
 10
888.269346
 20
1825.465809
 11
862.269346
 21
1825.465809
  0
LINE
  8
0
  6
CONTINUOUS
 62
1
 10
888.269346
 20
1831.302281
 11
862.269346
 21
1831.302281
  0
LINE
  8
0
  6
CONTINUOUS
 62
1
 10
913.568113
 20
1832.602731
 11
929.103985
 21
1832.602731
  0
LINE
  8
0
  6
CONTINUOUS
 62
1
 10
1191.243985
 20
1830.002731
 11
1177.028113
 21
1830.002731
  0
LINE
  8
0
  6
CONTINUOUS
 62
1
 10
912.240104
 20
1830.465874
 11
911.580104
 21
1832.025874
  0
LINE
  8
0
  6
CONTINUOUS
 62
1
 10
930.431994
 20
1830.465874
 11
931.091994
 21
1832.025874
  0
LINE
  8
0
  6
CONTINUOUS
 62
1
 10
1001.168113
 20
1832.602731
 11
1016.703985
 21
1832.602731
  0
LINE
  8
0
  6
CONTINUOUS
 62
1
 10
1023.728113
 20
1832.602731
 11
1037.943985
 21
1832.602731
  0
LINE
  8
0
  6
CONTINUOUS
 62
1
 10
1044.968113
 20
1832.602731
 11
1060.503985
 21
1832.602731
  0
LINE
  8
0
  6
CONTINUOUS
 62
1
 10
1067.528113
 20
1832.602731
 11
1081.743985
 21
1832.602731
  0
LINE
  8
0
  6
CONTINUOUS
 62
1
 10
1088.768113
 20
1832.602731
 11
1104.303985
 21
1832.602731
  0
LINE
  8
0
  6
CONTINUOUS
 62
1
 10
1111.328113
 20
1832.602731
 11
1125.543985
 21
1832.602731
  0
LINE
  8
0
  6
CONTINUOUS
 62
1
 10
1132.568113
 20
1832.602731
 11
1148.103985
 21
1832.602731
  0
LINE
  8
0
  6
CONTINUOUS
 62
1
 10
1155.128113
 20
1832.602731
 11
1169.343985
 21
1832.602731
  0
LINE
  8
0
  6
CONTINUOUS
 62
1
 10
1176.368113
 20
1832.602731
 11
1191.903985
 21
1832.602731
  0
LINE
  8
0
  6
CONTINUOUS
 62
1
 10
999.840104
 20
1830.465874
 11
999.180104
 21
1832.025874
  0
LINE
  8
0
  6
CONTINUOUS
 62
1
 10
1043.640104
 20
1830.465874
 11
1042.980104
 21
1832.025874
  0
LINE
  8
0
  6
CONTINUOUS
 62
1
 10
1087.440104
 20
1830.465874
 11
1086.780104
 21
1832.025874
  0
LINE
  8
0
  6
CONTINUOUS
 62
1
 10
1131.240104
 20
1830.465874
 11
1130.580104
 21
1832.025874
  0
LINE
  8
0
  6
CONTINUOUS
 62
1
 10
1175.040104
 20
1830.465874
 11
1174.380104
 21
1832.025874
  0
LINE
  8
0
  6
CONTINUOUS
 62
1
 10
1018.031994
 20
1830.465874
 11
1018.691994
 21
1832.025874
  0
LINE
  8
0
  6
CONTINUOUS
 62
1
 10
1061.831994
 20
1830.465874
 11
1062.491994
 21
1832.025874
  0
LINE
  8
0
  6
CONTINUOUS
 62
1
 10
1105.631994
 20
1830.465874
 11
1106.291994
 21
1832.025874
  0
LINE
  8
0
  6
CONTINUOUS
 62
1
 10
1149.431994
 20
1830.465874
 11
1150.091994
 21
1832.025874
  0
LINE
  8
0
  6
CONTINUOUS
 62
1
 10
1193.231994
 20
1830.465874
 11
1193.891994
 21
1832.025874
  0
LINE
  8
0
  6
CONTINUOUS
 62
1
 10
952.331994
 20
1832.139588
 11
952.991994
 21
1830.579588
  0
LINE
  8
0
  6
CONTINUOUS
 62
1
 10
1021.740104
 20
1832.139588
 11
1021.080104
 21
1830.579588
  0
LINE
  8
0
  6
CONTINUOUS
 62
1
 10
1039.931994
 20
1832.139588
 11
1040.591994
 21
1830.579588
  0
LINE
  8
0
  6
CONTINUOUS
 62
1
 10
1065.540104
 20
1832.139588
 11
1064.880104
 21
1830.579588
  0
LINE
  8
0
  6
CONTINUOUS
 62
1
 10
1083.731994
 20
1832.139588
 11
1084.391994
 21
1830.579588
  0
LINE
  8
0
  6
CONTINUOUS
 62
1
 10
1109.340104
 20
1832.139588
 11
1108.680104
 21
1830.579588
  0
LINE
  8
0
  6
CONTINUOUS
 62
1
 10
1127.531994
 20
1832.139588
 11
1128.191994
 21
1830.579588
  0
LINE
  8
0
  6
CONTINUOUS
 62
1
 10
1153.140104
 20
1832.139588
 11
1152.480104
 21
1830.579588
  0
LINE
  8
0
  6
CONTINUOUS
 62
1
 10
1171.331994
 20
1832.139588
 11
1171.991994
 21
1830.579588
  0
LINE
  8
0
  6
CONTINUOUS
 62
1
 10
928.443985
 20
1830.002731
 11
914.228113
 21
1830.002731
  0
LINE
  8
0
  6
CONTINUOUS
 62
1
 10
951.003985
 20
1830.002731
 11
935.468113
 21
1830.002731
  0
LINE
  8
0
  6
CONTINUOUS
 62
1
 10
1016.043985
 20
1830.002731
 11
1001.828113
 21
1830.002731
  0
LINE
  8
0
  6
CONTINUOUS
 62
1
 10
1038.603985
 20
1830.002731
 11
1023.068113
 21
1830.002731
  0
LINE
  8
0
  6
CONTINUOUS
 62
1
 10
1059.843985
 20
1830.002731
 11
1045.628113
 21
1830.002731
  0
LINE
  8
0
  6
CONTINUOUS
 62
1
 10
1082.403985
 20
1830.002731
 11
1066.868113
 21
1830.002731
  0
LINE
  8
0
  6
CONTINUOUS
 62
1
 10
1103.643985
 20
1830.002731
 11
1089.428113
 21
1830.002731
  0
LINE
  8
0
  6
CONTINUOUS
 62
1
 10
1126.203985
 20
1830.002731
 11
1110.668113
 21
1830.002731
  0
LINE
  8
0
  6
CONTINUOUS
 62
1
 10
1147.443985
 20
1830.002731
 11
1133.228113
 21
1830.002731
  0
LINE
  8
0
  6
CONTINUOUS
 62
1
 10
1170.003985
 20
1830.002731
 11
1154.468113
 21
1830.002731
  0
POLYLINE
  8
0
  6
CONTINUOUS
 62
1
 66
1
 70
2
  0
VERTEX
  8
0
 10
913.568113
 20
1832.602731
 70
0
 42
0.066109
  0
VERTEX
  8
0
 10
912.078589
 20
1832.429743
 70
0
 42
0.408197
  0
VERTEX
  8
0
 10
911.580104
 20
1832.025874
 70
0
  0
SEQEND
  0
POLYLINE
  8
0
  6
CONTINUOUS
 62
1
 66
1
 70
2
  0
VERTEX
  8
0
 10
912.240104
 20
1830.465874
 70
0
 42
0.186677
  0
VERTEX
  8
0
 10
914.228113
 20
1830.002731
 70
0
  0
SEQEND
  0
POLYLINE
  8
0
  6
CONTINUOUS
 62
1
 66
1
 70
2
  0
VERTEX
  8
0
 10
928.443985
 20
1830.002731
 70
0
 42
0.186677
  0
VERTEX
  8
0
 10
930.431994
 20
1830.465874
 70
0
  0
SEQEND
  0
POLYLINE
  8
0
  6
CONTINUOUS
 62
1
 66
1
 70
2
  0
VERTEX
  8
0
 10
931.091994
 20
1832.025874
 70
0
 42
0.408197
  0
VERTEX
  8
0
 10
930.593509
 20
1832.429743
 70
0
 42
0.066109
  0
VERTEX
  8
0
 10
929.103985
 20
1832.602731
 70
0
  0
SEQEND
  0
POLYLINE
  8
0
  6
CONTINUOUS
 62
1
 66
1
 70
2
  0
VERTEX
  8
0
 10
934.140104
 20
1832.139588
 70
0
 42
-0.186677
  0
VERTEX
  8
0
 10
936.128113
 20
1832.602731
 70
0
  0
SEQEND
  0
POLYLINE
  8
0
  6
CONTINUOUS
 62
1
 66
1
 70
2
  0
VERTEX
  8
0
 10
950.343985
 20
1832.602731
 70
0
 42
-0.186677
  0
VERTEX
  8
0
 10
952.331994
 20
1832.139588
 70
0
  0
SEQEND
  0
POLYLINE
  8
0
  6
CONTINUOUS
 62
1
 66
1
 70
2
  0
VERTEX
  8
0
 10
952.991994
 20
1830.579588
 70
0
 42
-0.408197
  0
VERTEX
  8
0
 10
952.493509
 20
1830.175720
 70
0
 42
-0.066109
  0
VERTEX
  8
0
 10
951.003985
 20
1830.002731
 70
0
  0
SEQEND
  0
POLYLINE
  8
0
  6
CONTINUOUS
 62
1
 66
1
 70
2
  0
VERTEX
  8
0
 10
935.468113
 20
1830.002731
 70
0
 42
-0.066109
  0
VERTEX
  8
0
 10
933.978589
 20
1830.175720
 70
0
 42
-0.408197
  0
VERTEX
  8
0
 10
933.480104
 20
1830.579588
 70
0
  0
SEQEND
  0
POLYLINE
  8
0
  6
CONTINUOUS
 62
1
 66
1
 70
2
  0
VERTEX
  8
0
 10
1001.168113
 20
1832.602731
 70
0
 42
0.066109
  0
VERTEX
  8
0
 10
999.678589
 20
1832.429743
 70
0
 42
0.408197
  0
VERTEX
  8
0
 10
999.180104
 20
1832.025874
 70
0
  0
SEQEND
  0
POLYLINE
  8
0
  6
CONTINUOUS
 62
1
 66
1
 70
2
  0
VERTEX
  8
0
 10
999.840104
 20
1830.465874
 70
0
 42
0.186677
  0
VERTEX
  8
0
 10
1001.828113
 20
1830.002731
 70
0
  0
SEQEND
  0
POLYLINE
  8
0
  6
CONTINUOUS
 62
1
 66
1
 70
2
  0
VERTEX
  8
0
 10
1016.043985
 20
1830.002731
 70
0
 42
0.186677
  0
VERTEX
  8
0
 10
1018.031994
 20
1830.465874
 70
0
  0
SEQEND
  0
POLYLINE
  8
0
  6
CONTINUOUS
 62
1
 66
1
 70
2
  0
VERTEX
  8
0
 10
1018.691994
 20
1832.025874
 70
0
 42
0.408197
  0
VERTEX
  8
0
 10
1018.193509
 20
1832.429743
 70
0
 42
0.066109
  0
VERTEX
  8
0
 10
1016.703985
 20
1832.602731
 70
0
  0
SEQEND
  0
POLYLINE
  8
0
  6
CONTINUOUS
 62
1
 66
1
 70
2
  0
VERTEX
  8
0
 10
1021.740104
 20
1832.139588
 70
0
 42
-0.186677
  0
VERTEX
  8
0
 10
1023.728113
 20
1832.602731
 70
0
  0
SEQEND
  0
POLYLINE
  8
0
  6
CONTINUOUS
 62
1
 66
1
 70
2
  0
VERTEX
  8
0
 10
1037.943985
 20
1832.602731
 70
0
 42
-0.186677
  0
VERTEX
  8
0
 10
1039.931994
 20
1832.139588
 70
0
  0
SEQEND
  0
POLYLINE
  8
0
  6
CONTINUOUS
 62
1
 66
1
 70
2
  0
VERTEX
  8
0
 10
1040.591994
 20
1830.579588
 70
0
 42
-0.408197
  0
VERTEX
  8
0
 10
1040.093509
 20
1830.175720
 70
0
 42
-0.066109
  0
VERTEX
  8
0
 10
1038.603985
 20
1830.002731
 70
0
  0
SEQEND
  0
POLYLINE
  8
0
  6
CONTINUOUS
 62
1
 66
1
 70
2
  0
VERTEX
  8
0
 10
1023.068113
 20
1830.002731
 70
0
 42
-0.066109
  0
VERTEX
  8
0
 10
1021.578589
 20
1830.175720
 70
0
 42
-0.408197
  0
VERTEX
  8
0
 10
1021.080104
 20
1830.579588
 70
0
  0
SEQEND
  0
POLYLINE
  8
0
  6
CONTINUOUS
 62
1
 66
1
 70
2
  0
VERTEX
  8
0
 10
1043.640104
 20
1830.465874
 70
0
 42
0.186677
  0
VERTEX
  8
0
 10
1045.628113
 20
1830.002731
 70
0
  0
SEQEND
  0
POLYLINE
  8
0
  6
CONTINUOUS
 62
1
 66
1
 70
2
  0
VERTEX
  8
0
 10
1059.843985
 20
1830.002731
 70
0
 42
0.186677
  0
VERTEX
  8
0
 10
1061.831994
 20
1830.465874
 70
0
  0
SEQEND
  0
POLYLINE
  8
0
  6
CONTINUOUS
 62
1
 66
1
 70
2
  0
VERTEX
  8
0
 10
1062.491994
 20
1832.025874
 70
0
 42
0.408197
  0
VERTEX
  8
0
 10
1061.993509
 20
1832.429743
 70
0
 42
0.066109
  0
VERTEX
  8
0
 10
1060.503985
 20
1832.602731
 70
0
  0
SEQEND
  0
POLYLINE
  8
0
  6
CONTINUOUS
 62
1
 66
1
 70
2
  0
VERTEX
  8
0
 10
1044.968113
 20
1832.602731
 70
0
 42
0.066109
  0
VERTEX
  8
0
 10
1043.478589
 20
1832.429743
 70
0
 42
0.408197
  0
VERTEX
  8
0
 10
1042.980104
 20
1832.025874
 70
0
  0
SEQEND
  0
POLYLINE
  8
0
  6
CONTINUOUS
 62
1
 66
1
 70
2
  0
VERTEX
  8
0
 10
1067.528113
 20
1832.602731
 70
0
 42
0.186677
  0
VERTEX
  8
0
 10
1065.540104
 20
1832.139588
 70
0
  0
SEQEND
  0
POLYLINE
  8
0
  6
CONTINUOUS
 62
1
 66
1
 70
2
  0
VERTEX
  8
0
 10
1064.880104
 20
1830.579588
 70
0
 42
0.408197
  0
VERTEX
  8
0
 10
1065.378589
 20
1830.175720
 70
0
 42
0.066109
  0
VERTEX
  8
0
 10
1066.868113
 20
1830.002731
 70
0
  0
SEQEND
  0
POLYLINE
  8
0
  6
CONTINUOUS
 62
1
 66
1
 70
2
  0
VERTEX
  8
0
 10
1082.403985
 20
1830.002731
 70
0
 42
0.066109
  0
VERTEX
  8
0
 10
1083.893509
 20
1830.175720
 70
0
 42
0.408197
  0
VERTEX
  8
0
 10
1084.391994
 20
1830.579588
 70
0
  0
SEQEND
  0
POLYLINE
  8
0
  6
CONTINUOUS
 62
1
 66
1
 70
2
  0
VERTEX
  8
0
 10
1083.731994
 20
1832.139588
 70
0
 42
0.186677
  0
VERTEX
  8
0
 10
1081.743985
 20
1832.602731
 70
0
  0
SEQEND
  0
POLYLINE
  8
0
  6
CONTINUOUS
 62
1
 66
1
 70
2
  0
VERTEX
  8
0
 10
1086.780104
 20
1832.025874
 70
0
 42
-0.408197
  0
VERTEX
  8
0
 10
1087.278589
 20
1832.429743
 70
0
 42
-0.066109
  0
VERTEX
  8
0
 10
1088.768113
 20
1832.602731
 70
0
  0
SEQEND
  0
POLYLINE
  8
0
  6
CONTINUOUS
 62
1
 66
1
 70
2
  0
VERTEX
  8
0
 10
1104.303985
 20
1832.602731
 70
0
 42
-0.066109
  0
VERTEX
  8
0
 10
1105.793509
 20
1832.429743
 70
0
 42
-0.408197
  0
VERTEX
  8
0
 10
1106.291994
 20
1832.025874
 70
0
  0
SEQEND
  0
POLYLINE
  8
0
  6
CONTINUOUS
 62
1
 66
1
 70
2
  0
VERTEX
  8
0
 10
1105.631994
 20
1830.465874
 70
0
 42
-0.186677
  0
VERTEX
  8
0
 10
1103.643985
 20
1830.002731
 70
0
  0
SEQEND
  0
POLYLINE
  8
0
  6
CONTINUOUS
 62
1
 66
1
 70
2
  0
VERTEX
  8
0
 10
1089.428113
 20
1830.002731
 70
0
 42
-0.186677
  0
VERTEX
  8
0
 10
1087.440104
 20
1830.465874
 70
0
  0
SEQEND
  0
POLYLINE
  8
0
  6
CONTINUOUS
 62
1
 66
1
 70
2
  0
VERTEX
  8
0
 10
1108.680104
 20
1830.579588
 70
0
 42
0.408197
  0
VERTEX
  8
0
 10
1109.178589
 20
1830.175720
 70
0
 42
0.066109
  0
VERTEX
  8
0
 10
1110.668113
 20
1830.002731
 70
0
  0
SEQEND
  0
POLYLINE
  8
0
  6
CONTINUOUS
 62
1
 66
1
 70
2
  0
VERTEX
  8
0
 10
1126.203985
 20
1830.002731
 70
0
 42
0.066109
  0
VERTEX
  8
0
 10
1127.693509
 20
1830.175720
 70
0
 42
0.408197
  0
VERTEX
  8
0
 10
1128.191994
 20
1830.579588
 70
0
  0
SEQEND
  0
POLYLINE
  8
0
  6
CONTINUOUS
 62
1
 66
1
 70
2
  0
VERTEX
  8
0
 10
1127.531994
 20
1832.139588
 70
0
 42
0.186677
  0
VERTEX
  8
0
 10
1125.543985
 20
1832.602731
 70
0
  0
SEQEND
  0
POLYLINE
  8
0
  6
CONTINUOUS
 62
1
 66
1
 70
2
  0
VERTEX
  8
0
 10
1111.328113
 20
1832.602731
 70
0
 42
0.186677
  0
VERTEX
  8
0
 10
1109.340104
 20
1832.139588
 70
0
  0
SEQEND
  0
POLYLINE
  8
0
  6
CONTINUOUS
 62
1
 66
1
 70
2
  0
VERTEX
  8
0
 10
1132.568113
 20
1832.602731
 70
0
 42
0.066109
  0
VERTEX
  8
0
 10
1131.078589
 20
1832.429743
 70
0
 42
0.408197
  0
VERTEX
  8
0
 10
1130.580104
 20
1832.025874
 70
0
  0
SEQEND
  0
POLYLINE
  8
0
  6
CONTINUOUS
 62
1
 66
1
 70
2
  0
VERTEX
  8
0
 10
1131.240104
 20
1830.465874
 70
0
 42
0.186677
  0
VERTEX
  8
0
 10
1133.228113
 20
1830.002731
 70
0
  0
SEQEND
  0
POLYLINE
  8
0
  6
CONTINUOUS
 62
1
 66
1
 70
2
  0
VERTEX
  8
0
 10
1147.443985
 20
1830.002731
 70
0
 42
0.186677
  0
VERTEX
  8
0
 10
1149.431994
 20
1830.465874
 70
0
  0
SEQEND
  0
POLYLINE
  8
0
  6
CONTINUOUS
 62
1
 66
1
 70
2
  0
VERTEX
  8
0
 10
1150.091994
 20
1832.025874
 70
0
 42
0.408197
  0
VERTEX
  8
0
 10
1149.593509
 20
1832.429743
 70
0
 42
0.066109
  0
VERTEX
  8
0
 10
1148.103985
 20
1832.602731
 70
0
  0
SEQEND
  0
POLYLINE
  8
0
  6
CONTINUOUS
 62
1
 66
1
 70
2
  0
VERTEX
  8
0
 10
1155.128113
 20
1832.602731
 70
0
 42
0.186677
  0
VERTEX
  8
0
 10
1153.140104
 20
1832.139588
 70
0
  0
SEQEND
  0
POLYLINE
  8
0
  6
CONTINUOUS
 62
1
 66
1
 70
2
  0
VERTEX
  8
0
 10
1152.480104
 20
1830.579588
 70
0
 42
0.408197
  0
VERTEX
  8
0
 10
1152.978589
 20
1830.175720
 70
0
 42
0.066109
  0
VERTEX
  8
0
 10
1154.468113
 20
1830.002731
 70
0
  0
SEQEND
  0
POLYLINE
  8
0
  6
CONTINUOUS
 62
1
 66
1
 70
2
  0
VERTEX
  8
0
 10
1170.003985
 20
1830.002731
 70
0
 42
0.066109
  0
VERTEX
  8
0
 10
1171.493509
 20
1830.175720
 70
0
 42
0.408197
  0
VERTEX
  8
0
 10
1171.991994
 20
1830.579588
 70
0
  0
SEQEND
  0
POLYLINE
  8
0
  6
CONTINUOUS
 62
1
 66
1
 70
2
  0
VERTEX
  8
0
 10
1169.343985
 20
1832.602731
 70
0
 42
-0.186677
  0
VERTEX
  8
0
 10
1171.331994
 20
1832.139588
 70
0
  0
SEQEND
  0
POLYLINE
  8
0
  6
CONTINUOUS
 62
1
 66
1
 70
2
  0
VERTEX
  8
0
 10
1176.368113
 20
1832.602731
 70
0
 42
0.066109
  0
VERTEX
  8
0
 10
1174.878589
 20
1832.429743
 70
0
 42
0.408197
  0
VERTEX
  8
0
 10
1174.380104
 20
1832.025874
 70
0
  0
SEQEND
  0
POLYLINE
  8
0
  6
CONTINUOUS
 62
1
 66
1
 70
2
  0
VERTEX
  8
0
 10
1175.040104
 20
1830.465874
 70
0
 42
0.186677
  0
VERTEX
  8
0
 10
1177.028113
 20
1830.002731
 70
0
  0
SEQEND
  0
POLYLINE
  8
0
  6
CONTINUOUS
 62
1
 66
1
 70
2
  0
VERTEX
  8
0
 10
1191.243985
 20
1830.002731
 70
0
 42
0.186677
  0
VERTEX
  8
0
 10
1193.231994
 20
1830.465874
 70
0
  0
SEQEND
  0
POLYLINE
  8
0
  6
CONTINUOUS
 62
1
 66
1
 70
2
  0
VERTEX
  8
0
 10
1193.891994
 20
1832.025874
 70
0
 42
0.408197
  0
VERTEX
  8
0
 10
1193.393509
 20
1832.429743
 70
0
 42
0.066109
  0
VERTEX
  8
0
 10
1191.903985
 20
1832.602731
 70
0
  0
SEQEND
  0
LINE
  8
0
  6
CONTINUOUS
 62
1
 10
1180.293985
 20
1829.222731
 11
1166.078113
 21
1829.222731
  0
LINE
  8
0
  6
CONTINUOUS
 62
1
 10
968.978113
 20
1826.622731
 11
983.193985
 21
1826.622731
  0
LINE
  8
0
  6
CONTINUOUS
 62
1
 10
1012.778113
 20
1826.622731
 11
1026.993985
 21
1826.622731
  0
LINE
  8
0
  6
CONTINUOUS
 62
1
 10
1034.018113
 20
1826.622731
 11
1049.553985
 21
1826.622731
  0
LINE
  8
0
  6
CONTINUOUS
 62
1
 10
1056.578113
 20
1826.622731
 11
1070.793985
 21
1826.622731
  0
LINE
  8
0
  6
CONTINUOUS
 62
1
 10
1077.818113
 20
1826.622731
 11
1093.353985
 21
1826.622731
  0
LINE
  8
0
  6
CONTINUOUS
 62
1
 10
1100.378113
 20
1826.622731
 11
1114.593985
 21
1826.622731
  0
LINE
  8
0
  6
CONTINUOUS
 62
1
 10
1121.618113
 20
1826.622731
 11
1137.153985
 21
1826.622731
  0
LINE
  8
0
  6
CONTINUOUS
 62
1
 10
1144.178113
 20
1826.622731
 11
1158.393985
 21
1826.622731
  0
LINE
  8
0
  6
CONTINUOUS
 62
1
 10
1165.418113
 20
1826.622731
 11
1180.953985
 21
1826.622731
  0
LINE
  8
0
  6
CONTINUOUS
 62
1
 10
988.890104
 20
1828.759588
 11
988.230104
 21
1827.199588
  0
LINE
  8
0
  6
CONTINUOUS
 62
1
 10
1032.690104
 20
1828.759588
 11
1032.030104
 21
1827.199588
  0
LINE
  8
0
  6
CONTINUOUS
 62
1
 10
1076.490104
 20
1828.759588
 11
1075.830104
 21
1827.199588
  0
LINE
  8
0
  6
CONTINUOUS
 62
1
 10
1120.290104
 20
1828.759588
 11
1119.630104
 21
1827.199588
  0
LINE
  8
0
  6
CONTINUOUS
 62
1
 10
1164.090104
 20
1828.759588
 11
1163.430104
 21
1827.199588
  0
LINE
  8
0
  6
CONTINUOUS
 62
1
 10
1007.081994
 20
1828.759588
 11
1007.741994
 21
1827.199588
  0
LINE
  8
0
  6
CONTINUOUS
 62
1
 10
1050.881994
 20
1828.759588
 11
1051.541994
 21
1827.199588
  0
LINE
  8
0
  6
CONTINUOUS
 62
1
 10
1094.681994
 20
1828.759588
 11
1095.341994
 21
1827.199588
  0
LINE
  8
0
  6
CONTINUOUS
 62
1
 10
1138.481994
 20
1828.759588
 11
1139.141994
 21
1827.199588
  0
LINE
  8
0
  6
CONTINUOUS
 62
1
 10
1182.281994
 20
1828.759588
 11
1182.941994
 21
1827.199588
  0
LINE
  8
0
  6
CONTINUOUS
 62
1
 10
966.990104
 20
1827.085874
 11
966.330104
 21
1828.645874
  0
LINE
  8
0
  6
CONTINUOUS
 62
1
 10
1010.790104
 20
1827.085874
 11
1010.130104
 21
1828.645874
  0
LINE
  8
0
  6
CONTINUOUS
 62
1
 10
1028.981994
 20
1827.085874
 11
1029.641994
 21
1828.645874
  0
LINE
  8
0
  6
CONTINUOUS
 62
1
 10
1054.590104
 20
1827.085874
 11
1053.930104
 21
1828.645874
  0
LINE
  8
0
  6
CONTINUOUS
 62
1
 10
1072.781994
 20
1827.085874
 11
1073.441994
 21
1828.645874
  0
LINE
  8
0
  6
CONTINUOUS
 62
1
 10
1098.390104
 20
1827.085874
 11
1097.730104
 21
1828.645874
  0
LINE
  8
0
  6
CONTINUOUS
 62
1
 10
1116.581994
 20
1827.085874
 11
1117.241994
 21
1828.645874
  0
LINE
  8
0
  6
CONTINUOUS
 62
1
 10
1142.190104
 20
1827.085874
 11
1141.530104
 21
1828.645874
  0
LINE
  8
0
  6
CONTINUOUS
 62
1
 10
1160.381994
 20
1827.085874
 11
1161.041994
 21
1828.645874
  0
LINE
  8
0
  6
CONTINUOUS
 62
1
 10
983.853985
 20
1829.222731
 11
968.318113
 21
1829.222731
  0
LINE
  8
0
  6
CONTINUOUS
 62
1
 10
1005.093985
 20
1829.222731
 11
990.878113
 21
1829.222731
  0
LINE
  8
0
  6
CONTINUOUS
 62
1
 10
1027.653985
 20
1829.222731
 11
1012.118113
 21
1829.222731
  0
LINE
  8
0
  6
CONTINUOUS
 62
1
 10
1048.893985
 20
1829.222731
 11
1034.678113
 21
1829.222731
  0
LINE
  8
0
  6
CONTINUOUS
 62
1
 10
1071.453985
 20
1829.222731
 11
1055.918113
 21
1829.222731
  0
LINE
  8
0
  6
CONTINUOUS
 62
1
 10
1092.693985
 20
1829.222731
 11
1078.478113
 21
1829.222731
  0
LINE
  8
0
  6
CONTINUOUS
 62
1
 10
1115.253985
 20
1829.222731
 11
1099.718113
 21
1829.222731
  0
LINE
  8
0
  6
CONTINUOUS
 62
1
 10
1136.493985
 20
1829.222731
 11
1122.278113
 21
1829.222731
  0
LINE
  8
0
  6
CONTINUOUS
 62
1
 10
1159.053985
 20
1829.222731
 11
1143.518113
 21
1829.222731
  0
POLYLINE
  8
0
  6
CONTINUOUS
 62
1
 66
1
 70
2
  0
VERTEX
  8
0
 10
966.990104
 20
1827.085874
 70
0
 42
0.186677
  0
VERTEX
  8
0
 10
968.978113
 20
1826.622731
 70
0
  0
SEQEND
  0
POLYLINE
  8
0
  6
CONTINUOUS
 62
1
 66
1
 70
2
  0
VERTEX
  8
0
 10
983.193985
 20
1826.622731
 70
0
 42
0.186677
  0
VERTEX
  8
0
 10
985.181994
 20
1827.085874
 70
0
  0
SEQEND
  0
POLYLINE
  8
0
  6
CONTINUOUS
 62
1
 66
1
 70
2
  0
VERTEX
  8
0
 10
985.841994
 20
1828.645874
 70
0
 42
0.408197
  0
VERTEX
  8
0
 10
985.343509
 20
1829.049743
 70
0
 42
0.066109
  0
VERTEX
  8
0
 10
983.853985
 20
1829.222731
 70
0
  0
SEQEND
  0
POLYLINE
  8
0
  6
CONTINUOUS
 62
1
 66
1
 70
2
  0
VERTEX
  8
0
 10
968.318113
 20
1829.222731
 70
0
 42
0.066109
  0
VERTEX
  8
0
 10
966.828589
 20
1829.049743
 70
0
 42
0.408197
  0
VERTEX
  8
0
 10
966.330104
 20
1828.645874
 70
0
  0
SEQEND
  0
POLYLINE
  8
0
  6
CONTINUOUS
 62
1
 66
1
 70
2
  0
VERTEX
  8
0
 10
990.218113
 20
1826.622731
 70
0
 42
-0.066109
  0
VERTEX
  8
0
 10
988.728589
 20
1826.795720
 70
0
 42
-0.408197
  0
VERTEX
  8
0
 10
988.230104
 20
1827.199588
 70
0
  0
SEQEND
  0
POLYLINE
  8
0
  6
CONTINUOUS
 62
1
 66
1
 70
2
  0
VERTEX
  8
0
 10
988.890104
 20
1828.759588
 70
0
 42
-0.186677
  0
VERTEX
  8
0
 10
990.878113
 20
1829.222731
 70
0
  0
SEQEND
  0
POLYLINE
  8
0
  6
CONTINUOUS
 62
1
 66
1
 70
2
  0
VERTEX
  8
0
 10
1005.093985
 20
1829.222731
 70
0
 42
-0.186677
  0
VERTEX
  8
0
 10
1007.081994
 20
1828.759588
 70
0
  0
SEQEND
  0
POLYLINE
  8
0
  6
CONTINUOUS
 62
1
 66
1
 70
2
  0
VERTEX
  8
0
 10
1007.741994
 20
1827.199588
 70
0
 42
-0.408197
  0
VERTEX
  8
0
 10
1007.243509
 20
1826.795720
 70
0
 42
-0.066109
  0
VERTEX
  8
0
 10
1005.753985
 20
1826.622731
 70
0
  0
SEQEND
  0
POLYLINE
  8
0
  6
CONTINUOUS
 62
1
 66
1
 70
2
  0
VERTEX
  8
0
 10
1010.790104
 20
1827.085874
 70
0
 42
0.186677
  0
VERTEX
  8
0
 10
1012.778113
 20
1826.622731
 70
0
  0
SEQEND
  0
POLYLINE
  8
0
  6
CONTINUOUS
 62
1
 66
1
 70
2
  0
VERTEX
  8
0
 10
1026.993985
 20
1826.622731
 70
0
 42
0.186677
  0
VERTEX
  8
0
 10
1028.981994
 20
1827.085874
 70
0
  0
SEQEND
  0
POLYLINE
  8
0
  6
CONTINUOUS
 62
1
 66
1
 70
2
  0
VERTEX
  8
0
 10
1029.641994
 20
1828.645874
 70
0
 42
0.408197
  0
VERTEX
  8
0
 10
1029.143509
 20
1829.049743
 70
0
 42
0.066109
  0
VERTEX
  8
0
 10
1027.653985
 20
1829.222731
 70
0
  0
SEQEND
  0
POLYLINE
  8
0
  6
CONTINUOUS
 62
1
 66
1
 70
2
  0
VERTEX
  8
0
 10
1012.118113
 20
1829.222731
 70
0
 42
0.066109
  0
VERTEX
  8
0
 10
1010.628589
 20
1829.049743
 70
0
 42
0.408197
  0
VERTEX
  8
0
 10
1010.130104
 20
1828.645874
 70
0
  0
SEQEND
  0
POLYLINE
  8
0
  6
CONTINUOUS
 62
1
 66
1
 70
2
  0
VERTEX
  8
0
 10
1032.690104
 20
1828.759588
 70
0
 42
-0.186677
  0
VERTEX
  8
0
 10
1034.678113
 20
1829.222731
 70
0
  0
SEQEND
  0
POLYLINE
  8
0
  6
CONTINUOUS
 62
1
 66
1
 70
2
  0
VERTEX
  8
0
 10
1048.893985
 20
1829.222731
 70
0
 42
-0.186677
  0
VERTEX
  8
0
 10
1050.881994
 20
1828.759588
 70
0
  0
SEQEND
  0
POLYLINE
  8
0
  6
CONTINUOUS
 62
1
 66
1
 70
2
  0
VERTEX
  8
0
 10
1051.541994
 20
1827.199588
 70
0
 42
-0.408197
  0
VERTEX
  8
0
 10
1051.043509
 20
1826.795720
 70
0
 42
-0.066109
  0
VERTEX
  8
0
 10
1049.553985
 20
1826.622731
 70
0
  0
SEQEND
  0
POLYLINE
  8
0
  6
CONTINUOUS
 62
1
 66
1
 70
2
  0
VERTEX
  8
0
 10
1034.018113
 20
1826.622731
 70
0
 42
-0.066109
  0
VERTEX
  8
0
 10
1032.528589
 20
1826.795720
 70
0
 42
-0.408197
  0
VERTEX
  8
0
 10
1032.030104
 20
1827.199588
 70
0
  0
SEQEND
  0
POLYLINE
  8
0
  6
CONTINUOUS
 62
1
 66
1
 70
2
  0
VERTEX
  8
0
 10
1056.578113
 20
1826.622731
 70
0
 42
-0.186677
  0
VERTEX
  8
0
 10
1054.590104
 20
1827.085874
 70
0
  0
SEQEND
  0
POLYLINE
  8
0
  6
CONTINUOUS
 62
1
 66
1
 70
2
  0
VERTEX
  8
0
 10
1053.930104
 20
1828.645874
 70
0
 42
-0.408197
  0
VERTEX
  8
0
 10
1054.428589
 20
1829.049743
 70
0
 42
-0.066109
  0
VERTEX
  8
0
 10
1055.918113
 20
1829.222731
 70
0
  0
SEQEND
  0
POLYLINE
  8
0
  6
CONTINUOUS
 62
1
 66
1
 70
2
  0
VERTEX
  8
0
 10
1071.453985
 20
1829.222731
 70
0
 42
-0.066109
  0
VERTEX
  8
0
 10
1072.943509
 20
1829.049743
 70
0
 42
-0.408197
  0
VERTEX
  8
0
 10
1073.441994
 20
1828.645874
 70
0
  0
SEQEND
  0
POLYLINE
  8
0
  6
CONTINUOUS
 62
1
 66
1
 70
2
  0
VERTEX
  8
0
 10
1072.781994
 20
1827.085874
 70
0
 42
-0.186677
  0
VERTEX
  8
0
 10
1070.793985
 20
1826.622731
 70
0
  0
SEQEND
  0
POLYLINE
  8
0
  6
CONTINUOUS
 62
1
 66
1
 70
2
  0
VERTEX
  8
0
 10
1075.830104
 20
1827.199588
 70
0
 42
0.408197
  0
VERTEX
  8
0
 10
1076.328589
 20
1826.795720
 70
0
 42
0.066109
  0
VERTEX
  8
0
 10
1077.818113
 20
1826.622731
 70
0
  0
SEQEND
  0
POLYLINE
  8
0
  6
CONTINUOUS
 62
1
 66
1
 70
2
  0
VERTEX
  8
0
 10
1093.353985
 20
1826.622731
 70
0
 42
0.066109
  0
VERTEX
  8
0
 10
1094.843509
 20
1826.795720
 70
0
 42
0.408197
  0
VERTEX
  8
0
 10
1095.341994
 20
1827.199588
 70
0
  0
SEQEND
  0
POLYLINE
  8
0
  6
CONTINUOUS
 62
1
 66
1
 70
2
  0
VERTEX
  8
0
 10
1094.681994
 20
1828.759588
 70
0
 42
0.186677
  0
VERTEX
  8
0
 10
1092.693985
 20
1829.222731
 70
0
  0
SEQEND
  0
POLYLINE
  8
0
  6
CONTINUOUS
 62
1
 66
1
 70
2
  0
VERTEX
  8
0
 10
1078.478113
 20
1829.222731
 70
0
 42
0.186677
  0
VERTEX
  8
0
 10
1076.490104
 20
1828.759588
 70
0
  0
SEQEND
  0
POLYLINE
  8
0
  6
CONTINUOUS
 62
1
 66
1
 70
2
  0
VERTEX
  8
0
 10
1097.730104
 20
1828.645874
 70
0
 42
-0.408197
  0
VERTEX
  8
0
 10
1098.228589
 20
1829.049743
 70
0
 42
-0.066109
  0
VERTEX
  8
0
 10
1099.718113
 20
1829.222731
 70
0
  0
SEQEND
  0
POLYLINE
  8
0
  6
CONTINUOUS
 62
1
 66
1
 70
2
  0
VERTEX
  8
0
 10
1115.253985
 20
1829.222731
 70
0
 42
-0.066109
  0
VERTEX
  8
0
 10
1116.743509
 20
1829.049743
 70
0
 42
-0.408197
  0
VERTEX
  8
0
 10
1117.241994
 20
1828.645874
 70
0
  0
SEQEND
  0
POLYLINE
  8
0
  6
CONTINUOUS
 62
1
 66
1
 70
2
  0
VERTEX
  8
0
 10
1116.581994
 20
1827.085874
 70
0
 42
-0.186677
  0
VERTEX
  8
0
 10
1114.593985
 20
1826.622731
 70
0
  0
SEQEND
  0
POLYLINE
  8
0
  6
CONTINUOUS
 62
1
 66
1
 70
2
  0
VERTEX
  8
0
 10
1100.378113
 20
1826.622731
 70
0
 42
-0.186677
  0
VERTEX
  8
0
 10
1098.390104
 20
1827.085874
 70
0
  0
SEQEND
  0
POLYLINE
  8
0
  6
CONTINUOUS
 62
1
 66
1
 70
2
  0
VERTEX
  8
0
 10
1121.618113
 20
1826.622731
 70
0
 42
-0.066109
  0
VERTEX
  8
0
 10
1120.128589
 20
1826.795720
 70
0
 42
-0.408197
  0
VERTEX
  8
0
 10
1119.630104
 20
1827.199588
 70
0
  0
SEQEND
  0
POLYLINE
  8
0
  6
CONTINUOUS
 62
1
 66
1
 70
2
  0
VERTEX
  8
0
 10
1120.290104
 20
1828.759588
 70
0
 42
-0.186677
  0
VERTEX
  8
0
 10
1122.278113
 20
1829.222731
 70
0
  0
SEQEND
  0
POLYLINE
  8
0
  6
CONTINUOUS
 62
1
 66
1
 70
2
  0
VERTEX
  8
0
 10
1136.493985
 20
1829.222731
 70
0
 42
-0.186677
  0
VERTEX
  8
0
 10
1138.481994
 20
1828.759588
 70
0
  0
SEQEND
  0
POLYLINE
  8
0
  6
CONTINUOUS
 62
1
 66
1
 70
2
  0
VERTEX
  8
0
 10
1139.141994
 20
1827.199588
 70
0
 42
-0.408197
  0
VERTEX
  8
0
 10
1138.643509
 20
1826.795720
 70
0
 42
-0.066109
  0
VERTEX
  8
0
 10
1137.153985
 20
1826.622731
 70
0
  0
SEQEND
  0
POLYLINE
  8
0
  6
CONTINUOUS
 62
1
 66
1
 70
2
  0
VERTEX
  8
0
 10
1144.178113
 20
1826.622731
 70
0
 42
-0.186677
  0
VERTEX
  8
0
 10
1142.190104
 20
1827.085874
 70
0
  0
SEQEND
  0
POLYLINE
  8
0
  6
CONTINUOUS
 62
1
 66
1
 70
2
  0
VERTEX
  8
0
 10
1141.530104
 20
1828.645874
 70
0
 42
-0.408197
  0
VERTEX
  8
0
 10
1142.028589
 20
1829.049743
 70
0
 42
-0.066109
  0
VERTEX
  8
0
 10
1143.518113
 20
1829.222731
 70
0
  0
SEQEND
  0
POLYLINE
  8
0
  6
CONTINUOUS
 62
1
 66
1
 70
2
  0
VERTEX
  8
0
 10
1159.053985
 20
1829.222731
 70
0
 42
-0.066109
  0
VERTEX
  8
0
 10
1160.543509
 20
1829.049743
 70
0
 42
-0.408197
  0
VERTEX
  8
0
 10
1161.041994
 20
1828.645874
 70
0
  0
SEQEND
  0
POLYLINE
  8
0
  6
CONTINUOUS
 62
1
 66
1
 70
2
  0
VERTEX
  8
0
 10
1158.393985
 20
1826.622731
 70
0
 42
0.186677
  0
VERTEX
  8
0
 10
1160.381994
 20
1827.085874
 70
0
  0
SEQEND
  0
POLYLINE
  8
0
  6
CONTINUOUS
 62
1
 66
1
 70
2
  0
VERTEX
  8
0
 10
1165.418113
 20
1826.622731
 70
0
 42
-0.066109
  0
VERTEX
  8
0
 10
1163.928589
 20
1826.795720
 70
0
 42
-0.408197
  0
VERTEX
  8
0
 10
1163.430104
 20
1827.199588
 70
0
  0
SEQEND
  0
POLYLINE
  8
0
  6
CONTINUOUS
 62
1
 66
1
 70
2
  0
VERTEX
  8
0
 10
1164.090104
 20
1828.759588
 70
0
 42
-0.186677
  0
VERTEX
  8
0
 10
1166.078113
 20
1829.222731
 70
0
  0
SEQEND
  0
POLYLINE
  8
0
  6
CONTINUOUS
 62
1
 66
1
 70
2
  0
VERTEX
  8
0
 10
1180.293985
 20
1829.222731
 70
0
 42
-0.186677
  0
VERTEX
  8
0
 10
1182.281994
 20
1828.759588
 70
0
  0
SEQEND
  0
POLYLINE
  8
0
  6
CONTINUOUS
 62
1
 66
1
 70
2
  0
VERTEX
  8
0
 10
1182.941994
 20
1827.199588
 70
0
 42
-0.408197
  0
VERTEX
  8
0
 10
1182.443509
 20
1826.795720
 70
0
 42
-0.066109
  0
VERTEX
  8
0
 10
1180.953985
 20
1826.622731
 70
0
  0
SEQEND
  0
LINE
  8
0
  6
CONTINUOUS
 62
1
 10
934.140104
 20
1832.139588
 11
933.480104
 21
1830.579588
  0
LINE
  8
0
  6
CONTINUOUS
 62
1
 10
936.128113
 20
1832.602731
 11
950.343985
 21
1832.602731
  0
LINE
  8
0
  6
CONTINUOUS
 62
1
 10
985.181994
 20
1827.085874
 11
985.841994
 21
1828.645874
  0
LINE
  8
0
  6
CONTINUOUS
 62
1
 10
990.218113
 20
1826.622731
 11
1005.753985
 21
1826.622731
  0
LINE
  8
0
  6
CONTINUOUS
 62
1
 10
1297.444584
 20
1829.222731
 11
1311.660457
 21
1829.222731
  0
LINE
  8
0
  6
CONTINUOUS
 62
1
 10
1333.560457
 20
1826.622731
 11
1319.344584
 21
1826.622731
  0
LINE
  8
0
  6
CONTINUOUS
 62
1
 10
1312.320457
 20
1826.622731
 11
1296.784584
 21
1826.622731
  0
LINE
  8
0
  6
CONTINUOUS
 62
1
 10
1313.648465
 20
1828.759588
 11
1314.308465
 21
1827.199588
  0
LINE
  8
0
  6
CONTINUOUS
 62
1
 10
1295.456575
 20
1828.759588
 11
1294.796575
 21
1827.199588
  0
LINE
  8
0
  6
CONTINUOUS
 62
1
 10
1335.548465
 20
1827.085874
 11
1336.208465
 21
1828.645874
  0
LINE
  8
0
  6
CONTINUOUS
 62
1
 10
1317.356575
 20
1827.085874
 11
1316.696575
 21
1828.645874
  0
LINE
  8
0
  6
CONTINUOUS
 62
1
 10
1318.684584
 20
1829.222731
 11
1334.220457
 21
1829.222731
  0
POLYLINE
  8
0
  6
CONTINUOUS
 62
1
 66
1
 70
2
  0
VERTEX
  8
0
 10
1333.560457
 20
1826.622731
 70
0
 42
0.186677
  0
VERTEX
  8
0
 10
1335.548465
 20
1827.085874
 70
0
  0
SEQEND
  0
POLYLINE
  8
0
  6
CONTINUOUS
 62
1
 66
1
 70
2
  0
VERTEX
  8
0
 10
1336.208465
 20
1828.645874
 70
0
 42
0.408197
  0
VERTEX
  8
0
 10
1335.709980
 20
1829.049743
 70
0
 42
0.066109
  0
VERTEX
  8
0
 10
1334.220457
 20
1829.222731
 70
0
  0
SEQEND
  0
POLYLINE
  8
0
  6
CONTINUOUS
 62
1
 66
1
 70
2
  0
VERTEX
  8
0
 10
1318.684584
 20
1829.222731
 70
0
 42
0.066109
  0
VERTEX
  8
0
 10
1317.195060
 20
1829.049743
 70
0
 42
0.408197
  0
VERTEX
  8
0
 10
1316.696575
 20
1828.645874
 70
0
  0
SEQEND
  0
POLYLINE
  8
0
  6
CONTINUOUS
 62
1
 66
1
 70
2
  0
VERTEX
  8
0
 10
1319.344584
 20
1826.622731
 70
0
 42
-0.186677
  0
VERTEX
  8
0
 10
1317.356575
 20
1827.085874
 70
0
  0
SEQEND
  0
POLYLINE
  8
0
  6
CONTINUOUS
 62
1
 66
1
 70
2
  0
VERTEX
  8
0
 10
1312.320457
 20
1826.622731
 70
0
 42
0.066109
  0
VERTEX
  8
0
 10
1313.809980
 20
1826.795720
 70
0
 42
0.408197
  0
VERTEX
  8
0
 10
1314.308465
 20
1827.199588
 70
0
  0
SEQEND
  0
POLYLINE
  8
0
  6
CONTINUOUS
 62
1
 66
1
 70
2
  0
VERTEX
  8
0
 10
1313.648465
 20
1828.759588
 70
0
 42
0.186677
  0
VERTEX
  8
0
 10
1311.660457
 20
1829.222731
 70
0
  0
SEQEND
  0
POLYLINE
  8
0
  6
CONTINUOUS
 62
1
 66
1
 70
2
  0
VERTEX
  8
0
 10
1297.444584
 20
1829.222731
 70
0
 42
0.186677
  0
VERTEX
  8
0
 10
1295.456575
 20
1828.759588
 70
0
  0
SEQEND
  0
POLYLINE
  8
0
  6
CONTINUOUS
 62
1
 66
1
 70
2
  0
VERTEX
  8
0
 10
1294.796575
 20
1827.199588
 70
0
 42
0.408197
  0
VERTEX
  8
0
 10
1295.295060
 20
1826.795720
 70
0
 42
0.066109
  0
VERTEX
  8
0
 10
1296.784584
 20
1826.622731
 70
0
  0
SEQEND
  0
LINE
  8
0
  6
CONTINUOUS
 62
1
 10
1289.760457
 20
1826.622731
 11
1275.544584
 21
1826.622731
  0
LINE
  8
0
  6
CONTINUOUS
 62
1
 10
1291.748465
 20
1827.085874
 11
1292.408465
 21
1828.645874
  0
LINE
  8
0
  6
CONTINUOUS
 62
1
 10
1273.556575
 20
1827.085874
 11
1272.896575
 21
1828.645874
  0
LINE
  8
0
  6
CONTINUOUS
 62
1
 10
1274.884584
 20
1829.222731
 11
1290.420457
 21
1829.222731
  0
POLYLINE
  8
0
  6
CONTINUOUS
 62
1
 66
1
 70
2
  0
VERTEX
  8
0
 10
1289.760457
 20
1826.622731
 70
0
 42
0.186677
  0
VERTEX
  8
0
 10
1291.748465
 20
1827.085874
 70
0
  0
SEQEND
  0
POLYLINE
  8
0
  6
CONTINUOUS
 62
1
 66
1
 70
2
  0
VERTEX
  8
0
 10
1292.408465
 20
1828.645874
 70
0
 42
0.408197
  0
VERTEX
  8
0
 10
1291.909980
 20
1829.049743
 70
0
 42
0.066109
  0
VERTEX
  8
0
 10
1290.420457
 20
1829.222731
 70
0
  0
SEQEND
  0
POLYLINE
  8
0
  6
CONTINUOUS
 62
1
 66
1
 70
2
  0
VERTEX
  8
0
 10
1274.884584
 20
1829.222731
 70
0
 42
0.066109
  0
VERTEX
  8
0
 10
1273.395060
 20
1829.049743
 70
0
 42
0.408197
  0
VERTEX
  8
0
 10
1272.896575
 20
1828.645874
 70
0
  0
SEQEND
  0
POLYLINE
  8
0
  6
CONTINUOUS
 62
1
 66
1
 70
2
  0
VERTEX
  8
0
 10
1275.544584
 20
1826.622731
 70
0
 42
-0.186677
  0
VERTEX
  8
0
 10
1273.556575
 20
1827.085874
 70
0
  0
SEQEND
  0
LINE
  8
0
  6
CONTINUOUS
 62
1
 10
1341.244584
 20
1829.222731
 11
1355.460457
 21
1829.222731
  0
LINE
  8
0
  6
CONTINUOUS
 62
1
 10
1552.560457
 20
1826.622731
 11
1538.344584
 21
1826.622731
  0
LINE
  8
0
  6
CONTINUOUS
 62
1
 10
1508.760457
 20
1826.622731
 11
1494.544584
 21
1826.622731
  0
LINE
  8
0
  6
CONTINUOUS
 62
1
 10
1487.520457
 20
1826.622731
 11
1471.984584
 21
1826.622731
  0
LINE
  8
0
  6
CONTINUOUS
 62
1
 10
1464.960457
 20
1826.622731
 11
1450.744584
 21
1826.622731
  0
LINE
  8
0
  6
CONTINUOUS
 62
1
 10
1443.720457
 20
1826.622731
 11
1428.184584
 21
1826.622731
  0
LINE
  8
0
  6
CONTINUOUS
 62
1
 10
1421.160457
 20
1826.622731
 11
1406.944584
 21
1826.622731
  0
LINE
  8
0
  6
CONTINUOUS
 62
1
 10
1399.920457
 20
1826.622731
 11
1384.384584
 21
1826.622731
  0
LINE
  8
0
  6
CONTINUOUS
 62
1
 10
1377.360457
 20
1826.622731
 11
1363.144584
 21
1826.622731
  0
LINE
  8
0
  6
CONTINUOUS
 62
1
 10
1356.120457
 20
1826.622731
 11
1340.584584
 21
1826.622731
  0
LINE
  8
0
  6
CONTINUOUS
 62
1
 10
1532.648465
 20
1828.759588
 11
1533.308465
 21
1827.199588
  0
LINE
  8
0
  6
CONTINUOUS
 62
1
 10
1488.848465
 20
1828.759588
 11
1489.508465
 21
1827.199588
  0
LINE
  8
0
  6
CONTINUOUS
 62
1
 10
1445.048465
 20
1828.759588
 11
1445.708465
 21
1827.199588
  0
LINE
  8
0
  6
CONTINUOUS
 62
1
 10
1401.248465
 20
1828.759588
 11
1401.908465
 21
1827.199588
  0
LINE
  8
0
  6
CONTINUOUS
 62
1
 10
1357.448465
 20
1828.759588
 11
1358.108465
 21
1827.199588
  0
LINE
  8
0
  6
CONTINUOUS
 62
1
 10
1514.456575
 20
1828.759588
 11
1513.796575
 21
1827.199588
  0
LINE
  8
0
  6
CONTINUOUS
 62
1
 10
1470.656575
 20
1828.759588
 11
1469.996575
 21
1827.199588
  0
LINE
  8
0
  6
CONTINUOUS
 62
1
 10
1426.856575
 20
1828.759588
 11
1426.196575
 21
1827.199588
  0
LINE
  8
0
  6
CONTINUOUS
 62
1
 10
1383.056575
 20
1828.759588
 11
1382.396575
 21
1827.199588
  0
LINE
  8
0
  6
CONTINUOUS
 62
1
 10
1339.256575
 20
1828.759588
 11
1338.596575
 21
1827.199588
  0
LINE
  8
0
  6
CONTINUOUS
 62
1
 10
1554.548465
 20
1827.085874
 11
1555.208465
 21
1828.645874
  0
LINE
  8
0
  6
CONTINUOUS
 62
1
 10
1510.748465
 20
1827.085874
 11
1511.408465
 21
1828.645874
  0
LINE
  8
0
  6
CONTINUOUS
 62
1
 10
1492.556575
 20
1827.085874
 11
1491.896575
 21
1828.645874
  0
LINE
  8
0
  6
CONTINUOUS
 62
1
 10
1466.948465
 20
1827.085874
 11
1467.608465
 21
1828.645874
  0
LINE
  8
0
  6
CONTINUOUS
 62
1
 10
1448.756575
 20
1827.085874
 11
1448.096575
 21
1828.645874
  0
LINE
  8
0
  6
CONTINUOUS
 62
1
 10
1423.148465
 20
1827.085874
 11
1423.808465
 21
1828.645874
  0
LINE
  8
0
  6
CONTINUOUS
 62
1
 10
1404.956575
 20
1827.085874
 11
1404.296575
 21
1828.645874
  0
LINE
  8
0
  6
CONTINUOUS
 62
1
 10
1379.348465
 20
1827.085874
 11
1380.008465
 21
1828.645874
  0
LINE
  8
0
  6
CONTINUOUS
 62
1
 10
1361.156575
 20
1827.085874
 11
1360.496575
 21
1828.645874
  0
LINE
  8
0
  6
CONTINUOUS
 62
1
 10
1537.684584
 20
1829.222731
 11
1553.220457
 21
1829.222731
  0
LINE
  8
0
  6
CONTINUOUS
 62
1
 10
1516.444584
 20
1829.222731
 11
1530.660457
 21
1829.222731
  0
LINE
  8
0
  6
CONTINUOUS
 62
1
 10
1493.884584
 20
1829.222731
 11
1509.420457
 21
1829.222731
  0
LINE
  8
0
  6
CONTINUOUS
 62
1
 10
1472.644584
 20
1829.222731
 11
1486.860457
 21
1829.222731
  0
LINE
  8
0
  6
CONTINUOUS
 62
1
 10
1450.084584
 20
1829.222731
 11
1465.620457
 21
1829.222731
  0
LINE
  8
0
  6
CONTINUOUS
 62
1
 10
1428.844584
 20
1829.222731
 11
1443.060457
 21
1829.222731
  0
LINE
  8
0
  6
CONTINUOUS
 62
1
 10
1406.284584
 20
1829.222731
 11
1421.820457
 21
1829.222731
  0
LINE
  8
0
  6
CONTINUOUS
 62
1
 10
1385.044584
 20
1829.222731
 11
1399.260457
 21
1829.222731
  0
LINE
  8
0
  6
CONTINUOUS
 62
1
 10
1362.484584
 20
1829.222731
 11
1378.020457
 21
1829.222731
  0
POLYLINE
  8
0
  6
CONTINUOUS
 62
1
 66
1
 70
2
  0
VERTEX
  8
0
 10
1554.548465
 20
1827.085874
 70
0
 42
-0.186677
  0
VERTEX
  8
0
 10
1552.560457
 20
1826.622731
 70
0
  0
SEQEND
  0
POLYLINE
  8
0
  6
CONTINUOUS
 62
1
 66
1
 70
2
  0
VERTEX
  8
0
 10
1538.344584
 20
1826.622731
 70
0
 42
-0.186677
  0
VERTEX
  8
0
 10
1536.356575
 20
1827.085874
 70
0
  0
SEQEND
  0
POLYLINE
  8
0
  6
CONTINUOUS
 62
1
 66
1
 70
2
  0
VERTEX
  8
0
 10
1535.696575
 20
1828.645874
 70
0
 42
-0.408197
  0
VERTEX
  8
0
 10
1536.195060
 20
1829.049743
 70
0
 42
-0.066109
  0
VERTEX
  8
0
 10
1537.684584
 20
1829.222731
 70
0
  0
SEQEND
  0
POLYLINE
  8
0
  6
CONTINUOUS
 62
1
 66
1
 70
2
  0
VERTEX
  8
0
 10
1553.220457
 20
1829.222731
 70
0
 42
-0.066109
  0
VERTEX
  8
0
 10
1554.709980
 20
1829.049743
 70
0
 42
-0.408197
  0
VERTEX
  8
0
 10
1555.208465
 20
1828.645874
 70
0
  0
SEQEND
  0
POLYLINE
  8
0
  6
CONTINUOUS
 62
1
 66
1
 70
2
  0
VERTEX
  8
0
 10
1531.320457
 20
1826.622731
 70
0
 42
0.066109
  0
VERTEX
  8
0
 10
1532.809980
 20
1826.795720
 70
0
 42
0.408197
  0
VERTEX
  8
0
 10
1533.308465
 20
1827.199588
 70
0
  0
SEQEND
  0
POLYLINE
  8
0
  6
CONTINUOUS
 62
1
 66
1
 70
2
  0
VERTEX
  8
0
 10
1532.648465
 20
1828.759588
 70
0
 42
0.186677
  0
VERTEX
  8
0
 10
1530.660457
 20
1829.222731
 70
0
  0
SEQEND
  0
POLYLINE
  8
0
  6
CONTINUOUS
 62
1
 66
1
 70
2
  0
VERTEX
  8
0
 10
1516.444584
 20
1829.222731
 70
0
 42
0.186677
  0
VERTEX
  8
0
 10
1514.456575
 20
1828.759588
 70
0
  0
SEQEND
  0
POLYLINE
  8
0
  6
CONTINUOUS
 62
1
 66
1
 70
2
  0
VERTEX
  8
0
 10
1513.796575
 20
1827.199588
 70
0
 42
0.408197
  0
VERTEX
  8
0
 10
1514.295060
 20
1826.795720
 70
0
 42
0.066109
  0
VERTEX
  8
0
 10
1515.784584
 20
1826.622731
 70
0
  0
SEQEND
  0
POLYLINE
  8
0
  6
CONTINUOUS
 62
1
 66
1
 70
2
  0
VERTEX
  8
0
 10
1510.748465
 20
1827.085874
 70
0
 42
-0.186677
  0
VERTEX
  8
0
 10
1508.760457
 20
1826.622731
 70
0
  0
SEQEND
  0
POLYLINE
  8
0
  6
CONTINUOUS
 62
1
 66
1
 70
2
  0
VERTEX
  8
0
 10
1494.544584
 20
1826.622731
 70
0
 42
-0.186677
  0
VERTEX
  8
0
 10
1492.556575
 20
1827.085874
 70
0
  0
SEQEND
  0
POLYLINE
  8
0
  6
CONTINUOUS
 62
1
 66
1
 70
2
  0
VERTEX
  8
0
 10
1491.896575
 20
1828.645874
 70
0
 42
-0.408197
  0
VERTEX
  8
0
 10
1492.395060
 20
1829.049743
 70
0
 42
-0.066109
  0
VERTEX
  8
0
 10
1493.884584
 20
1829.222731
 70
0
  0
SEQEND
  0
POLYLINE
  8
0
  6
CONTINUOUS
 62
1
 66
1
 70
2
  0
VERTEX
  8
0
 10
1509.420457
 20
1829.222731
 70
0
 42
-0.066109
  0
VERTEX
  8
0
 10
1510.909980
 20
1829.049743
 70
0
 42
-0.408197
  0
VERTEX
  8
0
 10
1511.408465
 20
1828.645874
 70
0
  0
SEQEND
  0
POLYLINE
  8
0
  6
CONTINUOUS
 62
1
 66
1
 70
2
  0
VERTEX
  8
0
 10
1488.848465
 20
1828.759588
 70
0
 42
0.186677
  0
VERTEX
  8
0
 10
1486.860457
 20
1829.222731
 70
0
  0
SEQEND
  0
POLYLINE
  8
0
  6
CONTINUOUS
 62
1
 66
1
 70
2
  0
VERTEX
  8
0
 10
1472.644584
 20
1829.222731
 70
0
 42
0.186677
  0
VERTEX
  8
0
 10
1470.656575
 20
1828.759588
 70
0
  0
SEQEND
  0
POLYLINE
  8
0
  6
CONTINUOUS
 62
1
 66
1
 70
2
  0
VERTEX
  8
0
 10
1469.996575
 20
1827.199588
 70
0
 42
0.408197
  0
VERTEX
  8
0
 10
1470.495060
 20
1826.795720
 70
0
 42
0.066109
  0
VERTEX
  8
0
 10
1471.984584
 20
1826.622731
 70
0
  0
SEQEND
  0
POLYLINE
  8
0
  6
CONTINUOUS
 62
1
 66
1
 70
2
  0
VERTEX
  8
0
 10
1487.520457
 20
1826.622731
 70
0
 42
0.066109
  0
VERTEX
  8
0
 10
1489.009980
 20
1826.795720
 70
0
 42
0.408197
  0
VERTEX
  8
0
 10
1489.508465
 20
1827.199588
 70
0
  0
SEQEND
  0
POLYLINE
  8
0
  6
CONTINUOUS
 62
1
 66
1
 70
2
  0
VERTEX
  8
0
 10
1464.960457
 20
1826.622731
 70
0
 42
0.186677
  0
VERTEX
  8
0
 10
1466.948465
 20
1827.085874
 70
0
  0
SEQEND
  0
POLYLINE
  8
0
  6
CONTINUOUS
 62
1
 66
1
 70
2
  0
VERTEX
  8
0
 10
1467.608465
 20
1828.645874
 70
0
 42
0.408197
  0
VERTEX
  8
0
 10
1467.109980
 20
1829.049743
 70
0
 42
0.066109
  0
VERTEX
  8
0
 10
1465.620457
 20
1829.222731
 70
0
  0
SEQEND
  0
POLYLINE
  8
0
  6
CONTINUOUS
 62
1
 66
1
 70
2
  0
VERTEX
  8
0
 10
1450.084584
 20
1829.222731
 70
0
 42
0.066109
  0
VERTEX
  8
0
 10
1448.595060
 20
1829.049743
 70
0
 42
0.408197
  0
VERTEX
  8
0
 10
1448.096575
 20
1828.645874
 70
0
  0
SEQEND
  0
POLYLINE
  8
0
  6
CONTINUOUS
 62
1
 66
1
 70
2
  0
VERTEX
  8
0
 10
1448.756575
 20
1827.085874
 70
0
 42
0.186677
  0
VERTEX
  8
0
 10
1450.744584
 20
1826.622731
 70
0
  0
SEQEND
  0
POLYLINE
  8
0
  6
CONTINUOUS
 62
1
 66
1
 70
2
  0
VERTEX
  8
0
 10
1445.708465
 20
1827.199588
 70
0
 42
-0.408197
  0
VERTEX
  8
0
 10
1445.209980
 20
1826.795720
 70
0
 42
-0.066109
  0
VERTEX
  8
0
 10
1443.720457
 20
1826.622731
 70
0
  0
SEQEND
  0
POLYLINE
  8
0
  6
CONTINUOUS
 62
1
 66
1
 70
2
  0
VERTEX
  8
0
 10
1428.184584
 20
1826.622731
 70
0
 42
-0.066109
  0
VERTEX
  8
0
 10
1426.695060
 20
1826.795720
 70
0
 42
-0.408197
  0
VERTEX
  8
0
 10
1426.196575
 20
1827.199588
 70
0
  0
SEQEND
  0
POLYLINE
  8
0
  6
CONTINUOUS
 62
1
 66
1
 70
2
  0
VERTEX
  8
0
 10
1426.856575
 20
1828.759588
 70
0
 42
-0.186677
  0
VERTEX
  8
0
 10
1428.844584
 20
1829.222731
 70
0
  0
SEQEND
  0
POLYLINE
  8
0
  6
CONTINUOUS
 62
1
 66
1
 70
2
  0
VERTEX
  8
0
 10
1443.060457
 20
1829.222731
 70
0
 42
-0.186677
  0
VERTEX
  8
0
 10
1445.048465
 20
1828.759588
 70
0
  0
SEQEND
  0
POLYLINE
  8
0
  6
CONTINUOUS
 62
1
 66
1
 70
2
  0
VERTEX
  8
0
 10
1423.808465
 20
1828.645874
 70
0
 42
0.408197
  0
VERTEX
  8
0
 10
1423.309980
 20
1829.049743
 70
0
 42
0.066109
  0
VERTEX
  8
0
 10
1421.820457
 20
1829.222731
 70
0
  0
SEQEND
  0
POLYLINE
  8
0
  6
CONTINUOUS
 62
1
 66
1
 70
2
  0
VERTEX
  8
0
 10
1406.284584
 20
1829.222731
 70
0
 42
0.066109
  0
VERTEX
  8
0
 10
1404.795060
 20
1829.049743
 70
0
 42
0.408197
  0
VERTEX
  8
0
 10
1404.296575
 20
1828.645874
 70
0
  0
SEQEND
  0
POLYLINE
  8
0
  6
CONTINUOUS
 62
1
 66
1
 70
2
  0
VERTEX
  8
0
 10
1404.956575
 20
1827.085874
 70
0
 42
0.186677
  0
VERTEX
  8
0
 10
1406.944584
 20
1826.622731
 70
0
  0
SEQEND
  0
POLYLINE
  8
0
  6
CONTINUOUS
 62
1
 66
1
 70
2
  0
VERTEX
  8
0
 10
1421.160457
 20
1826.622731
 70
0
 42
0.186677
  0
VERTEX
  8
0
 10
1423.148465
 20
1827.085874
 70
0
  0
SEQEND
  0
POLYLINE
  8
0
  6
CONTINUOUS
 62
1
 66
1
 70
2
  0
VERTEX
  8
0
 10
1399.920457
 20
1826.622731
 70
0
 42
0.066109
  0
VERTEX
  8
0
 10
1401.409980
 20
1826.795720
 70
0
 42
0.408197
  0
VERTEX
  8
0
 10
1401.908465
 20
1827.199588
 70
0
  0
SEQEND
  0
POLYLINE
  8
0
  6
CONTINUOUS
 62
1
 66
1
 70
2
  0
VERTEX
  8
0
 10
1401.248465
 20
1828.759588
 70
0
 42
0.186677
  0
VERTEX
  8
0
 10
1399.260457
 20
1829.222731
 70
0
  0
SEQEND
  0
POLYLINE
  8
0
  6
CONTINUOUS
 62
1
 66
1
 70
2
  0
VERTEX
  8
0
 10
1385.044584
 20
1829.222731
 70
0
 42
0.186677
  0
VERTEX
  8
0
 10
1383.056575
 20
1828.759588
 70
0
  0
SEQEND
  0
POLYLINE
  8
0
  6
CONTINUOUS
 62
1
 66
1
 70
2
  0
VERTEX
  8
0
 10
1382.396575
 20
1827.199588
 70
0
 42
0.408197
  0
VERTEX
  8
0
 10
1382.895060
 20
1826.795720
 70
0
 42
0.066109
  0
VERTEX
  8
0
 10
1384.384584
 20
1826.622731
 70
0
  0
SEQEND
  0
POLYLINE
  8
0
  6
CONTINUOUS
 62
1
 66
1
 70
2
  0
VERTEX
  8
0
 10
1377.360457
 20
1826.622731
 70
0
 42
0.186677
  0
VERTEX
  8
0
 10
1379.348465
 20
1827.085874
 70
0
  0
SEQEND
  0
POLYLINE
  8
0
  6
CONTINUOUS
 62
1
 66
1
 70
2
  0
VERTEX
  8
0
 10
1380.008465
 20
1828.645874
 70
0
 42
0.408197
  0
VERTEX
  8
0
 10
1379.509980
 20
1829.049743
 70
0
 42
0.066109
  0
VERTEX
  8
0
 10
1378.020457
 20
1829.222731
 70
0
  0
SEQEND
  0
POLYLINE
  8
0
  6
CONTINUOUS
 62
1
 66
1
 70
2
  0
VERTEX
  8
0
 10
1362.484584
 20
1829.222731
 70
0
 42
0.066109
  0
VERTEX
  8
0
 10
1360.995060
 20
1829.049743
 70
0
 42
0.408197
  0
VERTEX
  8
0
 10
1360.496575
 20
1828.645874
 70
0
  0
SEQEND
  0
POLYLINE
  8
0
  6
CONTINUOUS
 62
1
 66
1
 70
2
  0
VERTEX
  8
0
 10
1363.144584
 20
1826.622731
 70
0
 42
-0.186677
  0
VERTEX
  8
0
 10
1361.156575
 20
1827.085874
 70
0
  0
SEQEND
  0
POLYLINE
  8
0
  6
CONTINUOUS
 62
1
 66
1
 70
2
  0
VERTEX
  8
0
 10
1356.120457
 20
1826.622731
 70
0
 42
0.066109
  0
VERTEX
  8
0
 10
1357.609980
 20
1826.795720
 70
0
 42
0.408197
  0
VERTEX
  8
0
 10
1358.108465
 20
1827.199588
 70
0
  0
SEQEND
  0
POLYLINE
  8
0
  6
CONTINUOUS
 62
1
 66
1
 70
2
  0
VERTEX
  8
0
 10
1357.448465
 20
1828.759588
 70
0
 42
0.186677
  0
VERTEX
  8
0
 10
1355.460457
 20
1829.222731
 70
0
  0
SEQEND
  0
POLYLINE
  8
0
  6
CONTINUOUS
 62
1
 66
1
 70
2
  0
VERTEX
  8
0
 10
1341.244584
 20
1829.222731
 70
0
 42
0.186677
  0
VERTEX
  8
0
 10
1339.256575
 20
1828.759588
 70
0
  0
SEQEND
  0
POLYLINE
  8
0
  6
CONTINUOUS
 62
1
 66
1
 70
2
  0
VERTEX
  8
0
 10
1338.596575
 20
1827.199588
 70
0
 42
0.408197
  0
VERTEX
  8
0
 10
1339.095060
 20
1826.795720
 70
0
 42
0.066109
  0
VERTEX
  8
0
 10
1340.584584
 20
1826.622731
 70
0
  0
SEQEND
  0
LINE
  8
0
  6
CONTINUOUS
 62
1
 10
1536.356575
 20
1827.085874
 11
1535.696575
 21
1828.645874
  0
LINE
  8
0
  6
CONTINUOUS
 62
1
 10
1531.320457
 20
1826.622731
 11
1515.784584
 21
1826.622731
  0
LINE
  8
0
  6
CONTINUOUS
 62
1
 10
1322.643985
 20
1830.002731
 11
1308.428113
 21
1830.002731
  0
LINE
  8
0
  6
CONTINUOUS
 62
1
 10
1286.528113
 20
1832.602731
 11
1300.743985
 21
1832.602731
  0
LINE
  8
0
  6
CONTINUOUS
 62
1
 10
1307.768113
 20
1832.602731
 11
1323.303985
 21
1832.602731
  0
LINE
  8
0
  6
CONTINUOUS
 62
1
 10
1306.440104
 20
1830.465874
 11
1305.780104
 21
1832.025874
  0
LINE
  8
0
  6
CONTINUOUS
 62
1
 10
1324.631994
 20
1830.465874
 11
1325.291994
 21
1832.025874
  0
LINE
  8
0
  6
CONTINUOUS
 62
1
 10
1284.540104
 20
1832.139588
 11
1283.880104
 21
1830.579588
  0
LINE
  8
0
  6
CONTINUOUS
 62
1
 10
1302.731994
 20
1832.139588
 11
1303.391994
 21
1830.579588
  0
LINE
  8
0
  6
CONTINUOUS
 62
1
 10
1301.403985
 20
1830.002731
 11
1285.868113
 21
1830.002731
  0
POLYLINE
  8
0
  6
CONTINUOUS
 62
1
 66
1
 70
2
  0
VERTEX
  8
0
 10
1286.528113
 20
1832.602731
 70
0
 42
0.186677
  0
VERTEX
  8
0
 10
1284.540104
 20
1832.139588
 70
0
  0
SEQEND
  0
POLYLINE
  8
0
  6
CONTINUOUS
 62
1
 66
1
 70
2
  0
VERTEX
  8
0
 10
1283.880104
 20
1830.579588
 70
0
 42
0.408197
  0
VERTEX
  8
0
 10
1284.378589
 20
1830.175720
 70
0
 42
0.066109
  0
VERTEX
  8
0
 10
1285.868113
 20
1830.002731
 70
0
  0
SEQEND
  0
POLYLINE
  8
0
  6
CONTINUOUS
 62
1
 66
1
 70
2
  0
VERTEX
  8
0
 10
1301.403985
 20
1830.002731
 70
0
 42
0.066109
  0
VERTEX
  8
0
 10
1302.893509
 20
1830.175720
 70
0
 42
0.408197
  0
VERTEX
  8
0
 10
1303.391994
 20
1830.579588
 70
0
  0
SEQEND
  0
POLYLINE
  8
0
  6
CONTINUOUS
 62
1
 66
1
 70
2
  0
VERTEX
  8
0
 10
1300.743985
 20
1832.602731
 70
0
 42
-0.186677
  0
VERTEX
  8
0
 10
1302.731994
 20
1832.139588
 70
0
  0
SEQEND
  0
POLYLINE
  8
0
  6
CONTINUOUS
 62
1
 66
1
 70
2
  0
VERTEX
  8
0
 10
1307.768113
 20
1832.602731
 70
0
 42
0.066109
  0
VERTEX
  8
0
 10
1306.278589
 20
1832.429743
 70
0
 42
0.408197
  0
VERTEX
  8
0
 10
1305.780104
 20
1832.025874
 70
0
  0
SEQEND
  0
POLYLINE
  8
0
  6
CONTINUOUS
 62
1
 66
1
 70
2
  0
VERTEX
  8
0
 10
1306.440104
 20
1830.465874
 70
0
 42
0.186677
  0
VERTEX
  8
0
 10
1308.428113
 20
1830.002731
 70
0
  0
SEQEND
  0
POLYLINE
  8
0
  6
CONTINUOUS
 62
1
 66
1
 70
2
  0
VERTEX
  8
0
 10
1322.643985
 20
1830.002731
 70
0
 42
0.186677
  0
VERTEX
  8
0
 10
1324.631994
 20
1830.465874
 70
0
  0
SEQEND
  0
POLYLINE
  8
0
  6
CONTINUOUS
 62
1
 66
1
 70
2
  0
VERTEX
  8
0
 10
1325.291994
 20
1832.025874
 70
0
 42
0.408197
  0
VERTEX
  8
0
 10
1324.793509
 20
1832.429743
 70
0
 42
0.066109
  0
VERTEX
  8
0
 10
1323.303985
 20
1832.602731
 70
0
  0
SEQEND
  0
LINE
  8
0
  6
CONTINUOUS
 62
1
 10
1366.443985
 20
1830.002731
 11
1352.228113
 21
1830.002731
  0
LINE
  8
0
  6
CONTINUOUS
 62
1
 10
1330.328113
 20
1832.602731
 11
1344.543985
 21
1832.602731
  0
LINE
  8
0
  6
CONTINUOUS
 62
1
 10
1351.568113
 20
1832.602731
 11
1367.103985
 21
1832.602731
  0
LINE
  8
0
  6
CONTINUOUS
 62
1
 10
1350.240104
 20
1830.465874
 11
1349.580104
 21
1832.025874
  0
LINE
  8
0
  6
CONTINUOUS
 62
1
 10
1368.431994
 20
1830.465874
 11
1369.091994
 21
1832.025874
  0
LINE
  8
0
  6
CONTINUOUS
 62
1
 10
1328.340104
 20
1832.139588
 11
1327.680104
 21
1830.579588
  0
LINE
  8
0
  6
CONTINUOUS
 62
1
 10
1346.531994
 20
1832.139588
 11
1347.191994
 21
1830.579588
  0
LINE
  8
0
  6
CONTINUOUS
 62
1
 10
1345.203985
 20
1830.002731
 11
1329.668113
 21
1830.002731
  0
POLYLINE
  8
0
  6
CONTINUOUS
 62
1
 66
1
 70
2
  0
VERTEX
  8
0
 10
1330.328113
 20
1832.602731
 70
0
 42
0.186677
  0
VERTEX
  8
0
 10
1328.340104
 20
1832.139588
 70
0
  0
SEQEND
  0
POLYLINE
  8
0
  6
CONTINUOUS
 62
1
 66
1
 70
2
  0
VERTEX
  8
0
 10
1327.680104
 20
1830.579588
 70
0
 42
0.408197
  0
VERTEX
  8
0
 10
1328.178589
 20
1830.175720
 70
0
 42
0.066109
  0
VERTEX
  8
0
 10
1329.668113
 20
1830.002731
 70
0
  0
SEQEND
  0
POLYLINE
  8
0
  6
CONTINUOUS
 62
1
 66
1
 70
2
  0
VERTEX
  8
0
 10
1345.203985
 20
1830.002731
 70
0
 42
0.066109
  0
VERTEX
  8
0
 10
1346.693509
 20
1830.175720
 70
0
 42
0.408197
  0
VERTEX
  8
0
 10
1347.191994
 20
1830.579588
 70
0
  0
SEQEND
  0
POLYLINE
  8
0
  6
CONTINUOUS
 62
1
 66
1
 70
2
  0
VERTEX
  8
0
 10
1344.543985
 20
1832.602731
 70
0
 42
-0.186677
  0
VERTEX
  8
0
 10
1346.531994
 20
1832.139588
 70
0
  0
SEQEND
  0
POLYLINE
  8
0
  6
CONTINUOUS
 62
1
 66
1
 70
2
  0
VERTEX
  8
0
 10
1351.568113
 20
1832.602731
 70
0
 42
0.066109
  0
VERTEX
  8
0
 10
1350.078589
 20
1832.429743
 70
0
 42
0.408197
  0
VERTEX
  8
0
 10
1349.580104
 20
1832.025874
 70
0
  0
SEQEND
  0
POLYLINE
  8
0
  6
CONTINUOUS
 62
1
 66
1
 70
2
  0
VERTEX
  8
0
 10
1350.240104
 20
1830.465874
 70
0
 42
0.186677
  0
VERTEX
  8
0
 10
1352.228113
 20
1830.002731
 70
0
  0
SEQEND
  0
POLYLINE
  8
0
  6
CONTINUOUS
 62
1
 66
1
 70
2
  0
VERTEX
  8
0
 10
1366.443985
 20
1830.002731
 70
0
 42
0.186677
  0
VERTEX
  8
0
 10
1368.431994
 20
1830.465874
 70
0
  0
SEQEND
  0
POLYLINE
  8
0
  6
CONTINUOUS
 62
1
 66
1
 70
2
  0
VERTEX
  8
0
 10
1369.091994
 20
1832.025874
 70
0
 42
0.408197
  0
VERTEX
  8
0
 10
1368.593509
 20
1832.429743
 70
0
 42
0.066109
  0
VERTEX
  8
0
 10
1367.103985
 20
1832.602731
 70
0
  0
SEQEND
  0
LINE
  8
0
  6
CONTINUOUS
 62
1
 10
1410.243985
 20
1830.002731
 11
1396.028113
 21
1830.002731
  0
LINE
  8
0
  6
CONTINUOUS
 62
1
 10
1374.128113
 20
1832.602731
 11
1388.343985
 21
1832.602731
  0
LINE
  8
0
  6
CONTINUOUS
 62
1
 10
1395.368113
 20
1832.602731
 11
1410.903985
 21
1832.602731
  0
LINE
  8
0
  6
CONTINUOUS
 62
1
 10
1394.040104
 20
1830.465874
 11
1393.380104
 21
1832.025874
  0
LINE
  8
0
  6
CONTINUOUS
 62
1
 10
1412.231994
 20
1830.465874
 11
1412.891994
 21
1832.025874
  0
LINE
  8
0
  6
CONTINUOUS
 62
1
 10
1372.140104
 20
1832.139588
 11
1371.480104
 21
1830.579588
  0
LINE
  8
0
  6
CONTINUOUS
 62
1
 10
1390.331994
 20
1832.139588
 11
1390.991994
 21
1830.579588
  0
LINE
  8
0
  6
CONTINUOUS
 62
1
 10
1389.003985
 20
1830.002731
 11
1373.468113
 21
1830.002731
  0
POLYLINE
  8
0
  6
CONTINUOUS
 62
1
 66
1
 70
2
  0
VERTEX
  8
0
 10
1374.128113
 20
1832.602731
 70
0
 42
0.186677
  0
VERTEX
  8
0
 10
1372.140104
 20
1832.139588
 70
0
  0
SEQEND
  0
POLYLINE
  8
0
  6
CONTINUOUS
 62
1
 66
1
 70
2
  0
VERTEX
  8
0
 10
1371.480104
 20
1830.579588
 70
0
 42
0.408197
  0
VERTEX
  8
0
 10
1371.978589
 20
1830.175720
 70
0
 42
0.066109
  0
VERTEX
  8
0
 10
1373.468113
 20
1830.002731
 70
0
  0
SEQEND
  0
POLYLINE
  8
0
  6
CONTINUOUS
 62
1
 66
1
 70
2
  0
VERTEX
  8
0
 10
1389.003985
 20
1830.002731
 70
0
 42
0.066109
  0
VERTEX
  8
0
 10
1390.493509
 20
1830.175720
 70
0
 42
0.408197
  0
VERTEX
  8
0
 10
1390.991994
 20
1830.579588
 70
0
  0
SEQEND
  0
POLYLINE
  8
0
  6
CONTINUOUS
 62
1
 66
1
 70
2
  0
VERTEX
  8
0
 10
1388.343985
 20
1832.602731
 70
0
 42
-0.186677
  0
VERTEX
  8
0
 10
1390.331994
 20
1832.139588
 70
0
  0
SEQEND
  0
POLYLINE
  8
0
  6
CONTINUOUS
 62
1
 66
1
 70
2
  0
VERTEX
  8
0
 10
1395.368113
 20
1832.602731
 70
0
 42
0.066109
  0
VERTEX
  8
0
 10
1393.878589
 20
1832.429743
 70
0
 42
0.408197
  0
VERTEX
  8
0
 10
1393.380104
 20
1832.025874
 70
0
  0
SEQEND
  0
POLYLINE
  8
0
  6
CONTINUOUS
 62
1
 66
1
 70
2
  0
VERTEX
  8
0
 10
1394.040104
 20
1830.465874
 70
0
 42
0.186677
  0
VERTEX
  8
0
 10
1396.028113
 20
1830.002731
 70
0
  0
SEQEND
  0
POLYLINE
  8
0
  6
CONTINUOUS
 62
1
 66
1
 70
2
  0
VERTEX
  8
0
 10
1410.243985
 20
1830.002731
 70
0
 42
0.186677
  0
VERTEX
  8
0
 10
1412.231994
 20
1830.465874
 70
0
  0
SEQEND
  0
POLYLINE
  8
0
  6
CONTINUOUS
 62
1
 66
1
 70
2
  0
VERTEX
  8
0
 10
1412.891994
 20
1832.025874
 70
0
 42
0.408197
  0
VERTEX
  8
0
 10
1412.393509
 20
1832.429743
 70
0
 42
0.066109
  0
VERTEX
  8
0
 10
1410.903985
 20
1832.602731
 70
0
  0
SEQEND
  0
LINE
  8
0
  6
CONTINUOUS
 62
1
 10
1454.043985
 20
1830.002731
 11
1439.828113
 21
1830.002731
  0
LINE
  8
0
  6
CONTINUOUS
 62
1
 10
1417.928113
 20
1832.602731
 11
1432.143985
 21
1832.602731
  0
LINE
  8
0
  6
CONTINUOUS
 62
1
 10
1439.168113
 20
1832.602731
 11
1454.703985
 21
1832.602731
  0
LINE
  8
0
  6
CONTINUOUS
 62
1
 10
1437.840104
 20
1830.465874
 11
1437.180104
 21
1832.025874
  0
LINE
  8
0
  6
CONTINUOUS
 62
1
 10
1456.031994
 20
1830.465874
 11
1456.691994
 21
1832.025874
  0
LINE
  8
0
  6
CONTINUOUS
 62
1
 10
1415.940104
 20
1832.139588
 11
1415.280104
 21
1830.579588
  0
LINE
  8
0
  6
CONTINUOUS
 62
1
 10
1434.131994
 20
1832.139588
 11
1434.791994
 21
1830.579588
  0
LINE
  8
0
  6
CONTINUOUS
 62
1
 10
1432.803985
 20
1830.002731
 11
1417.268113
 21
1830.002731
  0
POLYLINE
  8
0
  6
CONTINUOUS
 62
1
 66
1
 70
2
  0
VERTEX
  8
0
 10
1417.928113
 20
1832.602731
 70
0
 42
0.186677
  0
VERTEX
  8
0
 10
1415.940104
 20
1832.139588
 70
0
  0
SEQEND
  0
POLYLINE
  8
0
  6
CONTINUOUS
 62
1
 66
1
 70
2
  0
VERTEX
  8
0
 10
1415.280104
 20
1830.579588
 70
0
 42
0.408197
  0
VERTEX
  8
0
 10
1415.778589
 20
1830.175720
 70
0
 42
0.066109
  0
VERTEX
  8
0
 10
1417.268113
 20
1830.002731
 70
0
  0
SEQEND
  0
POLYLINE
  8
0
  6
CONTINUOUS
 62
1
 66
1
 70
2
  0
VERTEX
  8
0
 10
1432.803985
 20
1830.002731
 70
0
 42
0.066109
  0
VERTEX
  8
0
 10
1434.293509
 20
1830.175720
 70
0
 42
0.408197
  0
VERTEX
  8
0
 10
1434.791994
 20
1830.579588
 70
0
  0
SEQEND
  0
POLYLINE
  8
0
  6
CONTINUOUS
 62
1
 66
1
 70
2
  0
VERTEX
  8
0
 10
1432.143985
 20
1832.602731
 70
0
 42
-0.186677
  0
VERTEX
  8
0
 10
1434.131994
 20
1832.139588
 70
0
  0
SEQEND
  0
POLYLINE
  8
0
  6
CONTINUOUS
 62
1
 66
1
 70
2
  0
VERTEX
  8
0
 10
1439.168113
 20
1832.602731
 70
0
 42
0.066109
  0
VERTEX
  8
0
 10
1437.678589
 20
1832.429743
 70
0
 42
0.408197
  0
VERTEX
  8
0
 10
1437.180104
 20
1832.025874
 70
0
  0
SEQEND
  0
POLYLINE
  8
0
  6
CONTINUOUS
 62
1
 66
1
 70
2
  0
VERTEX
  8
0
 10
1437.840104
 20
1830.465874
 70
0
 42
0.186677
  0
VERTEX
  8
0
 10
1439.828113
 20
1830.002731
 70
0
  0
SEQEND
  0
POLYLINE
  8
0
  6
CONTINUOUS
 62
1
 66
1
 70
2
  0
VERTEX
  8
0
 10
1454.043985
 20
1830.002731
 70
0
 42
0.186677
  0
VERTEX
  8
0
 10
1456.031994
 20
1830.465874
 70
0
  0
SEQEND
  0
POLYLINE
  8
0
  6
CONTINUOUS
 62
1
 66
1
 70
2
  0
VERTEX
  8
0
 10
1456.691994
 20
1832.025874
 70
0
 42
0.408197
  0
VERTEX
  8
0
 10
1456.193509
 20
1832.429743
 70
0
 42
0.066109
  0
VERTEX
  8
0
 10
1454.703985
 20
1832.602731
 70
0
  0
SEQEND
  0
LINE
  8
0
  6
CONTINUOUS
 62
1
 10
1497.843985
 20
1830.002731
 11
1483.628113
 21
1830.002731
  0
LINE
  8
0
  6
CONTINUOUS
 62
1
 10
1461.728113
 20
1832.602731
 11
1475.943985
 21
1832.602731
  0
LINE
  8
0
  6
CONTINUOUS
 62
1
 10
1482.968113
 20
1832.602731
 11
1498.503985
 21
1832.602731
  0
LINE
  8
0
  6
CONTINUOUS
 62
1
 10
1481.640104
 20
1830.465874
 11
1480.980104
 21
1832.025874
  0
LINE
  8
0
  6
CONTINUOUS
 62
1
 10
1499.831994
 20
1830.465874
 11
1500.491994
 21
1832.025874
  0
LINE
  8
0
  6
CONTINUOUS
 62
1
 10
1459.740104
 20
1832.139588
 11
1459.080104
 21
1830.579588
  0
LINE
  8
0
  6
CONTINUOUS
 62
1
 10
1477.931994
 20
1832.139588
 11
1478.591994
 21
1830.579588
  0
LINE
  8
0
  6
CONTINUOUS
 62
1
 10
1476.603985
 20
1830.002731
 11
1461.068113
 21
1830.002731
  0
POLYLINE
  8
0
  6
CONTINUOUS
 62
1
 66
1
 70
2
  0
VERTEX
  8
0
 10
1461.728113
 20
1832.602731
 70
0
 42
0.186677
  0
VERTEX
  8
0
 10
1459.740104
 20
1832.139588
 70
0
  0
SEQEND
  0
POLYLINE
  8
0
  6
CONTINUOUS
 62
1
 66
1
 70
2
  0
VERTEX
  8
0
 10
1459.080104
 20
1830.579588
 70
0
 42
0.408197
  0
VERTEX
  8
0
 10
1459.578589
 20
1830.175720
 70
0
 42
0.066109
  0
VERTEX
  8
0
 10
1461.068113
 20
1830.002731
 70
0
  0
SEQEND
  0
POLYLINE
  8
0
  6
CONTINUOUS
 62
1
 66
1
 70
2
  0
VERTEX
  8
0
 10
1476.603985
 20
1830.002731
 70
0
 42
0.066109
  0
VERTEX
  8
0
 10
1478.093509
 20
1830.175720
 70
0
 42
0.408197
  0
VERTEX
  8
0
 10
1478.591994
 20
1830.579588
 70
0
  0
SEQEND
  0
POLYLINE
  8
0
  6
CONTINUOUS
 62
1
 66
1
 70
2
  0
VERTEX
  8
0
 10
1475.943985
 20
1832.602731
 70
0
 42
-0.186677
  0
VERTEX
  8
0
 10
1477.931994
 20
1832.139588
 70
0
  0
SEQEND
  0
POLYLINE
  8
0
  6
CONTINUOUS
 62
1
 66
1
 70
2
  0
VERTEX
  8
0
 10
1482.968113
 20
1832.602731
 70
0
 42
0.066109
  0
VERTEX
  8
0
 10
1481.478589
 20
1832.429743
 70
0
 42
0.408197
  0
VERTEX
  8
0
 10
1480.980104
 20
1832.025874
 70
0
  0
SEQEND
  0
POLYLINE
  8
0
  6
CONTINUOUS
 62
1
 66
1
 70
2
  0
VERTEX
  8
0
 10
1481.640104
 20
1830.465874
 70
0
 42
0.186677
  0
VERTEX
  8
0
 10
1483.628113
 20
1830.002731
 70
0
  0
SEQEND
  0
POLYLINE
  8
0
  6
CONTINUOUS
 62
1
 66
1
 70
2
  0
VERTEX
  8
0
 10
1497.843985
 20
1830.002731
 70
0
 42
0.186677
  0
VERTEX
  8
0
 10
1499.831994
 20
1830.465874
 70
0
  0
SEQEND
  0
POLYLINE
  8
0
  6
CONTINUOUS
 62
1
 66
1
 70
2
  0
VERTEX
  8
0
 10
1500.491994
 20
1832.025874
 70
0
 42
0.408197
  0
VERTEX
  8
0
 10
1499.993509
 20
1832.429743
 70
0
 42
0.066109
  0
VERTEX
  8
0
 10
1498.503985
 20
1832.602731
 70
0
  0
SEQEND
  0
LINE
  8
0
  6
CONTINUOUS
 62
1
 10
1541.643985
 20
1830.002731
 11
1527.428113
 21
1830.002731
  0
LINE
  8
0
  6
CONTINUOUS
 62
1
 10
1505.528113
 20
1832.602731
 11
1519.743985
 21
1832.602731
  0
LINE
  8
0
  6
CONTINUOUS
 62
1
 10
1526.768113
 20
1832.602731
 11
1542.303985
 21
1832.602731
  0
LINE
  8
0
  6
CONTINUOUS
 62
1
 10
1525.440104
 20
1830.465874
 11
1524.780104
 21
1832.025874
  0
LINE
  8
0
  6
CONTINUOUS
 62
1
 10
1543.631994
 20
1830.465874
 11
1544.291994
 21
1832.025874
  0
LINE
  8
0
  6
CONTINUOUS
 62
1
 10
1503.540104
 20
1832.139588
 11
1502.880104
 21
1830.579588
  0
LINE
  8
0
  6
CONTINUOUS
 62
1
 10
1521.731994
 20
1832.139588
 11
1522.391994
 21
1830.579588
  0
LINE
  8
0
  6
CONTINUOUS
 62
1
 10
1520.403985
 20
1830.002731
 11
1504.868113
 21
1830.002731
  0
POLYLINE
  8
0
  6
CONTINUOUS
 62
1
 66
1
 70
2
  0
VERTEX
  8
0
 10
1505.528113
 20
1832.602731
 70
0
 42
0.186677
  0
VERTEX
  8
0
 10
1503.540104
 20
1832.139588
 70
0
  0
SEQEND
  0
POLYLINE
  8
0
  6
CONTINUOUS
 62
1
 66
1
 70
2
  0
VERTEX
  8
0
 10
1502.880104
 20
1830.579588
 70
0
 42
0.408197
  0
VERTEX
  8
0
 10
1503.378589
 20
1830.175720
 70
0
 42
0.066109
  0
VERTEX
  8
0
 10
1504.868113
 20
1830.002731
 70
0
  0
SEQEND
  0
POLYLINE
  8
0
  6
CONTINUOUS
 62
1
 66
1
 70
2
  0
VERTEX
  8
0
 10
1520.403985
 20
1830.002731
 70
0
 42
0.066109
  0
VERTEX
  8
0
 10
1521.893509
 20
1830.175720
 70
0
 42
0.408197
  0
VERTEX
  8
0
 10
1522.391994
 20
1830.579588
 70
0
  0
SEQEND
  0
POLYLINE
  8
0
  6
CONTINUOUS
 62
1
 66
1
 70
2
  0
VERTEX
  8
0
 10
1519.743985
 20
1832.602731
 70
0
 42
-0.186677
  0
VERTEX
  8
0
 10
1521.731994
 20
1832.139588
 70
0
  0
SEQEND
  0
POLYLINE
  8
0
  6
CONTINUOUS
 62
1
 66
1
 70
2
  0
VERTEX
  8
0
 10
1526.768113
 20
1832.602731
 70
0
 42
0.066109
  0
VERTEX
  8
0
 10
1525.278589
 20
1832.429743
 70
0
 42
0.408197
  0
VERTEX
  8
0
 10
1524.780104
 20
1832.025874
 70
0
  0
SEQEND
  0
POLYLINE
  8
0
  6
CONTINUOUS
 62
1
 66
1
 70
2
  0
VERTEX
  8
0
 10
1525.440104
 20
1830.465874
 70
0
 42
0.186677
  0
VERTEX
  8
0
 10
1527.428113
 20
1830.002731
 70
0
  0
SEQEND
  0
POLYLINE
  8
0
  6
CONTINUOUS
 62
1
 66
1
 70
2
  0
VERTEX
  8
0
 10
1541.643985
 20
1830.002731
 70
0
 42
0.186677
  0
VERTEX
  8
0
 10
1543.631994
 20
1830.465874
 70
0
  0
SEQEND
  0
POLYLINE
  8
0
  6
CONTINUOUS
 62
1
 66
1
 70
2
  0
VERTEX
  8
0
 10
1544.291994
 20
1832.025874
 70
0
 42
0.408197
  0
VERTEX
  8
0
 10
1543.793509
 20
1832.429743
 70
0
 42
0.066109
  0
VERTEX
  8
0
 10
1542.303985
 20
1832.602731
 70
0
  0
SEQEND
  0
LINE
  8
0
  6
CONTINUOUS
 62
1
 10
1549.328113
 20
1832.602731
 11
1563.543985
 21
1832.602731
  0
LINE
  8
0
  6
CONTINUOUS
 62
1
 10
1547.340104
 20
1832.139588
 11
1546.680104
 21
1830.579588
  0
LINE
  8
0
  6
CONTINUOUS
 62
1
 10
1565.531994
 20
1832.139588
 11
1566.191994
 21
1830.579588
  0
LINE
  8
0
  6
CONTINUOUS
 62
1
 10
1564.203985
 20
1830.002731
 11
1548.668113
 21
1830.002731
  0
POLYLINE
  8
0
  6
CONTINUOUS
 62
1
 66
1
 70
2
  0
VERTEX
  8
0
 10
1549.328113
 20
1832.602731
 70
0
 42
0.186677
  0
VERTEX
  8
0
 10
1547.340104
 20
1832.139588
 70
0
  0
SEQEND
  0
POLYLINE
  8
0
  6
CONTINUOUS
 62
1
 66
1
 70
2
  0
VERTEX
  8
0
 10
1546.680104
 20
1830.579588
 70
0
 42
0.408197
  0
VERTEX
  8
0
 10
1547.178589
 20
1830.175720
 70
0
 42
0.066109
  0
VERTEX
  8
0
 10
1548.668113
 20
1830.002731
 70
0
  0
SEQEND
  0
POLYLINE
  8
0
  6
CONTINUOUS
 62
1
 66
1
 70
2
  0
VERTEX
  8
0
 10
1564.203985
 20
1830.002731
 70
0
 42
0.066109
  0
VERTEX
  8
0
 10
1565.693509
 20
1830.175720
 70
0
 42
0.408197
  0
VERTEX
  8
0
 10
1566.191994
 20
1830.579588
 70
0
  0
SEQEND
  0
POLYLINE
  8
0
  6
CONTINUOUS
 62
1
 66
1
 70
2
  0
VERTEX
  8
0
 10
1563.543985
 20
1832.602731
 70
0
 42
-0.186677
  0
VERTEX
  8
0
 10
1565.531994
 20
1832.139588
 70
0
  0
SEQEND
  0
LINE
  8
0
  6
CONTINUOUS
 62
1
 10
1596.360457
 20
1826.622731
 11
1582.144584
 21
1826.622731
  0
LINE
  8
0
  6
CONTINUOUS
 62
1
 10
1576.448465
 20
1828.759588
 11
1577.108465
 21
1827.199588
  0
LINE
  8
0
  6
CONTINUOUS
 62
1
 10
1558.256575
 20
1828.759588
 11
1557.596575
 21
1827.199588
  0
LINE
  8
0
  6
CONTINUOUS
 62
1
 10
1598.348465
 20
1827.085874
 11
1599.008465
 21
1828.645874
  0
LINE
  8
0
  6
CONTINUOUS
 62
1
 10
1581.484584
 20
1829.222731
 11
1597.020457
 21
1829.222731
  0
LINE
  8
0
  6
CONTINUOUS
 62
1
 10
1560.244584
 20
1829.222731
 11
1574.460457
 21
1829.222731
  0
POLYLINE
  8
0
  6
CONTINUOUS
 62
1
 66
1
 70
2
  0
VERTEX
  8
0
 10
1598.348465
 20
1827.085874
 70
0
 42
-0.186677
  0
VERTEX
  8
0
 10
1596.360457
 20
1826.622731
 70
0
  0
SEQEND
  0
POLYLINE
  8
0
  6
CONTINUOUS
 62
1
 66
1
 70
2
  0
VERTEX
  8
0
 10
1582.144584
 20
1826.622731
 70
0
 42
-0.186677
  0
VERTEX
  8
0
 10
1580.156575
 20
1827.085874
 70
0
  0
SEQEND
  0
POLYLINE
  8
0
  6
CONTINUOUS
 62
1
 66
1
 70
2
  0
VERTEX
  8
0
 10
1579.496575
 20
1828.645874
 70
0
 42
-0.408197
  0
VERTEX
  8
0
 10
1579.995060
 20
1829.049743
 70
0
 42
-0.066109
  0
VERTEX
  8
0
 10
1581.484584
 20
1829.222731
 70
0
  0
SEQEND
  0
POLYLINE
  8
0
  6
CONTINUOUS
 62
1
 66
1
 70
2
  0
VERTEX
  8
0
 10
1597.020457
 20
1829.222731
 70
0
 42
-0.066109
  0
VERTEX
  8
0
 10
1598.509980
 20
1829.049743
 70
0
 42
-0.408197
  0
VERTEX
  8
0
 10
1599.008465
 20
1828.645874
 70
0
  0
SEQEND
  0
POLYLINE
  8
0
  6
CONTINUOUS
 62
1
 66
1
 70
2
  0
VERTEX
  8
0
 10
1575.120457
 20
1826.622731
 70
0
 42
0.066109
  0
VERTEX
  8
0
 10
1576.609980
 20
1826.795720
 70
0
 42
0.408197
  0
VERTEX
  8
0
 10
1577.108465
 20
1827.199588
 70
0
  0
SEQEND
  0
POLYLINE
  8
0
  6
CONTINUOUS
 62
1
 66
1
 70
2
  0
VERTEX
  8
0
 10
1576.448465
 20
1828.759588
 70
0
 42
0.186677
  0
VERTEX
  8
0
 10
1574.460457
 20
1829.222731
 70
0
  0
SEQEND
  0
POLYLINE
  8
0
  6
CONTINUOUS
 62
1
 66
1
 70
2
  0
VERTEX
  8
0
 10
1560.244584
 20
1829.222731
 70
0
 42
0.186677
  0
VERTEX
  8
0
 10
1558.256575
 20
1828.759588
 70
0
  0
SEQEND
  0
POLYLINE
  8
0
  6
CONTINUOUS
 62
1
 66
1
 70
2
  0
VERTEX
  8
0
 10
1557.596575
 20
1827.199588
 70
0
 42
0.408197
  0
VERTEX
  8
0
 10
1558.095060
 20
1826.795720
 70
0
 42
0.066109
  0
VERTEX
  8
0
 10
1559.584584
 20
1826.622731
 70
0
  0
SEQEND
  0
LINE
  8
0
  6
CONTINUOUS
 62
1
 10
1580.156575
 20
1827.085874
 11
1579.496575
 21
1828.645874
  0
LINE
  8
0
  6
CONTINUOUS
 62
1
 10
1575.120457
 20
1826.622731
 11
1559.584584
 21
1826.622731
  0
LINE
  8
0
  6
CONTINUOUS
 62
1
 10
1585.443985
 20
1830.002731
 11
1571.228113
 21
1830.002731
  0
LINE
  8
0
  6
CONTINUOUS
 62
1
 10
1570.568113
 20
1832.602731
 11
1586.103985
 21
1832.602731
  0
LINE
  8
0
  6
CONTINUOUS
 62
1
 10
1569.240104
 20
1830.465874
 11
1568.580104
 21
1832.025874
  0
LINE
  8
0
  6
CONTINUOUS
 62
1
 10
1587.431994
 20
1830.465874
 11
1588.091994
 21
1832.025874
  0
POLYLINE
  8
0
  6
CONTINUOUS
 62
1
 66
1
 70
2
  0
VERTEX
  8
0
 10
1570.568113
 20
1832.602731
 70
0
 42
0.066109
  0
VERTEX
  8
0
 10
1569.078589
 20
1832.429743
 70
0
 42
0.408197
  0
VERTEX
  8
0
 10
1568.580104
 20
1832.025874
 70
0
  0
SEQEND
  0
POLYLINE
  8
0
  6
CONTINUOUS
 62
1
 66
1
 70
2
  0
VERTEX
  8
0
 10
1569.240104
 20
1830.465874
 70
0
 42
0.186677
  0
VERTEX
  8
0
 10
1571.228113
 20
1830.002731
 70
0
  0
SEQEND
  0
POLYLINE
  8
0
  6
CONTINUOUS
 62
1
 66
1
 70
2
  0
VERTEX
  8
0
 10
1585.443985
 20
1830.002731
 70
0
 42
0.186677
  0
VERTEX
  8
0
 10
1587.431994
 20
1830.465874
 70
0
  0
SEQEND
  0
POLYLINE
  8
0
  6
CONTINUOUS
 62
1
 66
1
 70
2
  0
VERTEX
  8
0
 10
1588.091994
 20
1832.025874
 70
0
 42
0.408197
  0
VERTEX
  8
0
 10
1587.593509
 20
1832.429743
 70
0
 42
0.066109
  0
VERTEX
  8
0
 10
1586.103985
 20
1832.602731
 70
0
  0
SEQEND
  0
LINE
  8
0
  6
CONTINUOUS
 62
1
 10
1593.128113
 20
1832.602731
 11
1607.343985
 21
1832.602731
  0
LINE
  8
0
  6
CONTINUOUS
 62
1
 10
1591.140104
 20
1832.139588
 11
1590.480104
 21
1830.579588
  0
LINE
  8
0
  6
CONTINUOUS
 62
1
 10
1609.331994
 20
1832.139588
 11
1609.991994
 21
1830.579588
  0
LINE
  8
0
  6
CONTINUOUS
 62
1
 10
1608.003985
 20
1830.002731
 11
1592.468113
 21
1830.002731
  0
POLYLINE
  8
0
  6
CONTINUOUS
 62
1
 66
1
 70
2
  0
VERTEX
  8
0
 10
1593.128113
 20
1832.602731
 70
0
 42
0.186677
  0
VERTEX
  8
0
 10
1591.140104
 20
1832.139588
 70
0
  0
SEQEND
  0
POLYLINE
  8
0
  6
CONTINUOUS
 62
1
 66
1
 70
2
  0
VERTEX
  8
0
 10
1590.480104
 20
1830.579588
 70
0
 42
0.408197
  0
VERTEX
  8
0
 10
1590.978589
 20
1830.175720
 70
0
 42
0.066109
  0
VERTEX
  8
0
 10
1592.468113
 20
1830.002731
 70
0
  0
SEQEND
  0
POLYLINE
  8
0
  6
CONTINUOUS
 62
1
 66
1
 70
2
  0
VERTEX
  8
0
 10
1608.003985
 20
1830.002731
 70
0
 42
0.066109
  0
VERTEX
  8
0
 10
1609.493509
 20
1830.175720
 70
0
 42
0.408197
  0
VERTEX
  8
0
 10
1609.991994
 20
1830.579588
 70
0
  0
SEQEND
  0
POLYLINE
  8
0
  6
CONTINUOUS
 62
1
 66
1
 70
2
  0
VERTEX
  8
0
 10
1607.343985
 20
1832.602731
 70
0
 42
-0.186677
  0
VERTEX
  8
0
 10
1609.331994
 20
1832.139588
 70
0
  0
SEQEND
  0
LINE
  8
0
  6
CONTINUOUS
 62
1
 10
1620.248465
 20
1828.759588
 11
1620.908465
 21
1827.199588
  0
LINE
  8
0
  6
CONTINUOUS
 62
1
 10
1602.056575
 20
1828.759588
 11
1601.396575
 21
1827.199588
  0
LINE
  8
0
  6
CONTINUOUS
 62
1
 10
1604.044584
 20
1829.222731
 11
1618.260457
 21
1829.222731
  0
POLYLINE
  8
0
  6
CONTINUOUS
 62
1
 66
1
 70
2
  0
VERTEX
  8
0
 10
1618.920457
 20
1826.622731
 70
0
 42
0.066109
  0
VERTEX
  8
0
 10
1620.409980
 20
1826.795720
 70
0
 42
0.408197
  0
VERTEX
  8
0
 10
1620.908465
 20
1827.199588
 70
0
  0
SEQEND
  0
POLYLINE
  8
0
  6
CONTINUOUS
 62
1
 66
1
 70
2
  0
VERTEX
  8
0
 10
1620.248465
 20
1828.759588
 70
0
 42
0.186677
  0
VERTEX
  8
0
 10
1618.260457
 20
1829.222731
 70
0
  0
SEQEND
  0
POLYLINE
  8
0
  6
CONTINUOUS
 62
1
 66
1
 70
2
  0
VERTEX
  8
0
 10
1604.044584
 20
1829.222731
 70
0
 42
0.186677
  0
VERTEX
  8
0
 10
1602.056575
 20
1828.759588
 70
0
  0
SEQEND
  0
POLYLINE
  8
0
  6
CONTINUOUS
 62
1
 66
1
 70
2
  0
VERTEX
  8
0
 10
1601.396575
 20
1827.199588
 70
0
 42
0.408197
  0
VERTEX
  8
0
 10
1601.895060
 20
1826.795720
 70
0
 42
0.066109
  0
VERTEX
  8
0
 10
1603.384584
 20
1826.622731
 70
0
  0
SEQEND
  0
LINE
  8
0
  6
CONTINUOUS
 62
1
 10
1618.920457
 20
1826.622731
 11
1603.384584
 21
1826.622731
  0
LINE
  8
0
  6
CONTINUOUS
 62
1
 10
957.368113
 20
1832.602731
 11
972.903985
 21
1832.602731
  0
LINE
  8
0
  6
CONTINUOUS
 62
1
 10
979.928113
 20
1832.602731
 11
994.143985
 21
1832.602731
  0
LINE
  8
0
  6
CONTINUOUS
 62
1
 10
956.040104
 20
1830.465874
 11
955.380104
 21
1832.025874
  0
LINE
  8
0
  6
CONTINUOUS
 62
1
 10
974.231994
 20
1830.465874
 11
974.891994
 21
1832.025874
  0
LINE
  8
0
  6
CONTINUOUS
 62
1
 10
977.940104
 20
1832.139588
 11
977.280104
 21
1830.579588
  0
LINE
  8
0
  6
CONTINUOUS
 62
1
 10
996.131994
 20
1832.139588
 11
996.791994
 21
1830.579588
  0
LINE
  8
0
  6
CONTINUOUS
 62
1
 10
972.243985
 20
1830.002731
 11
958.028113
 21
1830.002731
  0
LINE
  8
0
  6
CONTINUOUS
 62
1
 10
994.803985
 20
1830.002731
 11
979.268113
 21
1830.002731
  0
POLYLINE
  8
0
  6
CONTINUOUS
 62
1
 66
1
 70
2
  0
VERTEX
  8
0
 10
957.368113
 20
1832.602731
 70
0
 42
0.066109
  0
VERTEX
  8
0
 10
955.878589
 20
1832.429743
 70
0
 42
0.408197
  0
VERTEX
  8
0
 10
955.380104
 20
1832.025874
 70
0
  0
SEQEND
  0
POLYLINE
  8
0
  6
CONTINUOUS
 62
1
 66
1
 70
2
  0
VERTEX
  8
0
 10
956.040104
 20
1830.465874
 70
0
 42
0.186677
  0
VERTEX
  8
0
 10
958.028113
 20
1830.002731
 70
0
  0
SEQEND
  0
POLYLINE
  8
0
  6
CONTINUOUS
 62
1
 66
1
 70
2
  0
VERTEX
  8
0
 10
972.243985
 20
1830.002731
 70
0
 42
0.186677
  0
VERTEX
  8
0
 10
974.231994
 20
1830.465874
 70
0
  0
SEQEND
  0
POLYLINE
  8
0
  6
CONTINUOUS
 62
1
 66
1
 70
2
  0
VERTEX
  8
0
 10
974.891994
 20
1832.025874
 70
0
 42
0.408197
  0
VERTEX
  8
0
 10
974.393509
 20
1832.429743
 70
0
 42
0.066109
  0
VERTEX
  8
0
 10
972.903985
 20
1832.602731
 70
0
  0
SEQEND
  0
POLYLINE
  8
0
  6
CONTINUOUS
 62
1
 66
1
 70
2
  0
VERTEX
  8
0
 10
977.940104
 20
1832.139588
 70
0
 42
-0.186677
  0
VERTEX
  8
0
 10
979.928113
 20
1832.602731
 70
0
  0
SEQEND
  0
POLYLINE
  8
0
  6
CONTINUOUS
 62
1
 66
1
 70
2
  0
VERTEX
  8
0
 10
994.143985
 20
1832.602731
 70
0
 42
-0.186677
  0
VERTEX
  8
0
 10
996.131994
 20
1832.139588
 70
0
  0
SEQEND
  0
POLYLINE
  8
0
  6
CONTINUOUS
 62
1
 66
1
 70
2
  0
VERTEX
  8
0
 10
996.791994
 20
1830.579588
 70
0
 42
-0.408197
  0
VERTEX
  8
0
 10
996.293509
 20
1830.175720
 70
0
 42
-0.066109
  0
VERTEX
  8
0
 10
994.803985
 20
1830.002731
 70
0
  0
SEQEND
  0
POLYLINE
  8
0
  6
CONTINUOUS
 62
1
 66
1
 70
2
  0
VERTEX
  8
0
 10
979.268113
 20
1830.002731
 70
0
 42
-0.066109
  0
VERTEX
  8
0
 10
977.778589
 20
1830.175720
 70
0
 42
-0.408197
  0
VERTEX
  8
0
 10
977.280104
 20
1830.579588
 70
0
  0
SEQEND
  0
LINE
  8
0
  6
CONTINUOUS
 62
1
 10
924.518113
 20
1829.222731
 11
940.053985
 21
1829.222731
  0
LINE
  8
0
  6
CONTINUOUS
 62
1
 10
947.078113
 20
1829.222731
 11
961.293985
 21
1829.222731
  0
LINE
  8
0
  6
CONTINUOUS
 62
1
 10
923.190104
 20
1827.085874
 11
922.530104
 21
1828.645874
  0
LINE
  8
0
  6
CONTINUOUS
 62
1
 10
941.381994
 20
1827.085874
 11
942.041994
 21
1828.645874
  0
LINE
  8
0
  6
CONTINUOUS
 62
1
 10
945.090104
 20
1828.759588
 11
944.430104
 21
1827.199588
  0
LINE
  8
0
  6
CONTINUOUS
 62
1
 10
963.281994
 20
1828.759588
 11
963.941994
 21
1827.199588
  0
LINE
  8
0
  6
CONTINUOUS
 62
1
 10
939.393985
 20
1826.622731
 11
925.178113
 21
1826.622731
  0
LINE
  8
0
  6
CONTINUOUS
 62
1
 10
961.953985
 20
1826.622731
 11
946.418113
 21
1826.622731
  0
POLYLINE
  8
0
  6
CONTINUOUS
 62
1
 66
1
 70
2
  0
VERTEX
  8
0
 10
924.518113
 20
1829.222731
 70
0
 42
0.066109
  0
VERTEX
  8
0
 10
923.028589
 20
1829.049743
 70
0
 42
0.408197
  0
VERTEX
  8
0
 10
922.530104
 20
1828.645874
 70
0
  0
SEQEND
  0
POLYLINE
  8
0
  6
CONTINUOUS
 62
1
 66
1
 70
2
  0
VERTEX
  8
0
 10
923.190104
 20
1827.085874
 70
0
 42
0.186677
  0
VERTEX
  8
0
 10
925.178113
 20
1826.622731
 70
0
  0
SEQEND
  0
POLYLINE
  8
0
  6
CONTINUOUS
 62
1
 66
1
 70
2
  0
VERTEX
  8
0
 10
939.393985
 20
1826.622731
 70
0
 42
0.186677
  0
VERTEX
  8
0
 10
941.381994
 20
1827.085874
 70
0
  0
SEQEND
  0
POLYLINE
  8
0
  6
CONTINUOUS
 62
1
 66
1
 70
2
  0
VERTEX
  8
0
 10
942.041994
 20
1828.645874
 70
0
 42
0.408197
  0
VERTEX
  8
0
 10
941.543509
 20
1829.049743
 70
0
 42
0.066109
  0
VERTEX
  8
0
 10
940.053985
 20
1829.222731
 70
0
  0
SEQEND
  0
POLYLINE
  8
0
  6
CONTINUOUS
 62
1
 66
1
 70
2
  0
VERTEX
  8
0
 10
945.090104
 20
1828.759588
 70
0
 42
-0.186677
  0
VERTEX
  8
0
 10
947.078113
 20
1829.222731
 70
0
  0
SEQEND
  0
POLYLINE
  8
0
  6
CONTINUOUS
 62
1
 66
1
 70
2
  0
VERTEX
  8
0
 10
961.293985
 20
1829.222731
 70
0
 42
-0.186677
  0
VERTEX
  8
0
 10
963.281994
 20
1828.759588
 70
0
  0
SEQEND
  0
POLYLINE
  8
0
  6
CONTINUOUS
 62
1
 66
1
 70
2
  0
VERTEX
  8
0
 10
963.941994
 20
1827.199588
 70
0
 42
-0.408197
  0
VERTEX
  8
0
 10
963.443509
 20
1826.795720
 70
0
 42
-0.066109
  0
VERTEX
  8
0
 10
961.953985
 20
1826.622731
 70
0
  0
SEQEND
  0
POLYLINE
  8
0
  6
CONTINUOUS
 62
1
 66
1
 70
2
  0
VERTEX
  8
0
 10
946.418113
 20
1826.622731
 70
0
 42
-0.066109
  0
VERTEX
  8
0
 10
944.928589
 20
1826.795720
 70
0
 42
-0.408197
  0
VERTEX
  8
0
 10
944.430104
 20
1827.199588
 70
0
  0
SEQEND
  0
LINE
  8
0
  6
CONTINUOUS
 62
1
 10
903.278113
 20
1829.222731
 11
917.493985
 21
1829.222731
  0
LINE
  8
0
  6
CONTINUOUS
 62
1
 10
901.290104
 20
1828.759588
 11
900.630104
 21
1827.199588
  0
LINE
  8
0
  6
CONTINUOUS
 62
1
 10
919.481994
 20
1828.759588
 11
920.141994
 21
1827.199588
  0
LINE
  8
0
  6
CONTINUOUS
 62
1
 10
918.153985
 20
1826.622731
 11
902.618113
 21
1826.622731
  0
POLYLINE
  8
0
  6
CONTINUOUS
 62
1
 66
1
 70
2
  0
VERTEX
  8
0
 10
901.290104
 20
1828.759588
 70
0
 42
-0.186677
  0
VERTEX
  8
0
 10
903.278113
 20
1829.222731
 70
0
  0
SEQEND
  0
POLYLINE
  8
0
  6
CONTINUOUS
 62
1
 66
1
 70
2
  0
VERTEX
  8
0
 10
917.493985
 20
1829.222731
 70
0
 42
-0.186677
  0
VERTEX
  8
0
 10
919.481994
 20
1828.759588
 70
0
  0
SEQEND
  0
POLYLINE
  8
0
  6
CONTINUOUS
 62
1
 66
1
 70
2
  0
VERTEX
  8
0
 10
920.141994
 20
1827.199588
 70
0
 42
-0.408197
  0
VERTEX
  8
0
 10
919.643509
 20
1826.795720
 70
0
 42
-0.066109
  0
VERTEX
  8
0
 10
918.153985
 20
1826.622731
 70
0
  0
SEQEND
  0
POLYLINE
  8
0
  6
CONTINUOUS
 62
1
 66
1
 70
2
  0
VERTEX
  8
0
 10
902.618113
 20
1826.622731
 70
0
 42
-0.066109
  0
VERTEX
  8
0
 10
901.128589
 20
1826.795720
 70
0
 42
-0.408197
  0
VERTEX
  8
0
 10
900.630104
 20
1827.199588
 70
0
  0
SEQEND
  0
LINE
  8
0
  6
CONTINUOUS
 62
1
 10
1235.043985
 20
1823.242731
 11
1220.828113
 21
1823.242731
  0
LINE
  8
0
  6
CONTINUOUS
 62
1
 10
1198.928113
 20
1825.842731
 11
1213.143985
 21
1825.842731
  0
LINE
  8
0
  6
CONTINUOUS
 62
1
 10
1220.168113
 20
1825.842731
 11
1235.703985
 21
1825.842731
  0
LINE
  8
0
  6
CONTINUOUS
 62
1
 10
1218.840104
 20
1823.705874
 11
1218.180104
 21
1825.265874
  0
LINE
  8
0
  6
CONTINUOUS
 62
1
 10
1237.031994
 20
1823.705874
 11
1237.691994
 21
1825.265874
  0
LINE
  8
0
  6
CONTINUOUS
 62
1
 10
1196.940104
 20
1825.379588
 11
1196.280104
 21
1823.819588
  0
LINE
  8
0
  6
CONTINUOUS
 62
1
 10
1215.131994
 20
1825.379588
 11
1215.791994
 21
1823.819588
  0
LINE
  8
0
  6
CONTINUOUS
 62
1
 10
1213.803985
 20
1823.242731
 11
1198.268113
 21
1823.242731
  0
POLYLINE
  8
0
  6
CONTINUOUS
 62
1
 66
1
 70
2
  0
VERTEX
  8
0
 10
1198.928113
 20
1825.842731
 70
0
 42
0.186677
  0
VERTEX
  8
0
 10
1196.940104
 20
1825.379588
 70
0
  0
SEQEND
  0
POLYLINE
  8
0
  6
CONTINUOUS
 62
1
 66
1
 70
2
  0
VERTEX
  8
0
 10
1196.280104
 20
1823.819588
 70
0
 42
0.408197
  0
VERTEX
  8
0
 10
1196.778589
 20
1823.415720
 70
0
 42
0.066109
  0
VERTEX
  8
0
 10
1198.268113
 20
1823.242731
 70
0
  0
SEQEND
  0
POLYLINE
  8
0
  6
CONTINUOUS
 62
1
 66
1
 70
2
  0
VERTEX
  8
0
 10
1213.803985
 20
1823.242731
 70
0
 42
0.066109
  0
VERTEX
  8
0
 10
1215.293509
 20
1823.415720
 70
0
 42
0.408197
  0
VERTEX
  8
0
 10
1215.791994
 20
1823.819588
 70
0
  0
SEQEND
  0
POLYLINE
  8
0
  6
CONTINUOUS
 62
1
 66
1
 70
2
  0
VERTEX
  8
0
 10
1213.143985
 20
1825.842731
 70
0
 42
-0.186677
  0
VERTEX
  8
0
 10
1215.131994
 20
1825.379588
 70
0
  0
SEQEND
  0
POLYLINE
  8
0
  6
CONTINUOUS
 62
1
 66
1
 70
2
  0
VERTEX
  8
0
 10
1220.168113
 20
1825.842731
 70
0
 42
0.066109
  0
VERTEX
  8
0
 10
1218.678589
 20
1825.669743
 70
0
 42
0.408197
  0
VERTEX
  8
0
 10
1218.180104
 20
1825.265874
 70
0
  0
SEQEND
  0
POLYLINE
  8
0
  6
CONTINUOUS
 62
1
 66
1
 70
2
  0
VERTEX
  8
0
 10
1218.840104
 20
1823.705874
 70
0
 42
0.186677
  0
VERTEX
  8
0
 10
1220.828113
 20
1823.242731
 70
0
  0
SEQEND
  0
POLYLINE
  8
0
  6
CONTINUOUS
 62
1
 66
1
 70
2
  0
VERTEX
  8
0
 10
1235.043985
 20
1823.242731
 70
0
 42
0.186677
  0
VERTEX
  8
0
 10
1237.031994
 20
1823.705874
 70
0
  0
SEQEND
  0
POLYLINE
  8
0
  6
CONTINUOUS
 62
1
 66
1
 70
2
  0
VERTEX
  8
0
 10
1237.691994
 20
1825.265874
 70
0
 42
0.408197
  0
VERTEX
  8
0
 10
1237.193509
 20
1825.669743
 70
0
 42
0.066109
  0
VERTEX
  8
0
 10
1235.703985
 20
1825.842731
 70
0
  0
SEQEND
  0
LINE
  8
0
  6
CONTINUOUS
 62
1
 10
1278.843985
 20
1823.242731
 11
1264.628113
 21
1823.242731
  0
LINE
  8
0
  6
CONTINUOUS
 62
1
 10
1242.728113
 20
1825.842731
 11
1256.943985
 21
1825.842731
  0
LINE
  8
0
  6
CONTINUOUS
 62
1
 10
1263.968113
 20
1825.842731
 11
1279.503985
 21
1825.842731
  0
LINE
  8
0
  6
CONTINUOUS
 62
1
 10
1262.640104
 20
1823.705874
 11
1261.980104
 21
1825.265874
  0
LINE
  8
0
  6
CONTINUOUS
 62
1
 10
1280.831994
 20
1823.705874
 11
1281.491994
 21
1825.265874
  0
LINE
  8
0
  6
CONTINUOUS
 62
1
 10
1240.740104
 20
1825.379588
 11
1240.080104
 21
1823.819588
  0
LINE
  8
0
  6
CONTINUOUS
 62
1
 10
1258.931994
 20
1825.379588
 11
1259.591994
 21
1823.819588
  0
LINE
  8
0
  6
CONTINUOUS
 62
1
 10
1257.603985
 20
1823.242731
 11
1242.068113
 21
1823.242731
  0
POLYLINE
  8
0
  6
CONTINUOUS
 62
1
 66
1
 70
2
  0
VERTEX
  8
0
 10
1242.728113
 20
1825.842731
 70
0
 42
0.186677
  0
VERTEX
  8
0
 10
1240.740104
 20
1825.379588
 70
0
  0
SEQEND
  0
POLYLINE
  8
0
  6
CONTINUOUS
 62
1
 66
1
 70
2
  0
VERTEX
  8
0
 10
1240.080104
 20
1823.819588
 70
0
 42
0.408197
  0
VERTEX
  8
0
 10
1240.578589
 20
1823.415720
 70
0
 42
0.066109
  0
VERTEX
  8
0
 10
1242.068113
 20
1823.242731
 70
0
  0
SEQEND
  0
POLYLINE
  8
0
  6
CONTINUOUS
 62
1
 66
1
 70
2
  0
VERTEX
  8
0
 10
1257.603985
 20
1823.242731
 70
0
 42
0.066109
  0
VERTEX
  8
0
 10
1259.093509
 20
1823.415720
 70
0
 42
0.408197
  0
VERTEX
  8
0
 10
1259.591994
 20
1823.819588
 70
0
  0
SEQEND
  0
POLYLINE
  8
0
  6
CONTINUOUS
 62
1
 66
1
 70
2
  0
VERTEX
  8
0
 10
1256.943985
 20
1825.842731
 70
0
 42
-0.186677
  0
VERTEX
  8
0
 10
1258.931994
 20
1825.379588
 70
0
  0
SEQEND
  0
POLYLINE
  8
0
  6
CONTINUOUS
 62
1
 66
1
 70
2
  0
VERTEX
  8
0
 10
1263.968113
 20
1825.842731
 70
0
 42
0.066109
  0
VERTEX
  8
0
 10
1262.478589
 20
1825.669743
 70
0
 42
0.408197
  0
VERTEX
  8
0
 10
1261.980104
 20
1825.265874
 70
0
  0
SEQEND
  0
POLYLINE
  8
0
  6
CONTINUOUS
 62
1
 66
1
 70
2
  0
VERTEX
  8
0
 10
1262.640104
 20
1823.705874
 70
0
 42
0.186677
  0
VERTEX
  8
0
 10
1264.628113
 20
1823.242731
 70
0
  0
SEQEND
  0
POLYLINE
  8
0
  6
CONTINUOUS
 62
1
 66
1
 70
2
  0
VERTEX
  8
0
 10
1278.843985
 20
1823.242731
 70
0
 42
0.186677
  0
VERTEX
  8
0
 10
1280.831994
 20
1823.705874
 70
0
  0
SEQEND
  0
POLYLINE
  8
0
  6
CONTINUOUS
 62
1
 66
1
 70
2
  0
VERTEX
  8
0
 10
1281.491994
 20
1825.265874
 70
0
 42
0.408197
  0
VERTEX
  8
0
 10
1280.993509
 20
1825.669743
 70
0
 42
0.066109
  0
VERTEX
  8
0
 10
1279.503985
 20
1825.842731
 70
0
  0
SEQEND
  0
LINE
  8
0
  6
CONTINUOUS
 62
1
 10
913.568113
 20
1825.842731
 11
929.103985
 21
1825.842731
  0
LINE
  8
0
  6
CONTINUOUS
 62
1
 10
1191.243985
 20
1823.242731
 11
1177.028113
 21
1823.242731
  0
LINE
  8
0
  6
CONTINUOUS
 62
1
 10
912.240104
 20
1823.705874
 11
911.580104
 21
1825.265874
  0
LINE
  8
0
  6
CONTINUOUS
 62
1
 10
930.431994
 20
1823.705874
 11
931.091994
 21
1825.265874
  0
LINE
  8
0
  6
CONTINUOUS
 62
1
 10
1001.168113
 20
1825.842731
 11
1016.703985
 21
1825.842731
  0
LINE
  8
0
  6
CONTINUOUS
 62
1
 10
1023.728113
 20
1825.842731
 11
1037.943985
 21
1825.842731
  0
LINE
  8
0
  6
CONTINUOUS
 62
1
 10
1044.968113
 20
1825.842731
 11
1060.503985
 21
1825.842731
  0
LINE
  8
0
  6
CONTINUOUS
 62
1
 10
1067.528113
 20
1825.842731
 11
1081.743985
 21
1825.842731
  0
LINE
  8
0
  6
CONTINUOUS
 62
1
 10
1088.768113
 20
1825.842731
 11
1104.303985
 21
1825.842731
  0
LINE
  8
0
  6
CONTINUOUS
 62
1
 10
1111.328113
 20
1825.842731
 11
1125.543985
 21
1825.842731
  0
LINE
  8
0
  6
CONTINUOUS
 62
1
 10
1132.568113
 20
1825.842731
 11
1148.103985
 21
1825.842731
  0
LINE
  8
0
  6
CONTINUOUS
 62
1
 10
1155.128113
 20
1825.842731
 11
1169.343985
 21
1825.842731
  0
LINE
  8
0
  6
CONTINUOUS
 62
1
 10
1176.368113
 20
1825.842731
 11
1191.903985
 21
1825.842731
  0
LINE
  8
0
  6
CONTINUOUS
 62
1
 10
999.840104
 20
1823.705874
 11
999.180104
 21
1825.265874
  0
LINE
  8
0
  6
CONTINUOUS
 62
1
 10
1043.640104
 20
1823.705874
 11
1042.980104
 21
1825.265874
  0
LINE
  8
0
  6
CONTINUOUS
 62
1
 10
1087.440104
 20
1823.705874
 11
1086.780104
 21
1825.265874
  0
LINE
  8
0
  6
CONTINUOUS
 62
1
 10
1131.240104
 20
1823.705874
 11
1130.580104
 21
1825.265874
  0
LINE
  8
0
  6
CONTINUOUS
 62
1
 10
1175.040104
 20
1823.705874
 11
1174.380104
 21
1825.265874
  0
LINE
  8
0
  6
CONTINUOUS
 62
1
 10
1018.031994
 20
1823.705874
 11
1018.691994
 21
1825.265874
  0
LINE
  8
0
  6
CONTINUOUS
 62
1
 10
1061.831994
 20
1823.705874
 11
1062.491994
 21
1825.265874
  0
LINE
  8
0
  6
CONTINUOUS
 62
1
 10
1105.631994
 20
1823.705874
 11
1106.291994
 21
1825.265874
  0
LINE
  8
0
  6
CONTINUOUS
 62
1
 10
1149.431994
 20
1823.705874
 11
1150.091994
 21
1825.265874
  0
LINE
  8
0
  6
CONTINUOUS
 62
1
 10
1193.231994
 20
1823.705874
 11
1193.891994
 21
1825.265874
  0
LINE
  8
0
  6
CONTINUOUS
 62
1
 10
952.331994
 20
1825.379588
 11
952.991994
 21
1823.819588
  0
LINE
  8
0
  6
CONTINUOUS
 62
1
 10
1021.740104
 20
1825.379588
 11
1021.080104
 21
1823.819588
  0
LINE
  8
0
  6
CONTINUOUS
 62
1
 10
1039.931994
 20
1825.379588
 11
1040.591994
 21
1823.819588
  0
LINE
  8
0
  6
CONTINUOUS
 62
1
 10
1065.540104
 20
1825.379588
 11
1064.880104
 21
1823.819588
  0
LINE
  8
0
  6
CONTINUOUS
 62
1
 10
1083.731994
 20
1825.379588
 11
1084.391994
 21
1823.819588
  0
LINE
  8
0
  6
CONTINUOUS
 62
1
 10
1109.340104
 20
1825.379588
 11
1108.680104
 21
1823.819588
  0
LINE
  8
0
  6
CONTINUOUS
 62
1
 10
1127.531994
 20
1825.379588
 11
1128.191994
 21
1823.819588
  0
LINE
  8
0
  6
CONTINUOUS
 62
1
 10
1153.140104
 20
1825.379588
 11
1152.480104
 21
1823.819588
  0
LINE
  8
0
  6
CONTINUOUS
 62
1
 10
1171.331994
 20
1825.379588
 11
1171.991994
 21
1823.819588
  0
LINE
  8
0
  6
CONTINUOUS
 62
1
 10
928.443985
 20
1823.242731
 11
914.228113
 21
1823.242731
  0
LINE
  8
0
  6
CONTINUOUS
 62
1
 10
951.003985
 20
1823.242731
 11
935.468113
 21
1823.242731
  0
LINE
  8
0
  6
CONTINUOUS
 62
1
 10
1016.043985
 20
1823.242731
 11
1001.828113
 21
1823.242731
  0
LINE
  8
0
  6
CONTINUOUS
 62
1
 10
1038.603985
 20
1823.242731
 11
1023.068113
 21
1823.242731
  0
LINE
  8
0
  6
CONTINUOUS
 62
1
 10
1059.843985
 20
1823.242731
 11
1045.628113
 21
1823.242731
  0
LINE
  8
0
  6
CONTINUOUS
 62
1
 10
1082.403985
 20
1823.242731
 11
1066.868113
 21
1823.242731
  0
LINE
  8
0
  6
CONTINUOUS
 62
1
 10
1103.643985
 20
1823.242731
 11
1089.428113
 21
1823.242731
  0
LINE
  8
0
  6
CONTINUOUS
 62
1
 10
1126.203985
 20
1823.242731
 11
1110.668113
 21
1823.242731
  0
LINE
  8
0
  6
CONTINUOUS
 62
1
 10
1147.443985
 20
1823.242731
 11
1133.228113
 21
1823.242731
  0
LINE
  8
0
  6
CONTINUOUS
 62
1
 10
1170.003985
 20
1823.242731
 11
1154.468113
 21
1823.242731
  0
POLYLINE
  8
0
  6
CONTINUOUS
 62
1
 66
1
 70
2
  0
VERTEX
  8
0
 10
913.568113
 20
1825.842731
 70
0
 42
0.066109
  0
VERTEX
  8
0
 10
912.078589
 20
1825.669743
 70
0
 42
0.408197
  0
VERTEX
  8
0
 10
911.580104
 20
1825.265874
 70
0
  0
SEQEND
  0
POLYLINE
  8
0
  6
CONTINUOUS
 62
1
 66
1
 70
2
  0
VERTEX
  8
0
 10
912.240104
 20
1823.705874
 70
0
 42
0.186677
  0
VERTEX
  8
0
 10
914.228113
 20
1823.242731
 70
0
  0
SEQEND
  0
POLYLINE
  8
0
  6
CONTINUOUS
 62
1
 66
1
 70
2
  0
VERTEX
  8
0
 10
928.443985
 20
1823.242731
 70
0
 42
0.186677
  0
VERTEX
  8
0
 10
930.431994
 20
1823.705874
 70
0
  0
SEQEND
  0
POLYLINE
  8
0
  6
CONTINUOUS
 62
1
 66
1
 70
2
  0
VERTEX
  8
0
 10
931.091994
 20
1825.265874
 70
0
 42
0.408197
  0
VERTEX
  8
0
 10
930.593509
 20
1825.669743
 70
0
 42
0.066109
  0
VERTEX
  8
0
 10
929.103985
 20
1825.842731
 70
0
  0
SEQEND
  0
POLYLINE
  8
0
  6
CONTINUOUS
 62
1
 66
1
 70
2
  0
VERTEX
  8
0
 10
934.140104
 20
1825.379588
 70
0
 42
-0.186677
  0
VERTEX
  8
0
 10
936.128113
 20
1825.842731
 70
0
  0
SEQEND
  0
POLYLINE
  8
0
  6
CONTINUOUS
 62
1
 66
1
 70
2
  0
VERTEX
  8
0
 10
950.343985
 20
1825.842731
 70
0
 42
-0.186677
  0
VERTEX
  8
0
 10
952.331994
 20
1825.379588
 70
0
  0
SEQEND
  0
POLYLINE
  8
0
  6
CONTINUOUS
 62
1
 66
1
 70
2
  0
VERTEX
  8
0
 10
952.991994
 20
1823.819588
 70
0
 42
-0.408197
  0
VERTEX
  8
0
 10
952.493509
 20
1823.415720
 70
0
 42
-0.066109
  0
VERTEX
  8
0
 10
951.003985
 20
1823.242731
 70
0
  0
SEQEND
  0
POLYLINE
  8
0
  6
CONTINUOUS
 62
1
 66
1
 70
2
  0
VERTEX
  8
0
 10
935.468113
 20
1823.242731
 70
0
 42
-0.066109
  0
VERTEX
  8
0
 10
933.978589
 20
1823.415720
 70
0
 42
-0.408197
  0
VERTEX
  8
0
 10
933.480104
 20
1823.819588
 70
0
  0
SEQEND
  0
POLYLINE
  8
0
  6
CONTINUOUS
 62
1
 66
1
 70
2
  0
VERTEX
  8
0
 10
1001.168113
 20
1825.842731
 70
0
 42
0.066109
  0
VERTEX
  8
0
 10
999.678589
 20
1825.669743
 70
0
 42
0.408197
  0
VERTEX
  8
0
 10
999.180104
 20
1825.265874
 70
0
  0
SEQEND
  0
POLYLINE
  8
0
  6
CONTINUOUS
 62
1
 66
1
 70
2
  0
VERTEX
  8
0
 10
999.840104
 20
1823.705874
 70
0
 42
0.186677
  0
VERTEX
  8
0
 10
1001.828113
 20
1823.242731
 70
0
  0
SEQEND
  0
POLYLINE
  8
0
  6
CONTINUOUS
 62
1
 66
1
 70
2
  0
VERTEX
  8
0
 10
1016.043985
 20
1823.242731
 70
0
 42
0.186677
  0
VERTEX
  8
0
 10
1018.031994
 20
1823.705874
 70
0
  0
SEQEND
  0
POLYLINE
  8
0
  6
CONTINUOUS
 62
1
 66
1
 70
2
  0
VERTEX
  8
0
 10
1018.691994
 20
1825.265874
 70
0
 42
0.408197
  0
VERTEX
  8
0
 10
1018.193509
 20
1825.669743
 70
0
 42
0.066109
  0
VERTEX
  8
0
 10
1016.703985
 20
1825.842731
 70
0
  0
SEQEND
  0
POLYLINE
  8
0
  6
CONTINUOUS
 62
1
 66
1
 70
2
  0
VERTEX
  8
0
 10
1021.740104
 20
1825.379588
 70
0
 42
-0.186677
  0
VERTEX
  8
0
 10
1023.728113
 20
1825.842731
 70
0
  0
SEQEND
  0
POLYLINE
  8
0
  6
CONTINUOUS
 62
1
 66
1
 70
2
  0
VERTEX
  8
0
 10
1037.943985
 20
1825.842731
 70
0
 42
-0.186677
  0
VERTEX
  8
0
 10
1039.931994
 20
1825.379588
 70
0
  0
SEQEND
  0
POLYLINE
  8
0
  6
CONTINUOUS
 62
1
 66
1
 70
2
  0
VERTEX
  8
0
 10
1040.591994
 20
1823.819588
 70
0
 42
-0.408197
  0
VERTEX
  8
0
 10
1040.093509
 20
1823.415720
 70
0
 42
-0.066109
  0
VERTEX
  8
0
 10
1038.603985
 20
1823.242731
 70
0
  0
SEQEND
  0
POLYLINE
  8
0
  6
CONTINUOUS
 62
1
 66
1
 70
2
  0
VERTEX
  8
0
 10
1023.068113
 20
1823.242731
 70
0
 42
-0.066109
  0
VERTEX
  8
0
 10
1021.578589
 20
1823.415720
 70
0
 42
-0.408197
  0
VERTEX
  8
0
 10
1021.080104
 20
1823.819588
 70
0
  0
SEQEND
  0
POLYLINE
  8
0
  6
CONTINUOUS
 62
1
 66
1
 70
2
  0
VERTEX
  8
0
 10
1043.640104
 20
1823.705874
 70
0
 42
0.186677
  0
VERTEX
  8
0
 10
1045.628113
 20
1823.242731
 70
0
  0
SEQEND
  0
POLYLINE
  8
0
  6
CONTINUOUS
 62
1
 66
1
 70
2
  0
VERTEX
  8
0
 10
1059.843985
 20
1823.242731
 70
0
 42
0.186677
  0
VERTEX
  8
0
 10
1061.831994
 20
1823.705874
 70
0
  0
SEQEND
  0
POLYLINE
  8
0
  6
CONTINUOUS
 62
1
 66
1
 70
2
  0
VERTEX
  8
0
 10
1062.491994
 20
1825.265874
 70
0
 42
0.408197
  0
VERTEX
  8
0
 10
1061.993509
 20
1825.669743
 70
0
 42
0.066109
  0
VERTEX
  8
0
 10
1060.503985
 20
1825.842731
 70
0
  0
SEQEND
  0
POLYLINE
  8
0
  6
CONTINUOUS
 62
1
 66
1
 70
2
  0
VERTEX
  8
0
 10
1044.968113
 20
1825.842731
 70
0
 42
0.066109
  0
VERTEX
  8
0
 10
1043.478589
 20
1825.669743
 70
0
 42
0.408197
  0
VERTEX
  8
0
 10
1042.980104
 20
1825.265874
 70
0
  0
SEQEND
  0
POLYLINE
  8
0
  6
CONTINUOUS
 62
1
 66
1
 70
2
  0
VERTEX
  8
0
 10
1067.528113
 20
1825.842731
 70
0
 42
0.186677
  0
VERTEX
  8
0
 10
1065.540104
 20
1825.379588
 70
0
  0
SEQEND
  0
POLYLINE
  8
0
  6
CONTINUOUS
 62
1
 66
1
 70
2
  0
VERTEX
  8
0
 10
1064.880104
 20
1823.819588
 70
0
 42
0.408197
  0
VERTEX
  8
0
 10
1065.378589
 20
1823.415720
 70
0
 42
0.066109
  0
VERTEX
  8
0
 10
1066.868113
 20
1823.242731
 70
0
  0
SEQEND
  0
POLYLINE
  8
0
  6
CONTINUOUS
 62
1
 66
1
 70
2
  0
VERTEX
  8
0
 10
1082.403985
 20
1823.242731
 70
0
 42
0.066109
  0
VERTEX
  8
0
 10
1083.893509
 20
1823.415720
 70
0
 42
0.408197
  0
VERTEX
  8
0
 10
1084.391994
 20
1823.819588
 70
0
  0
SEQEND
  0
POLYLINE
  8
0
  6
CONTINUOUS
 62
1
 66
1
 70
2
  0
VERTEX
  8
0
 10
1083.731994
 20
1825.379588
 70
0
 42
0.186677
  0
VERTEX
  8
0
 10
1081.743985
 20
1825.842731
 70
0
  0
SEQEND
  0
POLYLINE
  8
0
  6
CONTINUOUS
 62
1
 66
1
 70
2
  0
VERTEX
  8
0
 10
1086.780104
 20
1825.265874
 70
0
 42
-0.408197
  0
VERTEX
  8
0
 10
1087.278589
 20
1825.669743
 70
0
 42
-0.066109
  0
VERTEX
  8
0
 10
1088.768113
 20
1825.842731
 70
0
  0
SEQEND
  0
POLYLINE
  8
0
  6
CONTINUOUS
 62
1
 66
1
 70
2
  0
VERTEX
  8
0
 10
1104.303985
 20
1825.842731
 70
0
 42
-0.066109
  0
VERTEX
  8
0
 10
1105.793509
 20
1825.669743
 70
0
 42
-0.408197
  0
VERTEX
  8
0
 10
1106.291994
 20
1825.265874
 70
0
  0
SEQEND
  0
POLYLINE
  8
0
  6
CONTINUOUS
 62
1
 66
1
 70
2
  0
VERTEX
  8
0
 10
1105.631994
 20
1823.705874
 70
0
 42
-0.186677
  0
VERTEX
  8
0
 10
1103.643985
 20
1823.242731
 70
0
  0
SEQEND
  0
POLYLINE
  8
0
  6
CONTINUOUS
 62
1
 66
1
 70
2
  0
VERTEX
  8
0
 10
1089.428113
 20
1823.242731
 70
0
 42
-0.186677
  0
VERTEX
  8
0
 10
1087.440104
 20
1823.705874
 70
0
  0
SEQEND
  0
POLYLINE
  8
0
  6
CONTINUOUS
 62
1
 66
1
 70
2
  0
VERTEX
  8
0
 10
1108.680104
 20
1823.819588
 70
0
 42
0.408197
  0
VERTEX
  8
0
 10
1109.178589
 20
1823.415720
 70
0
 42
0.066109
  0
VERTEX
  8
0
 10
1110.668113
 20
1823.242731
 70
0
  0
SEQEND
  0
POLYLINE
  8
0
  6
CONTINUOUS
 62
1
 66
1
 70
2
  0
VERTEX
  8
0
 10
1126.203985
 20
1823.242731
 70
0
 42
0.066109
  0
VERTEX
  8
0
 10
1127.693509
 20
1823.415720
 70
0
 42
0.408197
  0
VERTEX
  8
0
 10
1128.191994
 20
1823.819588
 70
0
  0
SEQEND
  0
POLYLINE
  8
0
  6
CONTINUOUS
 62
1
 66
1
 70
2
  0
VERTEX
  8
0
 10
1127.531994
 20
1825.379588
 70
0
 42
0.186677
  0
VERTEX
  8
0
 10
1125.543985
 20
1825.842731
 70
0
  0
SEQEND
  0
POLYLINE
  8
0
  6
CONTINUOUS
 62
1
 66
1
 70
2
  0
VERTEX
  8
0
 10
1111.328113
 20
1825.842731
 70
0
 42
0.186677
  0
VERTEX
  8
0
 10
1109.340104
 20
1825.379588
 70
0
  0
SEQEND
  0
POLYLINE
  8
0
  6
CONTINUOUS
 62
1
 66
1
 70
2
  0
VERTEX
  8
0
 10
1132.568113
 20
1825.842731
 70
0
 42
0.066109
  0
VERTEX
  8
0
 10
1131.078589
 20
1825.669743
 70
0
 42
0.408197
  0
VERTEX
  8
0
 10
1130.580104
 20
1825.265874
 70
0
  0
SEQEND
  0
POLYLINE
  8
0
  6
CONTINUOUS
 62
1
 66
1
 70
2
  0
VERTEX
  8
0
 10
1131.240104
 20
1823.705874
 70
0
 42
0.186677
  0
VERTEX
  8
0
 10
1133.228113
 20
1823.242731
 70
0
  0
SEQEND
  0
POLYLINE
  8
0
  6
CONTINUOUS
 62
1
 66
1
 70
2
  0
VERTEX
  8
0
 10
1147.443985
 20
1823.242731
 70
0
 42
0.186677
  0
VERTEX
  8
0
 10
1149.431994
 20
1823.705874
 70
0
  0
SEQEND
  0
POLYLINE
  8
0
  6
CONTINUOUS
 62
1
 66
1
 70
2
  0
VERTEX
  8
0
 10
1150.091994
 20
1825.265874
 70
0
 42
0.408197
  0
VERTEX
  8
0
 10
1149.593509
 20
1825.669743
 70
0
 42
0.066109
  0
VERTEX
  8
0
 10
1148.103985
 20
1825.842731
 70
0
  0
SEQEND
  0
POLYLINE
  8
0
  6
CONTINUOUS
 62
1
 66
1
 70
2
  0
VERTEX
  8
0
 10
1155.128113
 20
1825.842731
 70
0
 42
0.186677
  0
VERTEX
  8
0
 10
1153.140104
 20
1825.379588
 70
0
  0
SEQEND
  0
POLYLINE
  8
0
  6
CONTINUOUS
 62
1
 66
1
 70
2
  0
VERTEX
  8
0
 10
1152.480104
 20
1823.819588
 70
0
 42
0.408197
  0
VERTEX
  8
0
 10
1152.978589
 20
1823.415720
 70
0
 42
0.066109
  0
VERTEX
  8
0
 10
1154.468113
 20
1823.242731
 70
0
  0
SEQEND
  0
POLYLINE
  8
0
  6
CONTINUOUS
 62
1
 66
1
 70
2
  0
VERTEX
  8
0
 10
1170.003985
 20
1823.242731
 70
0
 42
0.066109
  0
VERTEX
  8
0
 10
1171.493509
 20
1823.415720
 70
0
 42
0.408197
  0
VERTEX
  8
0
 10
1171.991994
 20
1823.819588
 70
0
  0
SEQEND
  0
POLYLINE
  8
0
  6
CONTINUOUS
 62
1
 66
1
 70
2
  0
VERTEX
  8
0
 10
1169.343985
 20
1825.842731
 70
0
 42
-0.186677
  0
VERTEX
  8
0
 10
1171.331994
 20
1825.379588
 70
0
  0
SEQEND
  0
POLYLINE
  8
0
  6
CONTINUOUS
 62
1
 66
1
 70
2
  0
VERTEX
  8
0
 10
1176.368113
 20
1825.842731
 70
0
 42
0.066109
  0
VERTEX
  8
0
 10
1174.878589
 20
1825.669743
 70
0
 42
0.408197
  0
VERTEX
  8
0
 10
1174.380104
 20
1825.265874
 70
0
  0
SEQEND
  0
POLYLINE
  8
0
  6
CONTINUOUS
 62
1
 66
1
 70
2
  0
VERTEX
  8
0
 10
1175.040104
 20
1823.705874
 70
0
 42
0.186677
  0
VERTEX
  8
0
 10
1177.028113
 20
1823.242731
 70
0
  0
SEQEND
  0
POLYLINE
  8
0
  6
CONTINUOUS
 62
1
 66
1
 70
2
  0
VERTEX
  8
0
 10
1191.243985
 20
1823.242731
 70
0
 42
0.186677
  0
VERTEX
  8
0
 10
1193.231994
 20
1823.705874
 70
0
  0
SEQEND
  0
POLYLINE
  8
0
  6
CONTINUOUS
 62
1
 66
1
 70
2
  0
VERTEX
  8
0
 10
1193.891994
 20
1825.265874
 70
0
 42
0.408197
  0
VERTEX
  8
0
 10
1193.393509
 20
1825.669743
 70
0
 42
0.066109
  0
VERTEX
  8
0
 10
1191.903985
 20
1825.842731
 70
0
  0
SEQEND
  0
LINE
  8
0
  6
CONTINUOUS
 62
1
 10
934.140104
 20
1825.379588
 11
933.480104
 21
1823.819588
  0
LINE
  8
0
  6
CONTINUOUS
 62
1
 10
936.128113
 20
1825.842731
 11
950.343985
 21
1825.842731
  0
LINE
  8
0
  6
CONTINUOUS
 62
1
 10
1322.643985
 20
1823.242731
 11
1308.428113
 21
1823.242731
  0
LINE
  8
0
  6
CONTINUOUS
 62
1
 10
1286.528113
 20
1825.842731
 11
1300.743985
 21
1825.842731
  0
LINE
  8
0
  6
CONTINUOUS
 62
1
 10
1307.768113
 20
1825.842731
 11
1323.303985
 21
1825.842731
  0
LINE
  8
0
  6
CONTINUOUS
 62
1
 10
1306.440104
 20
1823.705874
 11
1305.780104
 21
1825.265874
  0
LINE
  8
0
  6
CONTINUOUS
 62
1
 10
1324.631994
 20
1823.705874
 11
1325.291994
 21
1825.265874
  0
LINE
  8
0
  6
CONTINUOUS
 62
1
 10
1284.540104
 20
1825.379588
 11
1283.880104
 21
1823.819588
  0
LINE
  8
0
  6
CONTINUOUS
 62
1
 10
1302.731994
 20
1825.379588
 11
1303.391994
 21
1823.819588
  0
LINE
  8
0
  6
CONTINUOUS
 62
1
 10
1301.403985
 20
1823.242731
 11
1285.868113
 21
1823.242731
  0
POLYLINE
  8
0
  6
CONTINUOUS
 62
1
 66
1
 70
2
  0
VERTEX
  8
0
 10
1286.528113
 20
1825.842731
 70
0
 42
0.186677
  0
VERTEX
  8
0
 10
1284.540104
 20
1825.379588
 70
0
  0
SEQEND
  0
POLYLINE
  8
0
  6
CONTINUOUS
 62
1
 66
1
 70
2
  0
VERTEX
  8
0
 10
1283.880104
 20
1823.819588
 70
0
 42
0.408197
  0
VERTEX
  8
0
 10
1284.378589
 20
1823.415720
 70
0
 42
0.066109
  0
VERTEX
  8
0
 10
1285.868113
 20
1823.242731
 70
0
  0
SEQEND
  0
POLYLINE
  8
0
  6
CONTINUOUS
 62
1
 66
1
 70
2
  0
VERTEX
  8
0
 10
1301.403985
 20
1823.242731
 70
0
 42
0.066109
  0
VERTEX
  8
0
 10
1302.893509
 20
1823.415720
 70
0
 42
0.408197
  0
VERTEX
  8
0
 10
1303.391994
 20
1823.819588
 70
0
  0
SEQEND
  0
POLYLINE
  8
0
  6
CONTINUOUS
 62
1
 66
1
 70
2
  0
VERTEX
  8
0
 10
1300.743985
 20
1825.842731
 70
0
 42
-0.186677
  0
VERTEX
  8
0
 10
1302.731994
 20
1825.379588
 70
0
  0
SEQEND
  0
POLYLINE
  8
0
  6
CONTINUOUS
 62
1
 66
1
 70
2
  0
VERTEX
  8
0
 10
1307.768113
 20
1825.842731
 70
0
 42
0.066109
  0
VERTEX
  8
0
 10
1306.278589
 20
1825.669743
 70
0
 42
0.408197
  0
VERTEX
  8
0
 10
1305.780104
 20
1825.265874
 70
0
  0
SEQEND
  0
POLYLINE
  8
0
  6
CONTINUOUS
 62
1
 66
1
 70
2
  0
VERTEX
  8
0
 10
1306.440104
 20
1823.705874
 70
0
 42
0.186677
  0
VERTEX
  8
0
 10
1308.428113
 20
1823.242731
 70
0
  0
SEQEND
  0
POLYLINE
  8
0
  6
CONTINUOUS
 62
1
 66
1
 70
2
  0
VERTEX
  8
0
 10
1322.643985
 20
1823.242731
 70
0
 42
0.186677
  0
VERTEX
  8
0
 10
1324.631994
 20
1823.705874
 70
0
  0
SEQEND
  0
POLYLINE
  8
0
  6
CONTINUOUS
 62
1
 66
1
 70
2
  0
VERTEX
  8
0
 10
1325.291994
 20
1825.265874
 70
0
 42
0.408197
  0
VERTEX
  8
0
 10
1324.793509
 20
1825.669743
 70
0
 42
0.066109
  0
VERTEX
  8
0
 10
1323.303985
 20
1825.842731
 70
0
  0
SEQEND
  0
LINE
  8
0
  6
CONTINUOUS
 62
1
 10
1366.443985
 20
1823.242731
 11
1352.228113
 21
1823.242731
  0
LINE
  8
0
  6
CONTINUOUS
 62
1
 10
1330.328113
 20
1825.842731
 11
1344.543985
 21
1825.842731
  0
LINE
  8
0
  6
CONTINUOUS
 62
1
 10
1351.568113
 20
1825.842731
 11
1367.103985
 21
1825.842731
  0
LINE
  8
0
  6
CONTINUOUS
 62
1
 10
1350.240104
 20
1823.705874
 11
1349.580104
 21
1825.265874
  0
LINE
  8
0
  6
CONTINUOUS
 62
1
 10
1368.431994
 20
1823.705874
 11
1369.091994
 21
1825.265874
  0
LINE
  8
0
  6
CONTINUOUS
 62
1
 10
1328.340104
 20
1825.379588
 11
1327.680104
 21
1823.819588
  0
LINE
  8
0
  6
CONTINUOUS
 62
1
 10
1346.531994
 20
1825.379588
 11
1347.191994
 21
1823.819588
  0
LINE
  8
0
  6
CONTINUOUS
 62
1
 10
1345.203985
 20
1823.242731
 11
1329.668113
 21
1823.242731
  0
POLYLINE
  8
0
  6
CONTINUOUS
 62
1
 66
1
 70
2
  0
VERTEX
  8
0
 10
1330.328113
 20
1825.842731
 70
0
 42
0.186677
  0
VERTEX
  8
0
 10
1328.340104
 20
1825.379588
 70
0
  0
SEQEND
  0
POLYLINE
  8
0
  6
CONTINUOUS
 62
1
 66
1
 70
2
  0
VERTEX
  8
0
 10
1327.680104
 20
1823.819588
 70
0
 42
0.408197
  0
VERTEX
  8
0
 10
1328.178589
 20
1823.415720
 70
0
 42
0.066109
  0
VERTEX
  8
0
 10
1329.668113
 20
1823.242731
 70
0
  0
SEQEND
  0
POLYLINE
  8
0
  6
CONTINUOUS
 62
1
 66
1
 70
2
  0
VERTEX
  8
0
 10
1345.203985
 20
1823.242731
 70
0
 42
0.066109
  0
VERTEX
  8
0
 10
1346.693509
 20
1823.415720
 70
0
 42
0.408197
  0
VERTEX
  8
0
 10
1347.191994
 20
1823.819588
 70
0
  0
SEQEND
  0
POLYLINE
  8
0
  6
CONTINUOUS
 62
1
 66
1
 70
2
  0
VERTEX
  8
0
 10
1344.543985
 20
1825.842731
 70
0
 42
-0.186677
  0
VERTEX
  8
0
 10
1346.531994
 20
1825.379588
 70
0
  0
SEQEND
  0
POLYLINE
  8
0
  6
CONTINUOUS
 62
1
 66
1
 70
2
  0
VERTEX
  8
0
 10
1351.568113
 20
1825.842731
 70
0
 42
0.066109
  0
VERTEX
  8
0
 10
1350.078589
 20
1825.669743
 70
0
 42
0.408197
  0
VERTEX
  8
0
 10
1349.580104
 20
1825.265874
 70
0
  0
SEQEND
  0
POLYLINE
  8
0
  6
CONTINUOUS
 62
1
 66
1
 70
2
  0
VERTEX
  8
0
 10
1350.240104
 20
1823.705874
 70
0
 42
0.186677
  0
VERTEX
  8
0
 10
1352.228113
 20
1823.242731
 70
0
  0
SEQEND
  0
POLYLINE
  8
0
  6
CONTINUOUS
 62
1
 66
1
 70
2
  0
VERTEX
  8
0
 10
1366.443985
 20
1823.242731
 70
0
 42
0.186677
  0
VERTEX
  8
0
 10
1368.431994
 20
1823.705874
 70
0
  0
SEQEND
  0
POLYLINE
  8
0
  6
CONTINUOUS
 62
1
 66
1
 70
2
  0
VERTEX
  8
0
 10
1369.091994
 20
1825.265874
 70
0
 42
0.408197
  0
VERTEX
  8
0
 10
1368.593509
 20
1825.669743
 70
0
 42
0.066109
  0
VERTEX
  8
0
 10
1367.103985
 20
1825.842731
 70
0
  0
SEQEND
  0
LINE
  8
0
  6
CONTINUOUS
 62
1
 10
1410.243985
 20
1823.242731
 11
1396.028113
 21
1823.242731
  0
LINE
  8
0
  6
CONTINUOUS
 62
1
 10
1374.128113
 20
1825.842731
 11
1388.343985
 21
1825.842731
  0
LINE
  8
0
  6
CONTINUOUS
 62
1
 10
1395.368113
 20
1825.842731
 11
1410.903985
 21
1825.842731
  0
LINE
  8
0
  6
CONTINUOUS
 62
1
 10
1394.040104
 20
1823.705874
 11
1393.380104
 21
1825.265874
  0
LINE
  8
0
  6
CONTINUOUS
 62
1
 10
1412.231994
 20
1823.705874
 11
1412.891994
 21
1825.265874
  0
LINE
  8
0
  6
CONTINUOUS
 62
1
 10
1372.140104
 20
1825.379588
 11
1371.480104
 21
1823.819588
  0
LINE
  8
0
  6
CONTINUOUS
 62
1
 10
1390.331994
 20
1825.379588
 11
1390.991994
 21
1823.819588
  0
LINE
  8
0
  6
CONTINUOUS
 62
1
 10
1389.003985
 20
1823.242731
 11
1373.468113
 21
1823.242731
  0
POLYLINE
  8
0
  6
CONTINUOUS
 62
1
 66
1
 70
2
  0
VERTEX
  8
0
 10
1374.128113
 20
1825.842731
 70
0
 42
0.186677
  0
VERTEX
  8
0
 10
1372.140104
 20
1825.379588
 70
0
  0
SEQEND
  0
POLYLINE
  8
0
  6
CONTINUOUS
 62
1
 66
1
 70
2
  0
VERTEX
  8
0
 10
1371.480104
 20
1823.819588
 70
0
 42
0.408197
  0
VERTEX
  8
0
 10
1371.978589
 20
1823.415720
 70
0
 42
0.066109
  0
VERTEX
  8
0
 10
1373.468113
 20
1823.242731
 70
0
  0
SEQEND
  0
POLYLINE
  8
0
  6
CONTINUOUS
 62
1
 66
1
 70
2
  0
VERTEX
  8
0
 10
1389.003985
 20
1823.242731
 70
0
 42
0.066109
  0
VERTEX
  8
0
 10
1390.493509
 20
1823.415720
 70
0
 42
0.408197
  0
VERTEX
  8
0
 10
1390.991994
 20
1823.819588
 70
0
  0
SEQEND
  0
POLYLINE
  8
0
  6
CONTINUOUS
 62
1
 66
1
 70
2
  0
VERTEX
  8
0
 10
1388.343985
 20
1825.842731
 70
0
 42
-0.186677
  0
VERTEX
  8
0
 10
1390.331994
 20
1825.379588
 70
0
  0
SEQEND
  0
POLYLINE
  8
0
  6
CONTINUOUS
 62
1
 66
1
 70
2
  0
VERTEX
  8
0
 10
1395.368113
 20
1825.842731
 70
0
 42
0.066109
  0
VERTEX
  8
0
 10
1393.878589
 20
1825.669743
 70
0
 42
0.408197
  0
VERTEX
  8
0
 10
1393.380104
 20
1825.265874
 70
0
  0
SEQEND
  0
POLYLINE
  8
0
  6
CONTINUOUS
 62
1
 66
1
 70
2
  0
VERTEX
  8
0
 10
1394.040104
 20
1823.705874
 70
0
 42
0.186677
  0
VERTEX
  8
0
 10
1396.028113
 20
1823.242731
 70
0
  0
SEQEND
  0
POLYLINE
  8
0
  6
CONTINUOUS
 62
1
 66
1
 70
2
  0
VERTEX
  8
0
 10
1410.243985
 20
1823.242731
 70
0
 42
0.186677
  0
VERTEX
  8
0
 10
1412.231994
 20
1823.705874
 70
0
  0
SEQEND
  0
POLYLINE
  8
0
  6
CONTINUOUS
 62
1
 66
1
 70
2
  0
VERTEX
  8
0
 10
1412.891994
 20
1825.265874
 70
0
 42
0.408197
  0
VERTEX
  8
0
 10
1412.393509
 20
1825.669743
 70
0
 42
0.066109
  0
VERTEX
  8
0
 10
1410.903985
 20
1825.842731
 70
0
  0
SEQEND
  0
LINE
  8
0
  6
CONTINUOUS
 62
1
 10
1454.043985
 20
1823.242731
 11
1439.828113
 21
1823.242731
  0
LINE
  8
0
  6
CONTINUOUS
 62
1
 10
1417.928113
 20
1825.842731
 11
1432.143985
 21
1825.842731
  0
LINE
  8
0
  6
CONTINUOUS
 62
1
 10
1439.168113
 20
1825.842731
 11
1454.703985
 21
1825.842731
  0
LINE
  8
0
  6
CONTINUOUS
 62
1
 10
1437.840104
 20
1823.705874
 11
1437.180104
 21
1825.265874
  0
LINE
  8
0
  6
CONTINUOUS
 62
1
 10
1456.031994
 20
1823.705874
 11
1456.691994
 21
1825.265874
  0
LINE
  8
0
  6
CONTINUOUS
 62
1
 10
1415.940104
 20
1825.379588
 11
1415.280104
 21
1823.819588
  0
LINE
  8
0
  6
CONTINUOUS
 62
1
 10
1434.131994
 20
1825.379588
 11
1434.791994
 21
1823.819588
  0
LINE
  8
0
  6
CONTINUOUS
 62
1
 10
1432.803985
 20
1823.242731
 11
1417.268113
 21
1823.242731
  0
POLYLINE
  8
0
  6
CONTINUOUS
 62
1
 66
1
 70
2
  0
VERTEX
  8
0
 10
1417.928113
 20
1825.842731
 70
0
 42
0.186677
  0
VERTEX
  8
0
 10
1415.940104
 20
1825.379588
 70
0
  0
SEQEND
  0
POLYLINE
  8
0
  6
CONTINUOUS
 62
1
 66
1
 70
2
  0
VERTEX
  8
0
 10
1415.280104
 20
1823.819588
 70
0
 42
0.408197
  0
VERTEX
  8
0
 10
1415.778589
 20
1823.415720
 70
0
 42
0.066109
  0
VERTEX
  8
0
 10
1417.268113
 20
1823.242731
 70
0
  0
SEQEND
  0
POLYLINE
  8
0
  6
CONTINUOUS
 62
1
 66
1
 70
2
  0
VERTEX
  8
0
 10
1432.803985
 20
1823.242731
 70
0
 42
0.066109
  0
VERTEX
  8
0
 10
1434.293509
 20
1823.415720
 70
0
 42
0.408197
  0
VERTEX
  8
0
 10
1434.791994
 20
1823.819588
 70
0
  0
SEQEND
  0
POLYLINE
  8
0
  6
CONTINUOUS
 62
1
 66
1
 70
2
  0
VERTEX
  8
0
 10
1432.143985
 20
1825.842731
 70
0
 42
-0.186677
  0
VERTEX
  8
0
 10
1434.131994
 20
1825.379588
 70
0
  0
SEQEND
  0
POLYLINE
  8
0
  6
CONTINUOUS
 62
1
 66
1
 70
2
  0
VERTEX
  8
0
 10
1439.168113
 20
1825.842731
 70
0
 42
0.066109
  0
VERTEX
  8
0
 10
1437.678589
 20
1825.669743
 70
0
 42
0.408197
  0
VERTEX
  8
0
 10
1437.180104
 20
1825.265874
 70
0
  0
SEQEND
  0
POLYLINE
  8
0
  6
CONTINUOUS
 62
1
 66
1
 70
2
  0
VERTEX
  8
0
 10
1437.840104
 20
1823.705874
 70
0
 42
0.186677
  0
VERTEX
  8
0
 10
1439.828113
 20
1823.242731
 70
0
  0
SEQEND
  0
POLYLINE
  8
0
  6
CONTINUOUS
 62
1
 66
1
 70
2
  0
VERTEX
  8
0
 10
1454.043985
 20
1823.242731
 70
0
 42
0.186677
  0
VERTEX
  8
0
 10
1456.031994
 20
1823.705874
 70
0
  0
SEQEND
  0
POLYLINE
  8
0
  6
CONTINUOUS
 62
1
 66
1
 70
2
  0
VERTEX
  8
0
 10
1456.691994
 20
1825.265874
 70
0
 42
0.408197
  0
VERTEX
  8
0
 10
1456.193509
 20
1825.669743
 70
0
 42
0.066109
  0
VERTEX
  8
0
 10
1454.703985
 20
1825.842731
 70
0
  0
SEQEND
  0
LINE
  8
0
  6
CONTINUOUS
 62
1
 10
1497.843985
 20
1823.242731
 11
1483.628113
 21
1823.242731
  0
LINE
  8
0
  6
CONTINUOUS
 62
1
 10
1461.728113
 20
1825.842731
 11
1475.943985
 21
1825.842731
  0
LINE
  8
0
  6
CONTINUOUS
 62
1
 10
1482.968113
 20
1825.842731
 11
1498.503985
 21
1825.842731
  0
LINE
  8
0
  6
CONTINUOUS
 62
1
 10
1481.640104
 20
1823.705874
 11
1480.980104
 21
1825.265874
  0
LINE
  8
0
  6
CONTINUOUS
 62
1
 10
1499.831994
 20
1823.705874
 11
1500.491994
 21
1825.265874
  0
LINE
  8
0
  6
CONTINUOUS
 62
1
 10
1459.740104
 20
1825.379588
 11
1459.080104
 21
1823.819588
  0
LINE
  8
0
  6
CONTINUOUS
 62
1
 10
1477.931994
 20
1825.379588
 11
1478.591994
 21
1823.819588
  0
LINE
  8
0
  6
CONTINUOUS
 62
1
 10
1476.603985
 20
1823.242731
 11
1461.068113
 21
1823.242731
  0
POLYLINE
  8
0
  6
CONTINUOUS
 62
1
 66
1
 70
2
  0
VERTEX
  8
0
 10
1461.728113
 20
1825.842731
 70
0
 42
0.186677
  0
VERTEX
  8
0
 10
1459.740104
 20
1825.379588
 70
0
  0
SEQEND
  0
POLYLINE
  8
0
  6
CONTINUOUS
 62
1
 66
1
 70
2
  0
VERTEX
  8
0
 10
1459.080104
 20
1823.819588
 70
0
 42
0.408197
  0
VERTEX
  8
0
 10
1459.578589
 20
1823.415720
 70
0
 42
0.066109
  0
VERTEX
  8
0
 10
1461.068113
 20
1823.242731
 70
0
  0
SEQEND
  0
POLYLINE
  8
0
  6
CONTINUOUS
 62
1
 66
1
 70
2
  0
VERTEX
  8
0
 10
1476.603985
 20
1823.242731
 70
0
 42
0.066109
  0
VERTEX
  8
0
 10
1478.093509
 20
1823.415720
 70
0
 42
0.408197
  0
VERTEX
  8
0
 10
1478.591994
 20
1823.819588
 70
0
  0
SEQEND
  0
POLYLINE
  8
0
  6
CONTINUOUS
 62
1
 66
1
 70
2
  0
VERTEX
  8
0
 10
1475.943985
 20
1825.842731
 70
0
 42
-0.186677
  0
VERTEX
  8
0
 10
1477.931994
 20
1825.379588
 70
0
  0
SEQEND
  0
POLYLINE
  8
0
  6
CONTINUOUS
 62
1
 66
1
 70
2
  0
VERTEX
  8
0
 10
1482.968113
 20
1825.842731
 70
0
 42
0.066109
  0
VERTEX
  8
0
 10
1481.478589
 20
1825.669743
 70
0
 42
0.408197
  0
VERTEX
  8
0
 10
1480.980104
 20
1825.265874
 70
0
  0
SEQEND
  0
POLYLINE
  8
0
  6
CONTINUOUS
 62
1
 66
1
 70
2
  0
VERTEX
  8
0
 10
1481.640104
 20
1823.705874
 70
0
 42
0.186677
  0
VERTEX
  8
0
 10
1483.628113
 20
1823.242731
 70
0
  0
SEQEND
  0
POLYLINE
  8
0
  6
CONTINUOUS
 62
1
 66
1
 70
2
  0
VERTEX
  8
0
 10
1497.843985
 20
1823.242731
 70
0
 42
0.186677
  0
VERTEX
  8
0
 10
1499.831994
 20
1823.705874
 70
0
  0
SEQEND
  0
POLYLINE
  8
0
  6
CONTINUOUS
 62
1
 66
1
 70
2
  0
VERTEX
  8
0
 10
1500.491994
 20
1825.265874
 70
0
 42
0.408197
  0
VERTEX
  8
0
 10
1499.993509
 20
1825.669743
 70
0
 42
0.066109
  0
VERTEX
  8
0
 10
1498.503985
 20
1825.842731
 70
0
  0
SEQEND
  0
LINE
  8
0
  6
CONTINUOUS
 62
1
 10
1541.643985
 20
1823.242731
 11
1527.428113
 21
1823.242731
  0
LINE
  8
0
  6
CONTINUOUS
 62
1
 10
1505.528113
 20
1825.842731
 11
1519.743985
 21
1825.842731
  0
LINE
  8
0
  6
CONTINUOUS
 62
1
 10
1526.768113
 20
1825.842731
 11
1542.303985
 21
1825.842731
  0
LINE
  8
0
  6
CONTINUOUS
 62
1
 10
1525.440104
 20
1823.705874
 11
1524.780104
 21
1825.265874
  0
LINE
  8
0
  6
CONTINUOUS
 62
1
 10
1543.631994
 20
1823.705874
 11
1544.291994
 21
1825.265874
  0
LINE
  8
0
  6
CONTINUOUS
 62
1
 10
1503.540104
 20
1825.379588
 11
1502.880104
 21
1823.819588
  0
LINE
  8
0
  6
CONTINUOUS
 62
1
 10
1521.731994
 20
1825.379588
 11
1522.391994
 21
1823.819588
  0
LINE
  8
0
  6
CONTINUOUS
 62
1
 10
1520.403985
 20
1823.242731
 11
1504.868113
 21
1823.242731
  0
POLYLINE
  8
0
  6
CONTINUOUS
 62
1
 66
1
 70
2
  0
VERTEX
  8
0
 10
1505.528113
 20
1825.842731
 70
0
 42
0.186677
  0
VERTEX
  8
0
 10
1503.540104
 20
1825.379588
 70
0
  0
SEQEND
  0
POLYLINE
  8
0
  6
CONTINUOUS
 62
1
 66
1
 70
2
  0
VERTEX
  8
0
 10
1502.880104
 20
1823.819588
 70
0
 42
0.408197
  0
VERTEX
  8
0
 10
1503.378589
 20
1823.415720
 70
0
 42
0.066109
  0
VERTEX
  8
0
 10
1504.868113
 20
1823.242731
 70
0
  0
SEQEND
  0
POLYLINE
  8
0
  6
CONTINUOUS
 62
1
 66
1
 70
2
  0
VERTEX
  8
0
 10
1520.403985
 20
1823.242731
 70
0
 42
0.066109
  0
VERTEX
  8
0
 10
1521.893509
 20
1823.415720
 70
0
 42
0.408197
  0
VERTEX
  8
0
 10
1522.391994
 20
1823.819588
 70
0
  0
SEQEND
  0
POLYLINE
  8
0
  6
CONTINUOUS
 62
1
 66
1
 70
2
  0
VERTEX
  8
0
 10
1519.743985
 20
1825.842731
 70
0
 42
-0.186677
  0
VERTEX
  8
0
 10
1521.731994
 20
1825.379588
 70
0
  0
SEQEND
  0
POLYLINE
  8
0
  6
CONTINUOUS
 62
1
 66
1
 70
2
  0
VERTEX
  8
0
 10
1526.768113
 20
1825.842731
 70
0
 42
0.066109
  0
VERTEX
  8
0
 10
1525.278589
 20
1825.669743
 70
0
 42
0.408197
  0
VERTEX
  8
0
 10
1524.780104
 20
1825.265874
 70
0
  0
SEQEND
  0
POLYLINE
  8
0
  6
CONTINUOUS
 62
1
 66
1
 70
2
  0
VERTEX
  8
0
 10
1525.440104
 20
1823.705874
 70
0
 42
0.186677
  0
VERTEX
  8
0
 10
1527.428113
 20
1823.242731
 70
0
  0
SEQEND
  0
POLYLINE
  8
0
  6
CONTINUOUS
 62
1
 66
1
 70
2
  0
VERTEX
  8
0
 10
1541.643985
 20
1823.242731
 70
0
 42
0.186677
  0
VERTEX
  8
0
 10
1543.631994
 20
1823.705874
 70
0
  0
SEQEND
  0
POLYLINE
  8
0
  6
CONTINUOUS
 62
1
 66
1
 70
2
  0
VERTEX
  8
0
 10
1544.291994
 20
1825.265874
 70
0
 42
0.408197
  0
VERTEX
  8
0
 10
1543.793509
 20
1825.669743
 70
0
 42
0.066109
  0
VERTEX
  8
0
 10
1542.303985
 20
1825.842731
 70
0
  0
SEQEND
  0
LINE
  8
0
  6
CONTINUOUS
 62
1
 10
1549.328113
 20
1825.842731
 11
1563.543985
 21
1825.842731
  0
LINE
  8
0
  6
CONTINUOUS
 62
1
 10
1547.340104
 20
1825.379588
 11
1546.680104
 21
1823.819588
  0
LINE
  8
0
  6
CONTINUOUS
 62
1
 10
1565.531994
 20
1825.379588
 11
1566.191994
 21
1823.819588
  0
LINE
  8
0
  6
CONTINUOUS
 62
1
 10
1564.203985
 20
1823.242731
 11
1548.668113
 21
1823.242731
  0
POLYLINE
  8
0
  6
CONTINUOUS
 62
1
 66
1
 70
2
  0
VERTEX
  8
0
 10
1549.328113
 20
1825.842731
 70
0
 42
0.186677
  0
VERTEX
  8
0
 10
1547.340104
 20
1825.379588
 70
0
  0
SEQEND
  0
POLYLINE
  8
0
  6
CONTINUOUS
 62
1
 66
1
 70
2
  0
VERTEX
  8
0
 10
1546.680104
 20
1823.819588
 70
0
 42
0.408197
  0
VERTEX
  8
0
 10
1547.178589
 20
1823.415720
 70
0
 42
0.066109
  0
VERTEX
  8
0
 10
1548.668113
 20
1823.242731
 70
0
  0
SEQEND
  0
POLYLINE
  8
0
  6
CONTINUOUS
 62
1
 66
1
 70
2
  0
VERTEX
  8
0
 10
1564.203985
 20
1823.242731
 70
0
 42
0.066109
  0
VERTEX
  8
0
 10
1565.693509
 20
1823.415720
 70
0
 42
0.408197
  0
VERTEX
  8
0
 10
1566.191994
 20
1823.819588
 70
0
  0
SEQEND
  0
POLYLINE
  8
0
  6
CONTINUOUS
 62
1
 66
1
 70
2
  0
VERTEX
  8
0
 10
1563.543985
 20
1825.842731
 70
0
 42
-0.186677
  0
VERTEX
  8
0
 10
1565.531994
 20
1825.379588
 70
0
  0
SEQEND
  0
LINE
  8
0
  6
CONTINUOUS
 62
1
 10
1585.443985
 20
1823.242731
 11
1571.228113
 21
1823.242731
  0
LINE
  8
0
  6
CONTINUOUS
 62
1
 10
1570.568113
 20
1825.842731
 11
1586.103985
 21
1825.842731
  0
LINE
  8
0
  6
CONTINUOUS
 62
1
 10
1569.240104
 20
1823.705874
 11
1568.580104
 21
1825.265874
  0
LINE
  8
0
  6
CONTINUOUS
 62
1
 10
1587.431994
 20
1823.705874
 11
1588.091994
 21
1825.265874
  0
POLYLINE
  8
0
  6
CONTINUOUS
 62
1
 66
1
 70
2
  0
VERTEX
  8
0
 10
1570.568113
 20
1825.842731
 70
0
 42
0.066109
  0
VERTEX
  8
0
 10
1569.078589
 20
1825.669743
 70
0
 42
0.408197
  0
VERTEX
  8
0
 10
1568.580104
 20
1825.265874
 70
0
  0
SEQEND
  0
POLYLINE
  8
0
  6
CONTINUOUS
 62
1
 66
1
 70
2
  0
VERTEX
  8
0
 10
1569.240104
 20
1823.705874
 70
0
 42
0.186677
  0
VERTEX
  8
0
 10
1571.228113
 20
1823.242731
 70
0
  0
SEQEND
  0
POLYLINE
  8
0
  6
CONTINUOUS
 62
1
 66
1
 70
2
  0
VERTEX
  8
0
 10
1585.443985
 20
1823.242731
 70
0
 42
0.186677
  0
VERTEX
  8
0
 10
1587.431994
 20
1823.705874
 70
0
  0
SEQEND
  0
POLYLINE
  8
0
  6
CONTINUOUS
 62
1
 66
1
 70
2
  0
VERTEX
  8
0
 10
1588.091994
 20
1825.265874
 70
0
 42
0.408197
  0
VERTEX
  8
0
 10
1587.593509
 20
1825.669743
 70
0
 42
0.066109
  0
VERTEX
  8
0
 10
1586.103985
 20
1825.842731
 70
0
  0
SEQEND
  0
LINE
  8
0
  6
CONTINUOUS
 62
1
 10
1593.128113
 20
1825.842731
 11
1607.343985
 21
1825.842731
  0
LINE
  8
0
  6
CONTINUOUS
 62
1
 10
1591.140104
 20
1825.379588
 11
1590.480104
 21
1823.819588
  0
LINE
  8
0
  6
CONTINUOUS
 62
1
 10
1609.331994
 20
1825.379588
 11
1609.991994
 21
1823.819588
  0
LINE
  8
0
  6
CONTINUOUS
 62
1
 10
1608.003985
 20
1823.242731
 11
1592.468113
 21
1823.242731
  0
POLYLINE
  8
0
  6
CONTINUOUS
 62
1
 66
1
 70
2
  0
VERTEX
  8
0
 10
1593.128113
 20
1825.842731
 70
0
 42
0.186677
  0
VERTEX
  8
0
 10
1591.140104
 20
1825.379588
 70
0
  0
SEQEND
  0
POLYLINE
  8
0
  6
CONTINUOUS
 62
1
 66
1
 70
2
  0
VERTEX
  8
0
 10
1590.480104
 20
1823.819588
 70
0
 42
0.408197
  0
VERTEX
  8
0
 10
1590.978589
 20
1823.415720
 70
0
 42
0.066109
  0
VERTEX
  8
0
 10
1592.468113
 20
1823.242731
 70
0
  0
SEQEND
  0
POLYLINE
  8
0
  6
CONTINUOUS
 62
1
 66
1
 70
2
  0
VERTEX
  8
0
 10
1608.003985
 20
1823.242731
 70
0
 42
0.066109
  0
VERTEX
  8
0
 10
1609.493509
 20
1823.415720
 70
0
 42
0.408197
  0
VERTEX
  8
0
 10
1609.991994
 20
1823.819588
 70
0
  0
SEQEND
  0
POLYLINE
  8
0
  6
CONTINUOUS
 62
1
 66
1
 70
2
  0
VERTEX
  8
0
 10
1607.343985
 20
1825.842731
 70
0
 42
-0.186677
  0
VERTEX
  8
0
 10
1609.331994
 20
1825.379588
 70
0
  0
SEQEND
  0
LINE
  8
0
  6
CONTINUOUS
 62
1
 10
957.368113
 20
1825.842731
 11
972.903985
 21
1825.842731
  0
LINE
  8
0
  6
CONTINUOUS
 62
1
 10
979.928113
 20
1825.842731
 11
994.143985
 21
1825.842731
  0
LINE
  8
0
  6
CONTINUOUS
 62
1
 10
956.040104
 20
1823.705874
 11
955.380104
 21
1825.265874
  0
LINE
  8
0
  6
CONTINUOUS
 62
1
 10
974.231994
 20
1823.705874
 11
974.891994
 21
1825.265874
  0
LINE
  8
0
  6
CONTINUOUS
 62
1
 10
977.940104
 20
1825.379588
 11
977.280104
 21
1823.819588
  0
LINE
  8
0
  6
CONTINUOUS
 62
1
 10
996.131994
 20
1825.379588
 11
996.791994
 21
1823.819588
  0
LINE
  8
0
  6
CONTINUOUS
 62
1
 10
972.243985
 20
1823.242731
 11
958.028113
 21
1823.242731
  0
LINE
  8
0
  6
CONTINUOUS
 62
1
 10
994.803985
 20
1823.242731
 11
979.268113
 21
1823.242731
  0
POLYLINE
  8
0
  6
CONTINUOUS
 62
1
 66
1
 70
2
  0
VERTEX
  8
0
 10
957.368113
 20
1825.842731
 70
0
 42
0.066109
  0
VERTEX
  8
0
 10
955.878589
 20
1825.669743
 70
0
 42
0.408197
  0
VERTEX
  8
0
 10
955.380104
 20
1825.265874
 70
0
  0
SEQEND
  0
POLYLINE
  8
0
  6
CONTINUOUS
 62
1
 66
1
 70
2
  0
VERTEX
  8
0
 10
956.040104
 20
1823.705874
 70
0
 42
0.186677
  0
VERTEX
  8
0
 10
958.028113
 20
1823.242731
 70
0
  0
SEQEND
  0
POLYLINE
  8
0
  6
CONTINUOUS
 62
1
 66
1
 70
2
  0
VERTEX
  8
0
 10
972.243985
 20
1823.242731
 70
0
 42
0.186677
  0
VERTEX
  8
0
 10
974.231994
 20
1823.705874
 70
0
  0
SEQEND
  0
POLYLINE
  8
0
  6
CONTINUOUS
 62
1
 66
1
 70
2
  0
VERTEX
  8
0
 10
974.891994
 20
1825.265874
 70
0
 42
0.408197
  0
VERTEX
  8
0
 10
974.393509
 20
1825.669743
 70
0
 42
0.066109
  0
VERTEX
  8
0
 10
972.903985
 20
1825.842731
 70
0
  0
SEQEND
  0
POLYLINE
  8
0
  6
CONTINUOUS
 62
1
 66
1
 70
2
  0
VERTEX
  8
0
 10
977.940104
 20
1825.379588
 70
0
 42
-0.186677
  0
VERTEX
  8
0
 10
979.928113
 20
1825.842731
 70
0
  0
SEQEND
  0
POLYLINE
  8
0
  6
CONTINUOUS
 62
1
 66
1
 70
2
  0
VERTEX
  8
0
 10
994.143985
 20
1825.842731
 70
0
 42
-0.186677
  0
VERTEX
  8
0
 10
996.131994
 20
1825.379588
 70
0
  0
SEQEND
  0
POLYLINE
  8
0
  6
CONTINUOUS
 62
1
 66
1
 70
2
  0
VERTEX
  8
0
 10
996.791994
 20
1823.819588
 70
0
 42
-0.408197
  0
VERTEX
  8
0
 10
996.293509
 20
1823.415720
 70
0
 42
-0.066109
  0
VERTEX
  8
0
 10
994.803985
 20
1823.242731
 70
0
  0
SEQEND
  0
POLYLINE
  8
0
  6
CONTINUOUS
 62
1
 66
1
 70
2
  0
VERTEX
  8
0
 10
979.268113
 20
1823.242731
 70
0
 42
-0.066109
  0
VERTEX
  8
0
 10
977.778589
 20
1823.415720
 70
0
 42
-0.408197
  0
VERTEX
  8
0
 10
977.280104
 20
1823.819588
 70
0
  0
SEQEND
  0
LINE
  8
0
  6
CONTINUOUS
 62
1
 10
1235.043985
 20
1830.002731
 11
1220.828113
 21
1830.002731
  0
LINE
  8
0
  6
CONTINUOUS
 62
1
 10
1198.928113
 20
1832.602731
 11
1213.143985
 21
1832.602731
  0
LINE
  8
0
  6
CONTINUOUS
 62
1
 10
1220.168113
 20
1832.602731
 11
1235.703985
 21
1832.602731
  0
LINE
  8
0
  6
CONTINUOUS
 62
1
 10
1218.840104
 20
1830.465874
 11
1218.180104
 21
1832.025874
  0
LINE
  8
0
  6
CONTINUOUS
 62
1
 10
1237.031994
 20
1830.465874
 11
1237.691994
 21
1832.025874
  0
LINE
  8
0
  6
CONTINUOUS
 62
1
 10
1196.940104
 20
1832.139588
 11
1196.280104
 21
1830.579588
  0
LINE
  8
0
  6
CONTINUOUS
 62
1
 10
1215.131994
 20
1832.139588
 11
1215.791994
 21
1830.579588
  0
LINE
  8
0
  6
CONTINUOUS
 62
1
 10
1213.803985
 20
1830.002731
 11
1198.268113
 21
1830.002731
  0
POLYLINE
  8
0
  6
CONTINUOUS
 62
1
 66
1
 70
2
  0
VERTEX
  8
0
 10
1198.928113
 20
1832.602731
 70
0
 42
0.186677
  0
VERTEX
  8
0
 10
1196.940104
 20
1832.139588
 70
0
  0
SEQEND
  0
POLYLINE
  8
0
  6
CONTINUOUS
 62
1
 66
1
 70
2
  0
VERTEX
  8
0
 10
1196.280104
 20
1830.579588
 70
0
 42
0.408197
  0
VERTEX
  8
0
 10
1196.778589
 20
1830.175720
 70
0
 42
0.066109
  0
VERTEX
  8
0
 10
1198.268113
 20
1830.002731
 70
0
  0
SEQEND
  0
POLYLINE
  8
0
  6
CONTINUOUS
 62
1
 66
1
 70
2
  0
VERTEX
  8
0
 10
1213.803985
 20
1830.002731
 70
0
 42
0.066109
  0
VERTEX
  8
0
 10
1215.293509
 20
1830.175720
 70
0
 42
0.408197
  0
VERTEX
  8
0
 10
1215.791994
 20
1830.579588
 70
0
  0
SEQEND
  0
POLYLINE
  8
0
  6
CONTINUOUS
 62
1
 66
1
 70
2
  0
VERTEX
  8
0
 10
1213.143985
 20
1832.602731
 70
0
 42
-0.186677
  0
VERTEX
  8
0
 10
1215.131994
 20
1832.139588
 70
0
  0
SEQEND
  0
POLYLINE
  8
0
  6
CONTINUOUS
 62
1
 66
1
 70
2
  0
VERTEX
  8
0
 10
1220.168113
 20
1832.602731
 70
0
 42
0.066109
  0
VERTEX
  8
0
 10
1218.678589
 20
1832.429743
 70
0
 42
0.408197
  0
VERTEX
  8
0
 10
1218.180104
 20
1832.025874
 70
0
  0
SEQEND
  0
POLYLINE
  8
0
  6
CONTINUOUS
 62
1
 66
1
 70
2
  0
VERTEX
  8
0
 10
1218.840104
 20
1830.465874
 70
0
 42
0.186677
  0
VERTEX
  8
0
 10
1220.828113
 20
1830.002731
 70
0
  0
SEQEND
  0
POLYLINE
  8
0
  6
CONTINUOUS
 62
1
 66
1
 70
2
  0
VERTEX
  8
0
 10
1235.043985
 20
1830.002731
 70
0
 42
0.186677
  0
VERTEX
  8
0
 10
1237.031994
 20
1830.465874
 70
0
  0
SEQEND
  0
POLYLINE
  8
0
  6
CONTINUOUS
 62
1
 66
1
 70
2
  0
VERTEX
  8
0
 10
1237.691994
 20
1832.025874
 70
0
 42
0.408197
  0
VERTEX
  8
0
 10
1237.193509
 20
1832.429743
 70
0
 42
0.066109
  0
VERTEX
  8
0
 10
1235.703985
 20
1832.602731
 70
0
  0
SEQEND
  0
LINE
  8
0
  6
CONTINUOUS
 62
1
 10
1224.093985
 20
1829.222731
 11
1209.878113
 21
1829.222731
  0
LINE
  8
0
  6
CONTINUOUS
 62
1
 10
1187.978113
 20
1826.622731
 11
1202.193985
 21
1826.622731
  0
LINE
  8
0
  6
CONTINUOUS
 62
1
 10
1209.218113
 20
1826.622731
 11
1224.753985
 21
1826.622731
  0
LINE
  8
0
  6
CONTINUOUS
 62
1
 10
1207.890104
 20
1828.759588
 11
1207.230104
 21
1827.199588
  0
LINE
  8
0
  6
CONTINUOUS
 62
1
 10
1226.081994
 20
1828.759588
 11
1226.741994
 21
1827.199588
  0
LINE
  8
0
  6
CONTINUOUS
 62
1
 10
1185.990104
 20
1827.085874
 11
1185.330104
 21
1828.645874
  0
LINE
  8
0
  6
CONTINUOUS
 62
1
 10
1204.181994
 20
1827.085874
 11
1204.841994
 21
1828.645874
  0
LINE
  8
0
  6
CONTINUOUS
 62
1
 10
1202.853985
 20
1829.222731
 11
1187.318113
 21
1829.222731
  0
POLYLINE
  8
0
  6
CONTINUOUS
 62
1
 66
1
 70
2
  0
VERTEX
  8
0
 10
1187.978113
 20
1826.622731
 70
0
 42
-0.186677
  0
VERTEX
  8
0
 10
1185.990104
 20
1827.085874
 70
0
  0
SEQEND
  0
POLYLINE
  8
0
  6
CONTINUOUS
 62
1
 66
1
 70
2
  0
VERTEX
  8
0
 10
1185.330104
 20
1828.645874
 70
0
 42
-0.408197
  0
VERTEX
  8
0
 10
1185.828589
 20
1829.049743
 70
0
 42
-0.066109
  0
VERTEX
  8
0
 10
1187.318113
 20
1829.222731
 70
0
  0
SEQEND
  0
POLYLINE
  8
0
  6
CONTINUOUS
 62
1
 66
1
 70
2
  0
VERTEX
  8
0
 10
1202.853985
 20
1829.222731
 70
0
 42
-0.066109
  0
VERTEX
  8
0
 10
1204.343509
 20
1829.049743
 70
0
 42
-0.408197
  0
VERTEX
  8
0
 10
1204.841994
 20
1828.645874
 70
0
  0
SEQEND
  0
POLYLINE
  8
0
  6
CONTINUOUS
 62
1
 66
1
 70
2
  0
VERTEX
  8
0
 10
1202.193985
 20
1826.622731
 70
0
 42
0.186677
  0
VERTEX
  8
0
 10
1204.181994
 20
1827.085874
 70
0
  0
SEQEND
  0
POLYLINE
  8
0
  6
CONTINUOUS
 62
1
 66
1
 70
2
  0
VERTEX
  8
0
 10
1209.218113
 20
1826.622731
 70
0
 42
-0.066109
  0
VERTEX
  8
0
 10
1207.728589
 20
1826.795720
 70
0
 42
-0.408197
  0
VERTEX
  8
0
 10
1207.230104
 20
1827.199588
 70
0
  0
SEQEND
  0
POLYLINE
  8
0
  6
CONTINUOUS
 62
1
 66
1
 70
2
  0
VERTEX
  8
0
 10
1207.890104
 20
1828.759588
 70
0
 42
-0.186677
  0
VERTEX
  8
0
 10
1209.878113
 20
1829.222731
 70
0
  0
SEQEND
  0
POLYLINE
  8
0
  6
CONTINUOUS
 62
1
 66
1
 70
2
  0
VERTEX
  8
0
 10
1224.093985
 20
1829.222731
 70
0
 42
-0.186677
  0
VERTEX
  8
0
 10
1226.081994
 20
1828.759588
 70
0
  0
SEQEND
  0
POLYLINE
  8
0
  6
CONTINUOUS
 62
1
 66
1
 70
2
  0
VERTEX
  8
0
 10
1226.741994
 20
1827.199588
 70
0
 42
-0.408197
  0
VERTEX
  8
0
 10
1226.243509
 20
1826.795720
 70
0
 42
-0.066109
  0
VERTEX
  8
0
 10
1224.753985
 20
1826.622731
 70
0
  0
SEQEND
  0
LINE
  8
0
  6
CONTINUOUS
 62
1
 10
1278.843985
 20
1830.002731
 11
1264.628113
 21
1830.002731
  0
LINE
  8
0
  6
CONTINUOUS
 62
1
 10
1242.728113
 20
1832.602731
 11
1256.943985
 21
1832.602731
  0
LINE
  8
0
  6
CONTINUOUS
 62
1
 10
1263.968113
 20
1832.602731
 11
1279.503985
 21
1832.602731
  0
LINE
  8
0
  6
CONTINUOUS
 62
1
 10
1262.640104
 20
1830.465874
 11
1261.980104
 21
1832.025874
  0
LINE
  8
0
  6
CONTINUOUS
 62
1
 10
1280.831994
 20
1830.465874
 11
1281.491994
 21
1832.025874
  0
LINE
  8
0
  6
CONTINUOUS
 62
1
 10
1240.740104
 20
1832.139588
 11
1240.080104
 21
1830.579588
  0
LINE
  8
0
  6
CONTINUOUS
 62
1
 10
1258.931994
 20
1832.139588
 11
1259.591994
 21
1830.579588
  0
LINE
  8
0
  6
CONTINUOUS
 62
1
 10
1257.603985
 20
1830.002731
 11
1242.068113
 21
1830.002731
  0
POLYLINE
  8
0
  6
CONTINUOUS
 62
1
 66
1
 70
2
  0
VERTEX
  8
0
 10
1242.728113
 20
1832.602731
 70
0
 42
0.186677
  0
VERTEX
  8
0
 10
1240.740104
 20
1832.139588
 70
0
  0
SEQEND
  0
POLYLINE
  8
0
  6
CONTINUOUS
 62
1
 66
1
 70
2
  0
VERTEX
  8
0
 10
1240.080104
 20
1830.579588
 70
0
 42
0.408197
  0
VERTEX
  8
0
 10
1240.578589
 20
1830.175720
 70
0
 42
0.066109
  0
VERTEX
  8
0
 10
1242.068113
 20
1830.002731
 70
0
  0
SEQEND
  0
POLYLINE
  8
0
  6
CONTINUOUS
 62
1
 66
1
 70
2
  0
VERTEX
  8
0
 10
1257.603985
 20
1830.002731
 70
0
 42
0.066109
  0
VERTEX
  8
0
 10
1259.093509
 20
1830.175720
 70
0
 42
0.408197
  0
VERTEX
  8
0
 10
1259.591994
 20
1830.579588
 70
0
  0
SEQEND
  0
POLYLINE
  8
0
  6
CONTINUOUS
 62
1
 66
1
 70
2
  0
VERTEX
  8
0
 10
1256.943985
 20
1832.602731
 70
0
 42
-0.186677
  0
VERTEX
  8
0
 10
1258.931994
 20
1832.139588
 70
0
  0
SEQEND
  0
POLYLINE
  8
0
  6
CONTINUOUS
 62
1
 66
1
 70
2
  0
VERTEX
  8
0
 10
1263.968113
 20
1832.602731
 70
0
 42
0.066109
  0
VERTEX
  8
0
 10
1262.478589
 20
1832.429743
 70
0
 42
0.408197
  0
VERTEX
  8
0
 10
1261.980104
 20
1832.025874
 70
0
  0
SEQEND
  0
POLYLINE
  8
0
  6
CONTINUOUS
 62
1
 66
1
 70
2
  0
VERTEX
  8
0
 10
1262.640104
 20
1830.465874
 70
0
 42
0.186677
  0
VERTEX
  8
0
 10
1264.628113
 20
1830.002731
 70
0
  0
SEQEND
  0
POLYLINE
  8
0
  6
CONTINUOUS
 62
1
 66
1
 70
2
  0
VERTEX
  8
0
 10
1278.843985
 20
1830.002731
 70
0
 42
0.186677
  0
VERTEX
  8
0
 10
1280.831994
 20
1830.465874
 70
0
  0
SEQEND
  0
POLYLINE
  8
0
  6
CONTINUOUS
 62
1
 66
1
 70
2
  0
VERTEX
  8
0
 10
1281.491994
 20
1832.025874
 70
0
 42
0.408197
  0
VERTEX
  8
0
 10
1280.993509
 20
1832.429743
 70
0
 42
0.066109
  0
VERTEX
  8
0
 10
1279.503985
 20
1832.602731
 70
0
  0
SEQEND
  0
LINE
  8
0
  6
CONTINUOUS
 62
1
 10
1267.893985
 20
1829.222731
 11
1253.678113
 21
1829.222731
  0
LINE
  8
0
  6
CONTINUOUS
 62
1
 10
1231.778113
 20
1826.622731
 11
1245.993985
 21
1826.622731
  0
LINE
  8
0
  6
CONTINUOUS
 62
1
 10
1253.018113
 20
1826.622731
 11
1268.553985
 21
1826.622731
  0
LINE
  8
0
  6
CONTINUOUS
 62
1
 10
1251.690104
 20
1828.759588
 11
1251.030104
 21
1827.199588
  0
LINE
  8
0
  6
CONTINUOUS
 62
1
 10
1269.881994
 20
1828.759588
 11
1270.541994
 21
1827.199588
  0
LINE
  8
0
  6
CONTINUOUS
 62
1
 10
1229.790104
 20
1827.085874
 11
1229.130104
 21
1828.645874
  0
LINE
  8
0
  6
CONTINUOUS
 62
1
 10
1247.981994
 20
1827.085874
 11
1248.641994
 21
1828.645874
  0
LINE
  8
0
  6
CONTINUOUS
 62
1
 10
1246.653985
 20
1829.222731
 11
1231.118113
 21
1829.222731
  0
POLYLINE
  8
0
  6
CONTINUOUS
 62
1
 66
1
 70
2
  0
VERTEX
  8
0
 10
1231.778113
 20
1826.622731
 70
0
 42
-0.186677
  0
VERTEX
  8
0
 10
1229.790104
 20
1827.085874
 70
0
  0
SEQEND
  0
POLYLINE
  8
0
  6
CONTINUOUS
 62
1
 66
1
 70
2
  0
VERTEX
  8
0
 10
1229.130104
 20
1828.645874
 70
0
 42
-0.408197
  0
VERTEX
  8
0
 10
1229.628589
 20
1829.049743
 70
0
 42
-0.066109
  0
VERTEX
  8
0
 10
1231.118113
 20
1829.222731
 70
0
  0
SEQEND
  0
POLYLINE
  8
0
  6
CONTINUOUS
 62
1
 66
1
 70
2
  0
VERTEX
  8
0
 10
1246.653985
 20
1829.222731
 70
0
 42
-0.066109
  0
VERTEX
  8
0
 10
1248.143509
 20
1829.049743
 70
0
 42
-0.408197
  0
VERTEX
  8
0
 10
1248.641994
 20
1828.645874
 70
0
  0
SEQEND
  0
POLYLINE
  8
0
  6
CONTINUOUS
 62
1
 66
1
 70
2
  0
VERTEX
  8
0
 10
1245.993985
 20
1826.622731
 70
0
 42
0.186677
  0
VERTEX
  8
0
 10
1247.981994
 20
1827.085874
 70
0
  0
SEQEND
  0
POLYLINE
  8
0
  6
CONTINUOUS
 62
1
 66
1
 70
2
  0
VERTEX
  8
0
 10
1253.018113
 20
1826.622731
 70
0
 42
-0.066109
  0
VERTEX
  8
0
 10
1251.528589
 20
1826.795720
 70
0
 42
-0.408197
  0
VERTEX
  8
0
 10
1251.030104
 20
1827.199588
 70
0
  0
SEQEND
  0
POLYLINE
  8
0
  6
CONTINUOUS
 62
1
 66
1
 70
2
  0
VERTEX
  8
0
 10
1251.690104
 20
1828.759588
 70
0
 42
-0.186677
  0
VERTEX
  8
0
 10
1253.678113
 20
1829.222731
 70
0
  0
SEQEND
  0
POLYLINE
  8
0
  6
CONTINUOUS
 62
1
 66
1
 70
2
  0
VERTEX
  8
0
 10
1267.893985
 20
1829.222731
 70
0
 42
-0.186677
  0
VERTEX
  8
0
 10
1269.881994
 20
1828.759588
 70
0
  0
SEQEND
  0
POLYLINE
  8
0
  6
CONTINUOUS
 62
1
 66
1
 70
2
  0
VERTEX
  8
0
 10
1270.541994
 20
1827.199588
 70
0
 42
-0.408197
  0
VERTEX
  8
0
 10
1270.043509
 20
1826.795720
 70
0
 42
-0.066109
  0
VERTEX
  8
0
 10
1268.553985
 20
1826.622731
 70
0
  0
SEQEND
  0
LINE
  8
0
  6
CONTINUOUS
 62
4
 10
984.986049
 20
1826.622731
 11
985.036884
 21
1826.742887
  0
LINE
  8
0
  6
CONTINUOUS
 62
4
 10
984.405430
 20
1826.622731
 11
984.986049
 21
1826.622731
  0
LINE
  8
0
  6
CONTINUOUS
 62
4
 10
987.986049
 20
1826.622731
 11
988.773303
 21
1826.622731
  0
LINE
  8
0
  6
CONTINUOUS
 62
4
 10
988.067552
 20
1826.815375
 11
987.986049
 21
1826.622731
  0
LINE
  8
0
  6
CONTINUOUS
 62
4
 10
967.186049
 20
1826.622731
 11
967.135214
 21
1826.742887
  0
LINE
  8
0
  6
CONTINUOUS
 62
4
 10
967.766668
 20
1826.622731
 11
967.186049
 21
1826.622731
  0
LINE
  8
0
  6
CONTINUOUS
 62
1
 10
1108.881368
 20
1780.278596
 11
811.769515
 21
1780.278596
  0
LINE
  8
0
  6
CONTINUOUS
 62
1
 10
1408.881368
 20
1780.278596
 11
1114.657204
 21
1780.278596
  0
LINE
  8
0
  6
CONTINUOUS
 62
1
 10
946.094032
 20
1672.578596
 11
1133.945596
 21
1672.578596
  0
LINE
  8
0
  6
CONTINUOUS
 62
1
 10
946.094032
 20
1642.578596
 11
1133.945596
 21
1642.578596
  0
ARC
  8
0
  6
CONTINUOUS
 62
1
 10
984.520097
 20
1657.578596
 40
46.250000
 50
168.239471
 51
191.760529
  0
ARC
  8
0
  6
CONTINUOUS
 62
1
 10
946.094032
 20
1665.578596
 40
7.000000
 50
90.000000
 51
168.239471
  0
ARC
  8
0
  6
CONTINUOUS
 62
1
 10
946.094032
 20
1649.578596
 40
7.000000
 50
191.760529
 51
270.000000
  0
ARC
  8
0
  6
CONTINUOUS
 62
1
 10
1095.519530
 20
1657.578596
 40
46.250000
 50
348.239471
 51
11.760529
  0
ARC
  8
0
  6
CONTINUOUS
 62
1
 10
1133.945596
 20
1649.578596
 40
7.000000
 50
270.000000
 51
348.239471
  0
ARC
  8
0
  6
CONTINUOUS
 62
1
 10
1133.945596
 20
1665.578596
 40
7.000000
 50
11.760529
 51
90.000000
  0
LINE
  8
0
  6
CONTINUOUS
 62
1
 10
1477.445029
 20
1672.578596
 11
1289.593465
 21
1672.578596
  0
LINE
  8
0
  6
CONTINUOUS
 62
1
 10
1477.445029
 20
1642.578596
 11
1289.593465
 21
1642.578596
  0
ARC
  8
0
  6
CONTINUOUS
 62
1
 10
1439.018963
 20
1657.578596
 40
46.250000
 50
348.239471
 51
11.760529
  0
ARC
  8
0
  6
CONTINUOUS
 62
1
 10
1477.445029
 20
1665.578596
 40
7.000000
 50
11.760529
 51
90.000000
  0
ARC
  8
0
  6
CONTINUOUS
 62
1
 10
1477.445029
 20
1649.578596
 40
7.000000
 50
270.000000
 51
348.239471
  0
ARC
  8
0
  6
CONTINUOUS
 62
1
 10
1328.019530
 20
1657.578596
 40
46.250000
 50
168.239471
 51
191.760529
  0
ARC
  8
0
  6
CONTINUOUS
 62
1
 10
1289.593465
 20
1649.578596
 40
7.000000
 50
191.760529
 51
270.000000
  0
ARC
  8
0
  6
CONTINUOUS
 62
1
 10
1289.593465
 20
1665.578596
 40
7.000000
 50
90.000000
 51
168.239471
  0
LINE
  8
0
  6
CONTINUOUS
 62
1
 10
1294.902801
 20
1796.561100
 11
1264.483202
 21
1796.561100
  0
LINE
  8
0
  6
CONTINUOUS
 62
1
 10
1296.644116
 20
1798.136968
 11
1297.544116
 21
1807.136968
  0
ARC
  8
0
  6
CONTINUOUS
 62
1
 10
1229.670258
 20
1807.311100
 40
1.750000
 50
90.000000
 51
185.710593
  0
ARC
  8
0
  6
CONTINUOUS
 62
1
 10
1230.570258
 20
1798.311100
 40
1.750000
 50
185.710593
 51
270.000000
  0
ARC
  8
0
  6
CONTINUOUS
 62
1
 10
1295.802801
 20
1807.311100
 40
1.750000
 50
354.289407
 51
90.000000
  0
ARC
  8
0
  6
CONTINUOUS
 62
1
 10
1294.902801
 20
1798.311100
 40
1.750000
 50
270.000000
 51
354.289407
  0
LINE
  8
0
  6
CONTINUOUS
 62
1
 10
1295.802801
 20
1808.061100
 11
1229.670258
 21
1808.061100
  0
LINE
  8
0
  6
CONTINUOUS
 62
1
 10
1229.823980
 20
1798.236472
 11
1228.923980
 21
1807.236472
  0
ARC
  8
0
  6
CONTINUOUS
 62
1
 10
1230.570258
 20
1798.311100
 40
0.750000
 50
185.710593
 51
270.000000
  0
ARC
  8
0
  6
CONTINUOUS
 62
1
 10
1229.670258
 20
1807.311100
 40
0.750000
 50
90.000000
 51
185.710593
  0
LINE
  8
0
  6
CONTINUOUS
 62
1
 10
1230.570258
 20
1797.561100
 11
1264.300130
 21
1797.561100
  0
ARC
  8
0
  6
CONTINUOUS
 62
1
 10
1294.902801
 20
1798.311100
 40
0.750000
 50
270.000000
 51
354.289407
  0
LINE
  8
0
  6
CONTINUOUS
 62
1
 10
1296.549079
 20
1807.236472
 11
1295.649079
 21
1798.236472
  0
ARC
  8
0
  6
CONTINUOUS
 62
1
 10
1295.802801
 20
1807.311100
 40
0.750000
 50
354.289407
 51
90.000000
  0
LINE
  8
0
  6
CONTINUOUS
 62
1
 10
1229.670258
 20
1809.061100
 11
1295.802801
 21
1809.061100
  0
LINE
  8
0
  6
CONTINUOUS
 62
1
 10
1227.928943
 20
1807.136968
 11
1228.828943
 21
1798.136968
  0
LINE
  8
0
  6
CONTINUOUS
 62
1
 10
1231.749703
 20
1803.077350
 11
1231.749703
 21
1805.473600
  0
LINE
  8
0
  6
CONTINUOUS
 62
1
 10
1231.749703
 20
1805.473600
 11
1234.012828
 21
1805.473600
  0
LINE
  8
0
  6
CONTINUOUS
 62
1
 10
1234.012828
 20
1805.473600
 11
1235.943141
 21
1805.473600
  0
ARC
  8
0
  6
CONTINUOUS
 62
1
 10
1236.074840
 20
1802.037791
 40
3.438332
 50
67.195153
 51
92.195154
  0
ARC
  8
0
  6
CONTINUOUS
 62
1
 10
1236.669466
 20
1803.950954
 40
1.457137
 50
15.568594
 51
59.568592
  0
ARC
  8
0
  6
CONTINUOUS
 62
1
 10
1233.051114
 20
1802.908499
 40
5.222623
 50
358.931407
 51
15.931408
  0
ARC
  8
0
  6
CONTINUOUS
 62
1
 10
1233.051114
 20
1802.713701
 40
5.222623
 50
344.068591
 51
1.068592
  0
ARC
  8
0
  6
CONTINUOUS
 62
1
 10
1236.651359
 20
1801.690573
 40
1.479831
 50
294.898706
 51
343.898705
  0
ARC
  8
0
  6
CONTINUOUS
 62
1
 10
1235.998184
 20
1804.274186
 40
4.128121
 50
272.007979
 51
288.007980
  0
LINE
  8
0
  6
CONTINUOUS
 62
1
 10
1236.142828
 20
1800.148600
 11
1233.813141
 21
1800.148600
  0
LINE
  8
0
  6
CONTINUOUS
 62
1
 10
1233.813141
 20
1800.148600
 11
1231.749703
 21
1800.148600
  0
LINE
  8
0
  6
CONTINUOUS
 62
1
 10
1231.749703
 20
1800.148600
 11
1231.749703
 21
1803.077350
  0
ARC
  8
0
  6
CONTINUOUS
 62
1
 10
1242.202320
 20
1801.946248
 40
2.931820
 50
181.309932
 51
201.309932
  0
ARC
  8
0
  6
CONTINUOUS
 62
1
 10
1251.020595
 20
1802.793981
 40
11.784885
 50
172.451842
 51
184.451842
  0
ARC
  8
0
  6
CONTINUOUS
 62
1
 10
1240.491441
 20
1804.237866
 40
1.158306
 50
107.840192
 51
174.840192
  0
ARC
  8
0
  6
CONTINUOUS
 62
1
 10
1241.120165
 20
1801.901768
 40
3.576611
 50
92.962322
 51
105.962322
  0
ARC
  8
0
  6
CONTINUOUS
 62
1
 10
1242.699235
 20
1765.073504
 40
40.438584
 50
87.500000
 51
92.500000
  0
ARC
  8
0
  6
CONTINUOUS
 62
1
 10
1244.070846
 20
1802.592998
 40
2.907192
 50
67.244882
 51
82.244881
  0
ARC
  8
0
  6
CONTINUOUS
 62
1
 10
1244.676430
 20
1804.349779
 40
1.059848
 50
21.685924
 51
60.685925
  0
ARC
  8
0
  6
CONTINUOUS
 62
1
 10
1243.118647
 20
1803.709233
 40
2.744140
 50
2.094757
 51
22.094757
  0
ARC
  8
0
  6
CONTINUOUS
 62
1
 10
1234.111624
 20
1802.894781
 40
11.784885
 50
352.451842
 51
4.451842
  0
ARC
  8
0
  6
CONTINUOUS
 62
1
 10
1244.187885
 20
1801.547392
 40
1.618990
 50
321.880135
 51
352.880135
  0
ARC
  8
0
  6
CONTINUOUS
 62
1
 10
1244.533706
 20
1801.617480
 40
1.415905
 50
277.943953
 51
310.943955
  0
ARC
  8
0
  6
CONTINUOUS
 62
1
 10
1243.008760
 20
1810.487329
 40
10.415276
 50
272.509006
 51
279.509006
  0
LINE
  8
0
  6
CONTINUOUS
 62
1
 10
1243.464703
 20
1800.082037
 11
1241.068453
 21
1800.082037
  0
ARC
  8
0
  6
CONTINUOUS
 62
1
 10
1241.199623
 20
1803.333824
 40
3.254431
 50
249.690068
 51
267.690068
  0
ARC
  8
0
  6
CONTINUOUS
 62
1
 10
1240.511850
 20
1801.322622
 40
1.130789
 50
203.000001
 51
247.000000
  0
LINE
  8
0
  6
CONTINUOUS
 62
1
 10
1248.474703
 20
1800.148600
 11
1246.992516
 21
1800.148600
  0
LINE
  8
0
  6
CONTINUOUS
 62
1
 10
1246.992516
 20
1800.148600
 11
1246.992516
 21
1802.877662
  0
LINE
  8
0
  6
CONTINUOUS
 62
1
 10
1246.992516
 20
1802.877662
 11
1246.992516
 21
1805.473600
  0
LINE
  8
0
  6
CONTINUOUS
 62
1
 10
1246.992516
 20
1805.473600
 11
1249.070761
 21
1805.473600
  0
LINE
  8
0
  6
CONTINUOUS
 62
1
 10
1253.294102
 20
1805.473600
 11
1255.312828
 21
1805.473600
  0
LINE
  8
0
  6
CONTINUOUS
 62
1
 10
1255.312828
 20
1805.473600
 11
1255.312828
 21
1802.744537
  0
LINE
  8
0
  6
CONTINUOUS
 62
1
 10
1255.312828
 20
1802.744537
 11
1255.312828
 21
1800.148600
  0
LINE
  8
0
  6
CONTINUOUS
 62
1
 10
1255.312828
 20
1800.148600
 11
1253.830641
 21
1800.148600
  0
LINE
  8
0
  6
CONTINUOUS
 62
1
 10
1253.830641
 20
1803.716256
 11
1251.452203
 21
1800.148600
  0
LINE
  8
0
  6
CONTINUOUS
 62
1
 10
1251.452203
 20
1800.148600
 11
1250.919703
 21
1800.148600
  0
LINE
  8
0
  6
CONTINUOUS
 62
1
 10
1250.919703
 20
1800.148600
 11
1249.455328
 21
1802.278600
  0
LINE
  8
0
  6
CONTINUOUS
 62
1
 10
1249.455328
 20
1802.278600
 11
1248.474703
 21
1803.711821
  0
LINE
  8
0
  6
CONTINUOUS
 62
1
 10
1256.269078
 20
1805.473600
 11
1257.684703
 21
1805.473600
  0
LINE
  8
0
  6
CONTINUOUS
 62
1
 10
1257.684703
 20
1800.148600
 11
1256.269078
 21
1800.148600
  0
LINE
  8
0
  6
CONTINUOUS
 62
1
 10
1258.574391
 20
1803.277037
 11
1258.574391
 21
1805.473600
  0
LINE
  8
0
  6
CONTINUOUS
 62
1
 10
1258.574391
 20
1805.473600
 11
1260.633488
 21
1805.473600
  0
LINE
  8
0
  6
CONTINUOUS
 62
1
 10
1263.482203
 20
1805.473600
 11
1264.897828
 21
1805.473600
  0
LINE
  8
0
  6
CONTINUOUS
 62
1
 10
1264.897828
 20
1805.473600
 11
1264.897828
 21
1802.944225
  0
LINE
  8
0
  6
CONTINUOUS
 62
1
 10
1264.897828
 20
1802.944225
 11
1264.897828
 21
1800.148600
  0
LINE
  8
0
  6
CONTINUOUS
 62
1
 10
1264.897828
 20
1800.148600
 11
1263.899391
 21
1800.148600
  0
LINE
  8
0
  6
CONTINUOUS
 62
1
 10
1263.899391
 20
1800.148600
 11
1259.990016
 21
1804.057975
  0
LINE
  8
0
  6
CONTINUOUS
 62
1
 10
1259.990016
 20
1800.148600
 11
1258.574391
 21
1800.148600
  0
LINE
  8
0
  6
CONTINUOUS
 62
1
 10
1258.574391
 20
1800.148600
 11
1258.574391
 21
1803.277037
  0
LINE
  8
0
  6
CONTINUOUS
 62
1
 10
1267.427203
 20
1803.277037
 11
1268.691891
 21
1805.473600
  0
LINE
  8
0
  6
CONTINUOUS
 62
1
 10
1268.691891
 20
1805.473600
 11
1269.623766
 21
1805.473600
  0
LINE
  8
0
  6
CONTINUOUS
 62
1
 10
1269.623766
 20
1805.473600
 11
1271.088141
 21
1803.010787
  0
LINE
  8
0
  6
CONTINUOUS
 62
1
 10
1271.088141
 20
1803.010787
 11
1272.685641
 21
1800.148600
  0
LINE
  8
0
  6
CONTINUOUS
 62
1
 10
1272.685641
 20
1800.148600
 11
1271.101167
 21
1800.148600
  0
LINE
  8
0
  6
CONTINUOUS
 62
1
 10
1267.310536
 20
1800.148600
 11
1265.696578
 21
1800.148600
  0
LINE
  8
0
  6
CONTINUOUS
 62
1
 10
1265.696578
 20
1800.148600
 11
1267.427203
 21
1803.277037
  0
LINE
  8
0
  6
CONTINUOUS
 62
1
 10
1276.788141
 20
1800.148600
 11
1275.305953
 21
1800.148600
  0
LINE
  8
0
  6
CONTINUOUS
 62
1
 10
1273.085016
 20
1804.124537
 11
1273.085016
 21
1805.473600
  0
LINE
  8
0
  6
CONTINUOUS
 62
1
 10
1273.085016
 20
1805.473600
 11
1276.080328
 21
1805.473600
  0
LINE
  8
0
  6
CONTINUOUS
 62
1
 10
1276.080328
 20
1805.473600
 11
1279.009078
 21
1805.473600
  0
LINE
  8
0
  6
CONTINUOUS
 62
1
 10
1279.009078
 20
1805.473600
 11
1279.009078
 21
1804.124537
  0
ARC
  8
0
  6
CONTINUOUS
 62
1
 10
1282.738882
 20
1801.946248
 40
2.931820
 50
181.309932
 51
201.309932
  0
ARC
  8
0
  6
CONTINUOUS
 62
1
 10
1291.557157
 20
1802.793981
 40
11.784885
 50
172.451842
 51
184.451842
  0
ARC
  8
0
  6
CONTINUOUS
 62
1
 10
1281.028003
 20
1804.237866
 40
1.158306
 50
107.840192
 51
174.840192
  0
ARC
  8
0
  6
CONTINUOUS
 62
1
 10
1281.656727
 20
1801.901768
 40
3.576611
 50
92.962322
 51
105.962322
  0
ARC
  8
0
  6
CONTINUOUS
 62
1
 10
1283.235797
 20
1765.073504
 40
40.438584
 50
87.500000
 51
92.500000
  0
ARC
  8
0
  6
CONTINUOUS
 62
1
 10
1284.607408
 20
1802.592998
 40
2.907192
 50
67.244882
 51
82.244881
  0
ARC
  8
0
  6
CONTINUOUS
 62
1
 10
1285.212993
 20
1804.349779
 40
1.059848
 50
21.685924
 51
60.685925
  0
ARC
  8
0
  6
CONTINUOUS
 62
1
 10
1283.655209
 20
1803.709233
 40
2.744140
 50
2.094757
 51
22.094757
  0
ARC
  8
0
  6
CONTINUOUS
 62
1
 10
1274.648187
 20
1802.894781
 40
11.784885
 50
352.451842
 51
4.451842
  0
ARC
  8
0
  6
CONTINUOUS
 62
1
 10
1284.724447
 20
1801.547392
 40
1.618990
 50
321.880135
 51
352.880135
  0
ARC
  8
0
  6
CONTINUOUS
 62
1
 10
1285.070269
 20
1801.617480
 40
1.415905
 50
277.943953
 51
310.943955
  0
ARC
  8
0
  6
CONTINUOUS
 62
1
 10
1283.545322
 20
1810.487329
 40
10.415276
 50
272.509006
 51
279.509006
  0
LINE
  8
0
  6
CONTINUOUS
 62
1
 10
1284.001266
 20
1800.082037
 11
1281.605016
 21
1800.082037
  0
ARC
  8
0
  6
CONTINUOUS
 62
1
 10
1281.736186
 20
1803.333824
 40
3.254431
 50
249.690068
 51
267.690068
  0
ARC
  8
0
  6
CONTINUOUS
 62
1
 10
1281.048413
 20
1801.322622
 40
1.130789
 50
203.000001
 51
247.000000
  0
LINE
  8
0
  6
CONTINUOUS
 62
1
 10
1287.662203
 20
1802.811100
 11
1287.662203
 21
1805.473600
  0
LINE
  8
0
  6
CONTINUOUS
 62
1
 10
1287.662203
 20
1805.473600
 11
1289.925328
 21
1805.473600
  0
LINE
  8
0
  6
CONTINUOUS
 62
1
 10
1289.925328
 20
1805.473600
 11
1292.188453
 21
1805.473600
  0
ARC
  8
0
  6
CONTINUOUS
 62
1
 10
1292.228689
 20
1803.252203
 40
2.221762
 50
70.037678
 51
91.037678
  0
ARC
  8
0
  6
CONTINUOUS
 62
1
 10
1292.597860
 20
1804.352069
 40
1.062325
 50
21.499998
 51
68.500000
  0
ARC
  8
0
  6
CONTINUOUS
 62
1
 10
1291.199113
 20
1803.931262
 40
2.520882
 50
358.746162
 51
18.746162
  0
ARC
  8
0
  6
CONTINUOUS
 62
1
 10
1291.701242
 20
1803.743688
 40
2.022488
 50
338.753837
 51
3.753838
  0
ARC
  8
0
  6
CONTINUOUS
 62
1
 10
1292.592926
 20
1803.607000
 40
1.158531
 50
283.027374
 51
329.027373
  0
ARC
  8
0
  6
CONTINUOUS
 62
1
 10
1292.748717
 20
1801.548310
 40
0.935927
 50
34.536244
 51
83.536243
  0
ARC
  8
0
  6
CONTINUOUS
 62
1
 10
1292.020506
 20
1801.432948
 40
1.632441
 50
359.309933
 51
23.309932
  0
LINE
  8
0
  6
CONTINUOUS
 62
1
 10
1293.652828
 20
1801.413287
 11
1293.652828
 21
1800.148600
  0
LINE
  8
0
  6
CONTINUOUS
 62
1
 10
1293.652828
 20
1800.148600
 11
1292.170641
 21
1800.148600
  0
LINE
  8
0
  6
CONTINUOUS
 62
1
 10
1289.077828
 20
1800.148600
 11
1287.662203
 21
1800.148600
  0
LINE
  8
0
  6
CONTINUOUS
 62
1
 10
1287.662203
 20
1800.148600
 11
1287.662203
 21
1802.811100
  0
LINE
  8
0
  6
CONTINUOUS
 62
1
 10
1233.165328
 20
1801.497662
 11
1233.165328
 21
1804.124537
  0
LINE
  8
0
  6
CONTINUOUS
 62
1
 10
1233.165328
 20
1804.124537
 11
1235.743453
 21
1804.124537
  0
LINE
  8
0
  6
CONTINUOUS
 62
1
 10
1236.142828
 20
1801.497662
 11
1233.165328
 21
1801.497662
  0
ARC
  8
0
  6
CONTINUOUS
 62
1
 10
1236.240307
 20
1802.119289
 40
0.625086
 50
265.934949
 51
310.934948
  0
ARC
  8
0
  6
CONTINUOUS
 62
1
 10
1236.252126
 20
1801.941061
 40
0.487408
 50
315.934949
 51
350.934948
  0
ARC
  8
0
  6
CONTINUOUS
 62
1
 10
1231.245416
 20
1802.844381
 40
5.574750
 50
350.000000
 51
10.000000
  0
ARC
  8
0
  6
CONTINUOUS
 62
1
 10
1236.060035
 20
1803.549062
 40
0.717801
 50
15.554604
 51
42.554604
  0
ARC
  8
0
  6
CONTINUOUS
 62
1
 10
1236.488393
 20
1803.901604
 40
0.164329
 50
44.434949
 51
82.434950
  0
ARC
  8
0
  6
CONTINUOUS
 62
1
 10
1235.541065
 20
1796.585683
 40
7.541325
 50
82.601295
 51
88.601295
  0
ARC
  8
0
  6
CONTINUOUS
 62
1
 10
1242.323134
 20
1779.140276
 40
25.018156
 50
86.270740
 51
92.597722
  0
ARC
  8
0
  6
CONTINUOUS
 62
1
 10
1242.519560
 20
1814.550040
 40
13.118947
 50
264.068276
 51
270.054813
  0
ARC
  8
0
  6
CONTINUOUS
 62
1
 10
1242.685509
 20
1813.434013
 40
12.003827
 50
269.314075
 51
276.164339
  0
ARC
  8
0
  6
CONTINUOUS
 62
1
 10
1254.174652
 20
1802.844381
 40
13.486742
 50
176.517529
 51
183.733858
  0
ARC
  8
0
  6
CONTINUOUS
 62
1
 10
1230.957567
 20
1802.777819
 40
13.486742
 50
356.551732
 51
3.658589
  0
ARC
  8
0
  6
CONTINUOUS
 62
1
 10
1241.211891
 20
1803.633237
 40
0.500000
 50
92.597722
 51
176.517529
  0
ARC
  8
0
  6
CONTINUOUS
 62
1
 10
1243.917842
 20
1803.606516
 40
0.500000
 50
3.658589
 51
86.270740
  0
ARC
  8
0
  6
CONTINUOUS
 62
1
 10
1243.920797
 20
1801.996701
 40
0.500000
 50
276.164339
 51
356.551732
  0
ARC
  8
0
  6
CONTINUOUS
 62
1
 10
1241.215477
 20
1801.998659
 40
0.500000
 50
183.733858
 51
264.068276
  0
ARC
  8
0
  6
CONTINUOUS
 62
1
 10
1282.859697
 20
1779.140276
 40
25.018156
 50
86.270740
 51
92.597722
  0
ARC
  8
0
  6
CONTINUOUS
 62
1
 10
1283.056123
 20
1814.550040
 40
13.118947
 50
264.068276
 51
270.054813
  0
ARC
  8
0
  6
CONTINUOUS
 62
1
 10
1283.222071
 20
1813.434013
 40
12.003827
 50
269.314075
 51
276.164339
  0
ARC
  8
0
  6
CONTINUOUS
 62
1
 10
1294.711215
 20
1802.844381
 40
13.486742
 50
176.517529
 51
183.733858
  0
ARC
  8
0
  6
CONTINUOUS
 62
1
 10
1271.494129
 20
1802.777819
 40
13.486742
 50
356.551732
 51
3.658589
  0
ARC
  8
0
  6
CONTINUOUS
 62
1
 10
1281.748454
 20
1803.633237
 40
0.500000
 50
92.597722
 51
176.517529
  0
ARC
  8
0
  6
CONTINUOUS
 62
1
 10
1284.454404
 20
1803.606516
 40
0.500000
 50
3.658589
 51
86.270740
  0
ARC
  8
0
  6
CONTINUOUS
 62
1
 10
1284.457359
 20
1801.996701
 40
0.500000
 50
276.164339
 51
356.551732
  0
ARC
  8
0
  6
CONTINUOUS
 62
1
 10
1281.752039
 20
1801.998659
 40
0.500000
 50
183.733858
 51
264.068276
  0
LINE
  8
0
  6
CONTINUOUS
 62
1
 10
1248.474703
 20
1800.148600
 11
1248.474703
 21
1803.711821
  0
LINE
  8
0
  6
CONTINUOUS
 62
1
 10
1253.830641
 20
1803.716256
 11
1253.830641
 21
1800.148600
  0
LINE
  8
0
  6
CONTINUOUS
 62
1
 10
1253.294102
 20
1805.473600
 11
1251.185153
 21
1802.352355
  0
LINE
  8
0
  6
CONTINUOUS
 62
1
 10
1251.185153
 20
1802.352355
 11
1249.070761
 21
1805.473600
  0
LINE
  8
0
  6
CONTINUOUS
 62
1
 10
1259.990016
 20
1800.148600
 11
1259.990016
 21
1804.057975
  0
LINE
  8
0
  6
CONTINUOUS
 62
1
 10
1263.482203
 20
1805.473600
 11
1263.482203
 21
1802.624885
  0
LINE
  8
0
  6
CONTINUOUS
 62
1
 10
1263.482203
 20
1802.624885
 11
1260.633488
 21
1805.473600
  0
LINE
  8
0
  6
CONTINUOUS
 62
1
 10
1267.310536
 20
1800.148600
 11
1267.738158
 21
1800.905162
  0
LINE
  8
0
  6
CONTINUOUS
 62
1
 10
1269.170091
 20
1803.438582
 11
1269.865257
 21
1802.254225
  0
LINE
  8
0
  6
CONTINUOUS
 62
1
 10
1292.170641
 20
1801.587037
 11
1292.170641
 21
1800.148600
  0
LINE
  8
0
  6
CONTINUOUS
 62
1
 10
1289.077828
 20
1803.186100
 11
1289.077828
 21
1804.124537
  0
LINE
  8
0
  6
CONTINUOUS
 62
1
 10
1289.077828
 20
1804.124537
 11
1292.014980
 21
1804.124537
  0
ARC
  8
0
  6
CONTINUOUS
 62
1
 10
1290.791568
 20
1803.831787
 40
1.474159
 50
341.141530
 51
2.001319
  0
LINE
  8
0
  6
CONTINUOUS
 62
1
 10
1289.077828
 20
1800.148600
 11
1289.077828
 21
1801.837037
  0
LINE
  8
0
  6
CONTINUOUS
 62
1
 10
1291.950014
 20
1803.186100
 11
1289.077828
 21
1803.186100
  0
LINE
  8
0
  6
CONTINUOUS
 62
1
 10
1289.077828
 20
1801.837037
 11
1291.920641
 21
1801.837037
  0
LINE
  8
0
  6
CONTINUOUS
 62
1
 10
1275.305953
 20
1804.124537
 11
1275.305953
 21
1800.148600
  0
LINE
  8
0
  6
CONTINUOUS
 62
1
 10
1276.788141
 20
1800.148600
 11
1276.788141
 21
1804.124537
  0
LINE
  8
0
  6
CONTINUOUS
 62
1
 10
1269.865257
 20
1802.254225
 11
1268.500671
 21
1802.254225
  0
LINE
  8
0
  6
CONTINUOUS
 62
1
 10
1267.738158
 20
1800.905162
 11
1270.657098
 21
1800.905162
  0
LINE
  8
0
  6
CONTINUOUS
 62
1
 10
1268.500671
 20
1802.254225
 11
1269.170091
 21
1803.438582
  0
LINE
  8
0
  6
CONTINUOUS
 62
1
 10
1270.657098
 20
1800.905162
 11
1271.101167
 21
1800.148600
  0
LINE
  8
0
  6
CONTINUOUS
 62
1
 10
1273.085016
 20
1804.124537
 11
1275.305953
 21
1804.124537
  0
LINE
  8
0
  6
CONTINUOUS
 62
1
 10
1276.788141
 20
1804.124537
 11
1279.009078
 21
1804.124537
  0
ARC
  8
0
  6
CONTINUOUS
 62
1
 10
1291.920641
 20
1801.587037
 40
0.250000
 50
0.000000
 51
90.000000
  0
ARC
  8
0
  6
CONTINUOUS
 62
1
 10
1291.950014
 20
1803.436100
 40
0.250000
 50
270.000000
 51
341.141530
  0
ARC
  8
0
  6
CONTINUOUS
 62
1
 10
1292.014980
 20
1803.874537
 40
0.250000
 50
2.001319
 51
90.000000
  0
LINE
  8
0
  6
CONTINUOUS
 62
1
 10
1256.269078
 20
1805.473600
 11
1256.269078
 21
1800.148600
  0
LINE
  8
0
  6
CONTINUOUS
 62
1
 10
1257.684703
 20
1800.148600
 11
1257.684703
 21
1805.473600
  0
LINE
  8
0
  6
CONTINUOUS
 62
1
 10
1264.300130
 20
1797.561100
 11
1294.902801
 21
1797.561100
  0
LINE
  8
0
  6
CONTINUOUS
 62
1
 10
1264.483202
 20
1796.561100
 11
1230.570258
 21
1796.561100
  0
LINE
  8
0
  6
CONTINUOUS
 62
1
 10
1644.269530
 20
1130.078596
 11
1679.269530
 21
1130.078596
  0
LINE
  8
0
  6
CONTINUOUS
 62
1
 10
1679.269530
 20
1130.078596
 11
1679.269530
 21
1185.078596
  0
LINE
  8
0
  6
CONTINUOUS
 62
1
 10
1679.269530
 20
1185.078596
 11
1644.269530
 21
1185.078596
  0
LINE
  8
0
  6
CONTINUOUS
 62
1
 10
1644.269530
 20
1185.078596
 11
1644.269530
 21
1130.078596
  0
LINE
  8
0
  6
CONTINUOUS
 62
1
 10
1613.169530
 20
1695.150237
 11
1710.169530
 21
1695.150237
  0
LINE
  8
0
  6
CONTINUOUS
 62
1
 10
1710.169530
 20
1205.150237
 11
1613.169530
 21
1205.150237
  0
LINE
  8
0
  6
CONTINUOUS
 62
1
 10
1611.569530
 20
1694.350237
 11
1611.569530
 21
1205.950237
  0
LINE
  8
0
  6
CONTINUOUS
 62
1
 10
1711.769530
 20
1205.950237
 11
1711.769530
 21
1694.350237
  0
LINE
  8
0
  6
CONTINUOUS
 62
1
 10
1613.169530
 20
1695.150237
 11
1613.169530
 21
1205.150237
  0
LINE
  8
0
  6
CONTINUOUS
 62
1
 10
1710.169530
 20
1205.150237
 11
1710.169530
 21
1695.150237
  0
LINE
  8
0
  6
CONTINUOUS
 62
1
 10
1711.769530
 20
1694.350237
 11
1710.169530
 21
1694.350237
  0
LINE
  8
0
  6
CONTINUOUS
 62
1
 10
1611.569530
 20
1205.950237
 11
1613.169530
 21
1205.950237
  0
LINE
  8
0
  6
CONTINUOUS
 62
1
 10
1710.169530
 20
1205.950237
 11
1711.769530
 21
1205.950237
  0
LINE
  8
0
  6
CONTINUOUS
 62
1
 10
1613.169530
 20
1694.350237
 11
1611.569530
 21
1694.350237
  0
CIRCLE
  8
0
  6
CONTINUOUS
 62
1
 10
1621.669530
 20
1213.650237
 40
3.200000
  0
CIRCLE
  8
0
  6
CONTINUOUS
 62
1
 10
1701.669530
 20
1213.650237
 40
3.200000
  0
CIRCLE
  8
0
  6
CONTINUOUS
 62
1
 10
1661.669530
 20
1687.150237
 40
3.200000
  0
LINE
  8
0
  6
CONTINUOUS
 62
1
 10
1629.669530
 20
1285.150237
 11
1673.669530
 21
1285.150237
  0
LINE
  8
0
  6
CONTINUOUS
 62
1
 10
1673.669530
 20
1285.150237
 11
1673.669530
 21
1300.650237
  0
LINE
  8
0
  6
CONTINUOUS
 62
1
 10
1629.669530
 20
1285.150237
 11
1629.669530
 21
1300.650237
  0
LINE
  8
0
  6
CONTINUOUS
 62
1
 10
1664.169530
 20
1310.150237
 11
1663.669530
 21
1310.150237
  0
ARC
  8
0
  6
CONTINUOUS
 62
1
 10
1639.169530
 20
1300.650237
 40
9.500000
 50
90.000000
 51
180.000000
  0
ARC
  8
0
  6
CONTINUOUS
 62
1
 10
1664.169530
 20
1300.650237
 40
9.500000
 50
0.000000
 51
90.000000
  0
LINE
  8
0
  6
CONTINUOUS
 62
1
 10
1659.669530
 20
1314.150237
 11
1659.669530
 21
1328.650237
  0
LINE
  8
0
  6
CONTINUOUS
 62
1
 10
1643.669530
 20
1314.150237
 11
1643.669530
 21
1328.650237
  0
LINE
  8
0
  6
CONTINUOUS
 62
1
 10
1639.669530
 20
1310.150237
 11
1639.169530
 21
1310.150237
  0
ARC
  8
0
  6
CONTINUOUS
 62
1
 10
1639.669530
 20
1314.150237
 40
4.000000
 50
270.000000
 51
0.000000
  0
ARC
  8
0
  6
CONTINUOUS
 62
1
 10
1663.669530
 20
1314.150237
 40
4.000000
 50
180.000000
 51
270.000000
  0
CIRCLE
  8
0
  6
CONTINUOUS
 62
1
 10
1661.669530
 20
1640.150237
 40
4.800000
  0
CIRCLE
  8
0
  6
CONTINUOUS
 62
1
 10
1661.669530
 20
1544.650237
 40
4.800000
  0
CIRCLE
  8
0
  6
CONTINUOUS
 62
1
 10
1633.169530
 20
1350.650237
 40
9.000000
  0
CIRCLE
  8
0
  6
CONTINUOUS
 62
1
 10
1661.669530
 20
1482.150237
 40
8.000000
  0
LINE
  8
0
  6
CONTINUOUS
 62
1
 10
1672.469530
 20
1518.149991
 11
1671.418376
 21
1518.149991
  0
LINE
  8
0
  6
CONTINUOUS
 62
1
 10
1672.469530
 20
1516.149991
 11
1671.418376
 21
1516.149991
  0
LINE
  8
0
  6
CONTINUOUS
 62
1
 10
1672.469530
 20
1518.149991
 11
1672.469530
 21
1516.149991
  0
LINE
  8
0
  6
CONTINUOUS
 62
1
 10
1645.469530
 20
1328.650237
 11
1645.469530
 21
1328.150237
  0
LINE
  8
0
  6
CONTINUOUS
 62
1
 10
1657.869530
 20
1328.650237
 11
1657.869530
 21
1328.150237
  0
LINE
  8
0
  6
CONTINUOUS
 62
1
 10
1657.869530
 20
1328.150237
 11
1645.469530
 21
1328.150237
  0
ARC
  8
0
  6
CONTINUOUS
 62
1
 10
1644.569530
 20
1328.650237
 40
0.900000
 50
0.000000
 51
180.000000
  0
ARC
  8
0
  6
CONTINUOUS
 62
1
 10
1658.769530
 20
1328.650237
 40
0.900000
 50
0.000000
 51
180.000000
  0
LINE
  8
0
  6
CONTINUOUS
 62
1
 10
1645.469530
 20
1328.650237
 11
1657.869530
 21
1328.650237
  0
ARC
  8
0
  6
CONTINUOUS
 62
1
 10
1661.669530
 20
1517.149991
 40
9.800000
 50
5.856702
 51
354.143298
  0
LINE
  8
0
  6
CONTINUOUS
 62
1
 10
1691.669530
 20
1644.655308
 11
1691.669530
 21
1635.363407
  0
LINE
  8
0
  6
CONTINUOUS
 62
1
 10
1688.669530
 20
1644.655308
 11
1688.669530
 21
1635.363407
  0
ARC
  8
0
  6
CONTINUOUS
 62
1
 10
1690.169530
 20
1644.655308
 40
1.500000
 50
0.000000
 51
180.000000
  0
LINE
  8
0
  6
CONTINUOUS
 62
1
 10
1691.669530
 20
1637.660103
 11
1688.669530
 21
1637.660103
  0
ARC
  8
0
  6
CONTINUOUS
 62
1
 10
1690.169530
 20
1631.655308
 40
4.000000
 50
0.000000
 51
67.975687
  0
ARC
  8
0
  6
CONTINUOUS
 62
1
 10
1690.169530
 20
1631.655308
 40
4.000000
 50
112.024313
 51
0.000000
  0
CIRCLE
  8
0
  6
CONTINUOUS
 62
1
 10
1685.124203
 20
1452.154696
 40
9.250000
  0
CIRCLE
  8
0
  6
CONTINUOUS
 62
1
 10
1685.124203
 20
1452.154696
 40
7.250000
  0
LINE
  8
0
  6
CONTINUOUS
 62
1
 10
1680.584002
 20
1453.154696
 11
1683.392153
 21
1453.154696
  0
LINE
  8
0
  6
CONTINUOUS
 62
1
 10
1680.584002
 20
1451.154696
 11
1683.392153
 21
1451.154696
  0
LINE
  8
0
  6
CONTINUOUS
 62
1
 10
1684.124203
 20
1458.139714
 11
1684.124203
 21
1453.886747
  0
LINE
  8
0
  6
CONTINUOUS
 62
1
 10
1686.124203
 20
1458.139714
 11
1686.124203
 21
1453.886747
  0
ARC
  8
0
  6
CONTINUOUS
 62
1
 10
1685.124203
 20
1452.154696
 40
2.000000
 50
120.000000
 51
150.000000
  0
ARC
  8
0
  6
CONTINUOUS
 62
1
 10
1685.124203
 20
1452.154696
 40
2.000000
 50
210.000000
 51
60.000000
  0
LINE
  8
0
  6
CONTINUOUS
 62
1
 10
1684.124203
 20
1458.139714
 11
1686.124203
 21
1458.139714
  0
LINE
  8
0
  6
CONTINUOUS
 62
1
 10
1680.584002
 20
1451.154696
 11
1680.584002
 21
1453.154696
  0
CIRCLE
  8
0
  6
CONTINUOUS
 62
1
 10
1685.124203
 20
1517.149991
 40
9.250000
  0
ARC
  8
0
  6
CONTINUOUS
 62
1
 10
1685.124203
 20
1517.149991
 40
7.250000
 50
0.000000
 51
168.059456
  0
LINE
  8
0
  6
CONTINUOUS
 62
1
 10
1686.124203
 20
1521.649991
 11
1686.124203
 21
1514.833212
  0
LINE
  8
0
  6
CONTINUOUS
 62
1
 10
1684.124203
 20
1518.775636
 11
1684.124203
 21
1511.958856
  0
LINE
  8
0
  6
CONTINUOUS
 62
1
 10
1678.031073
 20
1518.649991
 11
1686.124203
 21
1521.649991
  0
LINE
  8
0
  6
CONTINUOUS
 62
1
 10
1684.124203
 20
1518.775636
 11
1677.906099
 21
1516.470680
  0
LINE
  8
0
  6
CONTINUOUS
 62
1
 10
1686.124203
 20
1514.833212
 11
1692.374203
 21
1517.149991
  0
ARC
  8
0
  6
CONTINUOUS
 62
1
 10
1685.124203
 20
1517.149991
 40
7.250000
 50
185.376398
 51
341.771516
  0
LINE
  8
0
  6
CONTINUOUS
 62
1
 10
1692.010374
 20
1514.882140
 11
1684.124203
 21
1511.958856
  0
LINE
  8
0
  6
CONTINUOUS
 62
1
 10
1694.374203
 20
1481.149969
 11
1685.124203
 21
1481.650237
  0
LINE
  8
0
  6
CONTINUOUS
 62
1
 10
1685.124203
 20
1482.650237
 11
1694.374203
 21
1483.150504
  0
LINE
  8
0
  6
CONTINUOUS
 62
1
 10
1685.124203
 20
1481.650237
 11
1685.124203
 21
1482.650237
  0
LINE
  8
0
  6
CONTINUOUS
 62
1
 10
1694.374203
 20
1476.114675
 11
1685.124203
 21
1476.614942
  0
LINE
  8
0
  6
CONTINUOUS
 62
1
 10
1685.124203
 20
1477.614942
 11
1694.374203
 21
1478.115209
  0
LINE
  8
0
  6
CONTINUOUS
 62
1
 10
1685.124203
 20
1476.614942
 11
1685.124203
 21
1477.614942
  0
LINE
  8
0
  6
CONTINUOUS
 62
1
 10
1694.374203
 20
1488.185799
 11
1685.124203
 21
1487.685531
  0
LINE
  8
0
  6
CONTINUOUS
 62
1
 10
1685.124203
 20
1486.685531
 11
1694.374203
 21
1486.185264
  0
LINE
  8
0
  6
CONTINUOUS
 62
1
 10
1685.124203
 20
1487.685531
 11
1685.124203
 21
1486.685531
  0
ARC
  8
0
  6
CONTINUOUS
 62
1
 10
1685.124203
 20
1482.150237
 40
9.250000
 50
116.932913
 51
243.067087
  0
ARC
  8
0
  6
CONTINUOUS
 62
1
 10
1685.124203
 20
1482.150237
 40
7.250000
 50
134.497043
 51
225.502957
  0
ARC
  8
0
  6
CONTINUOUS
 62
1
 10
1664.374203
 20
1482.150237
 40
18.500000
 50
333.527467
 51
26.472533
  0
ARC
  8
0
  6
CONTINUOUS
 62
1
 10
1664.374203
 20
1482.150237
 40
16.500000
 50
341.734916
 51
18.265084
  0
LINE
  8
0
  6
CONTINUOUS
 62
1
 10
1694.374203
 20
1488.185799
 11
1694.374203
 21
1486.185264
  0
LINE
  8
0
  6
CONTINUOUS
 62
1
 10
1694.374203
 20
1483.150504
 11
1694.374203
 21
1481.149969
  0
LINE
  8
0
  6
CONTINUOUS
 62
1
 10
1694.374203
 20
1478.115209
 11
1694.374203
 21
1476.114675
  0
LINE
  8
0
  6
CONTINUOUS
 62
1
 10
1649.680164
 20
1342.485053
 11
1658.201047
 21
1350.650237
  0
LINE
  8
0
  6
CONTINUOUS
 62
1
 10
1649.680164
 20
1342.485053
 11
1660.734192
 21
1347.602694
  0
LINE
  8
0
  6
CONTINUOUS
 62
1
 10
1663.948067
 20
1347.602694
 11
1669.817560
 21
1346.401488
  0
LINE
  8
0
  6
CONTINUOUS
 62
1
 10
1660.734192
 20
1347.602694
 11
1663.481363
 21
1341.094030
  0
LINE
  8
0
  6
CONTINUOUS
 62
1
 10
1663.948067
 20
1347.602694
 11
1663.481363
 21
1341.094030
  0
LINE
  8
0
  6
CONTINUOUS
 62
1
 10
1664.886007
 20
1354.086941
 11
1661.569530
 21
1359.872374
  0
LINE
  8
0
  6
CONTINUOUS
 62
1
 10
1659.608497
 20
1353.495211
 11
1654.773226
 21
1354.086941
  0
LINE
  8
0
  6
CONTINUOUS
 62
1
 10
1658.201047
 20
1350.650237
 11
1654.773226
 21
1354.086941
  0
LINE
  8
0
  6
CONTINUOUS
 62
1
 10
1666.893509
 20
1350.650237
 11
1669.817560
 21
1346.401488
  0
LINE
  8
0
  6
CONTINUOUS
 62
1
 10
1664.886007
 20
1354.086941
 11
1670.481310
 21
1355.881739
  0
LINE
  8
0
  6
CONTINUOUS
 62
1
 10
1659.608497
 20
1353.495211
 11
1661.569530
 21
1359.872374
  0
LINE
  8
0
  6
CONTINUOUS
 62
1
 10
1670.481310
 20
1355.881739
 11
1666.893509
 21
1350.650237
  0
CIRCLE
  8
0
  6
CONTINUOUS
 62
1
 10
1661.669530
 20
1447.650237
 40
3.000000
  0
CIRCLE
  8
0
  6
CONTINUOUS
 62
1
 10
1661.669530
 20
1627.650237
 40
3.000000
  0
POLYLINE
  8
0
  6
CONTINUOUS
 62
1
 66
1
 70
2
  0
VERTEX
  8
0
 10
1676.669530
 20
1569.099577
 70
0
 42
0.057944
  0
VERTEX
  8
0
 10
1681.888027
 20
1573.044079
 70
0
 42
0.059305
  0
VERTEX
  8
0
 10
1686.000594
 20
1578.033668
 70
0
 42
0.060571
  0
VERTEX
  8
0
 10
1688.782276
 20
1583.795418
 70
0
 42
0.061435
  0
VERTEX
  8
0
 10
1690.080919
 20
1590.014168
 70
0
 42
0.061671
  0
VERTEX
  8
0
 10
1689.825489
 20
1596.349759
 70
0
 42
0.061214
  0
VERTEX
  8
0
 10
1688.029957
 20
1602.455641
 70
0
 42
0.060187
  0
VERTEX
  8
0
 10
1684.792537
 20
1607.997828
 70
0
 42
0.058855
  0
VERTEX
  8
0
 10
1680.290312
 20
1612.673167
 70
0
 42
0.057528
  0
VERTEX
  8
0
 10
1674.769550
 20
1616.225924
 70
0
 42
0.056477
  0
VERTEX
  8
0
 10
1668.532230
 20
1618.461766
 70
0
 42
0.055892
  0
VERTEX
  8
0
 10
1661.919528
 20
1619.258394
 70
0
  0
SEQEND
  0
POLYLINE
  8
0
  6
CONTINUOUS
 62
1
 66
1
 70
2
  0
VERTEX
  8
0
 10
1646.758068
 20
1569.047661
 70
0
 42
0.053351
  0
VERTEX
  8
0
 10
1652.424398
 20
1566.507015
 70
0
 42
0.052667
  0
VERTEX
  8
0
 10
1658.537379
 20
1565.205247
 70
0
 42
0.052427
  0
VERTEX
  8
0
 10
1664.801681
 20
1565.205247
 70
0
 42
0.052667
  0
VERTEX
  8
0
 10
1670.914663
 20
1566.507015
 70
0
 42
0.053351
  0
VERTEX
  8
0
 10
1676.580993
 20
1569.047661
 70
0
  0
SEQEND
  0
POLYLINE
  8
0
  6
CONTINUOUS
 62
1
 66
1
 70
2
  0
VERTEX
  8
0
 10
1676.659895
 20
1569.120853
 70
0
 42
-0.042310
  0
VERTEX
  8
0
 10
1673.481998
 20
1578.084962
 70
0
 42
-0.042646
  0
VERTEX
  8
0
 10
1671.871806
 20
1587.420209
 70
0
 42
-0.042764
  0
VERTEX
  8
0
 10
1671.871806
 20
1596.880265
 70
0
 42
-0.042646
  0
VERTEX
  8
0
 10
1673.481998
 20
1606.215511
 70
0
 42
-0.042310
  0
VERTEX
  8
0
 10
1676.659895
 20
1615.179620
 70
0
  0
SEQEND
  0
POLYLINE
  8
0
  6
CONTINUOUS
 62
1
 66
1
 70
2
  0
VERTEX
  8
0
 10
1646.679166
 20
1615.179620
 70
0
 42
-0.042310
  0
VERTEX
  8
0
 10
1649.857063
 20
1606.215511
 70
0
 42
-0.042646
  0
VERTEX
  8
0
 10
1651.467255
 20
1596.880265
 70
0
 42
-0.042764
  0
VERTEX
  8
0
 10
1651.467255
 20
1587.420209
 70
0
 42
-0.042646
  0
VERTEX
  8
0
 10
1649.857063
 20
1578.084962
 70
0
 42
-0.042310
  0
VERTEX
  8
0
 10
1646.679166
 20
1569.120853
 70
0
  0
SEQEND
  0
POLYLINE
  8
0
  6
CONTINUOUS
 62
1
 66
1
 70
2
  0
VERTEX
  8
0
 10
1661.419533
 20
1619.258394
 70
0
 42
0.055892
  0
VERTEX
  8
0
 10
1654.806830
 20
1618.461766
 70
0
 42
0.056477
  0
VERTEX
  8
0
 10
1648.569511
 20
1616.225924
 70
0
 42
0.057528
  0
VERTEX
  8
0
 10
1643.048749
 20
1612.673167
 70
0
 42
0.058855
  0
VERTEX
  8
0
 10
1638.546524
 20
1607.997828
 70
0
 42
0.060187
  0
VERTEX
  8
0
 10
1635.309104
 20
1602.455641
 70
0
 42
0.061214
  0
VERTEX
  8
0
 10
1633.513572
 20
1596.349759
 70
0
 42
0.061671
  0
VERTEX
  8
0
 10
1633.258141
 20
1590.014168
 70
0
 42
0.061435
  0
VERTEX
  8
0
 10
1634.556784
 20
1583.795418
 70
0
 42
0.060571
  0
VERTEX
  8
0
 10
1637.338467
 20
1578.033668
 70
0
 42
0.059305
  0
VERTEX
  8
0
 10
1641.451033
 20
1573.044079
 70
0
 42
0.057944
  0
VERTEX
  8
0
 10
1646.669530
 20
1569.099577
 70
0
  0
SEQEND
  0
POLYLINE
  8
0
  6
CONTINUOUS
 62
1
 66
1
 70
2
  0
VERTEX
  8
0
 10
1663.168766
 20
1614.457901
 70
0
 42
-0.059478
  0
VERTEX
  8
0
 10
1668.901072
 20
1613.418754
 70
0
 42
-0.060310
  0
VERTEX
  8
0
 10
1674.187466
 20
1611.068150
 70
0
  0
SEQEND
  0
POLYLINE
  8
0
  6
CONTINUOUS
 62
1
 66
1
 70
2
  0
VERTEX
  8
0
 10
1660.170294
 20
1614.457901
 70
0
 42
0.268165
  0
VERTEX
  8
0
 10
1660.933394
 20
1613.260271
 70
0
 42
0.249457
  0
VERTEX
  8
0
 10
1662.405666
 20
1613.260271
 70
0
 42
0.268165
  0
VERTEX
  8
0
 10
1663.168766
 20
1614.457901
 70
0
  0
SEQEND
  0
POLYLINE
  8
0
  6
CONTINUOUS
 62
1
 66
1
 70
2
  0
VERTEX
  8
0
 10
1661.419533
 20
1619.258394
 70
0
 42
0.412473
  0
VERTEX
  8
0
 10
1661.669530
 20
1619.021637
 70
0
 42
0.412473
  0
VERTEX
  8
0
 10
1661.919528
 20
1619.258394
 70
0
  0
SEQEND
  0
POLYLINE
  8
0
  6
CONTINUOUS
 62
1
 66
1
 70
2
  0
VERTEX
  8
0
 10
1649.151594
 20
1611.068150
 70
0
 42
-0.060310
  0
VERTEX
  8
0
 10
1654.437989
 20
1613.418754
 70
0
 42
-0.059478
  0
VERTEX
  8
0
 10
1660.170294
 20
1614.457901
 70
0
  0
SEQEND
  0
POLYLINE
  8
0
  6
CONTINUOUS
 62
1
 66
1
 70
2
  0
VERTEX
  8
0
 10
1674.187466
 20
1573.232323
 70
0
 42
-0.054470
  0
VERTEX
  8
0
 10
1669.441244
 20
1571.054807
 70
0
 42
-0.053745
  0
VERTEX
  8
0
 10
1664.304260
 20
1569.937971
 70
0
 42
-0.053491
  0
VERTEX
  8
0
 10
1659.034801
 20
1569.937971
 70
0
 42
-0.053745
  0
VERTEX
  8
0
 10
1653.897816
 20
1571.054807
 70
0
 42
-0.054470
  0
VERTEX
  8
0
 10
1649.151594
 20
1573.232323
 70
0
  0
SEQEND
  0
LINE
  8
0
  6
CONTINUOUS
 62
1
 10
1660.170294
 20
1614.457901
 11
1661.419533
 21
1619.258394
  0
LINE
  8
0
  6
CONTINUOUS
 62
1
 10
1661.919528
 20
1619.258394
 11
1663.168766
 21
1614.457901
  0
POLYLINE
  8
0
  6
CONTINUOUS
 62
1
 66
1
 70
2
  0
VERTEX
  8
0
 10
1674.654788
 20
1610.263133
 70
0
 42
0.264500
  0
VERTEX
  8
0
 10
1674.187466
 20
1611.068150
 70
0
  0
SEQEND
  0
POLYLINE
  8
0
  6
CONTINUOUS
 62
1
 66
1
 70
2
  0
VERTEX
  8
0
 10
1674.654788
 20
1574.037341
 70
0
 42
0.081701
  0
VERTEX
  8
0
 10
1674.606813
 20
1574.328428
 70
0
  0
SEQEND
  0
POLYLINE
  8
0
  6
CONTINUOUS
 62
1
 66
1
 70
2
  0
VERTEX
  8
0
 10
1649.151594
 20
1611.068150
 70
0
 42
0.355774
  0
VERTEX
  8
0
 10
1648.732248
 20
1609.972045
 70
0
  0
SEQEND
  0
POLYLINE
  8
0
  6
CONTINUOUS
 62
1
 66
1
 70
2
  0
VERTEX
  8
0
 10
1674.606813
 20
1609.972046
 70
0
 42
0.081701
  0
VERTEX
  8
0
 10
1674.654788
 20
1610.263133
 70
0
  0
SEQEND
  0
POLYLINE
  8
0
  6
CONTINUOUS
 62
1
 66
1
 70
2
  0
VERTEX
  8
0
 10
1674.187466
 20
1573.232323
 70
0
 42
0.264500
  0
VERTEX
  8
0
 10
1674.654788
 20
1574.037341
 70
0
  0
SEQEND
  0
POLYLINE
  8
0
  6
CONTINUOUS
 62
1
 66
1
 70
2
  0
VERTEX
  8
0
 10
1648.732248
 20
1574.328429
 70
0
 42
0.355774
  0
VERTEX
  8
0
 10
1649.151594
 20
1573.232323
 70
0
  0
SEQEND
  0
POLYLINE
  8
0
  6
CONTINUOUS
 62
1
 66
1
 70
2
  0
VERTEX
  8
0
 10
1661.384445
 20
1623.063047
 70
0
 42
0.051213
  0
VERTEX
  8
0
 10
1654.461290
 20
1622.294293
 70
0
 42
0.051668
  0
VERTEX
  8
0
 10
1647.869685
 20
1620.139032
 70
0
 42
0.052496
  0
VERTEX
  8
0
 10
1641.912817
 20
1616.696400
 70
0
 42
0.053573
  0
VERTEX
  8
0
 10
1636.864679
 20
1612.124743
 70
0
 42
0.054721
  0
VERTEX
  8
0
 10
1632.957464
 20
1606.634339
 70
0
 42
0.055723
  0
VERTEX
  8
0
 10
1630.370889
 20
1600.477724
 70
0
 42
0.056370
  0
VERTEX
  8
0
 10
1629.223926
 20
1593.938078
 70
0
 42
0.056516
  0
VERTEX
  8
0
 10
1629.569330
 20
1587.316199
 70
0
 42
0.056127
  0
VERTEX
  8
0
 10
1631.391214
 20
1580.916666
 70
0
 42
0.055293
  0
VERTEX
  8
0
 10
1634.605779
 20
1575.033832
 70
0
 42
0.054196
  0
VERTEX
  8
0
 10
1639.065168
 20
1569.938284
 70
0
 42
0.053055
  0
VERTEX
  8
0
 10
1644.564267
 20
1565.864397
 70
0
  0
SEQEND
  0
POLYLINE
  8
0
  6
CONTINUOUS
 62
1
 66
1
 70
2
  0
VERTEX
  8
0
 10
1678.774793
 20
1565.864397
 70
0
 42
0.053055
  0
VERTEX
  8
0
 10
1684.273892
 20
1569.938284
 70
0
 42
0.054196
  0
VERTEX
  8
0
 10
1688.733281
 20
1575.033832
 70
0
 42
0.055293
  0
VERTEX
  8
0
 10
1691.947846
 20
1580.916666
 70
0
 42
0.056127
  0
VERTEX
  8
0
 10
1693.769731
 20
1587.316199
 70
0
 42
0.056516
  0
VERTEX
  8
0
 10
1694.115135
 20
1593.938078
 70
0
 42
0.056370
  0
VERTEX
  8
0
 10
1692.968171
 20
1600.477724
 70
0
 42
0.055723
  0
VERTEX
  8
0
 10
1690.381596
 20
1606.634339
 70
0
 42
0.054721
  0
VERTEX
  8
0
 10
1686.474381
 20
1612.124743
 70
0
 42
0.053573
  0
VERTEX
  8
0
 10
1681.426243
 20
1616.696400
 70
0
 42
0.052496
  0
VERTEX
  8
0
 10
1675.469375
 20
1620.139032
 70
0
 42
0.051668
  0
VERTEX
  8
0
 10
1668.877770
 20
1622.294293
 70
0
 42
0.051213
  0
VERTEX
  8
0
 10
1661.954615
 20
1623.063047
 70
0
  0
SEQEND
  0
POLYLINE
  8
0
  6
CONTINUOUS
 62
1
 66
1
 70
2
  0
VERTEX
  8
0
 10
1644.665231
 20
1565.805194
 70
0
 42
0.053351
  0
VERTEX
  8
0
 10
1651.126835
 20
1562.907967
 70
0
 42
0.052667
  0
VERTEX
  8
0
 10
1658.097779
 20
1561.423494
 70
0
 42
0.052427
  0
VERTEX
  8
0
 10
1665.241282
 20
1561.423494
 70
0
 42
0.052667
  0
VERTEX
  8
0
 10
1672.212225
 20
1562.907967
 70
0
 42
0.053351
  0
VERTEX
  8
0
 10
1678.673830
 20
1565.805194
 70
0
  0
SEQEND
  0
LINE
  8
0
  6
CONTINUOUS
 62
1
 10
1663.166471
 20
1614.412364
 11
1663.166471
 21
1572.225851
  0
LINE
  8
0
  6
CONTINUOUS
 62
1
 10
1660.170294
 20
1614.457901
 11
1660.170294
 21
1572.226007
  0
ARC
  8
0
  6
CONTINUOUS
 62
1
 10
1661.668381
 20
1572.175037
 40
1.498086
 50
180.000000
 51
1.942686
  0
POLYLINE
  8
0
  6
CONTINUOUS
 62
1
 66
1
 70
2
  0
VERTEX
  8
0
 10
1676.669530
 20
1389.099577
 70
0
 42
0.057944
  0
VERTEX
  8
0
 10
1681.888027
 20
1393.044079
 70
0
 42
0.059305
  0
VERTEX
  8
0
 10
1686.000594
 20
1398.033668
 70
0
 42
0.060571
  0
VERTEX
  8
0
 10
1688.782276
 20
1403.795418
 70
0
 42
0.061435
  0
VERTEX
  8
0
 10
1690.080919
 20
1410.014168
 70
0
 42
0.061671
  0
VERTEX
  8
0
 10
1689.825489
 20
1416.349759
 70
0
 42
0.061214
  0
VERTEX
  8
0
 10
1688.029957
 20
1422.455641
 70
0
 42
0.060187
  0
VERTEX
  8
0
 10
1684.792537
 20
1427.997828
 70
0
 42
0.058855
  0
VERTEX
  8
0
 10
1680.290312
 20
1432.673167
 70
0
 42
0.057528
  0
VERTEX
  8
0
 10
1674.769550
 20
1436.225924
 70
0
 42
0.056477
  0
VERTEX
  8
0
 10
1668.532230
 20
1438.461766
 70
0
 42
0.055892
  0
VERTEX
  8
0
 10
1661.919528
 20
1439.258394
 70
0
  0
SEQEND
  0
POLYLINE
  8
0
  6
CONTINUOUS
 62
1
 66
1
 70
2
  0
VERTEX
  8
0
 10
1646.758068
 20
1389.047661
 70
0
 42
0.053351
  0
VERTEX
  8
0
 10
1652.424398
 20
1386.507015
 70
0
 42
0.052667
  0
VERTEX
  8
0
 10
1658.537379
 20
1385.205247
 70
0
 42
0.052427
  0
VERTEX
  8
0
 10
1664.801681
 20
1385.205247
 70
0
 42
0.052667
  0
VERTEX
  8
0
 10
1670.914663
 20
1386.507015
 70
0
 42
0.053351
  0
VERTEX
  8
0
 10
1676.580993
 20
1389.047661
 70
0
  0
SEQEND
  0
POLYLINE
  8
0
  6
CONTINUOUS
 62
1
 66
1
 70
2
  0
VERTEX
  8
0
 10
1676.659895
 20
1389.120853
 70
0
 42
-0.042310
  0
VERTEX
  8
0
 10
1673.481998
 20
1398.084962
 70
0
 42
-0.042646
  0
VERTEX
  8
0
 10
1671.871806
 20
1407.420209
 70
0
 42
-0.042764
  0
VERTEX
  8
0
 10
1671.871806
 20
1416.880265
 70
0
 42
-0.042646
  0
VERTEX
  8
0
 10
1673.481998
 20
1426.215511
 70
0
 42
-0.042310
  0
VERTEX
  8
0
 10
1676.659895
 20
1435.179620
 70
0
  0
SEQEND
  0
POLYLINE
  8
0
  6
CONTINUOUS
 62
1
 66
1
 70
2
  0
VERTEX
  8
0
 10
1646.679166
 20
1435.179620
 70
0
 42
-0.042310
  0
VERTEX
  8
0
 10
1649.857063
 20
1426.215511
 70
0
 42
-0.042646
  0
VERTEX
  8
0
 10
1651.467255
 20
1416.880265
 70
0
 42
-0.042764
  0
VERTEX
  8
0
 10
1651.467255
 20
1407.420209
 70
0
 42
-0.042646
  0
VERTEX
  8
0
 10
1649.857063
 20
1398.084962
 70
0
 42
-0.042310
  0
VERTEX
  8
0
 10
1646.679166
 20
1389.120853
 70
0
  0
SEQEND
  0
POLYLINE
  8
0
  6
CONTINUOUS
 62
1
 66
1
 70
2
  0
VERTEX
  8
0
 10
1661.419533
 20
1439.258394
 70
0
 42
0.055892
  0
VERTEX
  8
0
 10
1654.806830
 20
1438.461766
 70
0
 42
0.056477
  0
VERTEX
  8
0
 10
1648.569511
 20
1436.225924
 70
0
 42
0.057528
  0
VERTEX
  8
0
 10
1643.048749
 20
1432.673167
 70
0
 42
0.058855
  0
VERTEX
  8
0
 10
1638.546524
 20
1427.997828
 70
0
 42
0.060187
  0
VERTEX
  8
0
 10
1635.309104
 20
1422.455641
 70
0
 42
0.061214
  0
VERTEX
  8
0
 10
1633.513572
 20
1416.349759
 70
0
 42
0.061671
  0
VERTEX
  8
0
 10
1633.258141
 20
1410.014168
 70
0
 42
0.061435
  0
VERTEX
  8
0
 10
1634.556784
 20
1403.795418
 70
0
 42
0.060571
  0
VERTEX
  8
0
 10
1637.338467
 20
1398.033668
 70
0
 42
0.059305
  0
VERTEX
  8
0
 10
1641.451033
 20
1393.044079
 70
0
 42
0.057944
  0
VERTEX
  8
0
 10
1646.669530
 20
1389.099577
 70
0
  0
SEQEND
  0
POLYLINE
  8
0
  6
CONTINUOUS
 62
1
 66
1
 70
2
  0
VERTEX
  8
0
 10
1663.168766
 20
1434.457901
 70
0
 42
-0.059478
  0
VERTEX
  8
0
 10
1668.901072
 20
1433.418754
 70
0
 42
-0.060310
  0
VERTEX
  8
0
 10
1674.187466
 20
1431.068150
 70
0
  0
SEQEND
  0
POLYLINE
  8
0
  6
CONTINUOUS
 62
1
 66
1
 70
2
  0
VERTEX
  8
0
 10
1660.170294
 20
1434.457901
 70
0
 42
0.268165
  0
VERTEX
  8
0
 10
1660.933394
 20
1433.260271
 70
0
 42
0.249457
  0
VERTEX
  8
0
 10
1662.405666
 20
1433.260271
 70
0
 42
0.268165
  0
VERTEX
  8
0
 10
1663.168766
 20
1434.457901
 70
0
  0
SEQEND
  0
POLYLINE
  8
0
  6
CONTINUOUS
 62
1
 66
1
 70
2
  0
VERTEX
  8
0
 10
1661.419533
 20
1439.258394
 70
0
 42
0.412473
  0
VERTEX
  8
0
 10
1661.669530
 20
1439.021637
 70
0
 42
0.412473
  0
VERTEX
  8
0
 10
1661.919528
 20
1439.258394
 70
0
  0
SEQEND
  0
POLYLINE
  8
0
  6
CONTINUOUS
 62
1
 66
1
 70
2
  0
VERTEX
  8
0
 10
1649.151594
 20
1431.068150
 70
0
 42
-0.060310
  0
VERTEX
  8
0
 10
1654.437989
 20
1433.418754
 70
0
 42
-0.059478
  0
VERTEX
  8
0
 10
1660.170294
 20
1434.457901
 70
0
  0
SEQEND
  0
POLYLINE
  8
0
  6
CONTINUOUS
 62
1
 66
1
 70
2
  0
VERTEX
  8
0
 10
1674.187466
 20
1393.232323
 70
0
 42
-0.054470
  0
VERTEX
  8
0
 10
1669.441244
 20
1391.054807
 70
0
 42
-0.053745
  0
VERTEX
  8
0
 10
1664.304260
 20
1389.937971
 70
0
 42
-0.053491
  0
VERTEX
  8
0
 10
1659.034801
 20
1389.937971
 70
0
 42
-0.053745
  0
VERTEX
  8
0
 10
1653.897816
 20
1391.054807
 70
0
 42
-0.054470
  0
VERTEX
  8
0
 10
1649.151594
 20
1393.232323
 70
0
  0
SEQEND
  0
LINE
  8
0
  6
CONTINUOUS
 62
1
 10
1660.170294
 20
1434.457901
 11
1661.419533
 21
1439.258394
  0
LINE
  8
0
  6
CONTINUOUS
 62
1
 10
1661.919528
 20
1439.258394
 11
1663.168766
 21
1434.457901
  0
POLYLINE
  8
0
  6
CONTINUOUS
 62
1
 66
1
 70
2
  0
VERTEX
  8
0
 10
1674.654788
 20
1430.263133
 70
0
 42
0.264500
  0
VERTEX
  8
0
 10
1674.187466
 20
1431.068150
 70
0
  0
SEQEND
  0
POLYLINE
  8
0
  6
CONTINUOUS
 62
1
 66
1
 70
2
  0
VERTEX
  8
0
 10
1674.654788
 20
1394.037341
 70
0
 42
0.081701
  0
VERTEX
  8
0
 10
1674.606813
 20
1394.328428
 70
0
  0
SEQEND
  0
POLYLINE
  8
0
  6
CONTINUOUS
 62
1
 66
1
 70
2
  0
VERTEX
  8
0
 10
1649.151594
 20
1431.068150
 70
0
 42
0.355774
  0
VERTEX
  8
0
 10
1648.732248
 20
1429.972045
 70
0
  0
SEQEND
  0
POLYLINE
  8
0
  6
CONTINUOUS
 62
1
 66
1
 70
2
  0
VERTEX
  8
0
 10
1674.606813
 20
1429.972046
 70
0
 42
0.081701
  0
VERTEX
  8
0
 10
1674.654788
 20
1430.263133
 70
0
  0
SEQEND
  0
POLYLINE
  8
0
  6
CONTINUOUS
 62
1
 66
1
 70
2
  0
VERTEX
  8
0
 10
1674.187466
 20
1393.232323
 70
0
 42
0.264500
  0
VERTEX
  8
0
 10
1674.654788
 20
1394.037341
 70
0
  0
SEQEND
  0
POLYLINE
  8
0
  6
CONTINUOUS
 62
1
 66
1
 70
2
  0
VERTEX
  8
0
 10
1648.732248
 20
1394.328429
 70
0
 42
0.355774
  0
VERTEX
  8
0
 10
1649.151594
 20
1393.232323
 70
0
  0
SEQEND
  0
POLYLINE
  8
0
  6
CONTINUOUS
 62
1
 66
1
 70
2
  0
VERTEX
  8
0
 10
1661.384445
 20
1443.063047
 70
0
 42
0.051213
  0
VERTEX
  8
0
 10
1654.461290
 20
1442.294293
 70
0
 42
0.051668
  0
VERTEX
  8
0
 10
1647.869685
 20
1440.139032
 70
0
 42
0.052496
  0
VERTEX
  8
0
 10
1641.912817
 20
1436.696400
 70
0
 42
0.053573
  0
VERTEX
  8
0
 10
1636.864679
 20
1432.124743
 70
0
 42
0.054721
  0
VERTEX
  8
0
 10
1632.957464
 20
1426.634339
 70
0
 42
0.055723
  0
VERTEX
  8
0
 10
1630.370889
 20
1420.477724
 70
0
 42
0.056370
  0
VERTEX
  8
0
 10
1629.223926
 20
1413.938078
 70
0
 42
0.056516
  0
VERTEX
  8
0
 10
1629.569330
 20
1407.316199
 70
0
 42
0.056127
  0
VERTEX
  8
0
 10
1631.391214
 20
1400.916666
 70
0
 42
0.055293
  0
VERTEX
  8
0
 10
1634.605779
 20
1395.033832
 70
0
 42
0.054196
  0
VERTEX
  8
0
 10
1639.065168
 20
1389.938284
 70
0
 42
0.053055
  0
VERTEX
  8
0
 10
1644.564267
 20
1385.864397
 70
0
  0
SEQEND
  0
POLYLINE
  8
0
  6
CONTINUOUS
 62
1
 66
1
 70
2
  0
VERTEX
  8
0
 10
1678.774793
 20
1385.864397
 70
0
 42
0.053055
  0
VERTEX
  8
0
 10
1684.273892
 20
1389.938284
 70
0
 42
0.054196
  0
VERTEX
  8
0
 10
1688.733281
 20
1395.033832
 70
0
 42
0.055293
  0
VERTEX
  8
0
 10
1691.947846
 20
1400.916666
 70
0
 42
0.056127
  0
VERTEX
  8
0
 10
1693.769731
 20
1407.316199
 70
0
 42
0.056516
  0
VERTEX
  8
0
 10
1694.115135
 20
1413.938078
 70
0
 42
0.056370
  0
VERTEX
  8
0
 10
1692.968171
 20
1420.477724
 70
0
 42
0.055723
  0
VERTEX
  8
0
 10
1690.381596
 20
1426.634339
 70
0
 42
0.054721
  0
VERTEX
  8
0
 10
1686.474381
 20
1432.124743
 70
0
 42
0.053573
  0
VERTEX
  8
0
 10
1681.426243
 20
1436.696400
 70
0
 42
0.052496
  0
VERTEX
  8
0
 10
1675.469375
 20
1440.139032
 70
0
 42
0.051668
  0
VERTEX
  8
0
 10
1668.877770
 20
1442.294293
 70
0
 42
0.051213
  0
VERTEX
  8
0
 10
1661.954615
 20
1443.063047
 70
0
  0
SEQEND
  0
POLYLINE
  8
0
  6
CONTINUOUS
 62
1
 66
1
 70
2
  0
VERTEX
  8
0
 10
1644.665231
 20
1385.805194
 70
0
 42
0.053351
  0
VERTEX
  8
0
 10
1651.126835
 20
1382.907967
 70
0
 42
0.052667
  0
VERTEX
  8
0
 10
1658.097779
 20
1381.423494
 70
0
 42
0.052427
  0
VERTEX
  8
0
 10
1665.241282
 20
1381.423494
 70
0
 42
0.052667
  0
VERTEX
  8
0
 10
1672.212225
 20
1382.907967
 70
0
 42
0.053351
  0
VERTEX
  8
0
 10
1678.673830
 20
1385.805194
 70
0
  0
SEQEND
  0
LINE
  8
0
  6
CONTINUOUS
 62
1
 10
1663.166471
 20
1434.412364
 11
1663.166471
 21
1392.225851
  0
LINE
  8
0
  6
CONTINUOUS
 62
1
 10
1660.170294
 20
1434.457901
 11
1660.170294
 21
1392.226007
  0
ARC
  8
0
  6
CONTINUOUS
 62
1
 10
1661.668381
 20
1392.175037
 40
1.498086
 50
180.000000
 51
1.942686
  0
CIRCLE
  8
0
  6
CONTINUOUS
 62
1
 10
1639.169530
 20
1300.650237
 40
6.000000
  0
CIRCLE
  8
0
  6
CONTINUOUS
 62
1
 10
1664.169530
 20
1300.650237
 40
6.000000
  0
LINE
  8
0
  6
CONTINUOUS
 62
1
 10
811.769530
 20
1742.278596
 11
1711.769530
 21
1742.278596
  0
LINE
  8
0
  6
CONTINUOUS
 62
1
 10
1601.769530
 20
411.578596
 11
1601.769530
 21
467.578596
  0
LINE
  8
0
  6
CONTINUOUS
 62
1
 10
841.769530
 20
402.050811
 11
939.769530
 21
402.050811
  0
LINE
  8
0
  6
CONTINUOUS
 62
1
 10
939.769530
 20
402.050811
 11
939.769530
 21
479.050811
  0
LINE
  8
0
  6
CONTINUOUS
 62
1
 10
939.769530
 20
479.050811
 11
841.769530
 21
479.050811
  0
LINE
  8
0
  6
CONTINUOUS
 62
1
 10
841.769530
 20
479.050811
 11
841.769530
 21
402.050811
  0
LINE
  8
0
  6
CONTINUOUS
 62
1
 10
811.769530
 20
482.578596
 11
1711.769530
 21
482.578596
  0
LINE
  8
0
  6
CONTINUOUS
 62
1
 10
811.769530
 20
377.578596
 11
1711.769530
 21
377.578596
  0
LINE
  8
0
  6
CONTINUOUS
 62
1
 10
811.769530
 20
392.578596
 11
1711.769530
 21
392.578596
  0
LINE
  8
0
  6
CONTINUOUS
 62
1
 10
1696.769530
 20
317.578596
 11
826.769530
 21
317.578596
  0
LINE
  8
0
  6
CONTINUOUS
 62
1
 10
826.769530
 20
317.578596
 11
826.769530
 21
332.578596
  0
LINE
  8
0
  6
CONTINUOUS
 62
1
 10
826.769530
 20
332.578596
 11
826.769530
 21
317.578596
  0
LINE
  8
0
  6
CONTINUOUS
 62
1
 10
826.769530
 20
317.578596
 11
826.769530
 21
332.578596
  0
LINE
  8
0
  6
CONTINUOUS
 62
1
 10
826.769530
 20
332.578596
 11
811.769530
 21
332.578596
  0
LINE
  8
0
  6
CONTINUOUS
 62
1
 10
811.769530
 20
332.578596
 11
811.769530
 21
482.578596
  0
LINE
  8
0
  6
CONTINUOUS
 62
1
 10
811.769530
 20
482.578596
 11
811.769530
 21
1037.578596
  0
LINE
  8
0
  6
CONTINUOUS
 62
1
 10
1711.769517
 20
1037.578596
 11
1711.769530
 21
332.578596
  0
LINE
  8
0
  6
CONTINUOUS
 62
1
 10
1711.769530
 20
332.578596
 11
1696.769530
 21
332.578596
  0
LINE
  8
0
  6
CONTINUOUS
 62
1
 10
1696.769530
 20
332.578596
 11
1696.769530
 21
317.578596
  0
LINE
  8
0
  6
CONTINUOUS
 62
1
 10
1696.769530
 20
317.578596
 11
1696.769530
 21
332.578596
  0
LINE
  8
0
  6
CONTINUOUS
 62
1
 10
1696.769530
 20
332.578596
 11
1696.769530
 21
317.578596
  0
LINE
  8
0
  6
CONTINUOUS
 62
1
 10
1601.769530
 20
962.578596
 11
1221.769530
 21
962.578596
  0
LINE
  8
0
  6
CONTINUOUS
 62
1
 10
1221.769530
 20
962.578596
 11
1221.769530
 21
492.578596
  0
LINE
  8
0
  6
CONTINUOUS
 62
1
 10
1221.769530
 20
492.578596
 11
1601.769530
 21
492.578596
  0
LINE
  8
0
  6
CONTINUOUS
 62
1
 10
1601.769530
 20
492.578596
 11
1601.769530
 21
962.578596
  0
LINE
  8
0
  6
CONTINUOUS
 62
1
 10
1201.769530
 20
962.578596
 11
821.769530
 21
962.578596
  0
LINE
  8
0
  6
CONTINUOUS
 62
1
 10
821.769530
 20
962.578596
 11
821.769530
 21
492.578596
  0
LINE
  8
0
  6
CONTINUOUS
 62
1
 10
821.769530
 20
492.578596
 11
1201.769530
 21
492.578596
  0
LINE
  8
0
  6
CONTINUOUS
 62
1
 10
1201.769530
 20
492.578596
 11
1201.769530
 21
962.578596
  0
LINE
  8
0
  6
CONTINUOUS
 62
1
 10
1106.769530
 20
912.578596
 11
906.769530
 21
912.578596
  0
ARC
  8
0
  6
CONTINUOUS
 62
1
 10
906.769530
 20
877.578596
 40
35.000000
 50
90.000000
 51
180.000000
  0
LINE
  8
0
  6
CONTINUOUS
 62
1
 10
871.769530
 20
877.578596
 11
871.769530
 21
577.578596
  0
ARC
  8
0
  6
CONTINUOUS
 62
1
 10
906.769530
 20
577.578596
 40
35.000000
 50
180.000000
 51
270.000000
  0
LINE
  8
0
  6
CONTINUOUS
 62
1
 10
906.769530
 20
542.578596
 11
1106.769530
 21
542.578596
  0
ARC
  8
0
  6
CONTINUOUS
 62
1
 10
1106.769530
 20
577.578596
 40
35.000000
 50
270.000000
 51
0.000000
  0
LINE
  8
0
  6
CONTINUOUS
 62
1
 10
1141.769530
 20
577.578596
 11
1141.769530
 21
877.578596
  0
ARC
  8
0
  6
CONTINUOUS
 62
1
 10
1106.769530
 20
877.578596
 40
35.000000
 50
0.000000
 51
90.000000
  0
ARC
  8
0
  6
CONTINUOUS
 62
1
 10
1316.769530
 20
877.578596
 40
35.000000
 50
90.001000
 51
180.001000
  0
LINE
  8
0
  6
CONTINUOUS
 62
1
 10
1281.769530
 20
877.578596
 11
1281.769530
 21
577.578596
  0
ARC
  8
0
  6
CONTINUOUS
 62
1
 10
1316.769530
 20
577.578596
 40
35.000000
 50
180.000000
 51
270.000000
  0
LINE
  8
0
  6
CONTINUOUS
 62
1
 10
1316.769530
 20
542.578596
 11
1516.769530
 21
542.578596
  0
ARC
  8
0
  6
CONTINUOUS
 62
1
 10
1516.769530
 20
577.578596
 40
35.000000
 50
270.000000
 51
0.000000
  0
LINE
  8
0
  6
CONTINUOUS
 62
1
 10
1551.769530
 20
577.578596
 11
1551.769530
 21
877.578596
  0
ARC
  8
0
  6
CONTINUOUS
 62
1
 10
1516.769530
 20
877.578596
 40
35.000000
 50
0.000000
 51
90.000000
  0
LINE
  8
0
  6
CONTINUOUS
 62
1
 10
1516.769530
 20
912.578596
 11
1316.769530
 21
912.578596
  0
LINE
  8
0
  6
CONTINUOUS
 62
1
 10
1581.769530
 20
411.578596
 11
1581.769530
 21
467.578596
  0
LINE
  8
0
  6
CONTINUOUS
 62
1
 10
1561.769530
 20
467.578596
 11
1561.769530
 21
411.578596
  0
LINE
  8
0
  6
CONTINUOUS
 62
1
 10
1541.769530
 20
411.578596
 11
1541.769530
 21
467.578596
  0
LINE
  8
0
  6
CONTINUOUS
 62
1
 10
1521.769530
 20
467.578596
 11
1521.769530
 21
411.578596
  0
LINE
  8
0
  6
CONTINUOUS
 62
1
 10
1501.769530
 20
411.578596
 11
1501.769530
 21
467.578596
  0
LINE
  8
0
  6
CONTINUOUS
 62
1
 10
1481.769530
 20
467.578596
 11
1481.769530
 21
411.578596
  0
LINE
  8
0
  6
CONTINUOUS
 62
1
 10
1461.769530
 20
411.578596
 11
1461.769530
 21
467.578596
  0
LINE
  8
0
  6
CONTINUOUS
 62
1
 10
1441.769530
 20
467.578596
 11
1441.769530
 21
411.578596
  0
LINE
  8
0
  6
CONTINUOUS
 62
1
 10
1421.769530
 20
411.578596
 11
1421.769530
 21
467.578596
  0
LINE
  8
0
  6
CONTINUOUS
 62
1
 10
1401.769530
 20
467.578596
 11
1401.769530
 21
411.578596
  0
LINE
  8
0
  6
CONTINUOUS
 62
1
 10
1381.769530
 20
411.578596
 11
1381.769530
 21
467.578596
  0
LINE
  8
0
  6
CONTINUOUS
 62
1
 10
1361.769530
 20
467.578596
 11
1361.769530
 21
411.578596
  0
LINE
  8
0
  6
CONTINUOUS
 62
1
 10
1341.769530
 20
411.578596
 11
1341.769530
 21
467.578596
  0
LINE
  8
0
  6
CONTINUOUS
 62
1
 10
1321.769530
 20
467.578596
 11
1321.769530
 21
411.578596
  0
LINE
  8
0
  6
CONTINUOUS
 62
1
 10
1301.769530
 20
411.578596
 11
1301.769530
 21
467.578596
  0
LINE
  8
0
  6
CONTINUOUS
 62
1
 10
1281.769530
 20
467.578596
 11
1281.769530
 21
411.578596
  0
LINE
  8
0
  6
CONTINUOUS
 62
1
 10
1261.769530
 20
411.578596
 11
1261.769530
 21
467.578596
  0
LINE
  8
0
  6
CONTINUOUS
 62
1
 10
1241.769530
 20
467.578596
 11
1241.769530
 21
411.578596
  0
LINE
  8
0
  6
CONTINUOUS
 62
1
 10
1221.769530
 20
411.578596
 11
1221.769530
 21
467.578596
  0
LINE
  8
0
  6
CONTINUOUS
 62
1
 10
1201.769530
 20
467.578596
 11
1201.769530
 21
411.578596
  0
LINE
  8
0
  6
CONTINUOUS
 62
1
 10
1181.769530
 20
411.578596
 11
1181.769530
 21
467.578596
  0
LINE
  8
0
  6
CONTINUOUS
 62
1
 10
1161.769530
 20
467.578596
 11
1161.769530
 21
411.578596
  0
LINE
  8
0
  6
CONTINUOUS
 62
1
 10
1141.769530
 20
411.578596
 11
1141.769530
 21
467.578596
  0
LINE
  8
0
  6
CONTINUOUS
 62
1
 10
1121.769530
 20
467.578596
 11
1121.769530
 21
411.578596
  0
LINE
  8
0
  6
CONTINUOUS
 62
1
 10
1101.769530
 20
411.578596
 11
1101.769530
 21
467.578596
  0
LINE
  8
0
  6
CONTINUOUS
 62
1
 10
1081.769530
 20
467.578596
 11
1081.769530
 21
411.578596
  0
LINE
  8
0
  6
CONTINUOUS
 62
1
 10
1061.769530
 20
411.578596
 11
1061.769530
 21
467.578596
  0
LINE
  8
0
  6
CONTINUOUS
 62
1
 10
1041.769530
 20
467.578596
 11
1041.769530
 21
411.578596
  0
LINE
  8
0
  6
CONTINUOUS
 62
1
 10
1021.769530
 20
411.578596
 11
1021.769530
 21
467.578596
  0
LINE
  8
0
  6
CONTINUOUS
 62
1
 10
1001.769530
 20
467.578596
 11
1001.769530
 21
411.578596
  0
LINE
  8
0
  6
CONTINUOUS
 62
1
 10
981.769530
 20
411.578596
 11
981.769530
 21
467.578596
  0
LINE
  8
0
  6
CONTINUOUS
 62
1
 10
961.769530
 20
467.578596
 11
961.769530
 21
411.578596
  0
LINE
  8
0
  6
CONTINUOUS
 62
1
 10
941.769530
 20
411.578596
 11
941.769530
 21
467.578596
  0
LINE
  8
0
  6
CONTINUOUS
 62
1
 10
841.769530
 20
467.578596
 11
841.769530
 21
411.578596
  0
LINE
  8
0
  6
CONTINUOUS
 62
1
 10
826.769530
 20
332.578596
 11
1696.769530
 21
332.578596
  0
LINE
  8
0
  6
CONTINUOUS
 62
1
 10
811.769530
 20
981.677607
 11
1711.769530
 21
981.677607
  0
LINE
  8
0
  6
CONTINUOUS
 62
1
 10
1711.769530
 20
1037.578596
 11
811.769515
 21
1037.578596
  0
LINE
  8
0
  6
CONTINUOUS
 62
1
 10
946.094032
 20
952.578596
 11
1133.945596
 21
952.578596
  0
LINE
  8
0
  6
CONTINUOUS
 62
1
 10
946.094032
 20
922.578596
 11
1133.945596
 21
922.578596
  0
ARC
  8
0
  6
CONTINUOUS
 62
1
 10
984.520097
 20
937.578596
 40
46.250000
 50
168.239471
 51
191.760529
  0
ARC
  8
0
  6
CONTINUOUS
 62
1
 10
946.094032
 20
945.578596
 40
7.000000
 50
90.000000
 51
168.239471
  0
ARC
  8
0
  6
CONTINUOUS
 62
1
 10
946.094032
 20
929.578596
 40
7.000000
 50
191.760529
 51
270.000000
  0
ARC
  8
0
  6
CONTINUOUS
 62
1
 10
1095.519530
 20
937.578596
 40
46.250000
 50
348.239471
 51
11.760529
  0
ARC
  8
0
  6
CONTINUOUS
 62
1
 10
1133.945596
 20
929.578596
 40
7.000000
 50
270.000000
 51
348.239471
  0
ARC
  8
0
  6
CONTINUOUS
 62
1
 10
1133.945596
 20
945.578596
 40
7.000000
 50
11.760529
 51
90.000000
  0
LINE
  8
0
  6
CONTINUOUS
 62
1
 10
1477.445029
 20
952.578596
 11
1289.593465
 21
952.578596
  0
LINE
  8
0
  6
CONTINUOUS
 62
1
 10
1477.445029
 20
922.578596
 11
1289.593465
 21
922.578596
  0
ARC
  8
0
  6
CONTINUOUS
 62
1
 10
1439.018963
 20
937.578596
 40
46.250000
 50
348.239471
 51
11.760529
  0
ARC
  8
0
  6
CONTINUOUS
 62
1
 10
1477.445029
 20
945.578596
 40
7.000000
 50
11.760529
 51
90.000000
  0
ARC
  8
0
  6
CONTINUOUS
 62
1
 10
1477.445029
 20
929.578596
 40
7.000000
 50
270.000000
 51
348.239471
  0
ARC
  8
0
  6
CONTINUOUS
 62
1
 10
1328.019530
 20
937.578596
 40
46.250000
 50
168.239471
 51
191.760529
  0
ARC
  8
0
  6
CONTINUOUS
 62
1
 10
1289.593465
 20
929.578596
 40
7.000000
 50
191.760529
 51
270.000000
  0
ARC
  8
0
  6
CONTINUOUS
 62
1
 10
1289.593465
 20
945.578596
 40
7.000000
 50
90.000000
 51
168.239471
  0
LINE
  8
0
  6
CONTINUOUS
 62
1
 10
1644.269530
 20
410.078596
 11
1679.269530
 21
410.078596
  0
LINE
  8
0
  6
CONTINUOUS
 62
1
 10
1679.269530
 20
410.078596
 11
1679.269530
 21
465.078596
  0
LINE
  8
0
  6
CONTINUOUS
 62
1
 10
1679.269530
 20
465.078596
 11
1644.269530
 21
465.078596
  0
LINE
  8
0
  6
CONTINUOUS
 62
1
 10
1644.269530
 20
465.078596
 11
1644.269530
 21
410.078596
  0
LINE
  8
0
  6
CONTINUOUS
 62
1
 10
1613.169530
 20
975.150237
 11
1710.169530
 21
975.150237
  0
LINE
  8
0
  6
CONTINUOUS
 62
1
 10
1710.169530
 20
485.150237
 11
1613.169530
 21
485.150237
  0
LINE
  8
0
  6
CONTINUOUS
 62
1
 10
1611.569530
 20
974.350237
 11
1611.569530
 21
485.950237
  0
LINE
  8
0
  6
CONTINUOUS
 62
1
 10
1711.769530
 20
485.950237
 11
1711.769530
 21
974.350237
  0
LINE
  8
0
  6
CONTINUOUS
 62
1
 10
1613.169530
 20
975.150237
 11
1613.169530
 21
485.150237
  0
LINE
  8
0
  6
CONTINUOUS
 62
1
 10
1710.169530
 20
485.150237
 11
1710.169530
 21
975.150237
  0
LINE
  8
0
  6
CONTINUOUS
 62
1
 10
1711.769530
 20
974.350237
 11
1710.169530
 21
974.350237
  0
LINE
  8
0
  6
CONTINUOUS
 62
1
 10
1611.569530
 20
485.950237
 11
1613.169530
 21
485.950237
  0
LINE
  8
0
  6
CONTINUOUS
 62
1
 10
1710.169530
 20
485.950237
 11
1711.769530
 21
485.950237
  0
LINE
  8
0
  6
CONTINUOUS
 62
1
 10
1613.169530
 20
974.350237
 11
1611.569530
 21
974.350237
  0
CIRCLE
  8
0
  6
CONTINUOUS
 62
1
 10
1621.669530
 20
493.650237
 40
3.200000
  0
CIRCLE
  8
0
  6
CONTINUOUS
 62
1
 10
1701.669530
 20
493.650237
 40
3.200000
  0
CIRCLE
  8
0
  6
CONTINUOUS
 62
1
 10
1661.669530
 20
967.150237
 40
3.200000
  0
LINE
  8
0
  6
CONTINUOUS
 62
1
 10
1629.669530
 20
565.150237
 11
1673.669530
 21
565.150237
  0
LINE
  8
0
  6
CONTINUOUS
 62
1
 10
1673.669530
 20
565.150237
 11
1673.669530
 21
580.650237
  0
LINE
  8
0
  6
CONTINUOUS
 62
1
 10
1629.669530
 20
565.150237
 11
1629.669530
 21
580.650237
  0
LINE
  8
0
  6
CONTINUOUS
 62
1
 10
1664.169530
 20
590.150237
 11
1663.669530
 21
590.150237
  0
ARC
  8
0
  6
CONTINUOUS
 62
1
 10
1639.169530
 20
580.650237
 40
9.500000
 50
90.000000
 51
180.000000
  0
ARC
  8
0
  6
CONTINUOUS
 62
1
 10
1664.169530
 20
580.650237
 40
9.500000
 50
0.000000
 51
90.000000
  0
LINE
  8
0
  6
CONTINUOUS
 62
1
 10
1659.669530
 20
594.150237
 11
1659.669530
 21
608.650237
  0
LINE
  8
0
  6
CONTINUOUS
 62
1
 10
1643.669530
 20
594.150237
 11
1643.669530
 21
608.650237
  0
LINE
  8
0
  6
CONTINUOUS
 62
1
 10
1639.669530
 20
590.150237
 11
1639.169530
 21
590.150237
  0
ARC
  8
0
  6
CONTINUOUS
 62
1
 10
1639.669530
 20
594.150237
 40
4.000000
 50
270.000000
 51
0.000000
  0
ARC
  8
0
  6
CONTINUOUS
 62
1
 10
1663.669530
 20
594.150237
 40
4.000000
 50
180.000000
 51
270.000000
  0
CIRCLE
  8
0
  6
CONTINUOUS
 62
1
 10
1661.669530
 20
920.150237
 40
4.800000
  0
CIRCLE
  8
0
  6
CONTINUOUS
 62
1
 10
1661.669530
 20
824.650237
 40
4.800000
  0
CIRCLE
  8
0
  6
CONTINUOUS
 62
1
 10
1633.169530
 20
630.650237
 40
9.000000
  0
CIRCLE
  8
0
  6
CONTINUOUS
 62
1
 10
1661.669530
 20
762.150237
 40
8.000000
  0
LINE
  8
0
  6
CONTINUOUS
 62
1
 10
1672.469530
 20
798.149991
 11
1671.418376
 21
798.149991
  0
LINE
  8
0
  6
CONTINUOUS
 62
1
 10
1672.469530
 20
796.149991
 11
1671.418376
 21
796.149991
  0
LINE
  8
0
  6
CONTINUOUS
 62
1
 10
1672.469530
 20
798.149991
 11
1672.469530
 21
796.149991
  0
LINE
  8
0
  6
CONTINUOUS
 62
1
 10
1645.469530
 20
608.650237
 11
1645.469530
 21
608.150237
  0
LINE
  8
0
  6
CONTINUOUS
 62
1
 10
1657.869530
 20
608.650237
 11
1657.869530
 21
608.150237
  0
LINE
  8
0
  6
CONTINUOUS
 62
1
 10
1657.869530
 20
608.150237
 11
1645.469530
 21
608.150237
  0
ARC
  8
0
  6
CONTINUOUS
 62
1
 10
1644.569530
 20
608.650237
 40
0.900000
 50
0.000000
 51
180.000000
  0
ARC
  8
0
  6
CONTINUOUS
 62
1
 10
1658.769530
 20
608.650237
 40
0.900000
 50
0.000000
 51
180.000000
  0
LINE
  8
0
  6
CONTINUOUS
 62
1
 10
1645.469530
 20
608.650237
 11
1657.869530
 21
608.650237
  0
ARC
  8
0
  6
CONTINUOUS
 62
1
 10
1661.669530
 20
797.149991
 40
9.800000
 50
5.856702
 51
354.143298
  0
LINE
  8
0
  6
CONTINUOUS
 62
1
 10
1691.669530
 20
924.655308
 11
1691.669530
 21
915.363407
  0
LINE
  8
0
  6
CONTINUOUS
 62
1
 10
1688.669530
 20
924.655308
 11
1688.669530
 21
915.363407
  0
ARC
  8
0
  6
CONTINUOUS
 62
1
 10
1690.169530
 20
924.655308
 40
1.500000
 50
0.000000
 51
180.000000
  0
LINE
  8
0
  6
CONTINUOUS
 62
1
 10
1691.669530
 20
917.660103
 11
1688.669530
 21
917.660103
  0
ARC
  8
0
  6
CONTINUOUS
 62
1
 10
1690.169530
 20
911.655308
 40
4.000000
 50
0.000000
 51
67.975687
  0
ARC
  8
0
  6
CONTINUOUS
 62
1
 10
1690.169530
 20
911.655308
 40
4.000000
 50
112.024313
 51
0.000000
  0
CIRCLE
  8
0
  6
CONTINUOUS
 62
1
 10
1685.124203
 20
732.154696
 40
9.250000
  0
CIRCLE
  8
0
  6
CONTINUOUS
 62
1
 10
1685.124203
 20
732.154696
 40
7.250000
  0
LINE
  8
0
  6
CONTINUOUS
 62
1
 10
1680.584002
 20
733.154696
 11
1683.392153
 21
733.154696
  0
LINE
  8
0
  6
CONTINUOUS
 62
1
 10
1680.584002
 20
731.154696
 11
1683.392153
 21
731.154696
  0
LINE
  8
0
  6
CONTINUOUS
 62
1
 10
1684.124203
 20
738.139714
 11
1684.124203
 21
733.886747
  0
LINE
  8
0
  6
CONTINUOUS
 62
1
 10
1686.124203
 20
738.139714
 11
1686.124203
 21
733.886747
  0
ARC
  8
0
  6
CONTINUOUS
 62
1
 10
1685.124203
 20
732.154696
 40
2.000000
 50
120.000000
 51
150.000000
  0
ARC
  8
0
  6
CONTINUOUS
 62
1
 10
1685.124203
 20
732.154696
 40
2.000000
 50
210.000000
 51
60.000000
  0
LINE
  8
0
  6
CONTINUOUS
 62
1
 10
1684.124203
 20
738.139714
 11
1686.124203
 21
738.139714
  0
LINE
  8
0
  6
CONTINUOUS
 62
1
 10
1680.584002
 20
731.154696
 11
1680.584002
 21
733.154696
  0
CIRCLE
  8
0
  6
CONTINUOUS
 62
1
 10
1685.124203
 20
797.149991
 40
9.250000
  0
ARC
  8
0
  6
CONTINUOUS
 62
1
 10
1685.124203
 20
797.149991
 40
7.250000
 50
0.000000
 51
168.059456
  0
LINE
  8
0
  6
CONTINUOUS
 62
1
 10
1686.124203
 20
801.649991
 11
1686.124203
 21
794.833212
  0
LINE
  8
0
  6
CONTINUOUS
 62
1
 10
1684.124203
 20
798.775636
 11
1684.124203
 21
791.958856
  0
LINE
  8
0
  6
CONTINUOUS
 62
1
 10
1678.031073
 20
798.649991
 11
1686.124203
 21
801.649991
  0
LINE
  8
0
  6
CONTINUOUS
 62
1
 10
1684.124203
 20
798.775636
 11
1677.906099
 21
796.470680
  0
LINE
  8
0
  6
CONTINUOUS
 62
1
 10
1686.124203
 20
794.833212
 11
1692.374203
 21
797.149991
  0
ARC
  8
0
  6
CONTINUOUS
 62
1
 10
1685.124203
 20
797.149991
 40
7.250000
 50
185.376398
 51
341.771516
  0
LINE
  8
0
  6
CONTINUOUS
 62
1
 10
1692.010374
 20
794.882140
 11
1684.124203
 21
791.958856
  0
LINE
  8
0
  6
CONTINUOUS
 62
1
 10
1694.374203
 20
761.149969
 11
1685.124203
 21
761.650237
  0
LINE
  8
0
  6
CONTINUOUS
 62
1
 10
1685.124203
 20
762.650237
 11
1694.374203
 21
763.150504
  0
LINE
  8
0
  6
CONTINUOUS
 62
1
 10
1685.124203
 20
761.650237
 11
1685.124203
 21
762.650237
  0
LINE
  8
0
  6
CONTINUOUS
 62
1
 10
1694.374203
 20
756.114675
 11
1685.124203
 21
756.614942
  0
LINE
  8
0
  6
CONTINUOUS
 62
1
 10
1685.124203
 20
757.614942
 11
1694.374203
 21
758.115209
  0
LINE
  8
0
  6
CONTINUOUS
 62
1
 10
1685.124203
 20
756.614942
 11
1685.124203
 21
757.614942
  0
LINE
  8
0
  6
CONTINUOUS
 62
1
 10
1694.374203
 20
768.185799
 11
1685.124203
 21
767.685531
  0
LINE
  8
0
  6
CONTINUOUS
 62
1
 10
1685.124203
 20
766.685531
 11
1694.374203
 21
766.185264
  0
LINE
  8
0
  6
CONTINUOUS
 62
1
 10
1685.124203
 20
767.685531
 11
1685.124203
 21
766.685531
  0
ARC
  8
0
  6
CONTINUOUS
 62
1
 10
1685.124203
 20
762.150237
 40
9.250000
 50
116.932913
 51
243.067087
  0
ARC
  8
0
  6
CONTINUOUS
 62
1
 10
1685.124203
 20
762.150237
 40
7.250000
 50
134.497043
 51
225.502957
  0
ARC
  8
0
  6
CONTINUOUS
 62
1
 10
1664.374203
 20
762.150237
 40
18.500000
 50
333.527467
 51
26.472533
  0
ARC
  8
0
  6
CONTINUOUS
 62
1
 10
1664.374203
 20
762.150237
 40
16.500000
 50
341.734916
 51
18.265084
  0
LINE
  8
0
  6
CONTINUOUS
 62
1
 10
1694.374203
 20
768.185799
 11
1694.374203
 21
766.185264
  0
LINE
  8
0
  6
CONTINUOUS
 62
1
 10
1694.374203
 20
763.150504
 11
1694.374203
 21
761.149969
  0
LINE
  8
0
  6
CONTINUOUS
 62
1
 10
1694.374203
 20
758.115209
 11
1694.374203
 21
756.114675
  0
LINE
  8
0
  6
CONTINUOUS
 62
1
 10
1649.680164
 20
622.485053
 11
1658.201047
 21
630.650237
  0
LINE
  8
0
  6
CONTINUOUS
 62
1
 10
1649.680164
 20
622.485053
 11
1660.734192
 21
627.602694
  0
LINE
  8
0
  6
CONTINUOUS
 62
1
 10
1663.948067
 20
627.602694
 11
1669.817560
 21
626.401488
  0
LINE
  8
0
  6
CONTINUOUS
 62
1
 10
1660.734192
 20
627.602694
 11
1663.481363
 21
621.094030
  0
LINE
  8
0
  6
CONTINUOUS
 62
1
 10
1663.948067
 20
627.602694
 11
1663.481363
 21
621.094030
  0
LINE
  8
0
  6
CONTINUOUS
 62
1
 10
1664.886007
 20
634.086941
 11
1661.569530
 21
639.872374
  0
LINE
  8
0
  6
CONTINUOUS
 62
1
 10
1659.608497
 20
633.495211
 11
1654.773226
 21
634.086941
  0
LINE
  8
0
  6
CONTINUOUS
 62
1
 10
1658.201047
 20
630.650237
 11
1654.773226
 21
634.086941
  0
LINE
  8
0
  6
CONTINUOUS
 62
1
 10
1666.893509
 20
630.650237
 11
1669.817560
 21
626.401488
  0
LINE
  8
0
  6
CONTINUOUS
 62
1
 10
1664.886007
 20
634.086941
 11
1670.481310
 21
635.881739
  0
LINE
  8
0
  6
CONTINUOUS
 62
1
 10
1659.608497
 20
633.495211
 11
1661.569530
 21
639.872374
  0
LINE
  8
0
  6
CONTINUOUS
 62
1
 10
1670.481310
 20
635.881739
 11
1666.893509
 21
630.650237
  0
CIRCLE
  8
0
  6
CONTINUOUS
 62
1
 10
1661.669530
 20
727.650237
 40
3.000000
  0
CIRCLE
  8
0
  6
CONTINUOUS
 62
1
 10
1661.669530
 20
907.650237
 40
3.000000
  0
POLYLINE
  8
0
  6
CONTINUOUS
 62
1
 66
1
 70
2
  0
VERTEX
  8
0
 10
1676.669530
 20
849.099577
 70
0
 42
0.057944
  0
VERTEX
  8
0
 10
1681.888027
 20
853.044079
 70
0
 42
0.059305
  0
VERTEX
  8
0
 10
1686.000594
 20
858.033668
 70
0
 42
0.060571
  0
VERTEX
  8
0
 10
1688.782276
 20
863.795418
 70
0
 42
0.061435
  0
VERTEX
  8
0
 10
1690.080919
 20
870.014168
 70
0
 42
0.061671
  0
VERTEX
  8
0
 10
1689.825489
 20
876.349759
 70
0
 42
0.061214
  0
VERTEX
  8
0
 10
1688.029957
 20
882.455641
 70
0
 42
0.060187
  0
VERTEX
  8
0
 10
1684.792537
 20
887.997828
 70
0
 42
0.058855
  0
VERTEX
  8
0
 10
1680.290312
 20
892.673167
 70
0
 42
0.057528
  0
VERTEX
  8
0
 10
1674.769550
 20
896.225924
 70
0
 42
0.056477
  0
VERTEX
  8
0
 10
1668.532230
 20
898.461766
 70
0
 42
0.055892
  0
VERTEX
  8
0
 10
1661.919528
 20
899.258394
 70
0
  0
SEQEND
  0
POLYLINE
  8
0
  6
CONTINUOUS
 62
1
 66
1
 70
2
  0
VERTEX
  8
0
 10
1646.758068
 20
849.047661
 70
0
 42
0.053351
  0
VERTEX
  8
0
 10
1652.424398
 20
846.507015
 70
0
 42
0.052667
  0
VERTEX
  8
0
 10
1658.537379
 20
845.205247
 70
0
 42
0.052427
  0
VERTEX
  8
0
 10
1664.801681
 20
845.205247
 70
0
 42
0.052667
  0
VERTEX
  8
0
 10
1670.914663
 20
846.507015
 70
0
 42
0.053351
  0
VERTEX
  8
0
 10
1676.580993
 20
849.047661
 70
0
  0
SEQEND
  0
POLYLINE
  8
0
  6
CONTINUOUS
 62
1
 66
1
 70
2
  0
VERTEX
  8
0
 10
1676.659895
 20
849.120853
 70
0
 42
-0.042310
  0
VERTEX
  8
0
 10
1673.481998
 20
858.084962
 70
0
 42
-0.042646
  0
VERTEX
  8
0
 10
1671.871806
 20
867.420209
 70
0
 42
-0.042764
  0
VERTEX
  8
0
 10
1671.871806
 20
876.880265
 70
0
 42
-0.042646
  0
VERTEX
  8
0
 10
1673.481998
 20
886.215511
 70
0
 42
-0.042310
  0
VERTEX
  8
0
 10
1676.659895
 20
895.179620
 70
0
  0
SEQEND
  0
POLYLINE
  8
0
  6
CONTINUOUS
 62
1
 66
1
 70
2
  0
VERTEX
  8
0
 10
1646.679166
 20
895.179620
 70
0
 42
-0.042310
  0
VERTEX
  8
0
 10
1649.857063
 20
886.215511
 70
0
 42
-0.042646
  0
VERTEX
  8
0
 10
1651.467255
 20
876.880265
 70
0
 42
-0.042764
  0
VERTEX
  8
0
 10
1651.467255
 20
867.420209
 70
0
 42
-0.042646
  0
VERTEX
  8
0
 10
1649.857063
 20
858.084962
 70
0
 42
-0.042310
  0
VERTEX
  8
0
 10
1646.679166
 20
849.120853
 70
0
  0
SEQEND
  0
POLYLINE
  8
0
  6
CONTINUOUS
 62
1
 66
1
 70
2
  0
VERTEX
  8
0
 10
1661.419533
 20
899.258394
 70
0
 42
0.055892
  0
VERTEX
  8
0
 10
1654.806830
 20
898.461766
 70
0
 42
0.056477
  0
VERTEX
  8
0
 10
1648.569511
 20
896.225924
 70
0
 42
0.057528
  0
VERTEX
  8
0
 10
1643.048749
 20
892.673167
 70
0
 42
0.058855
  0
VERTEX
  8
0
 10
1638.546524
 20
887.997828
 70
0
 42
0.060187
  0
VERTEX
  8
0
 10
1635.309104
 20
882.455641
 70
0
 42
0.061214
  0
VERTEX
  8
0
 10
1633.513572
 20
876.349759
 70
0
 42
0.061671
  0
VERTEX
  8
0
 10
1633.258141
 20
870.014168
 70
0
 42
0.061435
  0
VERTEX
  8
0
 10
1634.556784
 20
863.795418
 70
0
 42
0.060571
  0
VERTEX
  8
0
 10
1637.338467
 20
858.033668
 70
0
 42
0.059305
  0
VERTEX
  8
0
 10
1641.451033
 20
853.044079
 70
0
 42
0.057944
  0
VERTEX
  8
0
 10
1646.669530
 20
849.099577
 70
0
  0
SEQEND
  0
POLYLINE
  8
0
  6
CONTINUOUS
 62
1
 66
1
 70
2
  0
VERTEX
  8
0
 10
1663.168766
 20
894.457901
 70
0
 42
-0.059478
  0
VERTEX
  8
0
 10
1668.901072
 20
893.418754
 70
0
 42
-0.060310
  0
VERTEX
  8
0
 10
1674.187466
 20
891.068150
 70
0
  0
SEQEND
  0
POLYLINE
  8
0
  6
CONTINUOUS
 62
1
 66
1
 70
2
  0
VERTEX
  8
0
 10
1660.170294
 20
894.457901
 70
0
 42
0.268165
  0
VERTEX
  8
0
 10
1660.933394
 20
893.260271
 70
0
 42
0.249457
  0
VERTEX
  8
0
 10
1662.405666
 20
893.260271
 70
0
 42
0.268165
  0
VERTEX
  8
0
 10
1663.168766
 20
894.457901
 70
0
  0
SEQEND
  0
POLYLINE
  8
0
  6
CONTINUOUS
 62
1
 66
1
 70
2
  0
VERTEX
  8
0
 10
1661.419533
 20
899.258394
 70
0
 42
0.412473
  0
VERTEX
  8
0
 10
1661.669530
 20
899.021637
 70
0
 42
0.412473
  0
VERTEX
  8
0
 10
1661.919528
 20
899.258394
 70
0
  0
SEQEND
  0
POLYLINE
  8
0
  6
CONTINUOUS
 62
1
 66
1
 70
2
  0
VERTEX
  8
0
 10
1649.151594
 20
891.068150
 70
0
 42
-0.060310
  0
VERTEX
  8
0
 10
1654.437989
 20
893.418754
 70
0
 42
-0.059478
  0
VERTEX
  8
0
 10
1660.170294
 20
894.457901
 70
0
  0
SEQEND
  0
POLYLINE
  8
0
  6
CONTINUOUS
 62
1
 66
1
 70
2
  0
VERTEX
  8
0
 10
1674.187466
 20
853.232323
 70
0
 42
-0.054470
  0
VERTEX
  8
0
 10
1669.441244
 20
851.054807
 70
0
 42
-0.053745
  0
VERTEX
  8
0
 10
1664.304260
 20
849.937971
 70
0
 42
-0.053491
  0
VERTEX
  8
0
 10
1659.034801
 20
849.937971
 70
0
 42
-0.053745
  0
VERTEX
  8
0
 10
1653.897816
 20
851.054807
 70
0
 42
-0.054470
  0
VERTEX
  8
0
 10
1649.151594
 20
853.232323
 70
0
  0
SEQEND
  0
LINE
  8
0
  6
CONTINUOUS
 62
1
 10
1660.170294
 20
894.457901
 11
1661.419533
 21
899.258394
  0
LINE
  8
0
  6
CONTINUOUS
 62
1
 10
1661.919528
 20
899.258394
 11
1663.168766
 21
894.457901
  0
POLYLINE
  8
0
  6
CONTINUOUS
 62
1
 66
1
 70
2
  0
VERTEX
  8
0
 10
1674.654788
 20
890.263133
 70
0
 42
0.264500
  0
VERTEX
  8
0
 10
1674.187466
 20
891.068150
 70
0
  0
SEQEND
  0
POLYLINE
  8
0
  6
CONTINUOUS
 62
1
 66
1
 70
2
  0
VERTEX
  8
0
 10
1674.654788
 20
854.037341
 70
0
 42
0.081701
  0
VERTEX
  8
0
 10
1674.606813
 20
854.328428
 70
0
  0
SEQEND
  0
POLYLINE
  8
0
  6
CONTINUOUS
 62
1
 66
1
 70
2
  0
VERTEX
  8
0
 10
1649.151594
 20
891.068150
 70
0
 42
0.355774
  0
VERTEX
  8
0
 10
1648.732248
 20
889.972045
 70
0
  0
SEQEND
  0
POLYLINE
  8
0
  6
CONTINUOUS
 62
1
 66
1
 70
2
  0
VERTEX
  8
0
 10
1674.606813
 20
889.972046
 70
0
 42
0.081701
  0
VERTEX
  8
0
 10
1674.654788
 20
890.263133
 70
0
  0
SEQEND
  0
POLYLINE
  8
0
  6
CONTINUOUS
 62
1
 66
1
 70
2
  0
VERTEX
  8
0
 10
1674.187466
 20
853.232323
 70
0
 42
0.264500
  0
VERTEX
  8
0
 10
1674.654788
 20
854.037341
 70
0
  0
SEQEND
  0
POLYLINE
  8
0
  6
CONTINUOUS
 62
1
 66
1
 70
2
  0
VERTEX
  8
0
 10
1648.732248
 20
854.328429
 70
0
 42
0.355774
  0
VERTEX
  8
0
 10
1649.151594
 20
853.232323
 70
0
  0
SEQEND
  0
POLYLINE
  8
0
  6
CONTINUOUS
 62
1
 66
1
 70
2
  0
VERTEX
  8
0
 10
1661.384445
 20
903.063047
 70
0
 42
0.051213
  0
VERTEX
  8
0
 10
1654.461290
 20
902.294293
 70
0
 42
0.051668
  0
VERTEX
  8
0
 10
1647.869685
 20
900.139032
 70
0
 42
0.052496
  0
VERTEX
  8
0
 10
1641.912817
 20
896.696400
 70
0
 42
0.053573
  0
VERTEX
  8
0
 10
1636.864679
 20
892.124743
 70
0
 42
0.054721
  0
VERTEX
  8
0
 10
1632.957464
 20
886.634339
 70
0
 42
0.055723
  0
VERTEX
  8
0
 10
1630.370889
 20
880.477724
 70
0
 42
0.056370
  0
VERTEX
  8
0
 10
1629.223926
 20
873.938078
 70
0
 42
0.056516
  0
VERTEX
  8
0
 10
1629.569330
 20
867.316199
 70
0
 42
0.056127
  0
VERTEX
  8
0
 10
1631.391214
 20
860.916666
 70
0
 42
0.055293
  0
VERTEX
  8
0
 10
1634.605779
 20
855.033832
 70
0
 42
0.054196
  0
VERTEX
  8
0
 10
1639.065168
 20
849.938284
 70
0
 42
0.053055
  0
VERTEX
  8
0
 10
1644.564267
 20
845.864397
 70
0
  0
SEQEND
  0
POLYLINE
  8
0
  6
CONTINUOUS
 62
1
 66
1
 70
2
  0
VERTEX
  8
0
 10
1678.774793
 20
845.864397
 70
0
 42
0.053055
  0
VERTEX
  8
0
 10
1684.273892
 20
849.938284
 70
0
 42
0.054196
  0
VERTEX
  8
0
 10
1688.733281
 20
855.033832
 70
0
 42
0.055293
  0
VERTEX
  8
0
 10
1691.947846
 20
860.916666
 70
0
 42
0.056127
  0
VERTEX
  8
0
 10
1693.769731
 20
867.316199
 70
0
 42
0.056516
  0
VERTEX
  8
0
 10
1694.115135
 20
873.938078
 70
0
 42
0.056370
  0
VERTEX
  8
0
 10
1692.968171
 20
880.477724
 70
0
 42
0.055723
  0
VERTEX
  8
0
 10
1690.381596
 20
886.634339
 70
0
 42
0.054721
  0
VERTEX
  8
0
 10
1686.474381
 20
892.124743
 70
0
 42
0.053573
  0
VERTEX
  8
0
 10
1681.426243
 20
896.696400
 70
0
 42
0.052496
  0
VERTEX
  8
0
 10
1675.469375
 20
900.139032
 70
0
 42
0.051668
  0
VERTEX
  8
0
 10
1668.877770
 20
902.294293
 70
0
 42
0.051213
  0
VERTEX
  8
0
 10
1661.954615
 20
903.063047
 70
0
  0
SEQEND
  0
POLYLINE
  8
0
  6
CONTINUOUS
 62
1
 66
1
 70
2
  0
VERTEX
  8
0
 10
1644.665231
 20
845.805194
 70
0
 42
0.053351
  0
VERTEX
  8
0
 10
1651.126835
 20
842.907967
 70
0
 42
0.052667
  0
VERTEX
  8
0
 10
1658.097779
 20
841.423494
 70
0
 42
0.052427
  0
VERTEX
  8
0
 10
1665.241282
 20
841.423494
 70
0
 42
0.052667
  0
VERTEX
  8
0
 10
1672.212225
 20
842.907967
 70
0
 42
0.053351
  0
VERTEX
  8
0
 10
1678.673830
 20
845.805194
 70
0
  0
SEQEND
  0
LINE
  8
0
  6
CONTINUOUS
 62
1
 10
1663.166471
 20
894.412364
 11
1663.166471
 21
852.225851
  0
LINE
  8
0
  6
CONTINUOUS
 62
1
 10
1660.170294
 20
894.457901
 11
1660.170294
 21
852.226007
  0
ARC
  8
0
  6
CONTINUOUS
 62
1
 10
1661.668381
 20
852.175037
 40
1.498086
 50
180.000000
 51
1.942686
  0
POLYLINE
  8
0
  6
CONTINUOUS
 62
1
 66
1
 70
2
  0
VERTEX
  8
0
 10
1676.669530
 20
669.099577
 70
0
 42
0.057944
  0
VERTEX
  8
0
 10
1681.888027
 20
673.044079
 70
0
 42
0.059305
  0
VERTEX
  8
0
 10
1686.000594
 20
678.033668
 70
0
 42
0.060571
  0
VERTEX
  8
0
 10
1688.782276
 20
683.795418
 70
0
 42
0.061435
  0
VERTEX
  8
0
 10
1690.080919
 20
690.014168
 70
0
 42
0.061671
  0
VERTEX
  8
0
 10
1689.825489
 20
696.349759
 70
0
 42
0.061214
  0
VERTEX
  8
0
 10
1688.029957
 20
702.455641
 70
0
 42
0.060187
  0
VERTEX
  8
0
 10
1684.792537
 20
707.997828
 70
0
 42
0.058855
  0
VERTEX
  8
0
 10
1680.290312
 20
712.673167
 70
0
 42
0.057528
  0
VERTEX
  8
0
 10
1674.769550
 20
716.225924
 70
0
 42
0.056477
  0
VERTEX
  8
0
 10
1668.532230
 20
718.461766
 70
0
 42
0.055892
  0
VERTEX
  8
0
 10
1661.919528
 20
719.258394
 70
0
  0
SEQEND
  0
POLYLINE
  8
0
  6
CONTINUOUS
 62
1
 66
1
 70
2
  0
VERTEX
  8
0
 10
1646.758068
 20
669.047661
 70
0
 42
0.053351
  0
VERTEX
  8
0
 10
1652.424398
 20
666.507015
 70
0
 42
0.052667
  0
VERTEX
  8
0
 10
1658.537379
 20
665.205247
 70
0
 42
0.052427
  0
VERTEX
  8
0
 10
1664.801681
 20
665.205247
 70
0
 42
0.052667
  0
VERTEX
  8
0
 10
1670.914663
 20
666.507015
 70
0
 42
0.053351
  0
VERTEX
  8
0
 10
1676.580993
 20
669.047661
 70
0
  0
SEQEND
  0
POLYLINE
  8
0
  6
CONTINUOUS
 62
1
 66
1
 70
2
  0
VERTEX
  8
0
 10
1676.659895
 20
669.120853
 70
0
 42
-0.042310
  0
VERTEX
  8
0
 10
1673.481998
 20
678.084962
 70
0
 42
-0.042646
  0
VERTEX
  8
0
 10
1671.871806
 20
687.420209
 70
0
 42
-0.042764
  0
VERTEX
  8
0
 10
1671.871806
 20
696.880265
 70
0
 42
-0.042646
  0
VERTEX
  8
0
 10
1673.481998
 20
706.215511
 70
0
 42
-0.042310
  0
VERTEX
  8
0
 10
1676.659895
 20
715.179620
 70
0
  0
SEQEND
  0
POLYLINE
  8
0
  6
CONTINUOUS
 62
1
 66
1
 70
2
  0
VERTEX
  8
0
 10
1646.679166
 20
715.179620
 70
0
 42
-0.042310
  0
VERTEX
  8
0
 10
1649.857063
 20
706.215511
 70
0
 42
-0.042646
  0
VERTEX
  8
0
 10
1651.467255
 20
696.880265
 70
0
 42
-0.042764
  0
VERTEX
  8
0
 10
1651.467255
 20
687.420209
 70
0
 42
-0.042646
  0
VERTEX
  8
0
 10
1649.857063
 20
678.084962
 70
0
 42
-0.042310
  0
VERTEX
  8
0
 10
1646.679166
 20
669.120853
 70
0
  0
SEQEND
  0
POLYLINE
  8
0
  6
CONTINUOUS
 62
1
 66
1
 70
2
  0
VERTEX
  8
0
 10
1661.419533
 20
719.258394
 70
0
 42
0.055892
  0
VERTEX
  8
0
 10
1654.806830
 20
718.461766
 70
0
 42
0.056477
  0
VERTEX
  8
0
 10
1648.569511
 20
716.225924
 70
0
 42
0.057528
  0
VERTEX
  8
0
 10
1643.048749
 20
712.673167
 70
0
 42
0.058855
  0
VERTEX
  8
0
 10
1638.546524
 20
707.997828
 70
0
 42
0.060187
  0
VERTEX
  8
0
 10
1635.309104
 20
702.455641
 70
0
 42
0.061214
  0
VERTEX
  8
0
 10
1633.513572
 20
696.349759
 70
0
 42
0.061671
  0
VERTEX
  8
0
 10
1633.258141
 20
690.014168
 70
0
 42
0.061435
  0
VERTEX
  8
0
 10
1634.556784
 20
683.795418
 70
0
 42
0.060571
  0
VERTEX
  8
0
 10
1637.338467
 20
678.033668
 70
0
 42
0.059305
  0
VERTEX
  8
0
 10
1641.451033
 20
673.044079
 70
0
 42
0.057944
  0
VERTEX
  8
0
 10
1646.669530
 20
669.099577
 70
0
  0
SEQEND
  0
POLYLINE
  8
0
  6
CONTINUOUS
 62
1
 66
1
 70
2
  0
VERTEX
  8
0
 10
1663.168766
 20
714.457901
 70
0
 42
-0.059478
  0
VERTEX
  8
0
 10
1668.901072
 20
713.418754
 70
0
 42
-0.060310
  0
VERTEX
  8
0
 10
1674.187466
 20
711.068150
 70
0
  0
SEQEND
  0
POLYLINE
  8
0
  6
CONTINUOUS
 62
1
 66
1
 70
2
  0
VERTEX
  8
0
 10
1660.170294
 20
714.457901
 70
0
 42
0.268165
  0
VERTEX
  8
0
 10
1660.933394
 20
713.260271
 70
0
 42
0.249457
  0
VERTEX
  8
0
 10
1662.405666
 20
713.260271
 70
0
 42
0.268165
  0
VERTEX
  8
0
 10
1663.168766
 20
714.457901
 70
0
  0
SEQEND
  0
POLYLINE
  8
0
  6
CONTINUOUS
 62
1
 66
1
 70
2
  0
VERTEX
  8
0
 10
1661.419533
 20
719.258394
 70
0
 42
0.412473
  0
VERTEX
  8
0
 10
1661.669530
 20
719.021637
 70
0
 42
0.412473
  0
VERTEX
  8
0
 10
1661.919528
 20
719.258394
 70
0
  0
SEQEND
  0
POLYLINE
  8
0
  6
CONTINUOUS
 62
1
 66
1
 70
2
  0
VERTEX
  8
0
 10
1649.151594
 20
711.068150
 70
0
 42
-0.060310
  0
VERTEX
  8
0
 10
1654.437989
 20
713.418754
 70
0
 42
-0.059478
  0
VERTEX
  8
0
 10
1660.170294
 20
714.457901
 70
0
  0
SEQEND
  0
POLYLINE
  8
0
  6
CONTINUOUS
 62
1
 66
1
 70
2
  0
VERTEX
  8
0
 10
1674.187466
 20
673.232323
 70
0
 42
-0.054470
  0
VERTEX
  8
0
 10
1669.441244
 20
671.054807
 70
0
 42
-0.053745
  0
VERTEX
  8
0
 10
1664.304260
 20
669.937971
 70
0
 42
-0.053491
  0
VERTEX
  8
0
 10
1659.034801
 20
669.937971
 70
0
 42
-0.053745
  0
VERTEX
  8
0
 10
1653.897816
 20
671.054807
 70
0
 42
-0.054470
  0
VERTEX
  8
0
 10
1649.151594
 20
673.232323
 70
0
  0
SEQEND
  0
LINE
  8
0
  6
CONTINUOUS
 62
1
 10
1660.170294
 20
714.457901
 11
1661.419533
 21
719.258394
  0
LINE
  8
0
  6
CONTINUOUS
 62
1
 10
1661.919528
 20
719.258394
 11
1663.168766
 21
714.457901
  0
POLYLINE
  8
0
  6
CONTINUOUS
 62
1
 66
1
 70
2
  0
VERTEX
  8
0
 10
1674.654788
 20
710.263133
 70
0
 42
0.264500
  0
VERTEX
  8
0
 10
1674.187466
 20
711.068150
 70
0
  0
SEQEND
  0
POLYLINE
  8
0
  6
CONTINUOUS
 62
1
 66
1
 70
2
  0
VERTEX
  8
0
 10
1674.654788
 20
674.037341
 70
0
 42
0.081701
  0
VERTEX
  8
0
 10
1674.606813
 20
674.328428
 70
0
  0
SEQEND
  0
POLYLINE
  8
0
  6
CONTINUOUS
 62
1
 66
1
 70
2
  0
VERTEX
  8
0
 10
1649.151594
 20
711.068150
 70
0
 42
0.355774
  0
VERTEX
  8
0
 10
1648.732248
 20
709.972045
 70
0
  0
SEQEND
  0
POLYLINE
  8
0
  6
CONTINUOUS
 62
1
 66
1
 70
2
  0
VERTEX
  8
0
 10
1674.606813
 20
709.972046
 70
0
 42
0.081701
  0
VERTEX
  8
0
 10
1674.654788
 20
710.263133
 70
0
  0
SEQEND
  0
POLYLINE
  8
0
  6
CONTINUOUS
 62
1
 66
1
 70
2
  0
VERTEX
  8
0
 10
1674.187466
 20
673.232323
 70
0
 42
0.264500
  0
VERTEX
  8
0
 10
1674.654788
 20
674.037341
 70
0
  0
SEQEND
  0
POLYLINE
  8
0
  6
CONTINUOUS
 62
1
 66
1
 70
2
  0
VERTEX
  8
0
 10
1648.732248
 20
674.328429
 70
0
 42
0.355774
  0
VERTEX
  8
0
 10
1649.151594
 20
673.232323
 70
0
  0
SEQEND
  0
POLYLINE
  8
0
  6
CONTINUOUS
 62
1
 66
1
 70
2
  0
VERTEX
  8
0
 10
1661.384445
 20
723.063047
 70
0
 42
0.051213
  0
VERTEX
  8
0
 10
1654.461290
 20
722.294293
 70
0
 42
0.051668
  0
VERTEX
  8
0
 10
1647.869685
 20
720.139032
 70
0
 42
0.052496
  0
VERTEX
  8
0
 10
1641.912817
 20
716.696400
 70
0
 42
0.053573
  0
VERTEX
  8
0
 10
1636.864679
 20
712.124743
 70
0
 42
0.054721
  0
VERTEX
  8
0
 10
1632.957464
 20
706.634339
 70
0
 42
0.055723
  0
VERTEX
  8
0
 10
1630.370889
 20
700.477724
 70
0
 42
0.056370
  0
VERTEX
  8
0
 10
1629.223926
 20
693.938078
 70
0
 42
0.056516
  0
VERTEX
  8
0
 10
1629.569330
 20
687.316199
 70
0
 42
0.056127
  0
VERTEX
  8
0
 10
1631.391214
 20
680.916666
 70
0
 42
0.055293
  0
VERTEX
  8
0
 10
1634.605779
 20
675.033832
 70
0
 42
0.054196
  0
VERTEX
  8
0
 10
1639.065168
 20
669.938284
 70
0
 42
0.053055
  0
VERTEX
  8
0
 10
1644.564267
 20
665.864397
 70
0
  0
SEQEND
  0
POLYLINE
  8
0
  6
CONTINUOUS
 62
1
 66
1
 70
2
  0
VERTEX
  8
0
 10
1678.774793
 20
665.864397
 70
0
 42
0.053055
  0
VERTEX
  8
0
 10
1684.273892
 20
669.938284
 70
0
 42
0.054196
  0
VERTEX
  8
0
 10
1688.733281
 20
675.033832
 70
0
 42
0.055293
  0
VERTEX
  8
0
 10
1691.947846
 20
680.916666
 70
0
 42
0.056127
  0
VERTEX
  8
0
 10
1693.769731
 20
687.316199
 70
0
 42
0.056516
  0
VERTEX
  8
0
 10
1694.115135
 20
693.938078
 70
0
 42
0.056370
  0
VERTEX
  8
0
 10
1692.968171
 20
700.477724
 70
0
 42
0.055723
  0
VERTEX
  8
0
 10
1690.381596
 20
706.634339
 70
0
 42
0.054721
  0
VERTEX
  8
0
 10
1686.474381
 20
712.124743
 70
0
 42
0.053573
  0
VERTEX
  8
0
 10
1681.426243
 20
716.696400
 70
0
 42
0.052496
  0
VERTEX
  8
0
 10
1675.469375
 20
720.139032
 70
0
 42
0.051668
  0
VERTEX
  8
0
 10
1668.877770
 20
722.294293
 70
0
 42
0.051213
  0
VERTEX
  8
0
 10
1661.954615
 20
723.063047
 70
0
  0
SEQEND
  0
POLYLINE
  8
0
  6
CONTINUOUS
 62
1
 66
1
 70
2
  0
VERTEX
  8
0
 10
1644.665231
 20
665.805194
 70
0
 42
0.053351
  0
VERTEX
  8
0
 10
1651.126835
 20
662.907967
 70
0
 42
0.052667
  0
VERTEX
  8
0
 10
1658.097779
 20
661.423494
 70
0
 42
0.052427
  0
VERTEX
  8
0
 10
1665.241282
 20
661.423494
 70
0
 42
0.052667
  0
VERTEX
  8
0
 10
1672.212225
 20
662.907967
 70
0
 42
0.053351
  0
VERTEX
  8
0
 10
1678.673830
 20
665.805194
 70
0
  0
SEQEND
  0
LINE
  8
0
  6
CONTINUOUS
 62
1
 10
1663.166471
 20
714.412364
 11
1663.166471
 21
672.225851
  0
LINE
  8
0
  6
CONTINUOUS
 62
1
 10
1660.170294
 20
714.457901
 11
1660.170294
 21
672.226007
  0
ARC
  8
0
  6
CONTINUOUS
 62
1
 10
1661.668381
 20
672.175037
 40
1.498086
 50
180.000000
 51
1.942686
  0
CIRCLE
  8
0
  6
CONTINUOUS
 62
1
 10
1639.169530
 20
580.650237
 40
6.000000
  0
CIRCLE
  8
0
  6
CONTINUOUS
 62
1
 10
1664.169530
 20
580.650237
 40
6.000000
  0
LINE
  8
0
  6
CONTINUOUS
 62
1
 10
811.769530
 20
1022.278596
 11
1711.769530
 21
1022.278596
  0
LINE
  8
0
  6
CONTINUOUS
 62
1
 10
1711.769530
 20
1037.578596
 11
811.769530
 21
1037.578596
  0
LINE
  8
0
  6
CONTINUOUS
 62
1
 10
1261.769530
 20
317.578596
 11
1455.587113
 21
317.578596
  0
ENDSEC
  0
EOF
