  0
SECTION
  2
HEADER
  9
$LIMMIN
 10
0.000000
 20
0.000000
  9
$LIMMAX
 10
840.896415
 20
594.603557
  9
$EXTMIN
 10
0.000000
 20
0.000000
  9
$EXTMAX
 10
3363.600000
 20
2378.420000
  9
$ANGBASE
 50
0.0
  9
$ANGDIR
 70
0
  9
$DIMRND
 40
0.100000
  9
$DIMSE1
 70
0
  9
$DIMSE2
 70
0
  9
$DIMTXT
 40
3.500000
  9
$LTSCALE
 40
1.000000
  9
$LUPREC
 70
5
  9
$AUPREC
 70
5
  9
$PDMODE
 70
2
  9
$PDSIZE
 40
16.818000
  0
ENDSEC
  0
SECTION
  2
TABLES
  0
TABLE
  2
VPORT
  70
1
  0
VPORT
  2
*ACTIVE
 70
0
  10
0.0
 20
0.0
 11
1.0
 21
1.0
 12
594.0
 22
420.0
 13
0.0
 23
0.0
 14
10.0
 24
10.0
 15
10.0
 25
10.0
 16
0.0
 26
0.0
 36
1.0
 17
594.0
 27
420.0
 37
100.0
 40
1000.0
 41
1.0
 42
50.0
 43
0.0
 44
0.0
 50
0.0
 51
0.0
 71
0
 72
2000
 73
1
 74
3
 75
0
 76
0
 77
0
 78
1
  0
ENDTAB
  0
TABLE
  2
LTYPE
 70
5
  0
LTYPE
  2
CONTINUOUS
 70
0
  3
Solid line
 72
65
 73
0
 40
0.0
  0
LTYPE
  2
DASHED
 70
0
  3
Dashed line
 72
65
 73
2
 40
6.000000
 49
3.000000
 49
-3.000000
  0
LTYPE
  2
CENTER
 70
0
  3
Chain line
 72
65
 73
4
 40
24.000000
 49
15.000000
 49
-3.000000
 49
3.000000
 49
-3.000000
  0
LTYPE
  2
RANDOM
 70
0
  3
Random line
 72
65
 73
4
 40
22.500000
 49
6.000000
 49
-3.000000
 49
4.500000
 49
-9.000000
  0
LTYPE
  2
CHAIN_2_16843142
  3
CHAIN_2_16843142
 70
0
 72
65
 73
4
 40
2.400000
 49
1.500000
 49
-0.300000
 49
0.300000
 49
-0.300000
  0
ENDTAB
  0
TABLE
  2
STYLE
 70
9
  0
STYLE
  2
STANDARD
 40
0
 41
1.0
 50
0.0
 71
0
 42
0
  3
simplex
  4

 70
0
  0
ENDTAB
  0
TABLE
  2
LAYER
 70
2
  0
LAYER
  2
0
 70
0
 62
7
  6
CONTINUOUS
  0
LAYER
  2
0
 62
1
  6
CONTINUOUS
 70
0
  0
ENDTAB
  0
ENDSEC
  0
SECTION
  2
BLOCKS
  0
ENDSEC
  0
SECTION
  2
ENTITIES
  0
LINE
  8
0
  6
CONTINUOUS
 62
1
 10
926.060046
 20
1473.204619
 11
926.060046
 21
998.204619
  0
LINE
  8
0
  6
CONTINUOUS
 62
1
 10
926.060046
 20
998.204619
 11
1482.060046
 21
998.204619
  0
LINE
  8
0
  6
CONTINUOUS
 62
1
 10
1426.060046
 20
1473.204619
 11
1426.060046
 21
998.204619
  0
LINE
  8
0
  6
CHAIN_2_16843142
 62
1
 10
906.060046
 20
1078.204619
 11
946.060046
 21
1078.204619
  0
LINE
  8
0
  6
CONTINUOUS
 62
1
 10
1426.060046
 20
1283.204619
 11
1482.060046
 21
1283.204619
  0
LINE
  8
0
  6
CONTINUOUS
 62
1
 10
926.060046
 20
1473.204619
 11
1482.060046
 21
1473.204619
  0
LINE
  8
0
  6
CONTINUOUS
 62
1
 10
1476.060046
 20
1473.204619
 11
1476.060046
 21
1473.204863
  0
LINE
  8
0
  6
CONTINUOUS
 62
1
 10
1476.060046
 20
1473.204619
 11
1476.060046
 21
1473.204863
  0
LINE
  8
0
  6
CONTINUOUS
 62
1
 10
1482.060046
 20
998.204619
 11
1482.060046
 21
1473.204619
  0
LINE
  8
0
  6
CONTINUOUS
 62
1
 10
1484.060046
 20
1185.208891
 11
1484.060046
 21
1145.158891
  0
LINE
  8
0
  6
CONTINUOUS
 62
1
 10
1514.060046
 20
1133.858057
 11
1514.060046
 21
1171.559632
  0
LINE
  8
0
  6
CONTINUOUS
 62
1
 10
1484.060046
 20
1145.158891
 11
1482.060046
 21
1145.158891
  0
LINE
  8
0
  6
CONTINUOUS
 62
1
 10
1482.060046
 20
1145.158891
 11
1482.060046
 21
1153.958891
  0
LINE
  8
0
  6
CONTINUOUS
 62
1
 10
1484.060046
 20
1145.158891
 11
1484.060046
 21
1120.208891
  0
LINE
  8
0
  6
CONTINUOUS
 62
1
 10
1484.060046
 20
1185.208891
 11
1494.060046
 21
1181.118466
  0
LINE
  8
0
  6
CONTINUOUS
 62
1
 10
1484.060046
 20
1120.208891
 11
1494.060046
 21
1124.296160
  0
LINE
  8
0
  6
CONTINUOUS
 62
1
 10
1484.060046
 20
1185.208891
 11
1494.060046
 21
1181.118466
  0
LINE
  8
0
  6
CONTINUOUS
 62
1
 10
1494.060046
 20
1124.296160
 11
1494.060046
 21
1181.118466
  0
LINE
  8
0
  6
CENTER
 62
1
 10
1482.060046
 20
1153.958891
 11
1484.060046
 21
1153.958891
  0
LINE
  8
0
  6
CONTINUOUS
 62
1
 10
1485.899607
 20
1148.065839
 11
1485.921107
 21
1147.861280
  0
LINE
  8
0
  6
CONTINUOUS
 62
1
 10
1486.028380
 20
1147.986221
 11
1486.077832
 21
1147.515714
  0
LINE
  8
0
  6
CONTINUOUS
 62
1
 10
1486.156072
 20
1147.916880
 11
1486.228589
 21
1147.226923
  0
LINE
  8
0
  6
CONTINUOUS
 62
1
 10
1486.282776
 20
1147.856945
 11
1486.375283
 21
1146.976797
  0
LINE
  8
0
  6
CONTINUOUS
 62
1
 10
1486.408568
 20
1147.805685
 11
1486.518955
 21
1146.755426
  0
LINE
  8
0
  6
CONTINUOUS
 62
1
 10
1486.533507
 20
1147.762538
 11
1486.660253
 21
1146.556633
  0
LINE
  8
0
  6
CONTINUOUS
 62
1
 10
1486.657641
 20
1147.727054
 11
1486.799610
 21
1146.376316
  0
LINE
  8
0
  6
CONTINUOUS
 62
1
 10
1486.781009
 20
1147.698852
 11
1486.937331
 21
1146.211549
  0
LINE
  8
0
  6
CONTINUOUS
 62
1
 10
1486.903639
 20
1147.677681
 11
1487.073648
 21
1146.060154
  0
LINE
  8
0
  6
CONTINUOUS
 62
1
 10
1487.025560
 20
1147.663258
 11
1487.208733
 21
1145.920484
  0
LINE
  8
0
  6
CONTINUOUS
 62
1
 10
1487.146785
 20
1147.655445
 11
1487.342720
 21
1145.791248
  0
LINE
  8
0
  6
CONTINUOUS
 62
1
 10
1487.267331
 20
1147.654098
 11
1487.475721
 21
1145.671403
  0
LINE
  8
0
  6
CONTINUOUS
 62
1
 10
1487.387206
 20
1147.659134
 11
1487.607828
 21
1145.560050
  0
LINE
  8
0
  6
CONTINUOUS
 62
1
 10
1487.506416
 20
1147.670499
 11
1487.739112
 21
1145.456543
  0
LINE
  8
0
  6
CONTINUOUS
 62
1
 10
1487.624960
 20
1147.688204
 11
1487.869636
 21
1145.360263
  0
LINE
  8
0
  6
CONTINUOUS
 62
1
 10
1487.742835
 20
1147.712264
 11
1487.999453
 21
1145.270703
  0
LINE
  8
0
  6
CONTINUOUS
 62
1
 10
1487.860034
 20
1147.742763
 11
1488.128611
 21
1145.187429
  0
LINE
  8
0
  6
CONTINUOUS
 62
1
 10
1487.976545
 20
1147.779800
 11
1488.257143
 21
1145.110089
  0
LINE
  8
0
  6
CONTINUOUS
 62
1
 10
1488.092352
 20
1147.823545
 11
1488.385087
 21
1145.038357
  0
LINE
  8
0
  6
CONTINUOUS
 62
1
 10
1488.207432
 20
1147.874207
 11
1488.512473
 21
1144.971941
  0
LINE
  8
0
  6
CONTINUOUS
 62
1
 10
1488.321758
 20
1147.932038
 11
1488.639325
 21
1144.910586
  0
LINE
  8
0
  6
CONTINUOUS
 62
1
 10
1488.435292
 20
1147.997407
 11
1488.765666
 21
1144.854109
  0
LINE
  8
0
  6
CONTINUOUS
 62
1
 10
1488.547992
 20
1148.070705
 11
1488.891515
 21
1144.802302
  0
LINE
  8
0
  6
CONTINUOUS
 62
1
 10
1488.659804
 20
1148.152454
 11
1489.016893
 21
1144.754978
  0
LINE
  8
0
  6
CONTINUOUS
 62
1
 10
1488.770656
 20
1148.243342
 11
1489.141814
 21
1144.712013
  0
LINE
  8
0
  6
CONTINUOUS
 62
1
 10
1488.876758
 20
1148.379419
 11
1489.266290
 21
1144.673267
  0
LINE
  8
0
  6
CONTINUOUS
 62
1
 10
1488.979453
 20
1148.547918
 11
1489.390337
 21
1144.638613
  0
LINE
  8
0
  6
CONTINUOUS
 62
1
 10
1489.084626
 20
1148.692825
 11
1489.513964
 21
1144.607951
  0
LINE
  8
0
  6
CONTINUOUS
 62
1
 10
1489.191783
 20
1148.818876
 11
1489.637182
 21
1144.581185
  0
LINE
  8
0
  6
CONTINUOUS
 62
1
 10
1489.300590
 20
1148.929209
 11
1489.759999
 21
1144.558227
  0
LINE
  8
0
  6
CONTINUOUS
 62
1
 10
1489.410829
 20
1149.025931
 11
1489.882422
 21
1144.539024
  0
LINE
  8
0
  6
CONTINUOUS
 62
1
 10
1489.522333
 20
1149.110618
 11
1490.004459
 21
1144.523491
  0
LINE
  8
0
  6
CONTINUOUS
 62
1
 10
1489.634983
 20
1149.184395
 11
1490.126115
 21
1144.511585
  0
LINE
  8
0
  6
CONTINUOUS
 62
1
 10
1489.748688
 20
1149.248132
 11
1490.247393
 21
1144.503265
  0
LINE
  8
0
  6
CONTINUOUS
 62
1
 10
1489.863382
 20
1149.302464
 11
1490.368301
 21
1144.498474
  0
LINE
  8
0
  6
CONTINUOUS
 62
1
 10
1489.979010
 20
1149.347910
 11
1490.488840
 21
1144.497198
  0
LINE
  8
0
  6
CONTINUOUS
 62
1
 10
1490.095539
 20
1149.384778
 11
1490.609012
 21
1144.499409
  0
LINE
  8
0
  6
CONTINUOUS
 62
1
 10
1490.212937
 20
1149.413380
 11
1490.728822
 21
1144.505064
  0
LINE
  8
0
  6
CONTINUOUS
 62
1
 10
1490.331191
 20
1149.433840
 11
1490.537439
 21
1147.471518
  0
LINE
  8
0
  6
CONTINUOUS
 62
1
 10
1490.561845
 20
1147.239316
 11
1490.848268
 21
1144.514178
  0
LINE
  8
0
  6
CONTINUOUS
 62
1
 10
1490.450290
 20
1149.446259
 11
1490.663222
 21
1147.420343
  0
LINE
  8
0
  6
CONTINUOUS
 62
1
 10
1490.705643
 20
1147.016734
 11
1490.967280
 21
1144.527427
  0
LINE
  8
0
  6
CONTINUOUS
 62
1
 10
1490.570236
 20
1149.450620
 11
1490.786576
 21
1147.392282
  0
LINE
  8
0
  6
CONTINUOUS
 62
1
 10
1490.843391
 20
1146.851728
 11
1491.085495
 21
1144.548266
  0
LINE
  8
0
  6
CONTINUOUS
 62
1
 10
1490.691036
 20
1149.446855
 11
1490.907784
 21
1147.384636
  0
LINE
  8
0
  6
CONTINUOUS
 62
1
 10
1490.977382
 20
1146.722464
 11
1491.202851
 21
1144.577261
  0
LINE
  8
0
  6
CONTINUOUS
 62
1
 10
1490.812710
 20
1149.434781
 11
1491.026971
 21
1147.396225
  0
LINE
  8
0
  6
CONTINUOUS
 62
1
 10
1491.108660
 20
1146.618999
 11
1491.319336
 21
1144.614552
  0
LINE
  8
0
  6
CONTINUOUS
 62
1
 10
1490.935282
 20
1149.414158
 11
1491.144144
 21
1147.426964
  0
LINE
  8
0
  6
CONTINUOUS
 62
1
 10
1491.237808
 20
1146.535808
 11
1491.434920
 21
1144.660420
  0
LINE
  8
0
  6
CONTINUOUS
 62
1
 10
1491.058790
 20
1149.384621
 11
1491.259190
 21
1147.477949
  0
LINE
  8
0
  6
CONTINUOUS
 62
1
 10
1491.365184
 20
1146.469476
 11
1491.549563
 21
1144.715229
  0
LINE
  8
0
  6
CONTINUOUS
 62
1
 10
1491.183290
 20
1149.345665
 11
1491.371845
 21
1147.551684
  0
LINE
  8
0
  6
CONTINUOUS
 62
1
 10
1491.491024
 20
1146.417766
 11
1491.663214
 21
1144.779486
  0
LINE
  8
0
  6
CONTINUOUS
 62
1
 10
1491.308845
 20
1149.296654
 11
1491.478208
 21
1147.685271
  0
LINE
  8
0
  6
CONTINUOUS
 62
1
 10
1491.615492
 20
1146.379105
 11
1491.775804
 21
1144.853840
  0
LINE
  8
0
  6
CONTINUOUS
 62
1
 10
1491.435550
 20
1149.236705
 11
1491.585133
 21
1147.813517
  0
LINE
  8
0
  6
CONTINUOUS
 62
1
 10
1491.738699
 20
1146.352436
 11
1491.887242
 21
1144.939145
  0
LINE
  8
0
  6
CONTINUOUS
 62
1
 10
1491.563523
 20
1149.164693
 11
1491.696474
 21
1147.899751
  0
LINE
  8
0
  6
CONTINUOUS
 62
1
 10
1491.860724
 20
1146.337015
 11
1491.997403
 21
1145.036599
  0
LINE
  8
0
  6
CONTINUOUS
 62
1
 10
1491.692931
 20
1149.079028
 11
1491.811017
 21
1147.955516
  0
LINE
  8
0
  6
CONTINUOUS
 62
1
 10
1491.981622
 20
1146.332322
 11
1492.106126
 21
1145.147748
  0
LINE
  8
0
  6
CONTINUOUS
 62
1
 10
1491.823999
 20
1148.977573
 11
1491.928261
 21
1147.985594
  0
LINE
  8
0
  6
CONTINUOUS
 62
1
 10
1492.101419
 20
1146.338105
 11
1492.213175
 21
1145.274811
  0
LINE
  8
0
  6
CONTINUOUS
 62
1
 10
1491.957059
 20
1148.857167
 11
1492.048032
 21
1147.991614
  0
LINE
  8
0
  6
CONTINUOUS
 62
1
 10
1492.219603
 20
1146.359226
 11
1492.318219
 21
1145.420955
  0
LINE
  8
0
  6
CONTINUOUS
 62
1
 10
1492.092615
 20
1148.713012
 11
1492.170393
 21
1147.973003
  0
LINE
  8
0
  6
CONTINUOUS
 62
1
 10
1492.335167
 20
1146.405275
 11
1492.420739
 21
1145.591113
  0
LINE
  8
0
  6
CONTINUOUS
 62
1
 10
1492.231520
 20
1148.536983
 11
1492.295673
 21
1147.926607
  0
LINE
  8
0
  6
CONTINUOUS
 62
1
 10
1492.447721
 20
1146.479966
 11
1492.519868
 21
1145.793539
  0
LINE
  8
0
  6
CONTINUOUS
 62
1
 10
1492.375427
 20
1148.313375
 11
1492.424673
 21
1147.844823
  0
LINE
  8
0
  6
CONTINUOUS
 62
1
 10
1492.556364
 20
1146.591873
 11
1492.613898
 21
1146.044473
  0
LINE
  8
0
  6
CONTINUOUS
 62
1
 10
1492.528577
 20
1148.001821
 11
1492.559507
 21
1147.707544
  0
LINE
  8
0
  6
CONTINUOUS
 62
1
 10
1492.658602
 20
1146.764717
 11
1492.698384
 21
1146.386221
  0
POLYLINE
  8
0
  6
CONTINUOUS
 62
1
 66
1
 70
2
  0
VERTEX
  8
0
 10
1491.429113
 20
1147.600335
 70
0
 42
-0.367162
  0
VERTEX
  8
0
 10
1490.423649
 20
1147.540285
 70
0
  0
SEQEND
  0
POLYLINE
  8
0
  6
CONTINUOUS
 62
1
 66
1
 70
2
  0
VERTEX
  8
0
 10
1492.119474
 20
1146.339875
 70
0
 42
-0.183335
  0
VERTEX
  8
0
 10
1491.112218
 20
1146.616470
 70
0
 42
-0.150709
  0
VERTEX
  8
0
 10
1490.423648
 20
1147.540282
 70
0
  0
SEQEND
  0
LINE
  8
0
  6
CONTINUOUS
 62
1
 10
1492.705996
 20
1147.360149
 11
1492.710127
 21
1147.361636
  0
LINE
  8
0
  6
CONTINUOUS
 62
1
 10
1492.733280
 20
1147.132643
 11
1492.738314
 21
1147.129078
  0
POLYLINE
  8
0
  6
CONTINUOUS
 62
1
 66
1
 70
2
  0
VERTEX
  8
0
 10
1492.733280
 20
1147.132642
 70
0
 42
-0.382704
  0
VERTEX
  8
0
 10
1492.119466
 20
1146.339871
 70
0
  0
SEQEND
  0
POLYLINE
  8
0
  6
CONTINUOUS
 62
1
 66
1
 70
2
  0
VERTEX
  8
0
 10
1488.835247
 20
1148.301249
 70
0
 42
-0.174807
  0
VERTEX
  8
0
 10
1487.367165
 20
1147.657854
 70
0
 42
-0.171970
  0
VERTEX
  8
0
 10
1485.818848
 20
1148.121105
 70
0
  0
SEQEND
  0
POLYLINE
  8
0
  6
CONTINUOUS
 62
1
 66
1
 70
2
  0
VERTEX
  8
0
 10
1491.429112
 20
1147.600334
 70
0
 42
-0.340163
  0
VERTEX
  8
0
 10
1492.120318
 20
1147.973032
 70
0
 42
-0.292202
  0
VERTEX
  8
0
 10
1492.705995
 20
1147.360150
 70
0
  0
SEQEND
  0
POLYLINE
  8
0
  6
CONTINUOUS
 62
1
 66
1
 70
2
  0
VERTEX
  8
0
 10
1490.906331
 20
1144.519869
 70
0
 42
-0.124155
  0
VERTEX
  8
0
 10
1488.841057
 20
1144.822548
 70
0
 42
-0.110823
  0
VERTEX
  8
0
 10
1487.037572
 20
1146.099162
 70
0
 42
-0.097067
  0
VERTEX
  8
0
 10
1485.818847
 20
1148.121095
 70
0
  0
SEQEND
  0
POLYLINE
  8
0
  6
CONTINUOUS
 62
1
 66
1
 70
2
  0
VERTEX
  8
0
 10
1492.738314
 20
1147.129078
 70
0
 42
-0.173342
  0
VERTEX
  8
0
 10
1492.285644
 20
1145.368520
 70
0
 42
-0.218438
  0
VERTEX
  8
0
 10
1490.906335
 20
1144.519851
 70
0
  0
SEQEND
  0
POLYLINE
  8
0
  6
CONTINUOUS
 62
1
 66
1
 70
2
  0
VERTEX
  8
0
 10
1488.835247
 20
1148.301249
 70
0
 42
-0.220825
  0
VERTEX
  8
0
 10
1490.161166
 20
1149.401823
 70
0
 42
-0.234027
  0
VERTEX
  8
0
 10
1491.787475
 20
1149.007466
 70
0
 42
-0.184119
  0
VERTEX
  8
0
 10
1492.710132
 20
1147.361642
 70
0
  0
SEQEND
  0
POLYLINE
  8
0
  6
CONTINUOUS
 62
1
 66
1
 70
2
  0
VERTEX
  8
0
 10
1491.373949
 20
1182.217194
 70
0
 42
-0.308065
  0
VERTEX
  8
0
 10
1489.887187
 20
1181.890033
 70
0
 42
-0.107107
  0
VERTEX
  8
0
 10
1487.574257
 20
1182.835022
 70
0
 42
-0.309355
  0
VERTEX
  8
0
 10
1486.745370
 20
1184.108281
 70
0
  0
SEQEND
  0
POLYLINE
  8
0
  6
CONTINUOUS
 62
1
 66
1
 70
2
  0
VERTEX
  8
0
 10
1491.188837
 20
1182.292913
 70
0
 42
-0.308065
  0
VERTEX
  8
0
 10
1489.821016
 20
1181.991925
 70
0
 42
-0.107107
  0
VERTEX
  8
0
 10
1487.693120
 20
1182.861314
 70
0
 42
-0.309355
  0
VERTEX
  8
0
 10
1486.930544
 20
1184.032713
 70
0
  0
SEQEND
  0
POLYLINE
  8
0
  6
CONTINUOUS
 62
1
 66
1
 70
2
  0
VERTEX
  8
0
 10
1491.003724
 20
1182.368632
 70
0
 42
-0.308065
  0
VERTEX
  8
0
 10
1489.754845
 20
1182.093817
 70
0
 42
-0.107107
  0
VERTEX
  8
0
 10
1487.811983
 20
1182.887607
 70
0
 42
-0.309355
  0
VERTEX
  8
0
 10
1487.115718
 20
1183.957144
 70
0
  0
SEQEND
  0
POLYLINE
  8
0
  6
CONTINUOUS
 62
1
 66
1
 70
2
  0
VERTEX
  8
0
 10
1490.818612
 20
1182.444351
 70
0
 42
-0.308065
  0
VERTEX
  8
0
 10
1489.688674
 20
1182.195708
 70
0
 42
-0.107107
  0
VERTEX
  8
0
 10
1487.930846
 20
1182.913899
 70
0
 42
-0.309355
  0
VERTEX
  8
0
 10
1487.300892
 20
1183.881576
 70
0
  0
SEQEND
  0
POLYLINE
  8
0
  6
CONTINUOUS
 62
1
 66
1
 70
2
  0
VERTEX
  8
0
 10
1490.633500
 20
1182.520069
 70
0
 42
-0.308065
  0
VERTEX
  8
0
 10
1489.622502
 20
1182.297600
 70
0
 42
-0.107107
  0
VERTEX
  8
0
 10
1488.049709
 20
1182.940192
 70
0
 42
-0.309355
  0
VERTEX
  8
0
 10
1487.486066
 20
1183.806008
 70
0
  0
SEQEND
  0
POLYLINE
  8
0
  6
CONTINUOUS
 62
1
 66
1
 70
2
  0
VERTEX
  8
0
 10
1490.448388
 20
1182.595788
 70
0
 42
-0.308065
  0
VERTEX
  8
0
 10
1489.556331
 20
1182.399492
 70
0
 42
-0.107107
  0
VERTEX
  8
0
 10
1488.168573
 20
1182.966484
 70
0
 42
-0.309355
  0
VERTEX
  8
0
 10
1487.671240
 20
1183.730440
 70
0
  0
SEQEND
  0
POLYLINE
  8
0
  6
CONTINUOUS
 62
1
 66
1
 70
2
  0
VERTEX
  8
0
 10
1490.263276
 20
1182.671507
 70
0
 42
-0.308065
  0
VERTEX
  8
0
 10
1489.490160
 20
1182.501383
 70
0
 42
-0.107107
  0
VERTEX
  8
0
 10
1488.287436
 20
1182.992777
 70
0
 42
-0.309355
  0
VERTEX
  8
0
 10
1487.856414
 20
1183.654872
 70
0
  0
SEQEND
  0
POLYLINE
  8
0
  6
CONTINUOUS
 62
1
 66
1
 70
2
  0
VERTEX
  8
0
 10
1490.078163
 20
1182.747226
 70
0
 42
-0.310332
  0
VERTEX
  8
0
 10
1488.892760
 20
1182.756719
 70
0
 42
-0.311398
  0
VERTEX
  8
0
 10
1488.041589
 20
1183.579304
 70
0
  0
SEQEND
  0
POLYLINE
  8
0
  6
CONTINUOUS
 62
1
 66
1
 70
2
  0
VERTEX
  8
0
 10
1489.893051
 20
1182.822944
 70
0
 42
-0.310332
  0
VERTEX
  8
0
 10
1488.923176
 20
1182.830712
 70
0
 42
-0.311398
  0
VERTEX
  8
0
 10
1488.226763
 20
1183.503736
 70
0
  0
SEQEND
  0
POLYLINE
  8
0
  6
CONTINUOUS
 62
1
 66
1
 70
2
  0
VERTEX
  8
0
 10
1489.707939
 20
1182.898663
 70
0
 42
-0.310332
  0
VERTEX
  8
0
 10
1488.953591
 20
1182.904704
 70
0
 42
-0.311398
  0
VERTEX
  8
0
 10
1488.411937
 20
1183.428167
 70
0
  0
SEQEND
  0
POLYLINE
  8
0
  6
CONTINUOUS
 62
1
 66
1
 70
2
  0
VERTEX
  8
0
 10
1489.522827
 20
1182.974382
 70
0
 42
-0.310332
  0
VERTEX
  8
0
 10
1488.984007
 20
1182.978697
 70
0
 42
-0.311398
  0
VERTEX
  8
0
 10
1488.597111
 20
1183.352599
 70
0
  0
SEQEND
  0
POLYLINE
  8
0
  6
CONTINUOUS
 62
1
 66
1
 70
2
  0
VERTEX
  8
0
 10
1489.337715
 20
1183.050101
 70
0
 42
-0.310332
  0
VERTEX
  8
0
 10
1489.014423
 20
1183.052690
 70
0
 42
-0.311398
  0
VERTEX
  8
0
 10
1488.782285
 20
1183.277031
 70
0
  0
SEQEND
  0
LINE
  8
0
  6
CONTINUOUS
 62
1
 10
1513.466973
 20
1172.473093
 11
1494.060046
 21
1181.118466
  0
ARC
  8
0
  6
CONTINUOUS
 62
1
 10
1513.060046
 20
1171.559632
 40
1.000000
 50
0.000000
 51
65.988044
  0
LINE
  8
0
  6
CONTINUOUS
 62
1
 10
1513.467094
 20
1132.944650
 11
1494.060046
 21
1124.296160
  0
ARC
  8
0
  6
CONTINUOUS
 62
1
 10
1513.060046
 20
1133.858057
 40
1.000000
 50
294.019501
 51
0.000000
  0
LINE
  8
0
  6
CONTINUOUS
 62
1
 10
1491.479406
 20
1179.297762
 11
1489.120351
 21
1178.632602
  0
LINE
  8
0
  6
CONTINUOUS
 62
1
 10
1491.479406
 20
1179.297762
 11
1490.096261
 21
1178.426076
  0
LINE
  8
0
  6
CONTINUOUS
 62
1
 10
1490.057450
 20
1178.170738
 11
1490.348576
 21
1177.702517
  0
LINE
  8
0
  6
CONTINUOUS
 62
1
 10
1490.348576
 20
1177.702517
 11
1489.236352
 21
1177.940839
  0
LINE
  8
0
  6
CONTINUOUS
 62
1
 10
1490.096261
 20
1178.426076
 11
1491.784142
 21
1178.198804
  0
LINE
  8
0
  6
CONTINUOUS
 62
1
 10
1490.057450
 20
1178.170738
 11
1491.784142
 21
1178.198804
  0
LINE
  8
0
  6
CONTINUOUS
 62
1
 10
1489.236352
 20
1177.940839
 11
1487.833622
 21
1177.662911
  0
LINE
  8
0
  6
CONTINUOUS
 62
1
 10
1487.833622
 20
1177.662911
 11
1488.335049
 21
1178.105179
  0
LINE
  8
0
  6
CONTINUOUS
 62
1
 10
1488.335049
 20
1178.105179
 11
1486.817481
 21
1178.376826
  0
LINE
  8
0
  6
CONTINUOUS
 62
1
 10
1488.516241
 20
1178.523856
 11
1486.817481
 21
1178.376826
  0
LINE
  8
0
  6
CONTINUOUS
 62
1
 10
1488.516241
 20
1178.523856
 11
1488.367183
 21
1178.909100
  0
LINE
  8
0
  6
CONTINUOUS
 62
1
 10
1489.120351
 20
1178.632602
 11
1488.367183
 21
1178.909100
  0
LINE
  8
0
  6
CONTINUOUS
 62
1
 10
1491.479406
 20
1179.297762
 11
1489.206049
 21
1178.656766
  0
LINE
  8
0
  6
CONTINUOUS
 62
1
 10
1489.236352
 20
1177.940839
 11
1490.348576
 21
1177.702517
  0
LINE
  8
0
  6
CONTINUOUS
 62
1
 10
1490.096261
 20
1178.426076
 11
1491.479406
 21
1179.297762
  0
LINE
  8
0
  6
CONTINUOUS
 62
1
 10
1490.348576
 20
1177.702517
 11
1490.057450
 21
1178.170738
  0
LINE
  8
0
  6
CONTINUOUS
 62
1
 10
1490.057450
 20
1178.170738
 11
1491.784142
 21
1178.198804
  0
LINE
  8
0
  6
CONTINUOUS
 62
1
 10
1491.784142
 20
1178.198804
 11
1490.096261
 21
1178.426076
  0
LINE
  8
0
  6
CONTINUOUS
 62
1
 10
1488.367183
 20
1178.909100
 11
1488.516241
 21
1178.523856
  0
LINE
  8
0
  6
CONTINUOUS
 62
1
 10
1489.120351
 20
1178.632602
 11
1488.367183
 21
1178.909100
  0
LINE
  8
0
  6
CONTINUOUS
 62
1
 10
1488.335049
 20
1178.105179
 11
1487.833622
 21
1177.662911
  0
LINE
  8
0
  6
CONTINUOUS
 62
1
 10
1488.516241
 20
1178.523856
 11
1486.817481
 21
1178.376826
  0
LINE
  8
0
  6
CONTINUOUS
 62
1
 10
1486.817481
 20
1178.376826
 11
1488.335049
 21
1178.105179
  0
LINE
  8
0
  6
CONTINUOUS
 62
1
 10
1487.833622
 20
1177.662911
 11
1489.236352
 21
1177.940839
  0
LINE
  8
0
  6
CONTINUOUS
 62
1
 10
1486.874049
 20
1178.381722
 11
1486.874049
 21
1178.366700
  0
LINE
  8
0
  6
CONTINUOUS
 62
1
 10
1486.927049
 20
1178.357213
 11
1486.927049
 21
1178.386309
  0
LINE
  8
0
  6
CONTINUOUS
 62
1
 10
1486.980049
 20
1178.390897
 11
1486.980049
 21
1178.347726
  0
LINE
  8
0
  6
CONTINUOUS
 62
1
 10
1487.033049
 20
1178.338239
 11
1487.033049
 21
1178.395484
  0
LINE
  8
0
  6
CONTINUOUS
 62
1
 10
1487.086049
 20
1178.400071
 11
1487.086049
 21
1178.328752
  0
LINE
  8
0
  6
CONTINUOUS
 62
1
 10
1487.139049
 20
1178.319265
 11
1487.139049
 21
1178.404658
  0
LINE
  8
0
  6
CONTINUOUS
 62
1
 10
1487.192049
 20
1178.409246
 11
1487.192049
 21
1178.309778
  0
LINE
  8
0
  6
CONTINUOUS
 62
1
 10
1487.245049
 20
1178.300291
 11
1487.245049
 21
1178.413833
  0
LINE
  8
0
  6
CONTINUOUS
 62
1
 10
1487.298049
 20
1178.418420
 11
1487.298049
 21
1178.290804
  0
LINE
  8
0
  6
CONTINUOUS
 62
1
 10
1487.351049
 20
1178.281317
 11
1487.351049
 21
1178.423007
  0
LINE
  8
0
  6
CONTINUOUS
 62
1
 10
1487.404049
 20
1178.427595
 11
1487.404049
 21
1178.271830
  0
LINE
  8
0
  6
CONTINUOUS
 62
1
 10
1487.457049
 20
1178.262342
 11
1487.457049
 21
1178.432182
  0
LINE
  8
0
  6
CONTINUOUS
 62
1
 10
1487.510049
 20
1178.436769
 11
1487.510049
 21
1178.252855
  0
LINE
  8
0
  6
CONTINUOUS
 62
1
 10
1487.563049
 20
1178.243368
 11
1487.563049
 21
1178.441356
  0
LINE
  8
0
  6
CONTINUOUS
 62
1
 10
1487.616049
 20
1178.445943
 11
1487.616049
 21
1178.233881
  0
LINE
  8
0
  6
CONTINUOUS
 62
1
 10
1487.669049
 20
1178.224394
 11
1487.669049
 21
1178.450531
  0
LINE
  8
0
  6
CONTINUOUS
 62
1
 10
1487.722049
 20
1178.455118
 11
1487.722049
 21
1178.214907
  0
LINE
  8
0
  6
CONTINUOUS
 62
1
 10
1487.775049
 20
1178.205420
 11
1487.775049
 21
1178.459705
  0
LINE
  8
0
  6
CONTINUOUS
 62
1
 10
1487.828049
 20
1178.464292
 11
1487.828049
 21
1178.195933
  0
LINE
  8
0
  6
CONTINUOUS
 62
1
 10
1488.358049
 20
1178.510165
 11
1488.358049
 21
1177.766817
  0
LINE
  8
0
  6
CONTINUOUS
 62
1
 10
1488.517049
 20
1177.798321
 11
1488.517049
 21
1178.854082
  0
LINE
  8
0
  6
CONTINUOUS
 62
1
 10
1488.570049
 20
1178.834625
 11
1488.570049
 21
1177.808822
  0
LINE
  8
0
  6
CONTINUOUS
 62
1
 10
1488.623049
 20
1177.819323
 11
1488.623049
 21
1178.815168
  0
LINE
  8
0
  6
CONTINUOUS
 62
1
 10
1488.676049
 20
1178.795711
 11
1488.676049
 21
1177.829824
  0
LINE
  8
0
  6
CONTINUOUS
 62
1
 10
1488.729049
 20
1177.840325
 11
1488.729049
 21
1178.776254
  0
LINE
  8
0
  6
CONTINUOUS
 62
1
 10
1488.782049
 20
1178.756797
 11
1488.782049
 21
1177.850826
  0
LINE
  8
0
  6
CONTINUOUS
 62
1
 10
1488.835049
 20
1177.861327
 11
1488.835049
 21
1178.737340
  0
LINE
  8
0
  6
CONTINUOUS
 62
1
 10
1488.888049
 20
1178.717883
 11
1488.888049
 21
1177.871828
  0
LINE
  8
0
  6
CONTINUOUS
 62
1
 10
1488.941049
 20
1177.882329
 11
1488.941049
 21
1178.698426
  0
LINE
  8
0
  6
CONTINUOUS
 62
1
 10
1488.994049
 20
1178.678969
 11
1488.994049
 21
1177.892831
  0
LINE
  8
0
  6
CONTINUOUS
 62
1
 10
1489.047049
 20
1177.903332
 11
1489.047049
 21
1178.659512
  0
LINE
  8
0
  6
CONTINUOUS
 62
1
 10
1489.100049
 20
1178.640055
 11
1489.100049
 21
1177.913833
  0
LINE
  8
0
  6
CONTINUOUS
 62
1
 10
1489.153049
 20
1177.924334
 11
1489.153049
 21
1178.641822
  0
LINE
  8
0
  6
CONTINUOUS
 62
1
 10
1489.206049
 20
1178.656766
 11
1489.206049
 21
1177.934835
  0
LINE
  8
0
  6
CONTINUOUS
 62
1
 10
1489.259049
 20
1177.935975
 11
1489.259049
 21
1178.671710
  0
LINE
  8
0
  6
CONTINUOUS
 62
1
 10
1489.312049
 20
1178.686654
 11
1489.312049
 21
1177.924619
  0
LINE
  8
0
  6
CONTINUOUS
 62
1
 10
1489.365049
 20
1177.913262
 11
1489.365049
 21
1178.701598
  0
LINE
  8
0
  6
CONTINUOUS
 62
1
 10
1489.418049
 20
1178.716541
 11
1489.418049
 21
1177.901906
  0
LINE
  8
0
  6
CONTINUOUS
 62
1
 10
1489.471049
 20
1177.890549
 11
1489.471049
 21
1178.731485
  0
LINE
  8
0
  6
CONTINUOUS
 62
1
 10
1489.524049
 20
1178.746429
 11
1489.524049
 21
1177.879193
  0
LINE
  8
0
  6
CONTINUOUS
 62
1
 10
1489.577049
 20
1177.867836
 11
1489.577049
 21
1178.761373
  0
LINE
  8
0
  6
CONTINUOUS
 62
1
 10
1489.630049
 20
1178.776317
 11
1489.630049
 21
1177.856479
  0
LINE
  8
0
  6
CONTINUOUS
 62
1
 10
1489.683049
 20
1177.845123
 11
1489.683049
 21
1178.791261
  0
LINE
  8
0
  6
CONTINUOUS
 62
1
 10
1489.736049
 20
1178.806205
 11
1489.736049
 21
1177.833766
  0
LINE
  8
0
  6
CONTINUOUS
 62
1
 10
1489.789049
 20
1177.822410
 11
1489.789049
 21
1178.821149
  0
LINE
  8
0
  6
CONTINUOUS
 62
1
 10
1489.842049
 20
1178.836093
 11
1489.842049
 21
1177.811053
  0
LINE
  8
0
  6
CONTINUOUS
 62
1
 10
1489.895049
 20
1177.799697
 11
1489.895049
 21
1178.851037
  0
LINE
  8
0
  6
CONTINUOUS
 62
1
 10
1489.948049
 20
1178.865980
 11
1489.948049
 21
1177.788340
  0
LINE
  8
0
  6
CONTINUOUS
 62
1
 10
1490.001049
 20
1177.776983
 11
1490.001049
 21
1178.880924
  0
LINE
  8
0
  6
CONTINUOUS
 62
1
 10
1490.054049
 20
1178.895868
 11
1490.054049
 21
1177.765627
  0
LINE
  8
0
  6
CONTINUOUS
 62
1
 10
1487.881049
 20
1177.672308
 11
1487.881049
 21
1177.704743
  0
LINE
  8
0
  6
CONTINUOUS
 62
1
 10
1487.881049
 20
1178.186446
 11
1487.881049
 21
1178.468880
  0
LINE
  8
0
  6
CONTINUOUS
 62
1
 10
1487.934049
 20
1178.473467
 11
1487.934049
 21
1178.176959
  0
LINE
  8
0
  6
CONTINUOUS
 62
1
 10
1487.934049
 20
1177.751490
 11
1487.934049
 21
1177.682809
  0
LINE
  8
0
  6
CONTINUOUS
 62
1
 10
1487.987049
 20
1177.693310
 11
1487.987049
 21
1177.798237
  0
LINE
  8
0
  6
CONTINUOUS
 62
1
 10
1487.987049
 20
1178.167472
 11
1487.987049
 21
1178.478054
  0
LINE
  8
0
  6
CONTINUOUS
 62
1
 10
1488.040049
 20
1178.482641
 11
1488.040049
 21
1178.157985
  0
LINE
  8
0
  6
CONTINUOUS
 62
1
 10
1488.040049
 20
1177.844984
 11
1488.040049
 21
1177.703811
  0
LINE
  8
0
  6
CONTINUOUS
 62
1
 10
1488.093049
 20
1177.714312
 11
1488.093049
 21
1177.891731
  0
LINE
  8
0
  6
CONTINUOUS
 62
1
 10
1488.093049
 20
1178.148498
 11
1488.093049
 21
1178.487229
  0
LINE
  8
0
  6
CONTINUOUS
 62
1
 10
1488.146049
 20
1178.491816
 11
1488.146049
 21
1178.139010
  0
LINE
  8
0
  6
CONTINUOUS
 62
1
 10
1488.146049
 20
1177.938478
 11
1488.146049
 21
1177.724813
  0
LINE
  8
0
  6
CONTINUOUS
 62
1
 10
1488.199049
 20
1177.735314
 11
1488.199049
 21
1177.985225
  0
LINE
  8
0
  6
CONTINUOUS
 62
1
 10
1488.199049
 20
1178.129523
 11
1488.199049
 21
1178.496403
  0
LINE
  8
0
  6
CONTINUOUS
 62
1
 10
1488.252049
 20
1178.500990
 11
1488.252049
 21
1178.120036
  0
LINE
  8
0
  6
CONTINUOUS
 62
1
 10
1488.252049
 20
1178.031972
 11
1488.252049
 21
1177.745815
  0
LINE
  8
0
  6
CONTINUOUS
 62
1
 10
1488.305049
 20
1177.756316
 11
1488.305049
 21
1178.078719
  0
LINE
  8
0
  6
CONTINUOUS
 62
1
 10
1488.305049
 20
1178.110549
 11
1488.305049
 21
1178.505577
  0
LINE
  8
0
  6
CONTINUOUS
 62
1
 10
1490.107049
 20
1177.754270
 11
1490.107049
 21
1178.090966
  0
LINE
  8
0
  6
CONTINUOUS
 62
1
 10
1490.160049
 20
1178.005726
 11
1490.160049
 21
1177.742914
  0
LINE
  8
0
  6
CONTINUOUS
 62
1
 10
1490.213049
 20
1177.731557
 11
1490.213049
 21
1177.920485
  0
LINE
  8
0
  6
CONTINUOUS
 62
1
 10
1490.266049
 20
1177.835245
 11
1490.266049
 21
1177.720201
  0
LINE
  8
0
  6
CONTINUOUS
 62
1
 10
1490.319049
 20
1177.708844
 11
1490.319049
 21
1177.750004
  0
LINE
  8
0
  6
CONTINUOUS
 62
1
 10
1490.160049
 20
1178.925756
 11
1490.160049
 21
1178.466277
  0
LINE
  8
0
  6
CONTINUOUS
 62
1
 10
1490.160049
 20
1178.417487
 11
1490.160049
 21
1178.172405
  0
LINE
  8
0
  6
CONTINUOUS
 62
1
 10
1490.107049
 20
1178.171544
 11
1490.107049
 21
1178.424624
  0
LINE
  8
0
  6
CONTINUOUS
 62
1
 10
1490.107049
 20
1178.432875
 11
1490.107049
 21
1178.910812
  0
LINE
  8
0
  6
CONTINUOUS
 62
1
 10
1490.266049
 20
1178.955644
 11
1490.266049
 21
1178.533080
  0
LINE
  8
0
  6
CONTINUOUS
 62
1
 10
1490.266049
 20
1178.403214
 11
1490.266049
 21
1178.174128
  0
LINE
  8
0
  6
CONTINUOUS
 62
1
 10
1490.213049
 20
1178.173267
 11
1490.213049
 21
1178.410351
  0
LINE
  8
0
  6
CONTINUOUS
 62
1
 10
1490.213049
 20
1178.499679
 11
1490.213049
 21
1178.940700
  0
LINE
  8
0
  6
CONTINUOUS
 62
1
 10
1490.319049
 20
1178.174990
 11
1490.319049
 21
1178.396078
  0
LINE
  8
0
  6
CONTINUOUS
 62
1
 10
1490.319049
 20
1178.566482
 11
1490.319049
 21
1178.970588
  0
LINE
  8
0
  6
CONTINUOUS
 62
1
 10
1490.372049
 20
1178.985532
 11
1490.372049
 21
1178.599884
  0
LINE
  8
0
  6
CONTINUOUS
 62
1
 10
1490.372049
 20
1178.388942
 11
1490.372049
 21
1178.175851
  0
LINE
  8
0
  6
CONTINUOUS
 62
1
 10
1490.425049
 20
1178.176713
 11
1490.425049
 21
1178.381805
  0
LINE
  8
0
  6
CONTINUOUS
 62
1
 10
1490.425049
 20
1178.633285
 11
1490.425049
 21
1179.000476
  0
LINE
  8
0
  6
CONTINUOUS
 62
1
 10
1490.478049
 20
1179.015420
 11
1490.478049
 21
1178.666687
  0
LINE
  8
0
  6
CONTINUOUS
 62
1
 10
1490.478049
 20
1178.374669
 11
1490.478049
 21
1178.177574
  0
LINE
  8
0
  6
CONTINUOUS
 62
1
 10
1490.531049
 20
1178.178436
 11
1490.531049
 21
1178.367532
  0
LINE
  8
0
  6
CONTINUOUS
 62
1
 10
1490.531049
 20
1178.700089
 11
1490.531049
 21
1179.030363
  0
LINE
  8
0
  6
CONTINUOUS
 62
1
 10
1490.584049
 20
1179.045307
 11
1490.584049
 21
1178.733490
  0
LINE
  8
0
  6
CONTINUOUS
 62
1
 10
1490.584049
 20
1178.360396
 11
1490.584049
 21
1178.179297
  0
LINE
  8
0
  6
CONTINUOUS
 62
1
 10
1490.637049
 20
1178.180159
 11
1490.637049
 21
1178.353259
  0
LINE
  8
0
  6
CONTINUOUS
 62
1
 10
1490.637049
 20
1178.766892
 11
1490.637049
 21
1179.060251
  0
LINE
  8
0
  6
CONTINUOUS
 62
1
 10
1490.690049
 20
1179.075195
 11
1490.690049
 21
1178.800294
  0
LINE
  8
0
  6
CONTINUOUS
 62
1
 10
1490.690049
 20
1178.346123
 11
1490.690049
 21
1178.181020
  0
LINE
  8
0
  6
CONTINUOUS
 62
1
 10
1490.743049
 20
1178.181882
 11
1490.743049
 21
1178.338987
  0
LINE
  8
0
  6
CONTINUOUS
 62
1
 10
1490.743049
 20
1178.833695
 11
1490.743049
 21
1179.090139
  0
LINE
  8
0
  6
CONTINUOUS
 62
1
 10
1490.796049
 20
1179.105083
 11
1490.796049
 21
1178.867097
  0
LINE
  8
0
  6
CONTINUOUS
 62
1
 10
1490.796049
 20
1178.331850
 11
1490.796049
 21
1178.182743
  0
LINE
  8
0
  6
CONTINUOUS
 62
1
 10
1490.849049
 20
1178.183605
 11
1490.849049
 21
1178.324714
  0
LINE
  8
0
  6
CONTINUOUS
 62
1
 10
1490.849049
 20
1178.900499
 11
1490.849049
 21
1179.120027
  0
LINE
  8
0
  6
CONTINUOUS
 62
1
 10
1490.902049
 20
1179.134971
 11
1490.902049
 21
1178.933901
  0
LINE
  8
0
  6
CONTINUOUS
 62
1
 10
1490.902049
 20
1178.317577
 11
1490.902049
 21
1178.184466
  0
LINE
  8
0
  6
CONTINUOUS
 62
1
 10
1490.955049
 20
1178.185328
 11
1490.955049
 21
1178.310441
  0
LINE
  8
0
  6
CONTINUOUS
 62
1
 10
1490.955049
 20
1178.967302
 11
1490.955049
 21
1179.149915
  0
LINE
  8
0
  6
CONTINUOUS
 62
1
 10
1491.008049
 20
1179.164859
 11
1491.008049
 21
1179.000704
  0
LINE
  8
0
  6
CONTINUOUS
 62
1
 10
1491.008049
 20
1178.303305
 11
1491.008049
 21
1178.186189
  0
LINE
  8
0
  6
CONTINUOUS
 62
1
 10
1491.061049
 20
1178.187051
 11
1491.061049
 21
1178.296168
  0
LINE
  8
0
  6
CONTINUOUS
 62
1
 10
1491.061049
 20
1179.034106
 11
1491.061049
 21
1179.179802
  0
LINE
  8
0
  6
CONTINUOUS
 62
1
 10
1491.114049
 20
1179.194746
 11
1491.114049
 21
1179.067507
  0
LINE
  8
0
  6
CONTINUOUS
 62
1
 10
1491.114049
 20
1178.289032
 11
1491.114049
 21
1178.187912
  0
LINE
  8
0
  6
CONTINUOUS
 62
1
 10
1491.167049
 20
1178.188774
 11
1491.167049
 21
1178.281895
  0
LINE
  8
0
  6
CONTINUOUS
 62
1
 10
1491.167049
 20
1179.100909
 11
1491.167049
 21
1179.209690
  0
LINE
  8
0
  6
CONTINUOUS
 62
1
 10
1491.220049
 20
1179.224634
 11
1491.220049
 21
1179.134311
  0
LINE
  8
0
  6
CONTINUOUS
 62
1
 10
1491.220049
 20
1178.274759
 11
1491.220049
 21
1178.189635
  0
LINE
  8
0
  6
CONTINUOUS
 62
1
 10
1491.273049
 20
1178.190497
 11
1491.273049
 21
1178.267623
  0
LINE
  8
0
  6
CONTINUOUS
 62
1
 10
1491.273049
 20
1179.167712
 11
1491.273049
 21
1179.239578
  0
LINE
  8
0
  6
CONTINUOUS
 62
1
 10
1491.326049
 20
1179.254522
 11
1491.326049
 21
1179.201114
  0
LINE
  8
0
  6
CONTINUOUS
 62
1
 10
1491.326049
 20
1178.260486
 11
1491.326049
 21
1178.191358
  0
LINE
  8
0
  6
CONTINUOUS
 62
1
 10
1491.379049
 20
1178.192220
 11
1491.379049
 21
1178.253350
  0
LINE
  8
0
  6
CONTINUOUS
 62
1
 10
1491.379049
 20
1179.234516
 11
1491.379049
 21
1179.269466
  0
LINE
  8
0
  6
CONTINUOUS
 62
1
 10
1491.432049
 20
1179.284410
 11
1491.432049
 21
1179.267917
  0
LINE
  8
0
  6
CONTINUOUS
 62
1
 10
1491.432049
 20
1178.246213
 11
1491.432049
 21
1178.193081
  0
LINE
  8
0
  6
CONTINUOUS
 62
1
 10
1491.485049
 20
1178.193943
 11
1491.485049
 21
1178.239077
  0
LINE
  8
0
  6
CONTINUOUS
 62
1
 10
1491.538049
 20
1178.231940
 11
1491.538049
 21
1178.194804
  0
LINE
  8
0
  6
CONTINUOUS
 62
1
 10
1491.591049
 20
1178.195666
 11
1491.591049
 21
1178.224804
  0
LINE
  8
0
  6
CONTINUOUS
 62
1
 10
1491.644049
 20
1178.217668
 11
1491.644049
 21
1178.196527
  0
LINE
  8
0
  6
CONTINUOUS
 62
1
 10
1491.697049
 20
1178.197389
 11
1491.697049
 21
1178.210531
  0
LINE
  8
0
  6
CONTINUOUS
 62
1
 10
1491.750049
 20
1178.203395
 11
1491.750049
 21
1178.198250
  0
LINE
  8
0
  6
CONTINUOUS
 62
1
 10
1488.411049
 20
1177.777319
 11
1488.411049
 21
1178.514752
  0
LINE
  8
0
  6
CONTINUOUS
 62
1
 10
1488.411049
 20
1178.795725
 11
1488.411049
 21
1178.892996
  0
LINE
  8
0
  6
CONTINUOUS
 62
1
 10
1488.464049
 20
1178.873539
 11
1488.464049
 21
1178.658746
  0
LINE
  8
0
  6
CONTINUOUS
 62
1
 10
1488.464049
 20
1178.519339
 11
1488.464049
 21
1177.787820
  0
ARC
  8
0
  6
CONTINUOUS
 62
1
 10
968.560046
 20
1462.704619
 40
6.000000
 50
0.000000
 51
245.375682
  0
ARC
  8
0
  6
CONTINUOUS
 62
1
 10
968.560046
 20
1462.704619
 40
6.000000
 50
294.624318
 51
0.000000
  0
ARC
  8
0
  6
CONTINUOUS
 62
1
 10
1163.560046
 20
1462.704619
 40
6.000000
 50
0.000000
 51
245.375682
  0
ARC
  8
0
  6
CONTINUOUS
 62
1
 10
1163.560046
 20
1462.704619
 40
6.000000
 50
294.624318
 51
0.000000
  0
ARC
  8
0
  6
CONTINUOUS
 62
1
 10
1358.560046
 20
1462.704619
 40
6.000000
 50
0.000000
 51
245.375682
  0
ARC
  8
0
  6
CONTINUOUS
 62
1
 10
1358.560046
 20
1462.704619
 40
6.000000
 50
294.624318
 51
0.000000
  0
ARC
  8
0
  6
CONTINUOUS
 62
1
 10
1283.560046
 20
1466.204619
 40
2.500000
 50
0.000000
 51
90.000000
  0
ARC
  8
0
  6
CONTINUOUS
 62
1
 10
1283.560046
 20
1466.204619
 40
2.500000
 50
90.000000
 51
180.000000
  0
ARC
  8
0
  6
CONTINUOUS
 62
1
 10
1403.560046
 20
1415.204619
 40
2.500000
 50
180.000000
 51
270.000000
  0
ARC
  8
0
  6
CONTINUOUS
 62
1
 10
1403.560046
 20
1466.204619
 40
2.500000
 50
90.000000
 51
180.000000
  0
LINE
  8
0
  6
CONTINUOUS
 62
1
 10
1386.060046
 20
1466.204619
 11
1386.060046
 21
1415.204619
  0
ARC
  8
0
  6
CONTINUOUS
 62
1
 10
1388.560046
 20
1415.204619
 40
2.500000
 50
270.000000
 51
0.000000
  0
ARC
  8
0
  6
CONTINUOUS
 62
1
 10
1388.560046
 20
1415.204619
 40
2.500000
 50
180.000000
 51
270.000000
  0
ARC
  8
0
  6
CONTINUOUS
 62
1
 10
1388.560046
 20
1466.204619
 40
2.500000
 50
0.000000
 51
90.000000
  0
ARC
  8
0
  6
CONTINUOUS
 62
1
 10
1388.560046
 20
1466.204619
 40
2.500000
 50
90.000000
 51
180.000000
  0
LINE
  8
0
  6
CONTINUOUS
 62
1
 10
1376.060046
 20
1466.204619
 11
1376.060046
 21
1415.204619
  0
LINE
  8
0
  6
CONTINUOUS
 62
1
 10
1371.060046
 20
1466.204619
 11
1371.060046
 21
1415.204619
  0
ARC
  8
0
  6
CONTINUOUS
 62
1
 10
1373.560046
 20
1415.204619
 40
2.500000
 50
270.000000
 51
0.000000
  0
ARC
  8
0
  6
CONTINUOUS
 62
1
 10
1373.560046
 20
1415.204619
 40
2.500000
 50
180.000000
 51
270.000000
  0
ARC
  8
0
  6
CONTINUOUS
 62
1
 10
1373.560046
 20
1466.204619
 40
2.500000
 50
0.000000
 51
90.000000
  0
ARC
  8
0
  6
CONTINUOUS
 62
1
 10
1373.560046
 20
1466.204619
 40
2.500000
 50
90.000000
 51
180.000000
  0
LINE
  8
0
  6
CONTINUOUS
 62
1
 10
1361.060046
 20
1457.250263
 11
1361.060046
 21
1415.204619
  0
LINE
  8
0
  6
CONTINUOUS
 62
1
 10
1356.060046
 20
1457.250263
 11
1356.060046
 21
1415.204619
  0
ARC
  8
0
  6
CONTINUOUS
 62
1
 10
1358.560046
 20
1415.204619
 40
2.500000
 50
270.000000
 51
0.000000
  0
ARC
  8
0
  6
CONTINUOUS
 62
1
 10
1358.560046
 20
1415.204619
 40
2.500000
 50
180.000000
 51
270.000000
  0
LINE
  8
0
  6
CONTINUOUS
 62
1
 10
1346.060046
 20
1466.204619
 11
1346.060046
 21
1415.204619
  0
LINE
  8
0
  6
CONTINUOUS
 62
1
 10
1341.060046
 20
1466.204619
 11
1341.060046
 21
1415.204619
  0
ARC
  8
0
  6
CONTINUOUS
 62
1
 10
1343.560046
 20
1415.204619
 40
2.500000
 50
270.000000
 51
0.000000
  0
ARC
  8
0
  6
CONTINUOUS
 62
1
 10
1343.560046
 20
1415.204619
 40
2.500000
 50
180.000000
 51
270.000000
  0
ARC
  8
0
  6
CONTINUOUS
 62
1
 10
1343.560046
 20
1466.204619
 40
2.500000
 50
0.000000
 51
90.000000
  0
ARC
  8
0
  6
CONTINUOUS
 62
1
 10
1343.560046
 20
1466.204619
 40
2.500000
 50
90.000000
 51
180.000000
  0
LINE
  8
0
  6
CONTINUOUS
 62
1
 10
1331.060046
 20
1466.204619
 11
1331.060046
 21
1415.204619
  0
LINE
  8
0
  6
CONTINUOUS
 62
1
 10
1326.060046
 20
1466.204619
 11
1326.060046
 21
1415.204619
  0
ARC
  8
0
  6
CONTINUOUS
 62
1
 10
1328.560046
 20
1415.204619
 40
2.500000
 50
270.000000
 51
0.000000
  0
ARC
  8
0
  6
CONTINUOUS
 62
1
 10
1328.560046
 20
1415.204619
 40
2.500000
 50
180.000000
 51
270.000000
  0
ARC
  8
0
  6
CONTINUOUS
 62
1
 10
1328.560046
 20
1466.204619
 40
2.500000
 50
0.000000
 51
90.000000
  0
ARC
  8
0
  6
CONTINUOUS
 62
1
 10
1328.560046
 20
1466.204619
 40
2.500000
 50
90.000000
 51
180.000000
  0
LINE
  8
0
  6
CONTINUOUS
 62
1
 10
1316.060046
 20
1466.204619
 11
1316.060046
 21
1415.204619
  0
LINE
  8
0
  6
CONTINUOUS
 62
1
 10
1311.060046
 20
1466.204619
 11
1311.060046
 21
1415.204619
  0
ARC
  8
0
  6
CONTINUOUS
 62
1
 10
1313.560046
 20
1415.204619
 40
2.500000
 50
270.000000
 51
0.000000
  0
ARC
  8
0
  6
CONTINUOUS
 62
1
 10
1313.560046
 20
1415.204619
 40
2.500000
 50
180.000000
 51
270.000000
  0
ARC
  8
0
  6
CONTINUOUS
 62
1
 10
1313.560046
 20
1466.204619
 40
2.500000
 50
0.000000
 51
90.000000
  0
ARC
  8
0
  6
CONTINUOUS
 62
1
 10
1313.560046
 20
1466.204619
 40
2.500000
 50
90.000000
 51
180.000000
  0
LINE
  8
0
  6
CONTINUOUS
 62
1
 10
1301.060046
 20
1466.204619
 11
1301.060046
 21
1415.204619
  0
LINE
  8
0
  6
CONTINUOUS
 62
1
 10
1296.060046
 20
1466.204619
 11
1296.060046
 21
1415.204619
  0
ARC
  8
0
  6
CONTINUOUS
 62
1
 10
1298.560046
 20
1415.204619
 40
2.500000
 50
270.000000
 51
0.000000
  0
ARC
  8
0
  6
CONTINUOUS
 62
1
 10
1298.560046
 20
1415.204619
 40
2.500000
 50
180.000000
 51
270.000000
  0
ARC
  8
0
  6
CONTINUOUS
 62
1
 10
1298.560046
 20
1466.204619
 40
2.500000
 50
0.000000
 51
90.000000
  0
ARC
  8
0
  6
CONTINUOUS
 62
1
 10
1298.560046
 20
1466.204619
 40
2.500000
 50
90.000000
 51
180.000000
  0
LINE
  8
0
  6
CONTINUOUS
 62
1
 10
1286.060046
 20
1466.204619
 11
1286.060046
 21
1415.204619
  0
LINE
  8
0
  6
CONTINUOUS
 62
1
 10
1281.060046
 20
1466.204619
 11
1281.060046
 21
1415.204619
  0
ARC
  8
0
  6
CONTINUOUS
 62
1
 10
1283.560046
 20
1415.204619
 40
2.500000
 50
270.000000
 51
0.000000
  0
ARC
  8
0
  6
CONTINUOUS
 62
1
 10
1283.560046
 20
1415.204619
 40
2.500000
 50
180.000000
 51
270.000000
  0
LINE
  8
0
  6
CONTINUOUS
 62
1
 10
1271.060046
 20
1466.204619
 11
1271.060046
 21
1415.204619
  0
LINE
  8
0
  6
CONTINUOUS
 62
1
 10
1266.060046
 20
1466.204619
 11
1266.060046
 21
1415.204619
  0
ARC
  8
0
  6
CONTINUOUS
 62
1
 10
1268.560046
 20
1415.204619
 40
2.500000
 50
180.000000
 51
270.000000
  0
ARC
  8
0
  6
CONTINUOUS
 62
1
 10
1268.560046
 20
1466.204619
 40
2.500000
 50
0.000000
 51
90.000000
  0
ARC
  8
0
  6
CONTINUOUS
 62
1
 10
1268.560046
 20
1466.204619
 40
2.500000
 50
90.000000
 51
180.000000
  0
LINE
  8
0
  6
CONTINUOUS
 62
1
 10
1256.060046
 20
1466.204619
 11
1256.060046
 21
1415.204619
  0
LINE
  8
0
  6
CONTINUOUS
 62
1
 10
1251.060046
 20
1466.204619
 11
1251.060046
 21
1415.204619
  0
ARC
  8
0
  6
CONTINUOUS
 62
1
 10
1253.560046
 20
1415.204619
 40
2.500000
 50
180.000000
 51
270.000000
  0
ARC
  8
0
  6
CONTINUOUS
 62
1
 10
1253.560046
 20
1466.204619
 40
2.500000
 50
0.000000
 51
90.000000
  0
ARC
  8
0
  6
CONTINUOUS
 62
1
 10
1253.560046
 20
1466.204619
 40
2.500000
 50
90.000000
 51
180.000000
  0
LINE
  8
0
  6
CONTINUOUS
 62
1
 10
1241.060046
 20
1466.204619
 11
1241.060046
 21
1415.204619
  0
LINE
  8
0
  6
CONTINUOUS
 62
1
 10
1236.060046
 20
1466.204619
 11
1236.060046
 21
1415.204619
  0
ARC
  8
0
  6
CONTINUOUS
 62
1
 10
1238.560046
 20
1415.204619
 40
2.500000
 50
270.000000
 51
0.000000
  0
ARC
  8
0
  6
CONTINUOUS
 62
1
 10
1238.560046
 20
1415.204619
 40
2.500000
 50
180.000000
 51
270.000000
  0
ARC
  8
0
  6
CONTINUOUS
 62
1
 10
1238.560046
 20
1466.204619
 40
2.500000
 50
0.000000
 51
90.000000
  0
ARC
  8
0
  6
CONTINUOUS
 62
1
 10
1238.560046
 20
1466.204619
 40
2.500000
 50
90.000000
 51
180.000000
  0
LINE
  8
0
  6
CONTINUOUS
 62
1
 10
1226.060046
 20
1466.204619
 11
1226.060046
 21
1415.204619
  0
LINE
  8
0
  6
CONTINUOUS
 62
1
 10
1221.060046
 20
1466.204619
 11
1221.060046
 21
1415.204619
  0
ARC
  8
0
  6
CONTINUOUS
 62
1
 10
1223.560046
 20
1415.204619
 40
2.500000
 50
270.000000
 51
0.000000
  0
ARC
  8
0
  6
CONTINUOUS
 62
1
 10
1223.560046
 20
1415.204619
 40
2.500000
 50
180.000000
 51
270.000000
  0
ARC
  8
0
  6
CONTINUOUS
 62
1
 10
1223.560046
 20
1466.204619
 40
2.500000
 50
0.000000
 51
90.000000
  0
ARC
  8
0
  6
CONTINUOUS
 62
1
 10
1223.560046
 20
1466.204619
 40
2.500000
 50
90.000000
 51
180.000000
  0
LINE
  8
0
  6
CONTINUOUS
 62
1
 10
1211.060046
 20
1466.204619
 11
1211.060046
 21
1415.204619
  0
LINE
  8
0
  6
CONTINUOUS
 62
1
 10
1206.060046
 20
1466.204619
 11
1206.060046
 21
1415.204619
  0
ARC
  8
0
  6
CONTINUOUS
 62
1
 10
1208.560046
 20
1415.204619
 40
2.500000
 50
270.000000
 51
0.000000
  0
ARC
  8
0
  6
CONTINUOUS
 62
1
 10
1208.560046
 20
1415.204619
 40
2.500000
 50
180.000000
 51
270.000000
  0
ARC
  8
0
  6
CONTINUOUS
 62
1
 10
1208.560046
 20
1466.204619
 40
2.500000
 50
0.000000
 51
90.000000
  0
ARC
  8
0
  6
CONTINUOUS
 62
1
 10
1208.560046
 20
1466.204619
 40
2.500000
 50
90.000000
 51
180.000000
  0
LINE
  8
0
  6
CONTINUOUS
 62
1
 10
1196.060046
 20
1466.204619
 11
1196.060046
 21
1415.204619
  0
LINE
  8
0
  6
CONTINUOUS
 62
1
 10
1191.060046
 20
1466.204619
 11
1191.060046
 21
1415.204619
  0
ARC
  8
0
  6
CONTINUOUS
 62
1
 10
1193.560046
 20
1415.204619
 40
2.500000
 50
270.000000
 51
0.000000
  0
ARC
  8
0
  6
CONTINUOUS
 62
1
 10
1193.560046
 20
1415.204619
 40
2.500000
 50
180.000000
 51
270.000000
  0
ARC
  8
0
  6
CONTINUOUS
 62
1
 10
1193.560046
 20
1466.204619
 40
2.500000
 50
0.000000
 51
90.000000
  0
ARC
  8
0
  6
CONTINUOUS
 62
1
 10
1193.560046
 20
1466.204619
 40
2.500000
 50
90.000000
 51
180.000000
  0
LINE
  8
0
  6
CONTINUOUS
 62
1
 10
1181.060046
 20
1466.204619
 11
1181.060046
 21
1415.204619
  0
LINE
  8
0
  6
CONTINUOUS
 62
1
 10
1176.060046
 20
1466.204619
 11
1176.060046
 21
1415.204619
  0
ARC
  8
0
  6
CONTINUOUS
 62
1
 10
1178.560046
 20
1415.204619
 40
2.500000
 50
270.000000
 51
0.000000
  0
ARC
  8
0
  6
CONTINUOUS
 62
1
 10
1178.560046
 20
1415.204619
 40
2.500000
 50
180.000000
 51
270.000000
  0
ARC
  8
0
  6
CONTINUOUS
 62
1
 10
1178.560046
 20
1466.204619
 40
2.500000
 50
0.000000
 51
90.000000
  0
ARC
  8
0
  6
CONTINUOUS
 62
1
 10
1178.560046
 20
1466.204619
 40
2.500000
 50
90.000000
 51
180.000000
  0
LINE
  8
0
  6
CONTINUOUS
 62
1
 10
1166.060046
 20
1457.250263
 11
1166.060046
 21
1415.204619
  0
LINE
  8
0
  6
CONTINUOUS
 62
1
 10
1161.060046
 20
1457.250263
 11
1161.060046
 21
1415.204619
  0
ARC
  8
0
  6
CONTINUOUS
 62
1
 10
1163.560046
 20
1415.204619
 40
2.500000
 50
270.000000
 51
0.000000
  0
ARC
  8
0
  6
CONTINUOUS
 62
1
 10
1163.560046
 20
1415.204619
 40
2.500000
 50
180.000000
 51
270.000000
  0
LINE
  8
0
  6
CONTINUOUS
 62
1
 10
1151.060046
 20
1466.204619
 11
1151.060046
 21
1415.204619
  0
LINE
  8
0
  6
CONTINUOUS
 62
1
 10
1146.060046
 20
1466.204619
 11
1146.060046
 21
1415.204619
  0
ARC
  8
0
  6
CONTINUOUS
 62
1
 10
1148.560046
 20
1415.204619
 40
2.500000
 50
270.000000
 51
0.000000
  0
ARC
  8
0
  6
CONTINUOUS
 62
1
 10
1148.560046
 20
1415.204619
 40
2.500000
 50
180.000000
 51
270.000000
  0
ARC
  8
0
  6
CONTINUOUS
 62
1
 10
1148.560046
 20
1466.204619
 40
2.500000
 50
0.000000
 51
90.000000
  0
ARC
  8
0
  6
CONTINUOUS
 62
1
 10
1148.560046
 20
1466.204619
 40
2.500000
 50
90.000000
 51
180.000000
  0
LINE
  8
0
  6
CONTINUOUS
 62
1
 10
1136.060046
 20
1466.204619
 11
1136.060046
 21
1415.204619
  0
LINE
  8
0
  6
CONTINUOUS
 62
1
 10
1131.060046
 20
1466.204619
 11
1131.060046
 21
1415.204619
  0
ARC
  8
0
  6
CONTINUOUS
 62
1
 10
1133.560046
 20
1415.204619
 40
2.500000
 50
270.000000
 51
0.000000
  0
ARC
  8
0
  6
CONTINUOUS
 62
1
 10
1133.560046
 20
1415.204619
 40
2.500000
 50
180.000000
 51
270.000000
  0
ARC
  8
0
  6
CONTINUOUS
 62
1
 10
1133.560046
 20
1466.204619
 40
2.500000
 50
0.000000
 51
90.000000
  0
ARC
  8
0
  6
CONTINUOUS
 62
1
 10
1133.560046
 20
1466.204619
 40
2.500000
 50
90.000000
 51
180.000000
  0
LINE
  8
0
  6
CONTINUOUS
 62
1
 10
1121.060046
 20
1466.204619
 11
1121.060046
 21
1415.204619
  0
LINE
  8
0
  6
CONTINUOUS
 62
1
 10
1116.060046
 20
1466.204619
 11
1116.060046
 21
1415.204619
  0
ARC
  8
0
  6
CONTINUOUS
 62
1
 10
1118.560046
 20
1415.204619
 40
2.500000
 50
270.000000
 51
0.000000
  0
ARC
  8
0
  6
CONTINUOUS
 62
1
 10
1118.560046
 20
1415.204619
 40
2.500000
 50
180.000000
 51
270.000000
  0
ARC
  8
0
  6
CONTINUOUS
 62
1
 10
1118.560046
 20
1466.204619
 40
2.500000
 50
0.000000
 51
90.000000
  0
ARC
  8
0
  6
CONTINUOUS
 62
1
 10
1118.560046
 20
1466.204619
 40
2.500000
 50
90.000000
 51
180.000000
  0
LINE
  8
0
  6
CONTINUOUS
 62
1
 10
1106.060046
 20
1466.204619
 11
1106.060046
 21
1415.204619
  0
LINE
  8
0
  6
CONTINUOUS
 62
1
 10
1101.060046
 20
1466.204619
 11
1101.060046
 21
1415.204619
  0
ARC
  8
0
  6
CONTINUOUS
 62
1
 10
1103.560046
 20
1415.204619
 40
2.500000
 50
270.000000
 51
0.000000
  0
ARC
  8
0
  6
CONTINUOUS
 62
1
 10
1103.560046
 20
1415.204619
 40
2.500000
 50
180.000000
 51
270.000000
  0
ARC
  8
0
  6
CONTINUOUS
 62
1
 10
1103.560046
 20
1466.204619
 40
2.500000
 50
0.000000
 51
90.000000
  0
ARC
  8
0
  6
CONTINUOUS
 62
1
 10
1103.560046
 20
1466.204619
 40
2.500000
 50
90.000000
 51
180.000000
  0
LINE
  8
0
  6
CONTINUOUS
 62
1
 10
1091.060046
 20
1466.204619
 11
1091.060046
 21
1415.204619
  0
LINE
  8
0
  6
CONTINUOUS
 62
1
 10
1086.060046
 20
1466.204619
 11
1086.060046
 21
1415.204619
  0
ARC
  8
0
  6
CONTINUOUS
 62
1
 10
1088.560046
 20
1415.204619
 40
2.500000
 50
270.000000
 51
0.000000
  0
ARC
  8
0
  6
CONTINUOUS
 62
1
 10
1088.560046
 20
1415.204619
 40
2.500000
 50
180.000000
 51
270.000000
  0
ARC
  8
0
  6
CONTINUOUS
 62
1
 10
1088.560046
 20
1466.204619
 40
2.500000
 50
0.000000
 51
90.000000
  0
ARC
  8
0
  6
CONTINUOUS
 62
1
 10
1088.560046
 20
1466.204619
 40
2.500000
 50
90.000000
 51
180.000000
  0
LINE
  8
0
  6
CONTINUOUS
 62
1
 10
1076.060046
 20
1466.204619
 11
1076.060046
 21
1415.204619
  0
LINE
  8
0
  6
CONTINUOUS
 62
1
 10
1071.060046
 20
1466.204619
 11
1071.060046
 21
1415.204619
  0
ARC
  8
0
  6
CONTINUOUS
 62
1
 10
1073.560046
 20
1415.204619
 40
2.500000
 50
270.000000
 51
0.000000
  0
ARC
  8
0
  6
CONTINUOUS
 62
1
 10
1073.560046
 20
1415.204619
 40
2.500000
 50
180.000000
 51
270.000000
  0
ARC
  8
0
  6
CONTINUOUS
 62
1
 10
1073.560046
 20
1466.204619
 40
2.500000
 50
0.000000
 51
90.000000
  0
ARC
  8
0
  6
CONTINUOUS
 62
1
 10
1073.560046
 20
1466.204619
 40
2.500000
 50
90.000000
 51
180.000000
  0
LINE
  8
0
  6
CONTINUOUS
 62
1
 10
1061.060046
 20
1466.204619
 11
1061.060046
 21
1415.204619
  0
LINE
  8
0
  6
CONTINUOUS
 62
1
 10
1056.060046
 20
1466.204619
 11
1056.060046
 21
1415.204619
  0
ARC
  8
0
  6
CONTINUOUS
 62
1
 10
1058.560046
 20
1415.204619
 40
2.500000
 50
270.000000
 51
0.000000
  0
ARC
  8
0
  6
CONTINUOUS
 62
1
 10
1058.560046
 20
1415.204619
 40
2.500000
 50
180.000000
 51
270.000000
  0
ARC
  8
0
  6
CONTINUOUS
 62
1
 10
1058.560046
 20
1466.204619
 40
2.500000
 50
0.000000
 51
90.000000
  0
ARC
  8
0
  6
CONTINUOUS
 62
1
 10
1058.560046
 20
1466.204619
 40
2.500000
 50
90.000000
 51
180.000000
  0
LINE
  8
0
  6
CONTINUOUS
 62
1
 10
1046.060046
 20
1466.204619
 11
1046.060046
 21
1415.204619
  0
LINE
  8
0
  6
CONTINUOUS
 62
1
 10
1041.060046
 20
1466.204619
 11
1041.060046
 21
1415.204619
  0
ARC
  8
0
  6
CONTINUOUS
 62
1
 10
1043.560046
 20
1415.204619
 40
2.500000
 50
270.000000
 51
0.000000
  0
ARC
  8
0
  6
CONTINUOUS
 62
1
 10
1043.560046
 20
1415.204619
 40
2.500000
 50
180.000000
 51
270.000000
  0
ARC
  8
0
  6
CONTINUOUS
 62
1
 10
1043.560046
 20
1466.204619
 40
2.500000
 50
0.000000
 51
90.000000
  0
ARC
  8
0
  6
CONTINUOUS
 62
1
 10
1043.560046
 20
1466.204619
 40
2.500000
 50
90.000000
 51
180.000000
  0
LINE
  8
0
  6
CONTINUOUS
 62
1
 10
1031.060046
 20
1466.204619
 11
1031.060046
 21
1415.204619
  0
LINE
  8
0
  6
CONTINUOUS
 62
1
 10
1026.060046
 20
1466.204619
 11
1026.060046
 21
1415.204619
  0
ARC
  8
0
  6
CONTINUOUS
 62
1
 10
1028.560046
 20
1415.204619
 40
2.500000
 50
270.000000
 51
0.000000
  0
ARC
  8
0
  6
CONTINUOUS
 62
1
 10
1028.560046
 20
1415.204619
 40
2.500000
 50
180.000000
 51
270.000000
  0
ARC
  8
0
  6
CONTINUOUS
 62
1
 10
1028.560046
 20
1466.204619
 40
2.500000
 50
0.000000
 51
90.000000
  0
ARC
  8
0
  6
CONTINUOUS
 62
1
 10
1028.560046
 20
1466.204619
 40
2.500000
 50
90.000000
 51
180.000000
  0
LINE
  8
0
  6
CONTINUOUS
 62
1
 10
1016.060046
 20
1466.204619
 11
1016.060046
 21
1415.204619
  0
LINE
  8
0
  6
CONTINUOUS
 62
1
 10
1011.060046
 20
1466.204619
 11
1011.060046
 21
1415.204619
  0
ARC
  8
0
  6
CONTINUOUS
 62
1
 10
1013.560046
 20
1415.204619
 40
2.500000
 50
270.000000
 51
0.000000
  0
ARC
  8
0
  6
CONTINUOUS
 62
1
 10
1013.560046
 20
1415.204619
 40
2.500000
 50
180.000000
 51
270.000000
  0
ARC
  8
0
  6
CONTINUOUS
 62
1
 10
1013.560046
 20
1466.204619
 40
2.500000
 50
0.000000
 51
90.000000
  0
ARC
  8
0
  6
CONTINUOUS
 62
1
 10
1013.560046
 20
1466.204619
 40
2.500000
 50
90.000000
 51
180.000000
  0
LINE
  8
0
  6
CONTINUOUS
 62
1
 10
1001.060046
 20
1466.204619
 11
1001.060046
 21
1415.204619
  0
LINE
  8
0
  6
CONTINUOUS
 62
1
 10
996.060046
 20
1466.204619
 11
996.060046
 21
1415.204619
  0
ARC
  8
0
  6
CONTINUOUS
 62
1
 10
998.560046
 20
1415.204619
 40
2.500000
 50
270.000000
 51
0.000000
  0
ARC
  8
0
  6
CONTINUOUS
 62
1
 10
998.560046
 20
1415.204619
 40
2.500000
 50
180.000000
 51
270.000000
  0
ARC
  8
0
  6
CONTINUOUS
 62
1
 10
998.560046
 20
1466.204619
 40
2.500000
 50
0.000000
 51
90.000000
  0
ARC
  8
0
  6
CONTINUOUS
 62
1
 10
998.560046
 20
1466.204619
 40
2.500000
 50
90.000000
 51
180.000000
  0
LINE
  8
0
  6
CONTINUOUS
 62
1
 10
986.060046
 20
1466.204619
 11
986.060046
 21
1415.204619
  0
LINE
  8
0
  6
CONTINUOUS
 62
1
 10
981.060046
 20
1466.204619
 11
981.060046
 21
1415.204619
  0
ARC
  8
0
  6
CONTINUOUS
 62
1
 10
983.560046
 20
1415.204619
 40
2.500000
 50
270.000000
 51
0.000000
  0
ARC
  8
0
  6
CONTINUOUS
 62
1
 10
983.560046
 20
1415.204619
 40
2.500000
 50
180.000000
 51
270.000000
  0
ARC
  8
0
  6
CONTINUOUS
 62
1
 10
983.560046
 20
1466.204619
 40
2.500000
 50
0.000000
 51
90.000000
  0
ARC
  8
0
  6
CONTINUOUS
 62
1
 10
983.560046
 20
1466.204619
 40
2.500000
 50
90.000000
 51
180.000000
  0
LINE
  8
0
  6
CONTINUOUS
 62
1
 10
971.060046
 20
1457.250263
 11
971.060046
 21
1415.204619
  0
ARC
  8
0
  6
CONTINUOUS
 62
1
 10
968.560046
 20
1415.204619
 40
2.500000
 50
270.000000
 51
0.000000
  0
ARC
  8
0
  6
CONTINUOUS
 62
1
 10
968.560046
 20
1415.204619
 40
2.500000
 50
180.000000
 51
270.000000
  0
LINE
  8
0
  6
CONTINUOUS
 62
1
 10
956.060046
 20
1466.204619
 11
956.060046
 21
1415.204619
  0
ARC
  8
0
  6
CONTINUOUS
 62
1
 10
953.560046
 20
1415.204619
 40
2.500000
 50
270.000000
 51
0.000000
  0
ARC
  8
0
  6
CONTINUOUS
 62
1
 10
953.560046
 20
1415.204619
 40
2.500000
 50
180.000000
 51
270.000000
  0
ARC
  8
0
  6
CONTINUOUS
 62
1
 10
953.560046
 20
1466.204619
 40
2.500000
 50
0.000000
 51
90.000000
  0
ARC
  8
0
  6
CONTINUOUS
 62
1
 10
1268.560046
 20
1415.204619
 40
2.500000
 50
270.000000
 51
0.000000
  0
LINE
  8
0
  6
CONTINUOUS
 62
1
 10
1406.060046
 20
1466.204619
 11
1406.060046
 21
1415.204619
  0
LINE
  8
0
  6
CONTINUOUS
 62
1
 10
1401.060046
 20
1466.204619
 11
1401.060046
 21
1415.204619
  0
LINE
  8
0
  6
CONTINUOUS
 62
1
 10
1391.060046
 20
1466.204619
 11
1391.060046
 21
1415.204619
  0
ARC
  8
0
  6
CONTINUOUS
 62
1
 10
1403.560046
 20
1415.204619
 40
2.500000
 50
270.000000
 51
0.000000
  0
LINE
  8
0
  6
CONTINUOUS
 62
1
 10
966.060046
 20
1457.250263
 11
966.060046
 21
1415.204619
  0
LINE
  8
0
  6
CONTINUOUS
 62
1
 10
951.060046
 20
1466.204619
 11
951.060046
 21
1415.204619
  0
ARC
  8
0
  6
CONTINUOUS
 62
1
 10
1403.560046
 20
1466.204619
 40
2.500000
 50
0.000000
 51
90.000000
  0
ARC
  8
0
  6
CONTINUOUS
 62
1
 10
1253.560046
 20
1415.204619
 40
2.500000
 50
270.000000
 51
0.000000
  0
ARC
  8
0
  6
CONTINUOUS
 62
1
 10
953.560046
 20
1466.204619
 40
2.500000
 50
90.000000
 51
180.000000
  0
LINE
  8
0
  6
CONTINUOUS
 62
1
 10
995.060046
 20
1473.204619
 11
995.060046
 21
1488.204619
  0
LINE
  8
0
  6
CONTINUOUS
 62
1
 10
1100.060046
 20
1473.204619
 11
1089.140939
 21
1503.204619
  0
LINE
  8
0
  6
CONTINUOUS
 62
1
 10
995.060046
 20
1488.204619
 11
1089.140939
 21
1503.204619
  0
ENDSEC
  0
EOF
