  0
SECTION
  2
HEADER
  9
$LIMMIN
 10
0.000000
 20
0.000000
  9
$LIMMAX
 10
840.896415
 20
594.603557
  9
$EXTMIN
 10
0.000000
 20
0.000000
  9
$EXTMAX
 10
3363.600000
 20
2378.420000
  9
$ANGBASE
 50
0.0
  9
$ANGDIR
 70
0
  9
$DIMRND
 40
0.100000
  9
$DIMSE1
 70
0
  9
$DIMSE2
 70
0
  9
$DIMTXT
 40
3.500000
  9
$LTSCALE
 40
1.000000
  9
$LUPREC
 70
5
  9
$AUPREC
 70
5
  9
$PDMODE
 70
2
  9
$PDSIZE
 40
16.818000
  0
ENDSEC
  0
SECTION
  2
TABLES
  0
TABLE
  2
VPORT
  70
1
  0
VPORT
  2
*ACTIVE
 70
0
  10
0.0
 20
0.0
 11
1.0
 21
1.0
 12
594.0
 22
420.0
 13
0.0
 23
0.0
 14
10.0
 24
10.0
 15
10.0
 25
10.0
 16
0.0
 26
0.0
 36
1.0
 17
594.0
 27
420.0
 37
100.0
 40
1000.0
 41
1.0
 42
50.0
 43
0.0
 44
0.0
 50
0.0
 51
0.0
 71
0
 72
2000
 73
1
 74
3
 75
0
 76
0
 77
0
 78
1
  0
ENDTAB
  0
TABLE
  2
LTYPE
 70
5
  0
LTYPE
  2
CONTINUOUS
 70
0
  3
Solid line
 72
65
 73
0
 40
0.0
  0
LTYPE
  2
DASHED
 70
0
  3
Dashed line
 72
65
 73
2
 40
6.000000
 49
3.000000
 49
-3.000000
  0
LTYPE
  2
CENTER
 70
0
  3
Chain line
 72
65
 73
4
 40
24.000000
 49
15.000000
 49
-3.000000
 49
3.000000
 49
-3.000000
  0
LTYPE
  2
RANDOM
 70
0
  3
Random line
 72
65
 73
4
 40
22.500000
 49
6.000000
 49
-3.000000
 49
4.500000
 49
-9.000000
  0
LTYPE
  2
CHAIN_2_16843142
  3
CHAIN_2_16843142
 70
0
 72
65
 73
4
 40
2.400000
 49
1.500000
 49
-0.300000
 49
0.300000
 49
-0.300000
  0
ENDTAB
  0
TABLE
  2
STYLE
 70
9
  0
STYLE
  2
STANDARD
 40
0
 41
1.0
 50
0.0
 71
0
 42
0
  3
simplex
  4

 70
0
  0
ENDTAB
  0
TABLE
  2
LAYER
 70
2
  0
LAYER
  2
0
 70
0
 62
7
  6
CONTINUOUS
  0
LAYER
  2
0
 62
1
  6
CONTINUOUS
 70
0
  0
ENDTAB
  0
ENDSEC
  0
SECTION
  2
BLOCKS
  0
ENDSEC
  0
SECTION
  2
ENTITIES
  0
LINE
  8
0
  6
CONTINUOUS
 62
1
 10
879.632618
 20
1554.204619
 11
879.632618
 21
998.204619
  0
LINE
  8
0
  6
CONTINUOUS
 62
1
 10
879.632618
 20
1054.204619
 11
1679.632618
 21
1054.204619
  0
LINE
  8
0
  6
CONTINUOUS
 62
1
 10
1679.632618
 20
1554.204619
 11
1679.632618
 21
998.204619
  0
LINE
  8
0
  6
CONTINUOUS
 62
1
 10
1679.632618
 20
1554.204619
 11
879.632618
 21
1554.204619
  0
LINE
  8
0
  6
CHAIN_2_16843142
 62
1
 10
1629.632618
 20
1584.204619
 11
1629.632618
 21
1524.204619
  0
LINE
  8
0
  6
CONTINUOUS
 62
1
 10
898.132618
 20
1485.204619
 11
1661.132618
 21
1485.204619
  0
LINE
  8
0
  6
CONTINUOUS
 62
1
 10
1661.132618
 20
1380.204619
 11
898.132618
 21
1380.204619
  0
LINE
  8
0
  6
CONTINUOUS
 62
1
 10
898.132618
 20
1391.123719
 11
1661.132618
 21
1391.123719
  0
LINE
  8
0
  6
CONTINUOUS
 62
1
 10
1010.632618
 20
1406.704619
 11
1020.632618
 21
1406.704619
  0
LINE
  8
0
  6
CONTINUOUS
 62
1
 10
1020.632618
 20
1466.704619
 11
1010.632618
 21
1466.704619
  0
LINE
  8
0
  6
CONTINUOUS
 62
1
 10
1138.632618
 20
1406.704619
 11
1148.632618
 21
1406.704619
  0
LINE
  8
0
  6
CONTINUOUS
 62
1
 10
1148.632618
 20
1466.704619
 11
1138.632618
 21
1466.704619
  0
LINE
  8
0
  6
CONTINUOUS
 62
1
 10
1154.632618
 20
1406.704619
 11
1164.632618
 21
1406.704619
  0
LINE
  8
0
  6
CONTINUOUS
 62
1
 10
1164.632618
 20
1466.704619
 11
1154.632618
 21
1466.704619
  0
LINE
  8
0
  6
CONTINUOUS
 62
1
 10
1170.632618
 20
1406.704619
 11
1180.632618
 21
1406.704619
  0
LINE
  8
0
  6
CONTINUOUS
 62
1
 10
1180.632618
 20
1466.704619
 11
1170.632618
 21
1466.704619
  0
LINE
  8
0
  6
CONTINUOUS
 62
1
 10
1186.632618
 20
1406.704619
 11
1196.632618
 21
1406.704619
  0
LINE
  8
0
  6
CONTINUOUS
 62
1
 10
1196.632618
 20
1406.704619
 11
1196.632618
 21
1466.704619
  0
LINE
  8
0
  6
CONTINUOUS
 62
1
 10
1202.632618
 20
1406.704619
 11
1212.632618
 21
1406.704619
  0
LINE
  8
0
  6
CONTINUOUS
 62
1
 10
1202.632618
 20
1466.704619
 11
1202.632618
 21
1406.704619
  0
LINE
  8
0
  6
CONTINUOUS
 62
1
 10
1218.632618
 20
1406.704619
 11
1228.632618
 21
1406.704619
  0
LINE
  8
0
  6
CONTINUOUS
 62
1
 10
1228.632618
 20
1406.704619
 11
1228.632618
 21
1466.704619
  0
LINE
  8
0
  6
CONTINUOUS
 62
1
 10
1228.632618
 20
1466.704619
 11
1218.632618
 21
1466.704619
  0
LINE
  8
0
  6
CONTINUOUS
 62
1
 10
1234.632618
 20
1406.704619
 11
1244.632618
 21
1406.704619
  0
LINE
  8
0
  6
CONTINUOUS
 62
1
 10
1234.632618
 20
1466.704619
 11
1234.632618
 21
1406.704619
  0
LINE
  8
0
  6
CONTINUOUS
 62
1
 10
1250.632618
 20
1406.704619
 11
1260.632618
 21
1406.704619
  0
LINE
  8
0
  6
CONTINUOUS
 62
1
 10
1250.632618
 20
1466.704619
 11
1250.632618
 21
1406.704619
  0
LINE
  8
0
  6
CONTINUOUS
 62
1
 10
1266.632618
 20
1406.704619
 11
1276.632618
 21
1406.704619
  0
LINE
  8
0
  6
CONTINUOUS
 62
1
 10
1276.632618
 20
1406.704619
 11
1276.632618
 21
1466.704619
  0
LINE
  8
0
  6
CONTINUOUS
 62
1
 10
1266.632618
 20
1466.704619
 11
1266.632618
 21
1406.704619
  0
LINE
  8
0
  6
CONTINUOUS
 62
1
 10
1282.632618
 20
1406.704619
 11
1292.632618
 21
1406.704619
  0
LINE
  8
0
  6
CONTINUOUS
 62
1
 10
1292.632618
 20
1466.704619
 11
1282.632618
 21
1466.704619
  0
LINE
  8
0
  6
CONTINUOUS
 62
1
 10
1298.632618
 20
1406.704619
 11
1308.632618
 21
1406.704619
  0
LINE
  8
0
  6
CONTINUOUS
 62
1
 10
1308.632618
 20
1466.704619
 11
1298.632618
 21
1466.704619
  0
LINE
  8
0
  6
CONTINUOUS
 62
1
 10
1298.632618
 20
1466.704619
 11
1298.632618
 21
1406.704619
  0
LINE
  8
0
  6
CONTINUOUS
 62
1
 10
1314.632618
 20
1406.704619
 11
1324.632618
 21
1406.704619
  0
LINE
  8
0
  6
CONTINUOUS
 62
1
 10
1324.632618
 20
1466.704619
 11
1314.632618
 21
1466.704619
  0
LINE
  8
0
  6
CONTINUOUS
 62
1
 10
1330.632618
 20
1406.704619
 11
1340.632618
 21
1406.704619
  0
LINE
  8
0
  6
CONTINUOUS
 62
1
 10
1340.632618
 20
1466.704619
 11
1330.632618
 21
1466.704619
  0
LINE
  8
0
  6
CONTINUOUS
 62
1
 10
1346.632618
 20
1406.704619
 11
1356.632618
 21
1406.704619
  0
LINE
  8
0
  6
CONTINUOUS
 62
1
 10
1356.632618
 20
1406.704619
 11
1356.632618
 21
1466.704619
  0
LINE
  8
0
  6
CONTINUOUS
 62
1
 10
1346.632618
 20
1466.704619
 11
1346.632618
 21
1406.704619
  0
LINE
  8
0
  6
CONTINUOUS
 62
1
 10
1362.632618
 20
1406.704619
 11
1372.632618
 21
1406.704619
  0
LINE
  8
0
  6
CONTINUOUS
 62
1
 10
1372.632618
 20
1466.704619
 11
1362.632618
 21
1466.704619
  0
LINE
  8
0
  6
CONTINUOUS
 62
1
 10
1378.632618
 20
1406.704619
 11
1388.632618
 21
1406.704619
  0
LINE
  8
0
  6
CONTINUOUS
 62
1
 10
1388.632618
 20
1466.704619
 11
1378.632618
 21
1466.704619
  0
LINE
  8
0
  6
CONTINUOUS
 62
1
 10
1378.632618
 20
1466.704619
 11
1378.632618
 21
1406.704619
  0
LINE
  8
0
  6
CONTINUOUS
 62
1
 10
1394.632618
 20
1406.704619
 11
1404.632618
 21
1406.704619
  0
LINE
  8
0
  6
CONTINUOUS
 62
1
 10
1404.632618
 20
1406.704619
 11
1404.632618
 21
1466.704619
  0
LINE
  8
0
  6
CONTINUOUS
 62
1
 10
1394.632618
 20
1466.704619
 11
1394.632618
 21
1406.704619
  0
LINE
  8
0
  6
CONTINUOUS
 62
1
 10
1410.632618
 20
1406.704619
 11
1420.632618
 21
1406.704619
  0
LINE
  8
0
  6
CONTINUOUS
 62
1
 10
1420.632618
 20
1406.704619
 11
1420.632618
 21
1466.704619
  0
LINE
  8
0
  6
CONTINUOUS
 62
1
 10
1420.632618
 20
1466.704619
 11
1410.632618
 21
1466.704619
  0
LINE
  8
0
  6
CONTINUOUS
 62
1
 10
1426.632618
 20
1406.704619
 11
1436.632618
 21
1406.704619
  0
LINE
  8
0
  6
CONTINUOUS
 62
1
 10
1426.632618
 20
1466.704619
 11
1426.632618
 21
1406.704619
  0
LINE
  8
0
  6
CONTINUOUS
 62
1
 10
1442.632618
 20
1406.704619
 11
1452.632618
 21
1406.704619
  0
LINE
  8
0
  6
CONTINUOUS
 62
1
 10
1452.632618
 20
1466.704619
 11
1442.632618
 21
1466.704619
  0
LINE
  8
0
  6
CONTINUOUS
 62
1
 10
1458.632618
 20
1406.704619
 11
1468.632618
 21
1406.704619
  0
LINE
  8
0
  6
CONTINUOUS
 62
1
 10
1458.632618
 20
1466.704619
 11
1458.632618
 21
1406.704619
  0
LINE
  8
0
  6
CONTINUOUS
 62
1
 10
1474.632618
 20
1406.704619
 11
1484.632618
 21
1406.704619
  0
LINE
  8
0
  6
CONTINUOUS
 62
1
 10
1484.632618
 20
1466.704619
 11
1474.632618
 21
1466.704619
  0
LINE
  8
0
  6
CONTINUOUS
 62
1
 10
1490.632618
 20
1406.704619
 11
1500.632618
 21
1406.704619
  0
LINE
  8
0
  6
CONTINUOUS
 62
1
 10
1500.632618
 20
1466.704619
 11
1490.632618
 21
1466.704619
  0
LINE
  8
0
  6
CONTINUOUS
 62
1
 10
1506.632618
 20
1406.704619
 11
1516.632618
 21
1406.704619
  0
LINE
  8
0
  6
CONTINUOUS
 62
1
 10
1516.632618
 20
1466.704619
 11
1506.632618
 21
1466.704619
  0
LINE
  8
0
  6
CONTINUOUS
 62
1
 10
1522.632618
 20
1406.704619
 11
1532.632618
 21
1406.704619
  0
LINE
  8
0
  6
CONTINUOUS
 62
1
 10
1532.632618
 20
1466.704619
 11
1522.632618
 21
1466.704619
  0
LINE
  8
0
  6
CONTINUOUS
 62
1
 10
1538.632618
 20
1406.704619
 11
1548.632618
 21
1406.704619
  0
LINE
  8
0
  6
CONTINUOUS
 62
1
 10
1548.632618
 20
1406.704619
 11
1548.632618
 21
1466.704619
  0
LINE
  8
0
  6
CONTINUOUS
 62
1
 10
1538.632618
 20
1466.704619
 11
1538.632618
 21
1406.704619
  0
LINE
  8
0
  6
CONTINUOUS
 62
1
 10
1554.632618
 20
1406.704619
 11
1564.632618
 21
1406.704619
  0
LINE
  8
0
  6
CONTINUOUS
 62
1
 10
1564.632618
 20
1466.704619
 11
1554.632618
 21
1466.704619
  0
LINE
  8
0
  6
CONTINUOUS
 62
1
 10
1570.632618
 20
1406.704619
 11
1580.632618
 21
1406.704619
  0
LINE
  8
0
  6
CONTINUOUS
 62
1
 10
1580.632618
 20
1466.704619
 11
1570.632618
 21
1466.704619
  0
LINE
  8
0
  6
CONTINUOUS
 62
1
 10
1570.632618
 20
1466.704619
 11
1570.632618
 21
1406.704619
  0
LINE
  8
0
  6
CONTINUOUS
 62
1
 10
1586.632618
 20
1406.704619
 11
1596.632618
 21
1406.704619
  0
LINE
  8
0
  6
CONTINUOUS
 62
1
 10
1596.632618
 20
1466.704619
 11
1586.632618
 21
1466.704619
  0
LINE
  8
0
  6
CONTINUOUS
 62
1
 10
1602.632618
 20
1406.704619
 11
1612.632618
 21
1406.704619
  0
LINE
  8
0
  6
CONTINUOUS
 62
1
 10
1612.632618
 20
1466.704619
 11
1602.632618
 21
1466.704619
  0
LINE
  8
0
  6
CONTINUOUS
 62
1
 10
1618.632618
 20
1406.704619
 11
1628.632618
 21
1406.704619
  0
LINE
  8
0
  6
CONTINUOUS
 62
1
 10
1628.632618
 20
1406.704619
 11
1628.632618
 21
1466.704619
  0
LINE
  8
0
  6
CONTINUOUS
 62
1
 10
1618.632618
 20
1466.704619
 11
1618.632618
 21
1406.704619
  0
LINE
  8
0
  6
CONTINUOUS
 62
1
 10
1634.632618
 20
1406.704619
 11
1644.632618
 21
1406.704619
  0
LINE
  8
0
  6
CONTINUOUS
 62
1
 10
1634.632618
 20
1466.704619
 11
1634.632618
 21
1406.704619
  0
LINE
  8
0
  6
CONTINUOUS
 62
1
 10
1020.632618
 20
1406.704619
 11
1020.632618
 21
1466.704619
  0
LINE
  8
0
  6
CONTINUOUS
 62
1
 10
1138.632618
 20
1466.704619
 11
1138.632618
 21
1406.704619
  0
LINE
  8
0
  6
CONTINUOUS
 62
1
 10
1148.632618
 20
1406.704619
 11
1148.632618
 21
1466.704619
  0
LINE
  8
0
  6
CONTINUOUS
 62
1
 10
1164.632618
 20
1406.704619
 11
1164.632618
 21
1466.704619
  0
LINE
  8
0
  6
CONTINUOUS
 62
1
 10
1170.632618
 20
1466.704619
 11
1170.632618
 21
1406.704619
  0
LINE
  8
0
  6
CONTINUOUS
 62
1
 10
1180.632618
 20
1406.704619
 11
1180.632618
 21
1466.704619
  0
LINE
  8
0
  6
CONTINUOUS
 62
1
 10
1186.632618
 20
1466.704619
 11
1186.632618
 21
1406.704619
  0
LINE
  8
0
  6
CONTINUOUS
 62
1
 10
1196.632618
 20
1466.704619
 11
1186.632618
 21
1466.704619
  0
LINE
  8
0
  6
CONTINUOUS
 62
1
 10
1212.632618
 20
1466.704619
 11
1202.632618
 21
1466.704619
  0
LINE
  8
0
  6
CONTINUOUS
 62
1
 10
1212.632618
 20
1406.704619
 11
1212.632618
 21
1466.704619
  0
LINE
  8
0
  6
CONTINUOUS
 62
1
 10
1218.632618
 20
1466.704619
 11
1218.632618
 21
1406.704619
  0
LINE
  8
0
  6
CONTINUOUS
 62
1
 10
1244.632618
 20
1466.704619
 11
1234.632618
 21
1466.704619
  0
LINE
  8
0
  6
CONTINUOUS
 62
1
 10
1244.632618
 20
1406.704619
 11
1244.632618
 21
1466.704619
  0
LINE
  8
0
  6
CONTINUOUS
 62
1
 10
1260.632618
 20
1466.704619
 11
1250.632618
 21
1466.704619
  0
LINE
  8
0
  6
CONTINUOUS
 62
1
 10
1260.632618
 20
1406.704619
 11
1260.632618
 21
1466.704619
  0
LINE
  8
0
  6
CENTER
 62
7
 10
1260.632618
 20
1466.704619
 11
1266.632618
 21
1466.704619
  0
LINE
  8
0
  6
CONTINUOUS
 62
1
 10
1276.632618
 20
1466.704619
 11
1266.632618
 21
1466.704619
  0
LINE
  8
0
  6
CONTINUOUS
 62
1
 10
1282.632618
 20
1466.704619
 11
1282.632618
 21
1406.704619
  0
LINE
  8
0
  6
CENTER
 62
7
 10
1276.632618
 20
1466.704619
 11
1282.632618
 21
1466.704619
  0
LINE
  8
0
  6
CONTINUOUS
 62
1
 10
1292.632618
 20
1406.704619
 11
1292.632618
 21
1466.704619
  0
LINE
  8
0
  6
CENTER
 62
7
 10
1292.632618
 20
1466.704619
 11
1298.632618
 21
1466.704619
  0
LINE
  8
0
  6
CONTINUOUS
 62
1
 10
1308.632618
 20
1406.704619
 11
1308.632618
 21
1466.704619
  0
LINE
  8
0
  6
CONTINUOUS
 62
1
 10
1314.632618
 20
1466.704619
 11
1314.632618
 21
1406.704619
  0
LINE
  8
0
  6
CONTINUOUS
 62
1
 10
1324.632618
 20
1406.704619
 11
1324.632618
 21
1466.704619
  0
LINE
  8
0
  6
CONTINUOUS
 62
1
 10
1330.632618
 20
1466.704619
 11
1330.632618
 21
1406.704619
  0
LINE
  8
0
  6
CONTINUOUS
 62
1
 10
1340.632618
 20
1406.704619
 11
1340.632618
 21
1466.704619
  0
LINE
  8
0
  6
CONTINUOUS
 62
1
 10
1362.632618
 20
1466.704619
 11
1362.632618
 21
1406.704619
  0
LINE
  8
0
  6
CONTINUOUS
 62
1
 10
1372.632618
 20
1406.704619
 11
1372.632618
 21
1466.704619
  0
LINE
  8
0
  6
CONTINUOUS
 62
1
 10
1388.632618
 20
1406.704619
 11
1388.632618
 21
1466.704619
  0
LINE
  8
0
  6
CONTINUOUS
 62
1
 10
1404.632618
 20
1466.704619
 11
1394.632618
 21
1466.704619
  0
LINE
  8
0
  6
CONTINUOUS
 62
1
 10
1410.632618
 20
1466.704619
 11
1410.632618
 21
1406.704619
  0
LINE
  8
0
  6
CONTINUOUS
 62
1
 10
1436.632618
 20
1466.704619
 11
1426.632618
 21
1466.704619
  0
LINE
  8
0
  6
CONTINUOUS
 62
1
 10
1436.632618
 20
1406.704619
 11
1436.632618
 21
1466.704619
  0
LINE
  8
0
  6
CONTINUOUS
 62
1
 10
1442.632618
 20
1466.704619
 11
1442.632618
 21
1406.704619
  0
LINE
  8
0
  6
CONTINUOUS
 62
1
 10
1452.632618
 20
1406.704619
 11
1452.632618
 21
1466.704619
  0
LINE
  8
0
  6
CONTINUOUS
 62
1
 10
1468.632618
 20
1466.704619
 11
1458.632618
 21
1466.704619
  0
LINE
  8
0
  6
CONTINUOUS
 62
1
 10
1468.632618
 20
1406.704619
 11
1468.632618
 21
1466.704619
  0
LINE
  8
0
  6
CONTINUOUS
 62
1
 10
1474.632618
 20
1466.704619
 11
1474.632618
 21
1406.704619
  0
LINE
  8
0
  6
CONTINUOUS
 62
1
 10
1484.632618
 20
1406.704619
 11
1484.632618
 21
1466.704619
  0
LINE
  8
0
  6
CONTINUOUS
 62
1
 10
1490.632618
 20
1466.704619
 11
1490.632618
 21
1406.704619
  0
LINE
  8
0
  6
CONTINUOUS
 62
1
 10
1500.632618
 20
1406.704619
 11
1500.632618
 21
1466.704619
  0
LINE
  8
0
  6
CONTINUOUS
 62
1
 10
1506.632618
 20
1466.704619
 11
1506.632618
 21
1406.704619
  0
LINE
  8
0
  6
CONTINUOUS
 62
1
 10
1516.632618
 20
1406.704619
 11
1516.632618
 21
1466.704619
  0
LINE
  8
0
  6
CONTINUOUS
 62
1
 10
1522.632618
 20
1466.704619
 11
1522.632618
 21
1406.704619
  0
LINE
  8
0
  6
CONTINUOUS
 62
1
 10
1532.632618
 20
1406.704619
 11
1532.632618
 21
1466.704619
  0
LINE
  8
0
  6
CONTINUOUS
 62
1
 10
1548.632618
 20
1466.704619
 11
1538.632618
 21
1466.704619
  0
LINE
  8
0
  6
CONTINUOUS
 62
1
 10
1554.632618
 20
1466.704619
 11
1554.632618
 21
1406.704619
  0
LINE
  8
0
  6
CONTINUOUS
 62
1
 10
1564.632618
 20
1406.704619
 11
1564.632618
 21
1466.704619
  0
LINE
  8
0
  6
CONTINUOUS
 62
1
 10
1580.632618
 20
1406.704619
 11
1580.632618
 21
1466.704619
  0
LINE
  8
0
  6
CONTINUOUS
 62
1
 10
1586.632618
 20
1466.704619
 11
1586.632618
 21
1406.704619
  0
LINE
  8
0
  6
CONTINUOUS
 62
1
 10
1596.632618
 20
1406.704619
 11
1596.632618
 21
1466.704619
  0
LINE
  8
0
  6
CONTINUOUS
 62
1
 10
1602.632618
 20
1466.704619
 11
1602.632618
 21
1406.704619
  0
LINE
  8
0
  6
CONTINUOUS
 62
1
 10
1612.632618
 20
1406.704619
 11
1612.632618
 21
1466.704619
  0
LINE
  8
0
  6
CONTINUOUS
 62
1
 10
1628.632618
 20
1466.704619
 11
1618.632618
 21
1466.704619
  0
LINE
  8
0
  6
CONTINUOUS
 62
1
 10
1644.632618
 20
1406.704619
 11
1644.632618
 21
1466.704619
  0
LINE
  8
0
  6
CONTINUOUS
 62
1
 10
1356.632618
 20
1466.704619
 11
1346.632618
 21
1466.704619
  0
LINE
  8
0
  6
CONTINUOUS
 62
1
 10
1644.632618
 20
1466.704619
 11
1634.632618
 21
1466.704619
  0
LINE
  8
0
  6
CONTINUOUS
 62
1
 10
1154.632618
 20
1466.704619
 11
1154.632618
 21
1406.704619
  0
LINE
  8
0
  6
CONTINUOUS
 62
1
 10
1004.632618
 20
1466.704619
 11
994.632618
 21
1466.704619
  0
LINE
  8
0
  6
CONTINUOUS
 62
1
 10
1004.632618
 20
1406.704619
 11
1004.632618
 21
1466.704619
  0
LINE
  8
0
  6
CONTINUOUS
 62
1
 10
1026.632618
 20
1466.704619
 11
1026.632618
 21
1406.704619
  0
LINE
  8
0
  6
CONTINUOUS
 62
1
 10
1026.632618
 20
1406.704619
 11
1036.632618
 21
1406.704619
  0
LINE
  8
0
  6
CONTINUOUS
 62
1
 10
1036.632618
 20
1466.704619
 11
1026.632618
 21
1466.704619
  0
LINE
  8
0
  6
CONTINUOUS
 62
1
 10
1036.632618
 20
1406.704619
 11
1036.632618
 21
1466.704619
  0
LINE
  8
0
  6
CONTINUOUS
 62
1
 10
1026.632618
 20
1466.704619
 11
1026.632618
 21
1406.704619
  0
LINE
  8
0
  6
CONTINUOUS
 62
1
 10
1042.632618
 20
1406.704619
 11
1042.632618
 21
1466.704619
  0
LINE
  8
0
  6
CONTINUOUS
 62
1
 10
1042.632618
 20
1406.704619
 11
1052.632618
 21
1406.704619
  0
LINE
  8
0
  6
CONTINUOUS
 62
1
 10
1052.632618
 20
1466.704619
 11
1042.632618
 21
1466.704619
  0
LINE
  8
0
  6
CONTINUOUS
 62
1
 10
1052.632618
 20
1406.704619
 11
1052.632618
 21
1466.704619
  0
LINE
  8
0
  6
CONTINUOUS
 62
1
 10
1042.632618
 20
1466.704619
 11
1042.632618
 21
1406.704619
  0
LINE
  8
0
  6
CONTINUOUS
 62
1
 10
1058.632618
 20
1466.704619
 11
1058.632618
 21
1406.704619
  0
LINE
  8
0
  6
CONTINUOUS
 62
1
 10
1058.632618
 20
1406.704619
 11
1068.632618
 21
1406.704619
  0
LINE
  8
0
  6
CONTINUOUS
 62
1
 10
1068.632618
 20
1466.704619
 11
1058.632618
 21
1466.704619
  0
LINE
  8
0
  6
CONTINUOUS
 62
1
 10
1068.632618
 20
1406.704619
 11
1068.632618
 21
1466.704619
  0
LINE
  8
0
  6
CONTINUOUS
 62
1
 10
1058.632618
 20
1466.704619
 11
1058.632618
 21
1406.704619
  0
LINE
  8
0
  6
CONTINUOUS
 62
1
 10
1074.632618
 20
1406.704619
 11
1074.632618
 21
1466.704619
  0
LINE
  8
0
  6
CONTINUOUS
 62
1
 10
1074.632618
 20
1406.704619
 11
1084.632618
 21
1406.704619
  0
LINE
  8
0
  6
CONTINUOUS
 62
1
 10
1084.632618
 20
1466.704619
 11
1074.632618
 21
1466.704619
  0
LINE
  8
0
  6
CONTINUOUS
 62
1
 10
1084.632618
 20
1406.704619
 11
1084.632618
 21
1466.704619
  0
LINE
  8
0
  6
CONTINUOUS
 62
1
 10
1074.632618
 20
1466.704619
 11
1074.632618
 21
1406.704619
  0
LINE
  8
0
  6
CONTINUOUS
 62
1
 10
1090.632618
 20
1466.704619
 11
1090.632618
 21
1406.704619
  0
LINE
  8
0
  6
CONTINUOUS
 62
1
 10
1090.632618
 20
1406.704619
 11
1100.632618
 21
1406.704619
  0
LINE
  8
0
  6
CONTINUOUS
 62
1
 10
1100.632618
 20
1466.704619
 11
1090.632618
 21
1466.704619
  0
LINE
  8
0
  6
CONTINUOUS
 62
1
 10
1100.632618
 20
1406.704619
 11
1100.632618
 21
1466.704619
  0
LINE
  8
0
  6
CONTINUOUS
 62
1
 10
1090.632618
 20
1466.704619
 11
1090.632618
 21
1406.704619
  0
LINE
  8
0
  6
CONTINUOUS
 62
1
 10
1106.632618
 20
1406.704619
 11
1106.632618
 21
1466.704619
  0
LINE
  8
0
  6
CONTINUOUS
 62
1
 10
1106.632618
 20
1406.704619
 11
1116.632618
 21
1406.704619
  0
LINE
  8
0
  6
CONTINUOUS
 62
1
 10
1116.632618
 20
1466.704619
 11
1106.632618
 21
1466.704619
  0
LINE
  8
0
  6
CONTINUOUS
 62
1
 10
1116.632618
 20
1406.704619
 11
1116.632618
 21
1466.704619
  0
LINE
  8
0
  6
CONTINUOUS
 62
1
 10
1106.632618
 20
1466.704619
 11
1106.632618
 21
1406.704619
  0
LINE
  8
0
  6
CONTINUOUS
 62
1
 10
1122.632618
 20
1466.704619
 11
1122.632618
 21
1406.704619
  0
LINE
  8
0
  6
CONTINUOUS
 62
1
 10
1122.632618
 20
1406.704619
 11
1132.632618
 21
1406.704619
  0
LINE
  8
0
  6
CONTINUOUS
 62
1
 10
1132.632618
 20
1406.704619
 11
1132.632618
 21
1466.704619
  0
LINE
  8
0
  6
CONTINUOUS
 62
1
 10
1122.632618
 20
1466.704619
 11
1122.632618
 21
1406.704619
  0
LINE
  8
0
  6
CONTINUOUS
 62
1
 10
1132.632618
 20
1466.704619
 11
1122.632618
 21
1466.704619
  0
LINE
  8
0
  6
CONTINUOUS
 62
1
 10
994.632618
 20
1466.704619
 11
994.632618
 21
1406.704619
  0
LINE
  8
0
  6
CONTINUOUS
 62
1
 10
994.632618
 20
1406.704619
 11
1004.632618
 21
1406.704619
  0
LINE
  8
0
  6
CONTINUOUS
 62
1
 10
1010.632618
 20
1466.704619
 11
1010.632618
 21
1406.704619
  0
CIRCLE
  8
0
  6
CONTINUOUS
 62
1
 10
1067.632618
 20
1495.704619
 40
6.500000
  0
CIRCLE
  8
0
  6
CONTINUOUS
 62
1
 10
1092.632618
 20
1495.704619
 40
6.500000
  0
CIRCLE
  8
0
  6
CONTINUOUS
 62
1
 10
1117.632618
 20
1495.704619
 40
6.500000
  0
CIRCLE
  8
0
  6
CONTINUOUS
 62
1
 10
1142.632618
 20
1495.704619
 40
6.500000
  0
CIRCLE
  8
0
  6
CONTINUOUS
 62
1
 10
1359.632618
 20
1495.704619
 40
6.500000
  0
CIRCLE
  8
0
  6
CONTINUOUS
 62
1
 10
1384.632618
 20
1495.704619
 40
6.500000
  0
CIRCLE
  8
0
  6
CONTINUOUS
 62
1
 10
1409.632618
 20
1495.704619
 40
6.500000
  0
LINE
  8
0
  6
CONTINUOUS
 62
1
 10
1661.132618
 20
1054.204619
 11
1661.132618
 21
1554.204619
  0
CIRCLE
  8
0
  6
CONTINUOUS
 62
1
 10
1167.632618
 20
1495.704619
 40
6.500000
  0
LINE
  8
0
  6
CONTINUOUS
 62
1
 10
1661.132618
 20
1536.204619
 11
898.132618
 21
1536.204619
  0
CIRCLE
  8
0
  6
CONTINUOUS
 62
1
 10
1434.632618
 20
1495.704619
 40
6.500000
  0
LINE
  8
0
  6
CONTINUOUS
 62
1
 10
898.132618
 20
1554.204619
 11
898.132618
 21
1054.204619
  0
CIRCLE
  8
0
  6
CONTINUOUS
 62
1
 10
1334.632618
 20
1495.704619
 40
6.500000
  0
LINE
  8
0
  6
CONTINUOUS
 62
1
 10
1679.632618
 20
998.204619
 11
879.632618
 21
998.204619
  0
LINE
  8
0
  6
CONTINUOUS
 62
1
 10
988.632618
 20
1466.704619
 11
978.632618
 21
1466.704619
  0
LINE
  8
0
  6
CONTINUOUS
 62
1
 10
988.632618
 20
1406.704619
 11
988.632618
 21
1466.704619
  0
LINE
  8
0
  6
CONTINUOUS
 62
1
 10
978.632618
 20
1466.704619
 11
978.632618
 21
1406.704619
  0
LINE
  8
0
  6
CONTINUOUS
 62
1
 10
978.632618
 20
1406.704619
 11
988.632618
 21
1406.704619
  0
LINE
  8
0
  6
CONTINUOUS
 62
1
 10
972.632618
 20
1466.704619
 11
962.632618
 21
1466.704619
  0
LINE
  8
0
  6
CONTINUOUS
 62
1
 10
972.632618
 20
1406.704619
 11
972.632618
 21
1466.704619
  0
LINE
  8
0
  6
CONTINUOUS
 62
1
 10
962.632618
 20
1466.704619
 11
962.632618
 21
1406.704619
  0
LINE
  8
0
  6
CONTINUOUS
 62
1
 10
962.632618
 20
1406.704619
 11
972.632618
 21
1406.704619
  0
LINE
  8
0
  6
CONTINUOUS
 62
1
 10
956.632618
 20
1466.704619
 11
946.632618
 21
1466.704619
  0
LINE
  8
0
  6
CONTINUOUS
 62
1
 10
956.632618
 20
1406.704619
 11
956.632618
 21
1466.704619
  0
LINE
  8
0
  6
CONTINUOUS
 62
1
 10
946.632618
 20
1466.704619
 11
946.632618
 21
1406.704619
  0
LINE
  8
0
  6
CONTINUOUS
 62
1
 10
946.632618
 20
1406.704619
 11
956.632618
 21
1406.704619
  0
LINE
  8
0
  6
CONTINUOUS
 62
1
 10
940.632618
 20
1466.704619
 11
930.632618
 21
1466.704619
  0
LINE
  8
0
  6
CONTINUOUS
 62
1
 10
940.632618
 20
1406.704619
 11
940.632618
 21
1466.704619
  0
LINE
  8
0
  6
CONTINUOUS
 62
1
 10
930.632618
 20
1466.704619
 11
930.632618
 21
1406.704619
  0
LINE
  8
0
  6
CONTINUOUS
 62
1
 10
930.632618
 20
1406.704619
 11
940.632618
 21
1406.704619
  0
LINE
  8
0
  6
CONTINUOUS
 62
1
 10
924.632618
 20
1466.704619
 11
914.632618
 21
1466.704619
  0
LINE
  8
0
  6
CONTINUOUS
 62
1
 10
924.632618
 20
1406.704619
 11
924.632618
 21
1466.704619
  0
LINE
  8
0
  6
CONTINUOUS
 62
1
 10
914.632618
 20
1466.704619
 11
914.632618
 21
1406.704619
  0
LINE
  8
0
  6
CONTINUOUS
 62
1
 10
914.632618
 20
1406.704619
 11
924.632618
 21
1406.704619
  0
ARC
  8
0
  6
CONTINUOUS
 62
1
 10
1602.132618
 20
966.204619
 40
1.500000
 50
0.000000
 51
180.000000
  0
LINE
  8
0
  6
CONTINUOUS
 62
1
 10
1634.632618
 20
996.204619
 11
1569.632618
 21
996.204619
  0
LINE
  8
0
  6
CONTINUOUS
 62
1
 10
1613.181374
 20
966.204619
 11
1603.632618
 21
966.204619
  0
LINE
  8
0
  6
CONTINUOUS
 62
1
 10
1629.861832
 20
986.204619
 11
1574.403405
 21
986.204619
  0
LINE
  8
0
  6
CONTINUOUS
 62
1
 10
1601.882618
 20
986.204619
 11
1600.632618
 21
966.204619
  0
LINE
  8
0
  6
CONTINUOUS
 62
1
 10
1602.382618
 20
986.204619
 11
1603.632618
 21
966.204619
  0
LINE
  8
0
  6
CONTINUOUS
 62
1
 10
1594.582618
 20
996.204619
 11
1594.582618
 21
998.204619
  0
LINE
  8
0
  6
CONTINUOUS
 62
1
 10
1609.682618
 20
996.204619
 11
1609.682618
 21
998.204619
  0
LINE
  8
0
  6
CONTINUOUS
 62
1
 10
1594.582618
 20
998.204619
 11
1609.682618
 21
998.204619
  0
LINE
  8
0
  6
CONTINUOUS
 62
1
 10
1601.882618
 20
986.204619
 11
1602.382618
 21
986.204619
  0
LINE
  8
0
  6
CONTINUOUS
 62
1
 10
1614.177780
 20
967.119920
 11
1616.564520
 21
983.932226
  0
LINE
  8
0
  6
CONTINUOUS
 62
1
 10
1590.087456
 20
967.119920
 11
1587.700717
 21
983.932226
  0
LINE
  8
0
  6
CONTINUOUS
 62
1
 10
1603.632618
 20
966.204619
 11
1591.083863
 21
966.204619
  0
LINE
  8
0
  6
CONTINUOUS
 62
1
 10
1573.478153
 20
986.825266
 11
1569.632618
 21
996.204619
  0
LINE
  8
0
  6
CONTINUOUS
 62
1
 10
1630.787083
 20
986.825266
 11
1634.632618
 21
996.204619
  0
ARC
  8
0
  6
CONTINUOUS
 62
1
 10
1574.403405
 20
987.204619
 40
1.000000
 50
202.293629
 51
270.000000
  0
ARC
  8
0
  6
CONTINUOUS
 62
1
 10
1629.861832
 20
987.204619
 40
1.000000
 50
270.000000
 51
337.706371
  0
ARC
  8
0
  6
CONTINUOUS
 62
1
 10
1584.790289
 20
983.204619
 40
3.000000
 50
14.036243
 51
90.000000
  0
ARC
  8
0
  6
CONTINUOUS
 62
1
 10
1619.474947
 20
983.204619
 40
3.000000
 50
90.000000
 51
165.963757
  0
ARC
  8
0
  6
CONTINUOUS
 62
1
 10
1591.083863
 20
967.204619
 40
1.000000
 50
184.858739
 51
270.000000
  0
ARC
  8
0
  6
CONTINUOUS
 62
1
 10
1613.181374
 20
967.204619
 40
1.000000
 50
270.000000
 51
355.141261
  0
ENDSEC
  0
EOF
