  0
SECTION
  2
HEADER
  9
$LIMMIN
 10
0.000000
 20
0.000000
  9
$LIMMAX
 10
840.896415
 20
594.603557
  9
$EXTMIN
 10
0.000000
 20
0.000000
  9
$EXTMAX
 10
3363.585661
 20
2378.414230
  9
$ANGBASE
 50
0.0
  9
$ANGDIR
 70
0
  9
$DIMRND
 40
0.100000
  9
$DIMSE1
 70
0
  9
$DIMSE2
 70
0
  9
$DIMTXT
 40
3.000000
  9
$LTSCALE
 40
1.000000
  9
$LUPREC
 70
0
  9
$AUPREC
 70
0
  9
$PDMODE
 70
2
  9
$PDSIZE
 40
16.817928
  0
ENDSEC
  0
SECTION
  2
TABLES
  0
TABLE
  2
VPORT
  70
1
  0
VPORT
  2
*ACTIVE
 70
0
  10
0.0
 20
0.0
 11
1.0
 21
1.0
 12
594.0
 22
420.0
 13
0.0
 23
0.0
 14
10.0
 24
10.0
 15
10.0
 25
10.0
 16
0.0
 26
0.0
 36
1.0
 17
594.0
 27
420.0
 37
100.0
 40
1000.0
 41
1.0
 42
50.0
 43
0.0
 44
0.0
 50
0.0
 51
0.0
 71
0
 72
2000
 73
1
 74
3
 75
0
 76
0
 77
0
 78
1
  0
ENDTAB
  0
TABLE
  2
LTYPE
 70
4
  0
LTYPE
  2
CONTINUOUS
 70
0
  3
Solid line
 72
65
 73
0
 40
0.0
  0
LTYPE
  2
DASHED
 70
0
  3
Dashed line
 72
65
 73
2
 40
24.000000
 49
12.000000
 49
-12.000000
  0
LTYPE
  2
CENTER
 70
0
  3
Chain line
 72
65
 73
4
 40
96.000000
 49
60.000000
 49
-12.000000
 49
12.000000
 49
-12.000000
  0
LTYPE
  2
RANDOM
 70
0
  3
Random line
 72
65
 73
4
 40
90.000000
 49
24.000000
 49
-12.000000
 49
18.000000
 49
-36.000000
  0
ENDTAB
  0
TABLE
  2
STYLE
 70
9
  0
STYLE
  2
RADFONT1
 40
0
 41
0.820000
 50
0.0
 71
0
 42
0
  3
monotxt
  4

 70
0
  0
STYLE
  2
RADFONT2
 40
0
 41
0.800000
 50
0.0
 71
0
 42
0
  3
monotxt
  4

 70
0
  0
STYLE
  2
RADFONT3
 40
0
 41
1.000000
 50
0.0
 71
0
 42
0
  3
monotxt
  4

 70
0
  0
STYLE
  2
RADFONT4
 40
0
 41
1.000000
 50
0.0
 71
0
 42
0
  3
monotxt
  4

 70
0
  0
STYLE
  2
RADFONT5
 40
0
 41
0.800000
 50
0.0
 71
0
 42
0
  3
monotxt
  4

 70
0
  0
STYLE
  2
RADFONT6
 40
0
 41
0.850000
 50
0.0
 71
0
 42
0
  3
simplex
  4

 70
0
  0
STYLE
  2
RADFONT7
 40
0
 41
0.920000
 50
0.0
 71
0
 42
0
  3
simplex
  4

 70
0
  0
STYLE
  2
RADFONT8
 40
0
 41
0.835000
 50
0.0
 71
0
 42
0
  3
simplex
  4

 70
0
  0
STYLE
  2
RADFONT9
 40
0
 41
0.882000
 50
0.0
 71
0
 42
0
  3
romans
  4

 70
0
  0
STYLE
  2
RADFONT128
 40
0
 41
1.000000
 50
0.0
 71
0
 42
0
  3
simplex
  4

 70
0
  0
STYLE
  2
RADFONT129
 40
0
 41
1.000000
 50
0.0
 71
0
 42
0
  3
simplex
  4

 70
0
  0
STYLE
  2
RADOTHERS
 40
0
 41
0.750000
 50
0.0
 71
0
 42
0
  3
simplex
  4

 70
0
  0
ENDTAB
  0
TABLE
  2
LAYER
 70
2
  0
LAYER
  2
0
 70
0
 62
7
  6
CONTINUOUS
  0
LAYER
  2
0
 62
1
  6
CONTINUOUS
 70
0
  0
ENDTAB
  0
ENDSEC
  0
SECTION
  2
BLOCKS
  0
ENDSEC
  0
SECTION
  2
ENTITIES
  0
POLYLINE
  8
0
  6
CONTINUOUS
 62
1
 66
1
 70
0
  0
VERTEX
  8
0
 10
566.0
 20
303.7
 70
0
 42
0.0
  0
VERTEX
  8
0
 10
566.0
 20
303.7
 70
0
 42
0.0
  0
VERTEX
  8
0
 10
564.7
 20
304.5
 70
0
  0
SEQEND
  0
POLYLINE
  8
0
  6
CONTINUOUS
 62
1
 66
1
 70
0
  0
VERTEX
  8
0
 10
561.7
 20
300.6
 70
0
 42
0.0
  0
VERTEX
  8
0
 10
561.7
 20
300.6
 70
0
 42
0.0
  0
VERTEX
  8
0
 10
560.4
 20
301.4
 70
0
  0
SEQEND
  0
POLYLINE
  8
0
  6
CONTINUOUS
 62
1
 66
1
 70
0
  0
VERTEX
  8
0
 10
454.5
 20
380.6
 70
0
 42
0.0
  0
VERTEX
  8
0
 10
454.5
 20
380.6
 70
0
 42
0.0
  0
VERTEX
  8
0
 10
453.8
 20
381.1
 70
0
 42
0.0
  0
VERTEX
  8
0
 10
453.8
 20
381.1
 70
0
 42
0.0
  0
VERTEX
  8
0
 10
453.5
 20
382.3
 70
0
  0
SEQEND
  0
POLYLINE
  8
0
  6
CONTINUOUS
 62
1
 66
1
 70
0
  0
VERTEX
  8
0
 10
453.5
 20
382.3
 70
0
 42
0.0
  0
VERTEX
  8
0
 10
453.5
 20
382.3
 70
0
 42
0.0
  0
VERTEX
  8
0
 10
454.0
 20
383.8
 70
0
 42
0.0
  0
VERTEX
  8
0
 10
454.0
 20
383.8
 70
0
 42
0.0
  0
VERTEX
  8
0
 10
455.0
 20
383.8
 70
0
 42
0.0
  0
VERTEX
  8
0
 10
455.0
 20
383.8
 70
0
 42
0.0
  0
VERTEX
  8
0
 10
455.5
 20
382.3
 70
0
  0
SEQEND
  0
POLYLINE
  8
0
  6
CONTINUOUS
 62
1
 66
1
 70
0
  0
VERTEX
  8
0
 10
455.5
 20
382.3
 70
0
 42
0.0
  0
VERTEX
  8
0
 10
455.5
 20
382.3
 70
0
 42
0.0
  0
VERTEX
  8
0
 10
454.5
 20
380.6
 70
0
  0
SEQEND
  0
POLYLINE
  8
0
  6
CONTINUOUS
 62
1
 66
1
 70
0
  0
VERTEX
  8
0
 10
455.0
 20
391.5
 70
0
 42
0.0
  0
VERTEX
  8
0
 10
455.0
 20
391.5
 70
0
 42
0.0
  0
VERTEX
  8
0
 10
454.0
 20
391.5
 70
0
  0
SEQEND
  0
POLYLINE
  8
0
  6
CONTINUOUS
 62
1
 66
1
 70
0
  0
VERTEX
  8
0
 10
1231.7
 20
386.4
 70
0
 42
0.0
  0
VERTEX
  8
0
 10
1231.7
 20
386.4
 70
0
 42
0.0
  0
VERTEX
  8
0
 10
1230.8
 20
385.6
 70
0
  0
SEQEND
  0
POLYLINE
  8
0
  6
CONTINUOUS
 62
1
 66
1
 70
0
  0
VERTEX
  8
0
 10
1229.8
 20
385.4
 70
0
 42
0.0
  0
VERTEX
  8
0
 10
1229.8
 20
385.4
 70
0
 42
0.0
  0
VERTEX
  8
0
 10
1229.7
 20
385.4
 70
0
  0
SEQEND
  0
POLYLINE
  8
0
  6
CONTINUOUS
 62
1
 66
1
 70
0
  0
VERTEX
  8
0
 10
1229.7
 20
436.4
 70
0
 42
0.0
  0
VERTEX
  8
0
 10
1229.7
 20
436.4
 70
0
 42
0.0
  0
VERTEX
  8
0
 10
1229.8
 20
436.4
 70
0
  0
SEQEND
  0
POLYLINE
  8
0
  6
CONTINUOUS
 62
1
 66
1
 70
0
  0
VERTEX
  8
0
 10
1230.8
 20
436.2
 70
0
 42
0.0
  0
VERTEX
  8
0
 10
1230.8
 20
436.2
 70
0
 42
0.0
  0
VERTEX
  8
0
 10
1231.7
 20
435.4
 70
0
  0
SEQEND
  0
LINE
  8
0
  6
CONTINUOUS
 62
1
 10
458.2
 20
444.9
 11
458.2
 21
475.9
  0
LINE
  8
0
  6
CONTINUOUS
 62
1
 10
458.2
 20
453.9
 11
461.2
 21
453.9
  0
LINE
  8
0
  6
CONTINUOUS
 62
1
 10
461.2
 20
468.3
 11
459.3
 21
468.3
  0
LINE
  8
0
  6
CONTINUOUS
 62
1
 10
459.2
 20
468.3
 11
458.2
 21
468.3
  0
LINE
  8
0
  6
CONTINUOUS
 62
1
 10
461.2
 20
466.9
 11
458.2
 21
466.9
  0
LINE
  8
0
  6
CONTINUOUS
 62
1
 10
461.2
 20
452.5
 11
459.3
 21
452.5
  0
LINE
  8
0
  6
CONTINUOUS
 62
1
 10
459.2
 20
452.5
 11
458.2
 21
452.5
  0
LINE
  8
0
  6
CONTINUOUS
 62
1
 10
461.2
 20
453.9
 11
461.2
 21
444.9
  0
LINE
  8
0
  6
CONTINUOUS
 62
1
 10
461.2
 20
471.1
 11
459.3
 21
471.1
  0
LINE
  8
0
  6
CONTINUOUS
 62
1
 10
459.2
 20
471.1
 11
458.2
 21
471.1
  0
LINE
  8
0
  6
CONTINUOUS
 62
1
 10
461.2
 20
449.7
 11
459.3
 21
449.7
  0
LINE
  8
0
  6
CONTINUOUS
 62
1
 10
459.2
 20
449.7
 11
458.2
 21
449.7
  0
LINE
  8
0
  6
CONTINUOUS
 62
1
 10
461.2
 20
475.9
 11
461.2
 21
466.9
  0
LINE
  8
0
  6
CONTINUOUS
 62
1
 10
1214.7
 20
369.3
 11
1214.7
 21
369.4
  0
LINE
  8
0
  6
CONTINUOUS
 62
1
 10
1184.3
 20
247.8
 11
1133.5
 21
247.8
  0
LINE
  8
0
  6
CONTINUOUS
 62
1
 10
1181.0
 20
242.4
 11
1136.9
 21
242.4
  0
LINE
  8
0
  6
CONTINUOUS
 62
1
 10
1184.3
 20
338.1
 11
1184.3
 21
247.8
  0
LINE
  8
0
  6
CONTINUOUS
 62
1
 10
1133.5
 20
338.1
 11
1133.5
 21
247.8
  0
ARC
  8
0
  6
CONTINUOUS
 62
1
 10
1139.5
 20
247.8
 40
6.0
 50
180.0
 51
244.1
  0
ARC
  8
0
  6
CONTINUOUS
 62
1
 10
1178.3
 20
247.8
 40
6.0
 50
295.9
 51
0.0
  0
LINE
  8
0
  6
CONTINUOUS
 62
1
 10
1144.0
 20
194.4
 11
1144.0
 21
204.4
  0
LINE
  8
0
  6
CONTINUOUS
 62
1
 10
1154.8
 20
204.4
 11
1154.8
 21
194.4
  0
LINE
  8
0
  6
CONTINUOUS
 62
1
 10
1163.0
 20
194.4
 11
1163.0
 21
204.4
  0
LINE
  8
0
  6
CONTINUOUS
 62
1
 10
1144.0
 20
204.4
 11
1154.8
 21
204.4
  0
LINE
  8
0
  6
CONTINUOUS
 62
1
 10
1163.0
 20
204.4
 11
1173.8
 21
204.4
  0
LINE
  8
0
  6
CONTINUOUS
 62
1
 10
1138.9
 20
204.4
 11
1139.9
 21
204.4
  0
LINE
  8
0
  6
CONTINUOUS
 62
1
 10
1173.8
 20
194.4
 11
1173.8
 21
194.1
  0
LINE
  8
0
  6
CONTINUOUS
 62
1
 10
1173.8
 20
194.1
 11
1173.7
 21
193.9
  0
LINE
  8
0
  6
CONTINUOUS
 62
1
 10
1173.7
 20
193.9
 11
1173.6
 21
193.5
  0
LINE
  8
0
  6
CONTINUOUS
 62
1
 10
1173.6
 20
193.5
 11
1173.4
 21
193.3
  0
LINE
  8
0
  6
CONTINUOUS
 62
1
 10
1173.4
 20
193.3
 11
1172.9
 21
192.9
  0
LINE
  8
0
  6
CONTINUOUS
 62
1
 10
1172.9
 20
192.9
 11
1172.5
 21
192.6
  0
LINE
  8
0
  6
CONTINUOUS
 62
1
 10
1172.5
 20
192.6
 11
1171.5
 21
192.2
  0
LINE
  8
0
  6
CONTINUOUS
 62
1
 10
1171.5
 20
192.2
 11
1170.5
 21
191.9
  0
LINE
  8
0
  6
CONTINUOUS
 62
1
 10
1170.5
 20
191.9
 11
1168.4
 21
191.7
  0
LINE
  8
0
  6
CONTINUOUS
 62
1
 10
1168.4
 20
191.7
 11
1166.4
 21
191.9
  0
LINE
  8
0
  6
CONTINUOUS
 62
1
 10
1166.4
 20
191.9
 11
1165.3
 21
192.2
  0
LINE
  8
0
  6
CONTINUOUS
 62
1
 10
1165.3
 20
192.2
 11
1164.4
 21
192.6
  0
LINE
  8
0
  6
CONTINUOUS
 62
1
 10
1164.4
 20
192.6
 11
1163.9
 21
192.9
  0
LINE
  8
0
  6
CONTINUOUS
 62
1
 10
1163.9
 20
192.9
 11
1163.5
 21
193.3
  0
LINE
  8
0
  6
CONTINUOUS
 62
1
 10
1163.5
 20
193.3
 11
1163.3
 21
193.5
  0
LINE
  8
0
  6
CONTINUOUS
 62
1
 10
1163.3
 20
193.5
 11
1163.1
 21
193.9
  0
LINE
  8
0
  6
CONTINUOUS
 62
1
 10
1163.1
 20
193.9
 11
1163.1
 21
194.1
  0
LINE
  8
0
  6
CONTINUOUS
 62
1
 10
1163.1
 20
194.1
 11
1163.0
 21
194.4
  0
LINE
  8
0
  6
CONTINUOUS
 62
1
 10
1139.9
 20
204.4
 11
1139.9
 21
191.7
  0
LINE
  8
0
  6
CONTINUOUS
 62
1
 10
1173.8
 20
204.4
 11
1173.8
 21
194.4
  0
LINE
  8
0
  6
CONTINUOUS
 62
1
 10
1177.9
 20
204.4
 11
1178.9
 21
204.4
  0
LINE
  8
0
  6
CONTINUOUS
 62
1
 10
1154.8
 20
194.4
 11
1154.8
 21
194.1
  0
LINE
  8
0
  6
CONTINUOUS
 62
1
 10
1154.8
 20
194.1
 11
1154.7
 21
193.9
  0
LINE
  8
0
  6
CONTINUOUS
 62
1
 10
1154.7
 20
193.9
 11
1154.6
 21
193.5
  0
LINE
  8
0
  6
CONTINUOUS
 62
1
 10
1154.6
 20
193.5
 11
1154.4
 21
193.3
  0
LINE
  8
0
  6
CONTINUOUS
 62
1
 10
1154.4
 20
193.3
 11
1153.9
 21
192.9
  0
LINE
  8
0
  6
CONTINUOUS
 62
1
 10
1153.9
 20
192.9
 11
1153.5
 21
192.6
  0
LINE
  8
0
  6
CONTINUOUS
 62
1
 10
1153.5
 20
192.6
 11
1152.5
 21
192.2
  0
LINE
  8
0
  6
CONTINUOUS
 62
1
 10
1152.5
 20
192.2
 11
1151.5
 21
191.9
  0
LINE
  8
0
  6
CONTINUOUS
 62
1
 10
1151.5
 20
191.9
 11
1149.4
 21
191.7
  0
LINE
  8
0
  6
CONTINUOUS
 62
1
 10
1149.4
 20
191.7
 11
1147.4
 21
191.9
  0
LINE
  8
0
  6
CONTINUOUS
 62
1
 10
1147.4
 20
191.9
 11
1146.3
 21
192.2
  0
LINE
  8
0
  6
CONTINUOUS
 62
1
 10
1146.3
 20
192.2
 11
1145.4
 21
192.6
  0
LINE
  8
0
  6
CONTINUOUS
 62
1
 10
1145.4
 20
192.6
 11
1144.9
 21
192.9
  0
LINE
  8
0
  6
CONTINUOUS
 62
1
 10
1144.9
 20
192.9
 11
1144.5
 21
193.3
  0
LINE
  8
0
  6
CONTINUOUS
 62
1
 10
1144.5
 20
193.3
 11
1144.3
 21
193.5
  0
LINE
  8
0
  6
CONTINUOUS
 62
1
 10
1144.3
 20
193.5
 11
1144.1
 21
193.9
  0
LINE
  8
0
  6
CONTINUOUS
 62
1
 10
1144.1
 20
193.9
 11
1144.1
 21
194.1
  0
LINE
  8
0
  6
CONTINUOUS
 62
1
 10
1144.1
 20
194.1
 11
1144.0
 21
194.4
  0
LINE
  8
0
  6
CONTINUOUS
 62
1
 10
1144.0
 20
194.4
 11
1139.9
 21
194.4
  0
LINE
  8
0
  6
CONTINUOUS
 62
1
 10
1177.9
 20
194.4
 11
1173.8
 21
194.4
  0
LINE
  8
0
  6
CONTINUOUS
 62
1
 10
1163.0
 20
194.4
 11
1154.8
 21
194.4
  0
LINE
  8
0
  6
CONTINUOUS
 62
1
 10
1174.9
 20
190.4
 11
1142.9
 21
190.4
  0
ARC
  8
0
  6
CONTINUOUS
 62
1
 10
1142.9
 20
194.4
 40
4.0
 50
221.4
 51
270.0
  0
ARC
  8
0
  6
CONTINUOUS
 62
1
 10
1174.9
 20
194.4
 40
4.0
 50
270.0
 51
318.6
  0
LINE
  8
0
  6
CONTINUOUS
 62
1
 10
1178.9
 20
242.4
 11
1178.9
 21
204.4
  0
LINE
  8
0
  6
CONTINUOUS
 62
1
 10
1138.9
 20
242.4
 11
1138.9
 21
204.4
  0
ARC
  8
0
  6
CONTINUOUS
 62
1
 10
577.2
 20
241.2
 40
37.0
 50
143.6
 51
81.7
  0
ARC
  8
0
  6
CONTINUOUS
 62
1
 10
577.2
 20
241.2
 40
28.0
 50
151.0
 51
74.8
  0
ARC
  8
0
  6
CONTINUOUS
 62
1
 10
577.2
 20
241.2
 40
40.0
 50
141.9
 51
83.2
  0
ARC
  8
0
  6
CONTINUOUS
 62
1
 10
577.2
 20
241.2
 40
35.0
 50
144.9
 51
80.5
  0
ARC
  8
0
  6
CONTINUOUS
 62
1
 10
577.2
 20
241.2
 40
27.0
 50
152.2
 51
73.7
  0
ARC
  8
0
  6
CONTINUOUS
 62
1
 10
577.2
 20
241.2
 40
18.0
 50
171.0
 51
56.9
  0
ARC
  8
0
  6
CONTINUOUS
 62
1
 10
577.2
 20
241.2
 40
20.0
 50
164.8
 51
62.3
  0
ARC
  8
0
  6
CONTINUOUS
 62
1
 10
577.2
 20
241.2
 40
46.1
 50
139.2
 51
85.7
  0
ARC
  8
0
  6
CONTINUOUS
 62
1
 10
577.2
 20
241.2
 40
44.0
 50
140.0
 51
85.0
  0
ARC
  8
0
  6
CONTINUOUS
 62
1
 10
577.2
 20
241.2
 40
49.9
 50
137.8
 51
87.0
  0
ARC
  8
0
  6
CONTINUOUS
 62
1
 10
577.2
 20
241.2
 40
50.8
 50
137.5
 51
87.2
  0
LINE
  8
0
  6
CONTINUOUS
 62
1
 10
570.7
 20
244.9
 11
577.2
 21
248.7
  0
LINE
  8
0
  6
CONTINUOUS
 62
1
 10
577.2
 20
233.7
 11
570.7
 21
237.4
  0
LINE
  8
0
  6
CONTINUOUS
 62
1
 10
577.2
 20
248.7
 11
583.7
 21
244.9
  0
LINE
  8
0
  6
CONTINUOUS
 62
1
 10
570.7
 20
237.4
 11
570.7
 21
244.9
  0
LINE
  8
0
  6
CONTINUOUS
 62
1
 10
583.7
 20
244.9
 11
583.7
 21
237.4
  0
LINE
  8
0
  6
CONTINUOUS
 62
1
 10
583.7
 20
237.4
 11
577.2
 21
233.7
  0
LINE
  8
0
  6
CONTINUOUS
 62
1
 10
524.1
 20
300.4
 11
524.2
 21
300.3
  0
LINE
  8
0
  6
CONTINUOUS
 62
1
 10
524.2
 20
300.3
 11
524.4
 21
300.0
  0
LINE
  8
0
  6
CONTINUOUS
 62
1
 10
566.0
 20
303.7
 11
577.2
 21
303.7
  0
LINE
  8
0
  6
CONTINUOUS
 62
1
 10
569.9
 20
304.5
 11
564.7
 21
304.5
  0
LINE
  8
0
  6
CONTINUOUS
 62
1
 10
567.2
 20
233.5
 11
560.3
 21
242.4
  0
LINE
  8
0
  6
CONTINUOUS
 62
1
 10
513.9
 20
316.4
 11
573.9
 21
316.4
  0
LINE
  8
0
  6
CONTINUOUS
 62
1
 10
516.9
 20
301.4
 11
560.4
 21
301.4
  0
LINE
  8
0
  6
CONTINUOUS
 62
1
 10
513.9
 20
306.4
 11
573.9
 21
306.4
  0
ARC
  8
0
  6
CONTINUOUS
 62
1
 10
577.2
 20
241.2
 40
12.7
 50
217.5
 51
9.7
  0
LINE
  8
0
  6
CONTINUOUS
 62
1
 10
560.9
 20
241.6
 11
560.9
 21
298.7
  0
LINE
  8
0
  6
CONTINUOUS
 62
1
 10
560.3
 20
242.7
 11
560.3
 21
242.4
  0
LINE
  8
0
  6
CONTINUOUS
 62
1
 10
561.7
 20
300.6
 11
562.2
 21
301.3
  0
LINE
  8
0
  6
CONTINUOUS
 62
1
 10
562.2
 20
301.3
 11
562.9
 21
302.2
  0
LINE
  8
0
  6
CONTINUOUS
 62
1
 10
562.9
 20
302.2
 11
564.2
 21
303.3
  0
LINE
  8
0
  6
CONTINUOUS
 62
1
 10
564.2
 20
303.3
 11
566.0
 21
303.7
  0
LINE
  8
0
  6
CONTINUOUS
 62
1
 10
516.9
 20
301.2
 11
522.6
 21
301.2
  0
LINE
  8
0
  6
CONTINUOUS
 62
1
 10
522.6
 20
301.2
 11
523.0
 21
301.1
  0
LINE
  8
0
  6
CONTINUOUS
 62
1
 10
523.0
 20
301.1
 11
523.4
 21
301.0
  0
LINE
  8
0
  6
CONTINUOUS
 62
1
 10
523.4
 20
301.0
 11
523.8
 21
300.7
  0
LINE
  8
0
  6
CONTINUOUS
 62
1
 10
523.8
 20
300.7
 11
524.1
 21
300.4
  0
LINE
  8
0
  6
CONTINUOUS
 62
1
 10
560.4
 20
301.4
 11
560.1
 21
300.5
  0
LINE
  8
0
  6
CONTINUOUS
 62
1
 10
560.1
 20
300.5
 11
559.8
 21
299.6
  0
LINE
  8
0
  6
CONTINUOUS
 62
1
 10
559.8
 20
299.6
 11
559.8
 21
299.1
  0
LINE
  8
0
  6
CONTINUOUS
 62
1
 10
559.8
 20
299.1
 11
559.8
 21
298.7
  0
LINE
  8
0
  6
CONTINUOUS
 62
1
 10
560.9
 20
298.7
 11
560.9
 21
298.9
  0
LINE
  8
0
  6
CONTINUOUS
 62
1
 10
560.9
 20
298.9
 11
561.0
 21
299.4
  0
LINE
  8
0
  6
CONTINUOUS
 62
1
 10
561.0
 20
299.4
 11
561.2
 21
300.0
  0
LINE
  8
0
  6
CONTINUOUS
 62
1
 10
561.2
 20
300.0
 11
561.7
 21
300.6
  0
LINE
  8
0
  6
CONTINUOUS
 62
1
 10
559.8
 20
298.7
 11
559.8
 21
243.5
  0
LINE
  8
0
  6
CONTINUOUS
 62
1
 10
564.7
 20
304.5
 11
563.0
 21
304.1
  0
LINE
  8
0
  6
CONTINUOUS
 62
1
 10
563.0
 20
304.1
 11
561.7
 21
303.0
  0
LINE
  8
0
  6
CONTINUOUS
 62
1
 10
561.7
 20
303.0
 11
560.9
 21
302.1
  0
LINE
  8
0
  6
CONTINUOUS
 62
1
 10
560.9
 20
302.1
 11
560.4
 21
301.4
  0
ARC
  8
0
  6
CONTINUOUS
 62
1
 10
571.5
 20
305.7
 40
2.0
 50
217.9
 51
270.0
  0
ARC
  8
0
  6
CONTINUOUS
 62
1
 10
565.9
 20
301.4
 40
5.0
 50
37.9
 51
90.0
  0
ARC
  8
0
  6
CONTINUOUS
 62
1
 10
521.9
 20
301.4
 40
5.0
 50
90.0
 51
180.0
  0
LINE
  8
0
  6
CONTINUOUS
 62
1
 10
516.9
 20
301.2
 11
516.9
 21
301.4
  0
LINE
  8
0
  6
CONTINUOUS
 62
1
 10
513.9
 20
306.4
 11
513.9
 21
316.4
  0
LINE
  8
0
  6
CONTINUOUS
 62
1
 10
573.9
 20
306.4
 11
573.9
 21
316.4
  0
LINE
  8
0
  6
CONTINUOUS
 62
1
 10
562.7
 20
327.0
 11
525.2
 21
327.0
  0
LINE
  8
0
  6
CONTINUOUS
 62
1
 10
561.6
 20
330.1
 11
526.3
 21
330.1
  0
LINE
  8
0
  6
CONTINUOUS
 62
1
 10
562.7
 20
329.4
 11
525.2
 21
329.4
  0
LINE
  8
0
  6
CONTINUOUS
 62
1
 10
552.2
 20
317.4
 11
550.2
 21
316.4
  0
LINE
  8
0
  6
CONTINUOUS
 62
1
 10
562.7
 20
326.9
 11
525.2
 21
326.9
  0
LINE
  8
0
  6
CONTINUOUS
 62
1
 10
562.7
 20
330.8
 11
525.2
 21
330.8
  0
LINE
  8
0
  6
CONTINUOUS
 62
1
 10
556.4
 20
317.4
 11
552.2
 21
317.4
  0
LINE
  8
0
  6
CONTINUOUS
 62
1
 10
537.6
 20
316.4
 11
535.6
 21
317.4
  0
LINE
  8
0
  6
CONTINUOUS
 62
1
 10
535.6
 20
317.4
 11
531.4
 21
317.4
  0
LINE
  8
0
  6
CONTINUOUS
 62
1
 10
561.6
 20
327.7
 11
526.3
 21
327.7
  0
LINE
  8
0
  6
CONTINUOUS
 62
1
 10
552.2
 20
326.9
 11
552.2
 21
317.4
  0
LINE
  8
0
  6
CONTINUOUS
 62
1
 10
562.7
 20
328.4
 11
525.2
 21
328.4
  0
LINE
  8
0
  6
CONTINUOUS
 62
1
 10
535.6
 20
317.4
 11
535.6
 21
326.9
  0
LINE
  8
0
  6
CONTINUOUS
 62
1
 10
562.7
 20
329.4
 11
562.7
 21
328.4
  0
LINE
  8
0
  6
CONTINUOUS
 62
1
 10
525.2
 20
329.4
 11
525.2
 21
328.4
  0
LINE
  8
0
  6
CONTINUOUS
 62
1
 10
561.6
 20
327.7
 11
562.7
 21
327.0
  0
LINE
  8
0
  6
CONTINUOUS
 62
1
 10
526.3
 20
327.7
 11
525.2
 21
327.0
  0
LINE
  8
0
  6
CONTINUOUS
 62
1
 10
562.7
 20
331.7
 11
562.7
 21
330.8
  0
LINE
  8
0
  6
CONTINUOUS
 62
1
 10
525.2
 20
331.7
 11
525.2
 21
330.8
  0
LINE
  8
0
  6
CONTINUOUS
 62
1
 10
562.7
 20
327.0
 11
562.7
 21
326.9
  0
LINE
  8
0
  6
CONTINUOUS
 62
1
 10
525.2
 20
327.0
 11
525.2
 21
326.9
  0
LINE
  8
0
  6
CONTINUOUS
 62
1
 10
526.3
 20
330.1
 11
525.2
 21
330.8
  0
LINE
  8
0
  6
CONTINUOUS
 62
1
 10
561.6
 20
330.1
 11
562.7
 21
330.8
  0
LINE
  8
0
  6
CONTINUOUS
 62
1
 10
561.6
 20
330.1
 11
562.7
 21
329.4
  0
LINE
  8
0
  6
CONTINUOUS
 62
1
 10
526.3
 20
330.1
 11
525.2
 21
329.4
  0
LINE
  8
0
  6
CONTINUOUS
 62
1
 10
526.3
 20
327.7
 11
525.2
 21
328.4
  0
LINE
  8
0
  6
CONTINUOUS
 62
1
 10
561.6
 20
327.7
 11
562.7
 21
328.4
  0
LINE
  8
0
  6
CONTINUOUS
 62
1
 10
566.4
 20
331.7
 11
521.4
 21
331.7
  0
LINE
  8
0
  6
CONTINUOUS
 62
1
 10
521.6
 20
336.2
 11
521.6
 21
335.6
  0
LINE
  8
0
  6
CONTINUOUS
 62
1
 10
521.6
 20
335.6
 11
521.6
 21
335.0
  0
LINE
  8
0
  6
CONTINUOUS
 62
1
 10
521.6
 20
335.0
 11
521.6
 21
334.5
  0
LINE
  8
0
  6
CONTINUOUS
 62
1
 10
521.6
 20
334.5
 11
521.5
 21
334.1
  0
LINE
  8
0
  6
CONTINUOUS
 62
1
 10
521.5
 20
334.1
 11
521.5
 21
337.7
  0
LINE
  8
0
  6
CONTINUOUS
 62
1
 10
521.5
 20
337.7
 11
521.5
 21
337.4
  0
LINE
  8
0
  6
CONTINUOUS
 62
1
 10
521.5
 20
337.4
 11
521.4
 21
337.2
  0
LINE
  8
0
  6
CONTINUOUS
 62
1
 10
521.4
 20
337.2
 11
521.4
 21
337.2
  0
LINE
  8
0
  6
CONTINUOUS
 62
1
 10
521.6
 20
338.1
 11
521.6
 21
337.9
  0
LINE
  8
0
  6
CONTINUOUS
 62
1
 10
521.6
 20
337.9
 11
521.6
 21
337.3
  0
LINE
  8
0
  6
CONTINUOUS
 62
1
 10
521.6
 20
337.3
 11
521.6
 21
336.8
  0
LINE
  8
0
  6
CONTINUOUS
 62
1
 10
521.6
 20
336.8
 11
521.6
 21
336.2
  0
LINE
  8
0
  6
CONTINUOUS
 62
1
 10
566.4
 20
338.1
 11
566.4
 21
331.7
  0
LINE
  8
0
  6
CONTINUOUS
 62
1
 10
521.4
 20
337.2
 11
521.4
 21
331.7
  0
LINE
  8
0
  6
CONTINUOUS
 62
1
 10
1201.2
 20
351.9
 11
1228.0
 21
351.9
  0
LINE
  8
0
  6
CONTINUOUS
 62
1
 10
1227.7
 20
348.6
 11
1227.7
 21
330.4
  0
LINE
  8
0
  6
CONTINUOUS
 62
1
 10
1226.0
 20
351.9
 11
1226.0
 21
348.6
  0
ARC
  8
0
  6
CONTINUOUS
 62
1
 10
1226.0
 20
348.6
 40
1.8
 50
0.0
 51
90.0
  0
LINE
  8
0
  6
CONTINUOUS
 62
1
 10
1227.7
 20
335.4
 11
1229.2
 21
335.4
  0
ARC
  8
0
  6
CONTINUOUS
 62
1
 10
1226.0
 20
348.6
 40
3.3
 50
0.0
 51
90.0
  0
LINE
  8
0
  6
CONTINUOUS
 62
1
 10
1226.0
 20
348.6
 11
1201.2
 21
348.6
  0
LINE
  8
0
  6
CONTINUOUS
 62
1
 10
1229.2
 20
348.6
 11
1226.0
 21
348.6
  0
LINE
  8
0
  6
CONTINUOUS
 62
1
 10
1229.2
 20
330.4
 11
1229.2
 21
348.6
  0
LINE
  8
0
  6
CONTINUOUS
 62
1
 10
1222.7
 20
340.4
 11
1201.2
 21
340.4
  0
CIRCLE
  8
0
  6
CONTINUOUS
 62
1
 10
1207.7
 20
345.4
 40
2.8
  0
ARC
  8
0
  6
CONTINUOUS
 62
1
 10
1222.7
 20
345.4
 40
5.0
 50
270.0
 51
0.0
  0
LINE
  8
0
  6
CONTINUOUS
 62
1
 10
1227.7
 20
330.4
 11
1229.2
 21
330.4
  0
LINE
  8
0
  6
CONTINUOUS
 62
1
 10
461.4
 20
434.9
 11
462.6
 21
434.9
  0
LINE
  8
0
  6
CONTINUOUS
 62
1
 10
461.4
 20
486.9
 11
462.6
 21
486.9
  0
LINE
  8
0
  6
CONTINUOUS
 62
1
 10
461.4
 20
481.9
 11
462.6
 21
481.9
  0
LINE
  8
0
  6
CONTINUOUS
 62
1
 10
461.4
 20
429.9
 11
462.6
 21
429.9
  0
LINE
  8
0
  6
CONTINUOUS
 62
1
 10
464.9
 20
1021.2
 11
464.9
 21
1022.4
  0
LINE
  8
0
  6
CONTINUOUS
 62
1
 10
463.4
 20
1024.6
 11
463.4
 21
1023.6
  0
LINE
  8
0
  6
CONTINUOUS
 62
1
 10
463.4
 20
1022.4
 11
463.4
 21
1019.1
  0
LINE
  8
0
  6
CONTINUOUS
 62
1
 10
462.6
 20
396.1
 11
457.2
 21
396.1
  0
LINE
  8
0
  6
CONTINUOUS
 62
1
 10
457.2
 20
396.1
 11
457.2
 21
387.9
  0
LINE
  8
0
  6
CONTINUOUS
 62
1
 10
449.0
 20
377.7
 11
449.0
 21
396.1
  0
LINE
  8
0
  6
CONTINUOUS
 62
1
 10
457.2
 20
387.9
 11
451.6
 21
387.9
  0
LINE
  8
0
  6
CONTINUOUS
 62
1
 10
462.6
 20
394.9
 11
457.2
 21
394.9
  0
LINE
  8
0
  6
CONTINUOUS
 62
1
 10
462.6
 20
385.7
 11
449.0
 21
385.7
  0
LINE
  8
0
  6
CONTINUOUS
 62
1
 10
462.6
 20
378.9
 11
449.0
 21
378.9
  0
LINE
  8
0
  6
CONTINUOUS
 62
1
 10
451.6
 20
388.1
 11
449.0
 21
388.1
  0
LINE
  8
0
  6
CONTINUOUS
 62
1
 10
451.6
 20
394.9
 11
449.0
 21
394.9
  0
LINE
  8
0
  6
CONTINUOUS
 62
1
 10
451.6
 20
396.1
 11
449.0
 21
396.1
  0
LINE
  8
0
  6
CONTINUOUS
 62
1
 10
462.6
 20
377.7
 11
449.0
 21
377.7
  0
LINE
  8
0
  6
CONTINUOUS
 62
1
 10
462.6
 20
388.1
 11
457.2
 21
388.1
  0
LINE
  8
0
  6
CONTINUOUS
 62
1
 10
457.1
 20
389.9
 11
451.9
 21
389.9
  0
LINE
  8
0
  6
CONTINUOUS
 62
1
 10
457.1
 20
393.5
 11
457.1
 21
387.9
  0
LINE
  8
0
  6
CONTINUOUS
 62
1
 10
457.1
 20
392.8
 11
451.9
 21
392.8
  0
LINE
  8
0
  6
CONTINUOUS
 62
1
 10
457.1
 20
393.5
 11
451.9
 21
393.5
  0
ARC
  8
0
  6
CONTINUOUS
 62
1
 10
454.5
 20
388.8
 40
3.1
 50
99.3
 51
118.5
  0
ARC
  8
0
  6
CONTINUOUS
 62
1
 10
454.5
 20
388.8
 40
3.1
 50
61.5
 51
80.7
  0
LINE
  8
0
  6
CONTINUOUS
 62
1
 10
456.0
 20
391.5
 11
456.0
 21
391.5
  0
LINE
  8
0
  6
CONTINUOUS
 62
1
 10
455.0
 20
391.8
 11
455.0
 21
391.5
  0
LINE
  8
0
  6
CONTINUOUS
 62
1
 10
454.0
 20
391.5
 11
454.0
 21
391.8
  0
LINE
  8
0
  6
CONTINUOUS
 62
1
 10
456.8
 20
390.9
 11
452.2
 21
390.9
  0
LINE
  8
0
  6
CONTINUOUS
 62
1
 10
453.0
 20
391.5
 11
453.0
 21
391.5
  0
LINE
  8
0
  6
CONTINUOUS
 62
1
 10
456.8
 20
390.9
 11
457.0
 21
389.9
  0
LINE
  8
0
  6
CONTINUOUS
 62
1
 10
452.2
 20
390.9
 11
452.0
 21
389.9
  0
ARC
  8
0
  6
CONTINUOUS
 62
1
 10
454.5
 20
388.8
 40
3.1
 50
42.9
 51
61.4
  0
ARC
  8
0
  6
CONTINUOUS
 62
1
 10
454.5
 20
388.8
 40
3.1
 50
118.6
 51
137.1
  0
LINE
  8
0
  6
CONTINUOUS
 62
1
 10
457.2
 20
391.9
 11
457.1
 21
391.9
  0
LINE
  8
0
  6
CONTINUOUS
 62
1
 10
452.7
 20
377.7
 11
452.7
 21
376.1
  0
LINE
  8
0
  6
CONTINUOUS
 62
1
 10
446.2
 20
396.1
 11
451.4
 21
396.1
  0
LINE
  8
0
  6
CONTINUOUS
 62
1
 10
451.4
 20
396.1
 11
451.4
 21
396.1
  0
LINE
  8
0
  6
CONTINUOUS
 62
1
 10
452.7
 20
397.6
 11
452.7
 21
393.5
  0
LINE
  8
0
  6
CONTINUOUS
 62
1
 10
446.2
 20
376.1
 11
452.7
 21
376.1
  0
LINE
  8
0
  6
CONTINUOUS
 62
1
 10
446.2
 20
376.1
 11
446.2
 21
377.6
  0
LINE
  8
0
  6
CONTINUOUS
 62
1
 10
446.2
 20
377.6
 11
451.4
 21
377.6
  0
LINE
  8
0
  6
CONTINUOUS
 62
1
 10
446.2
 20
397.6
 11
452.7
 21
397.6
  0
LINE
  8
0
  6
CONTINUOUS
 62
1
 10
451.4
 20
377.6
 11
451.4
 21
377.7
  0
LINE
  8
0
  6
CONTINUOUS
 62
1
 10
446.2
 20
396.1
 11
446.2
 21
397.6
  0
LINE
  8
0
  6
CONTINUOUS
 62
1
 10
452.7
 20
395.0
 11
451.6
 21
395.0
  0
LINE
  8
0
  6
CONTINUOUS
 62
1
 10
445.4
 20
381.9
 11
449.0
 21
381.9
  0
LINE
  8
0
  6
CONTINUOUS
 62
1
 10
446.0
 20
391.7
 11
446.1
 21
391.9
  0
LINE
  8
0
  6
CONTINUOUS
 62
1
 10
446.1
 20
381.9
 11
446.0
 21
382.1
  0
LINE
  8
0
  6
CONTINUOUS
 62
1
 10
445.2
 20
391.7
 11
445.4
 21
391.9
  0
LINE
  8
0
  6
CONTINUOUS
 62
1
 10
445.2
 20
382.1
 11
445.4
 21
381.9
  0
LINE
  8
0
  6
CONTINUOUS
 62
1
 10
403.7
 20
506.5
 11
406.9
 21
507.1
  0
LINE
  8
0
  6
CONTINUOUS
 62
1
 10
406.9
 20
507.1
 11
409.9
 21
507.5
  0
LINE
  8
0
  6
CONTINUOUS
 62
1
 10
409.9
 20
507.5
 11
415.5
 21
507.8
  0
LINE
  8
0
  6
CONTINUOUS
 62
1
 10
415.5
 20
507.8
 11
421.1
 21
507.5
  0
LINE
  8
0
  6
CONTINUOUS
 62
1
 10
421.1
 20
507.5
 11
424.0
 21
507.1
  0
LINE
  8
0
  6
CONTINUOUS
 62
1
 10
424.0
 20
507.1
 11
427.2
 21
506.5
  0
LINE
  8
0
  6
CONTINUOUS
 62
1
 10
379.0
 20
507.9
 11
427.4
 21
507.9
  0
LINE
  8
0
  6
CONTINUOUS
 62
1
 10
379.2
 20
489.5
 11
379.2
 21
506.5
  0
LINE
  8
0
  6
CONTINUOUS
 62
1
 10
427.2
 20
506.5
 11
427.2
 21
489.5
  0
LINE
  8
0
  6
CONTINUOUS
 62
1
 10
379.0
 20
488.1
 11
427.4
 21
488.1
  0
LINE
  8
0
  6
CONTINUOUS
 62
1
 10
379.2
 20
506.5
 11
379.1
 21
506.5
  0
LINE
  8
0
  6
CONTINUOUS
 62
1
 10
379.1
 20
506.5
 11
378.9
 21
506.4
  0
LINE
  8
0
  6
CONTINUOUS
 62
1
 10
378.9
 20
506.4
 11
378.7
 21
506.5
  0
LINE
  8
0
  6
CONTINUOUS
 62
1
 10
378.7
 20
506.5
 11
378.7
 21
506.5
  0
LINE
  8
0
  6
CONTINUOUS
 62
1
 10
427.2
 20
489.5
 11
427.3
 21
489.5
  0
LINE
  8
0
  6
CONTINUOUS
 62
1
 10
427.3
 20
489.5
 11
427.6
 21
489.5
  0
LINE
  8
0
  6
CONTINUOUS
 62
1
 10
427.6
 20
489.5
 11
427.7
 21
489.5
  0
LINE
  8
0
  6
CONTINUOUS
 62
1
 10
427.7
 20
489.5
 11
427.7
 21
489.5
  0
LINE
  8
0
  6
CONTINUOUS
 62
1
 10
402.7
 20
489.5
 11
399.5
 21
488.9
  0
LINE
  8
0
  6
CONTINUOUS
 62
1
 10
399.5
 20
488.9
 11
396.6
 21
488.5
  0
LINE
  8
0
  6
CONTINUOUS
 62
1
 10
396.6
 20
488.5
 11
391.0
 21
488.2
  0
LINE
  8
0
  6
CONTINUOUS
 62
1
 10
391.0
 20
488.2
 11
385.4
 21
488.5
  0
LINE
  8
0
  6
CONTINUOUS
 62
1
 10
385.4
 20
488.5
 11
382.4
 21
488.9
  0
LINE
  8
0
  6
CONTINUOUS
 62
1
 10
382.4
 20
488.9
 11
379.2
 21
489.5
  0
LINE
  8
0
  6
CONTINUOUS
 62
1
 10
379.2
 20
506.5
 11
382.4
 21
507.1
  0
LINE
  8
0
  6
CONTINUOUS
 62
1
 10
382.4
 20
507.1
 11
385.4
 21
507.5
  0
LINE
  8
0
  6
CONTINUOUS
 62
1
 10
385.4
 20
507.5
 11
391.0
 21
507.8
  0
LINE
  8
0
  6
CONTINUOUS
 62
1
 10
391.0
 20
507.8
 11
396.6
 21
507.5
  0
LINE
  8
0
  6
CONTINUOUS
 62
1
 10
396.6
 20
507.5
 11
399.5
 21
507.1
  0
LINE
  8
0
  6
CONTINUOUS
 62
1
 10
399.5
 20
507.1
 11
402.7
 21
506.5
  0
LINE
  8
0
  6
CONTINUOUS
 62
1
 10
403.7
 20
506.5
 11
403.6
 21
506.5
  0
LINE
  8
0
  6
CONTINUOUS
 62
1
 10
403.6
 20
506.5
 11
403.2
 21
506.4
  0
LINE
  8
0
  6
CONTINUOUS
 62
1
 10
403.2
 20
506.4
 11
402.8
 21
506.5
  0
LINE
  8
0
  6
CONTINUOUS
 62
1
 10
402.8
 20
506.5
 11
402.7
 21
506.5
  0
LINE
  8
0
  6
CONTINUOUS
 62
1
 10
378.7
 20
489.5
 11
378.7
 21
489.5
  0
LINE
  8
0
  6
CONTINUOUS
 62
1
 10
378.7
 20
489.5
 11
378.9
 21
489.5
  0
LINE
  8
0
  6
CONTINUOUS
 62
1
 10
378.9
 20
489.5
 11
379.1
 21
489.5
  0
LINE
  8
0
  6
CONTINUOUS
 62
1
 10
379.1
 20
489.5
 11
379.2
 21
489.5
  0
LINE
  8
0
  6
CONTINUOUS
 62
1
 10
403.7
 20
489.5
 11
403.7
 21
506.5
  0
LINE
  8
0
  6
CONTINUOUS
 62
1
 10
402.7
 20
506.5
 11
402.7
 21
489.5
  0
LINE
  8
0
  6
CONTINUOUS
 62
1
 10
402.7
 20
489.5
 11
402.8
 21
489.5
  0
LINE
  8
0
  6
CONTINUOUS
 62
1
 10
402.8
 20
489.5
 11
403.2
 21
489.5
  0
LINE
  8
0
  6
CONTINUOUS
 62
1
 10
403.2
 20
489.5
 11
403.6
 21
489.5
  0
LINE
  8
0
  6
CONTINUOUS
 62
1
 10
403.6
 20
489.5
 11
403.7
 21
489.5
  0
LINE
  8
0
  6
CONTINUOUS
 62
1
 10
427.2
 20
489.5
 11
424.0
 21
488.9
  0
LINE
  8
0
  6
CONTINUOUS
 62
1
 10
424.0
 20
488.9
 11
421.1
 21
488.5
  0
LINE
  8
0
  6
CONTINUOUS
 62
1
 10
421.1
 20
488.5
 11
415.5
 21
488.2
  0
LINE
  8
0
  6
CONTINUOUS
 62
1
 10
415.5
 20
488.2
 11
409.9
 21
488.5
  0
LINE
  8
0
  6
CONTINUOUS
 62
1
 10
409.9
 20
488.5
 11
406.9
 21
488.9
  0
LINE
  8
0
  6
CONTINUOUS
 62
1
 10
406.9
 20
488.9
 11
403.7
 21
489.5
  0
LINE
  8
0
  6
CONTINUOUS
 62
1
 10
427.7
 20
506.5
 11
427.7
 21
506.5
  0
LINE
  8
0
  6
CONTINUOUS
 62
1
 10
427.7
 20
506.5
 11
427.6
 21
506.4
  0
LINE
  8
0
  6
CONTINUOUS
 62
1
 10
427.6
 20
506.4
 11
427.3
 21
506.5
  0
LINE
  8
0
  6
CONTINUOUS
 62
1
 10
427.3
 20
506.5
 11
427.2
 21
506.5
  0
LINE
  8
0
  6
CONTINUOUS
 62
1
 10
379.0
 20
488.1
 11
378.7
 21
488.2
  0
LINE
  8
0
  6
CONTINUOUS
 62
1
 10
427.4
 20
488.1
 11
427.7
 21
488.2
  0
LINE
  8
0
  6
CONTINUOUS
 62
1
 10
427.4
 20
507.9
 11
427.7
 21
507.8
  0
LINE
  8
0
  6
CONTINUOUS
 62
1
 10
379.0
 20
507.9
 11
378.7
 21
507.8
  0
LINE
  8
0
  6
CONTINUOUS
 62
1
 10
389.3
 20
507.9
 11
389.3
 21
521.4
  0
LINE
  8
0
  6
CONTINUOUS
 62
1
 10
387.7
 20
522.4
 11
418.7
 21
522.4
  0
LINE
  8
0
  6
CONTINUOUS
 62
1
 10
418.9
 20
507.9
 11
418.9
 21
522.3
  0
LINE
  8
0
  6
CONTINUOUS
 62
1
 10
417.2
 20
521.4
 11
417.2
 21
507.9
  0
LINE
  8
0
  6
CONTINUOUS
 62
1
 10
401.5
 20
521.4
 11
401.5
 21
507.9
  0
LINE
  8
0
  6
CONTINUOUS
 62
1
 10
405.0
 20
521.4
 11
408.1
 21
522.1
  0
LINE
  8
0
  6
CONTINUOUS
 62
1
 10
408.1
 20
522.1
 11
411.1
 21
522.3
  0
LINE
  8
0
  6
CONTINUOUS
 62
1
 10
411.1
 20
522.3
 11
414.0
 21
522.1
  0
LINE
  8
0
  6
CONTINUOUS
 62
1
 10
414.0
 20
522.1
 11
417.2
 21
521.4
  0
LINE
  8
0
  6
CONTINUOUS
 62
1
 10
405.0
 20
507.9
 11
405.0
 21
521.4
  0
LINE
  8
0
  6
CONTINUOUS
 62
1
 10
418.9
 20
521.4
 11
418.9
 21
521.4
  0
LINE
  8
0
  6
CONTINUOUS
 62
1
 10
418.9
 20
521.4
 11
418.8
 21
521.2
  0
LINE
  8
0
  6
CONTINUOUS
 62
1
 10
418.8
 20
521.2
 11
418.5
 21
521.2
  0
LINE
  8
0
  6
CONTINUOUS
 62
1
 10
418.5
 20
521.2
 11
418.0
 21
521.2
  0
LINE
  8
0
  6
CONTINUOUS
 62
1
 10
418.0
 20
521.2
 11
417.4
 21
521.4
  0
LINE
  8
0
  6
CONTINUOUS
 62
1
 10
417.4
 20
521.4
 11
417.2
 21
521.4
  0
LINE
  8
0
  6
CONTINUOUS
 62
1
 10
389.3
 20
521.4
 11
389.1
 21
521.4
  0
LINE
  8
0
  6
CONTINUOUS
 62
1
 10
389.1
 20
521.4
 11
388.5
 21
521.2
  0
LINE
  8
0
  6
CONTINUOUS
 62
1
 10
388.5
 20
521.2
 11
388.0
 21
521.2
  0
LINE
  8
0
  6
CONTINUOUS
 62
1
 10
388.0
 20
521.2
 11
387.7
 21
521.2
  0
LINE
  8
0
  6
CONTINUOUS
 62
1
 10
387.7
 20
521.2
 11
387.5
 21
521.4
  0
LINE
  8
0
  6
CONTINUOUS
 62
1
 10
387.5
 20
521.4
 11
387.5
 21
521.4
  0
LINE
  8
0
  6
CONTINUOUS
 62
1
 10
389.3
 20
521.4
 11
392.4
 21
522.1
  0
LINE
  8
0
  6
CONTINUOUS
 62
1
 10
392.4
 20
522.1
 11
395.4
 21
522.3
  0
LINE
  8
0
  6
CONTINUOUS
 62
1
 10
395.4
 20
522.3
 11
398.3
 21
522.1
  0
LINE
  8
0
  6
CONTINUOUS
 62
1
 10
398.3
 20
522.1
 11
401.5
 21
521.4
  0
LINE
  8
0
  6
CONTINUOUS
 62
1
 10
405.0
 20
521.4
 11
404.8
 21
521.4
  0
LINE
  8
0
  6
CONTINUOUS
 62
1
 10
404.8
 20
521.4
 11
404.0
 21
521.2
  0
LINE
  8
0
  6
CONTINUOUS
 62
1
 10
404.0
 20
521.2
 11
403.2
 21
521.2
  0
LINE
  8
0
  6
CONTINUOUS
 62
1
 10
403.2
 20
521.2
 11
402.4
 21
521.2
  0
LINE
  8
0
  6
CONTINUOUS
 62
1
 10
402.4
 20
521.2
 11
401.7
 21
521.4
  0
LINE
  8
0
  6
CONTINUOUS
 62
1
 10
401.7
 20
521.4
 11
401.5
 21
521.4
  0
LINE
  8
0
  6
CONTINUOUS
 62
1
 10
418.7
 20
522.4
 11
418.9
 21
522.3
  0
LINE
  8
0
  6
CONTINUOUS
 62
1
 10
387.7
 20
522.4
 11
387.5
 21
522.3
  0
LINE
  8
0
  6
CONTINUOUS
 62
1
 10
384.1
 20
483.1
 11
422.4
 21
483.1
  0
LINE
  8
0
  6
CONTINUOUS
 62
1
 10
383.7
 20
486.9
 11
422.7
 21
486.9
  0
LINE
  8
0
  6
CONTINUOUS
 62
1
 10
382.8
 20
487.9
 11
423.6
 21
487.9
  0
LINE
  8
0
  6
CONTINUOUS
 62
1
 10
436.2
 20
444.2
 11
436.2
 21
476.6
  0
LINE
  8
0
  6
CONTINUOUS
 62
1
 10
431.2
 20
476.7
 11
431.2
 21
444.0
  0
LINE
  8
0
  6
CONTINUOUS
 62
1
 10
419.6
 20
480.4
 11
386.9
 21
480.4
  0
LINE
  8
0
  6
CONTINUOUS
 62
1
 10
383.7
 20
485.3
 11
422.7
 21
485.3
  0
LINE
  8
0
  6
CONTINUOUS
 62
1
 10
383.7
 20
487.3
 11
422.7
 21
487.3
  0
LINE
  8
0
  6
CONTINUOUS
 62
1
 10
383.7
 20
484.9
 11
422.7
 21
484.9
  0
LINE
  8
0
  6
CONTINUOUS
 62
1
 10
382.8
 20
485.9
 11
423.6
 21
485.9
  0
LINE
  8
0
  6
CONTINUOUS
 62
1
 10
423.2
 20
476.7
 11
423.2
 21
444.0
  0
LINE
  8
0
  6
CONTINUOUS
 62
1
 10
382.8
 20
484.3
 11
423.6
 21
484.3
  0
LINE
  8
0
  6
CONTINUOUS
 62
1
 10
384.0
 20
483.1
 11
422.5
 21
483.1
  0
LINE
  8
0
  6
CONTINUOUS
 62
1
 10
382.8
 20
486.3
 11
423.6
 21
486.3
  0
LINE
  8
0
  6
CONTINUOUS
 62
1
 10
382.8
 20
483.9
 11
423.6
 21
483.9
  0
ARC
  8
0
  6
CONTINUOUS
 62
1
 10
422.4
 20
483.3
 40
0.2
 50
270.0
 51
303.7
  0
ARC
  8
0
  6
CONTINUOUS
 62
1
 10
384.1
 20
483.3
 40
0.3
 50
236.3
 51
270.0
  0
ARC
  8
0
  6
CONTINUOUS
 62
1
 10
423.2
 20
480.4
 40
36.3
 50
180.0
 51
270.0
  0
ARC
  8
0
  6
CONTINUOUS
 62
1
 10
423.2
 20
480.4
 40
3.7
 50
180.0
 51
270.0
  0
ARC
  8
0
  6
CONTINUOUS
 62
1
 10
433.7
 20
476.6
 40
2.5
 50
0.0
 51
180.0
  0
ARC
  8
0
  6
CONTINUOUS
 62
1
 10
433.7
 20
444.2
 40
2.5
 50
180.0
 51
0.0
  0
ARC
  8
0
  6
CONTINUOUS
 62
1
 10
423.5
 20
488.1
 40
0.3
 50
303.7
 51
0.0
  0
ARC
  8
0
  6
CONTINUOUS
 62
1
 10
383.0
 20
488.1
 40
0.2
 50
180.0
 51
236.3
  0
LINE
  8
0
  6
CONTINUOUS
 62
1
 10
431.2
 20
444.0
 11
423.2
 21
444.0
  0
LINE
  8
0
  6
CONTINUOUS
 62
1
 10
431.2
 20
476.7
 11
423.2
 21
476.7
  0
LINE
  8
0
  6
CONTINUOUS
 62
1
 10
386.9
 20
480.4
 11
386.9
 21
483.1
  0
LINE
  8
0
  6
CONTINUOUS
 62
1
 10
419.6
 20
480.4
 11
419.6
 21
483.1
  0
ARC
  8
0
  6
CONTINUOUS
 62
1
 10
423.5
 20
486.1
 40
0.3
 50
303.7
 51
56.3
  0
ARC
  8
0
  6
CONTINUOUS
 62
1
 10
383.0
 20
486.1
 40
0.2
 50
123.7
 51
236.3
  0
LINE
  8
0
  6
CONTINUOUS
 62
1
 10
422.7
 20
486.9
 11
423.6
 21
486.3
  0
LINE
  8
0
  6
CONTINUOUS
 62
1
 10
383.7
 20
486.9
 11
382.8
 21
486.3
  0
ARC
  8
0
  6
CONTINUOUS
 62
1
 10
422.9
 20
487.1
 40
0.2
 50
123.7
 51
236.3
  0
ARC
  8
0
  6
CONTINUOUS
 62
1
 10
383.6
 20
487.1
 40
0.3
 50
303.7
 51
56.3
  0
LINE
  8
0
  6
CONTINUOUS
 62
1
 10
383.7
 20
487.3
 11
382.8
 21
487.9
  0
LINE
  8
0
  6
CONTINUOUS
 62
1
 10
422.7
 20
487.3
 11
423.6
 21
487.9
  0
ARC
  8
0
  6
CONTINUOUS
 62
1
 10
422.9
 20
485.1
 40
0.2
 50
123.7
 51
236.3
  0
ARC
  8
0
  6
CONTINUOUS
 62
1
 10
383.6
 20
485.1
 40
0.3
 50
303.7
 51
56.3
  0
LINE
  8
0
  6
CONTINUOUS
 62
1
 10
383.7
 20
485.3
 11
382.8
 21
485.9
  0
LINE
  8
0
  6
CONTINUOUS
 62
1
 10
422.7
 20
485.3
 11
423.6
 21
485.9
  0
ARC
  8
0
  6
CONTINUOUS
 62
1
 10
423.5
 20
484.1
 40
0.3
 50
303.7
 51
56.3
  0
ARC
  8
0
  6
CONTINUOUS
 62
1
 10
383.0
 20
484.1
 40
0.2
 50
123.7
 51
236.3
  0
LINE
  8
0
  6
CONTINUOUS
 62
1
 10
384.0
 20
483.1
 11
382.8
 21
483.9
  0
LINE
  8
0
  6
CONTINUOUS
 62
1
 10
422.5
 20
483.1
 11
423.6
 21
483.9
  0
LINE
  8
0
  6
CONTINUOUS
 62
1
 10
422.7
 20
484.9
 11
423.6
 21
484.3
  0
LINE
  8
0
  6
CONTINUOUS
 62
1
 10
383.7
 20
484.9
 11
382.8
 21
484.3
  0
LINE
  8
0
  6
CONTINUOUS
 62
1
 10
459.9
 20
890.4
 11
460.3
 21
890.3
  0
LINE
  8
0
  6
CONTINUOUS
 62
1
 10
460.3
 20
890.3
 11
460.6
 21
890.1
  0
LINE
  8
0
  6
CONTINUOUS
 62
1
 10
460.6
 20
890.1
 11
460.9
 21
889.8
  0
LINE
  8
0
  6
CONTINUOUS
 62
1
 10
460.9
 20
889.8
 11
460.9
 21
889.4
  0
LINE
  8
0
  6
CONTINUOUS
 62
1
 10
460.9
 20
854.4
 11
462.6
 21
854.4
  0
LINE
  8
0
  6
CONTINUOUS
 62
1
 10
460.9
 20
856.4
 11
462.6
 21
856.4
  0
LINE
  8
0
  6
CONTINUOUS
 62
1
 10
390.2
 20
890.4
 11
390.2
 21
892.4
  0
LINE
  8
0
  6
CONTINUOUS
 62
1
 10
460.9
 20
889.4
 11
460.9
 21
854.4
  0
LINE
  8
0
  6
CONTINUOUS
 62
1
 10
370.2
 20
890.4
 11
459.9
 21
890.4
  0
LINE
  8
0
  6
CONTINUOUS
 62
1
 10
459.9
 20
892.4
 11
370.2
 21
892.4
  0
ARC
  8
0
  6
CONTINUOUS
 62
1
 10
459.9
 20
889.4
 40
3.0
 50
25.8
 51
90.0
  0
LINE
  8
0
  6
CONTINUOUS
 62
1
 10
462.6
 20
888.4
 11
460.9
 21
888.4
  0
LINE
  8
0
  6
CONTINUOUS
 62
1
 10
462.6
 20
890.4
 11
459.9
 21
890.4
  0
LINE
  8
0
  6
CONTINUOUS
 62
1
 10
419.9
 20
890.4
 11
419.9
 21
892.4
  0
LINE
  8
0
  6
CONTINUOUS
 62
1
 10
382.7
 20
890.4
 11
382.7
 21
892.4
  0
LINE
  8
0
  6
CONTINUOUS
 62
1
 10
421.9
 20
890.4
 11
421.9
 21
892.4
  0
LINE
  8
0
  6
CONTINUOUS
 62
1
 10
423.9
 20
890.4
 11
423.9
 21
892.4
  0
LINE
  8
0
  6
CONTINUOUS
 62
1
 10
372.5
 20
890.4
 11
372.5
 21
892.4
  0
LINE
  8
0
  6
CONTINUOUS
 62
1
 10
460.9
 20
886.4
 11
462.6
 21
886.4
  0
LINE
  8
0
  6
CONTINUOUS
 62
1
 10
370.2
 20
890.4
 11
370.2
 21
892.4
  0
LINE
  8
0
  6
CONTINUOUS
 62
1
 10
383.2
 20
894.4
 11
423.2
 21
894.4
  0
LINE
  8
0
  6
CONTINUOUS
 62
1
 10
406.7
 20
892.4
 11
406.7
 21
894.4
  0
LINE
  8
0
  6
CONTINUOUS
 62
1
 10
383.2
 20
892.4
 11
383.2
 21
894.4
  0
LINE
  8
0
  6
CONTINUOUS
 62
1
 10
399.7
 20
892.4
 11
399.7
 21
894.4
  0
LINE
  8
0
  6
CONTINUOUS
 62
1
 10
411.7
 20
892.4
 11
411.7
 21
894.4
  0
LINE
  8
0
  6
CONTINUOUS
 62
1
 10
409.2
 20
892.4
 11
409.2
 21
894.4
  0
LINE
  8
0
  6
CONTINUOUS
 62
1
 10
423.2
 20
892.4
 11
423.2
 21
894.4
  0
LINE
  8
0
  6
CONTINUOUS
 62
1
 10
397.2
 20
892.4
 11
397.2
 21
894.4
  0
LINE
  8
0
  6
CONTINUOUS
 62
1
 10
393.2
 20
892.4
 11
393.2
 21
894.4
  0
LINE
  8
0
  6
CONTINUOUS
 62
1
 10
394.7
 20
892.4
 11
394.7
 21
894.4
  0
LINE
  8
0
  6
CONTINUOUS
 62
1
 10
413.2
 20
892.4
 11
413.2
 21
894.4
  0
LINE
  8
0
  6
CONTINUOUS
 62
1
 10
457.5
 20
447.1
 11
457.5
 21
473.7
  0
LINE
  8
0
  6
CONTINUOUS
 62
1
 10
440.3
 20
450.6
 11
440.3
 21
470.2
  0
LINE
  8
0
  6
CONTINUOUS
 62
1
 10
456.0
 20
447.9
 11
456.0
 21
472.9
  0
LINE
  8
0
  6
CONTINUOUS
 62
1
 10
441.4
 20
449.3
 11
441.4
 21
471.5
  0
LINE
  8
0
  6
CONTINUOUS
 62
1
 10
455.5
 20
447.0
 11
455.5
 21
473.8
  0
LINE
  8
0
  6
CONTINUOUS
 62
1
 10
438.0
 20
450.0
 11
438.0
 21
470.8
  0
LINE
  8
0
  6
CONTINUOUS
 62
1
 10
451.7
 20
475.0
 11
443.2
 21
475.0
  0
LINE
  8
0
  6
CONTINUOUS
 62
1
 10
454.4
 20
447.8
 11
454.4
 21
473.0
  0
LINE
  8
0
  6
CONTINUOUS
 62
1
 10
451.7
 20
460.9
 11
443.2
 21
460.9
  0
LINE
  8
0
  6
CONTINUOUS
 62
1
 10
443.2
 20
445.7
 11
451.7
 21
445.7
  0
LINE
  8
0
  6
CONTINUOUS
 62
1
 10
439.0
 20
450.7
 11
439.0
 21
470.1
  0
LINE
  8
0
  6
CONTINUOUS
 62
1
 10
443.2
 20
445.7
 11
443.2
 21
475.0
  0
LINE
  8
0
  6
CONTINUOUS
 62
1
 10
454.0
 20
447.7
 11
454.0
 21
473.1
  0
LINE
  8
0
  6
CONTINUOUS
 62
1
 10
452.2
 20
446.4
 11
452.2
 21
474.4
  0
LINE
  8
0
  6
CONTINUOUS
 62
1
 10
441.2
 20
449.5
 11
441.2
 21
471.3
  0
LINE
  8
0
  6
CONTINUOUS
 62
1
 10
451.7
 20
475.0
 11
451.7
 21
445.7
  0
LINE
  8
0
  6
CONTINUOUS
 62
1
 10
443.2
 20
474.5
 11
451.7
 21
474.5
  0
LINE
  8
0
  6
CONTINUOUS
 62
1
 10
458.0
 20
448.0
 11
458.0
 21
472.8
  0
LINE
  8
0
  6
CONTINUOUS
 62
1
 10
443.2
 20
459.9
 11
451.7
 21
459.9
  0
LINE
  8
0
  6
CONTINUOUS
 62
1
 10
457.0
 20
447.1
 11
457.0
 21
473.7
  0
LINE
  8
0
  6
CONTINUOUS
 62
1
 10
451.7
 20
446.2
 11
443.2
 21
446.2
  0
LINE
  8
0
  6
CONTINUOUS
 62
1
 10
439.4
 20
449.9
 11
439.4
 21
470.9
  0
LINE
  8
0
  6
CONTINUOUS
 62
1
 10
459.4
 20
450.4
 11
459.4
 21
451.8
  0
LINE
  8
0
  6
CONTINUOUS
 62
1
 10
459.4
 20
469.0
 11
459.4
 21
470.4
  0
LINE
  8
0
  6
CONTINUOUS
 62
1
 10
456.4
 20
447.9
 11
456.4
 21
472.9
  0
LINE
  8
0
  6
CONTINUOUS
 62
1
 10
459.0
 20
450.2
 11
459.0
 21
452.0
  0
LINE
  8
0
  6
CONTINUOUS
 62
1
 10
459.0
 20
468.8
 11
459.0
 21
470.6
  0
LINE
  8
0
  6
CONTINUOUS
 62
1
 10
438.6
 20
450.7
 11
438.6
 21
470.1
  0
LINE
  8
0
  6
CONTINUOUS
 62
1
 10
453.3
 20
446.6
 11
453.3
 21
474.2
  0
LINE
  8
0
  6
CONTINUOUS
 62
1
 10
436.3
 20
450.2
 11
436.3
 21
470.6
  0
LINE
  8
0
  6
CONTINUOUS
 62
1
 10
439.8
 20
449.8
 11
439.8
 21
470.9
  0
LINE
  8
0
  6
CONTINUOUS
 62
1
 10
455.0
 20
446.9
 11
455.0
 21
473.9
  0
LINE
  8
0
  6
CONTINUOUS
 62
1
 10
442.3
 20
449.2
 11
442.3
 21
471.6
  0
LINE
  8
0
  6
CONTINUOUS
 62
1
 10
453.1
 20
446.5
 11
453.1
 21
474.3
  0
LINE
  8
0
  6
CONTINUOUS
 62
1
 10
437.6
 20
450.0
 11
437.6
 21
470.7
  0
LINE
  8
0
  6
CONTINUOUS
 62
1
 10
440.7
 20
450.5
 11
440.7
 21
470.3
  0
LINE
  8
0
  6
CONTINUOUS
 62
1
 10
436.8
 20
450.9
 11
436.8
 21
469.9
  0
LINE
  8
0
  6
CONTINUOUS
 62
1
 10
437.3
 20
450.8
 11
437.3
 21
469.9
  0
ARC
  8
0
  6
CONTINUOUS
 62
1
 10
441.5
 20
471.2
 40
0.3
 50
95.4
 51
155.1
  0
ARC
  8
0
  6
CONTINUOUS
 62
1
 10
441.5
 20
449.6
 40
0.3
 50
204.9
 51
264.6
  0
ARC
  8
0
  6
CONTINUOUS
 62
1
 10
437.0
 20
470.0
 40
0.2
 50
215.7
 51
335.1
  0
ARC
  8
0
  6
CONTINUOUS
 62
1
 10
437.0
 20
450.7
 40
0.2
 50
24.9
 51
144.3
  0
LINE
  8
0
  6
CONTINUOUS
 62
1
 10
456.0
 20
447.9
 11
455.5
 21
447.0
  0
LINE
  8
0
  6
CONTINUOUS
 62
1
 10
456.0
 20
472.9
 11
455.5
 21
473.8
  0
LINE
  8
0
  6
CONTINUOUS
 62
1
 10
441.4
 20
471.5
 11
442.3
 21
471.6
  0
LINE
  8
0
  6
CONTINUOUS
 62
1
 10
441.4
 20
449.3
 11
442.3
 21
449.2
  0
ARC
  8
0
  6
CONTINUOUS
 62
1
 10
453.1
 20
474.0
 40
0.3
 50
29.9
 51
86.2
  0
ARC
  8
0
  6
CONTINUOUS
 62
1
 10
453.1
 20
446.7
 40
0.3
 50
273.8
 51
330.1
  0
ARC
  8
0
  6
CONTINUOUS
 62
1
 10
436.1
 20
470.5
 40
0.3
 50
35.7
 51
59.0
  0
ARC
  8
0
  6
CONTINUOUS
 62
1
 10
436.1
 20
450.3
 40
0.2
 50
301.0
 51
324.3
  0
ARC
  8
0
  6
CONTINUOUS
 62
1
 10
438.8
 20
470.2
 40
0.2
 50
215.7
 51
335.1
  0
ARC
  8
0
  6
CONTINUOUS
 62
1
 10
438.8
 20
450.6
 40
0.3
 50
24.9
 51
144.3
  0
ARC
  8
0
  6
CONTINUOUS
 62
1
 10
458.2
 20
472.9
 40
0.2
 50
209.9
 51
278.9
  0
ARC
  8
0
  6
CONTINUOUS
 62
1
 10
458.2
 20
447.9
 40
0.2
 50
81.1
 51
150.1
  0
LINE
  8
0
  6
CONTINUOUS
 62
1
 10
454.4
 20
473.0
 11
455.0
 21
473.9
  0
LINE
  8
0
  6
CONTINUOUS
 62
1
 10
454.4
 20
447.8
 11
455.0
 21
446.9
  0
LINE
  8
0
  6
CONTINUOUS
 62
1
 10
436.8
 20
450.9
 11
436.3
 21
450.2
  0
LINE
  8
0
  6
CONTINUOUS
 62
1
 10
436.8
 20
469.9
 11
436.3
 21
470.6
  0
ARC
  8
0
  6
CONTINUOUS
 62
1
 10
437.8
 20
470.6
 40
0.2
 50
35.7
 51
155.1
  0
ARC
  8
0
  6
CONTINUOUS
 62
1
 10
437.8
 20
450.2
 40
0.2
 50
204.9
 51
324.3
  0
ARC
  8
0
  6
CONTINUOUS
 62
1
 10
439.6
 20
470.8
 40
0.3
 50
35.7
 51
155.1
  0
ARC
  8
0
  6
CONTINUOUS
 62
1
 10
439.6
 20
450.0
 40
0.2
 50
204.9
 51
324.3
  0
ARC
  8
0
  6
CONTINUOUS
 62
1
 10
442.2
 20
472.6
 40
1.0
 50
275.4
 51
0.0
  0
ARC
  8
0
  6
CONTINUOUS
 62
1
 10
442.2
 20
448.2
 40
1.0
 50
0.0
 51
84.6
  0
ARC
  8
0
  6
CONTINUOUS
 62
1
 10
454.2
 20
473.2
 40
0.3
 50
209.9
 51
322.5
  0
ARC
  8
0
  6
CONTINUOUS
 62
1
 10
454.2
 20
447.6
 40
0.2
 50
37.5
 51
150.1
  0
LINE
  8
0
  6
CONTINUOUS
 62
1
 10
438.6
 20
450.7
 11
438.0
 21
450.0
  0
LINE
  8
0
  6
CONTINUOUS
 62
1
 10
438.6
 20
470.1
 11
438.0
 21
470.8
  0
ARC
  8
0
  6
CONTINUOUS
 62
1
 10
452.2
 20
474.9
 40
0.5
 50
180.0
 51
266.2
  0
ARC
  8
0
  6
CONTINUOUS
 62
1
 10
452.2
 20
445.9
 40
0.5
 50
93.8
 51
180.0
  0
LINE
  8
0
  6
CONTINUOUS
 62
1
 10
437.3
 20
469.9
 11
437.6
 21
470.7
  0
LINE
  8
0
  6
CONTINUOUS
 62
1
 10
437.3
 20
450.8
 11
437.6
 21
450.0
  0
ARC
  8
0
  6
CONTINUOUS
 62
1
 10
456.2
 20
473.0
 40
0.2
 50
209.9
 51
322.5
  0
ARC
  8
0
  6
CONTINUOUS
 62
1
 10
456.2
 20
447.7
 40
0.2
 50
37.5
 51
150.1
  0
ARC
  8
0
  6
CONTINUOUS
 62
1
 10
440.5
 20
470.4
 40
0.3
 50
215.7
 51
335.1
  0
ARC
  8
0
  6
CONTINUOUS
 62
1
 10
440.5
 20
450.4
 40
0.2
 50
24.9
 51
144.3
  0
LINE
  8
0
  6
CONTINUOUS
 62
1
 10
439.0
 20
470.1
 11
439.4
 21
470.9
  0
LINE
  8
0
  6
CONTINUOUS
 62
1
 10
439.0
 20
450.7
 11
439.4
 21
449.9
  0
ARC
  8
0
  6
CONTINUOUS
 62
1
 10
455.2
 20
473.7
 40
0.2
 50
29.9
 51
142.5
  0
ARC
  8
0
  6
CONTINUOUS
 62
1
 10
455.2
 20
447.1
 40
0.3
 50
217.5
 51
330.1
  0
LINE
  8
0
  6
CONTINUOUS
 62
1
 10
453.1
 20
446.5
 11
452.2
 21
446.4
  0
LINE
  8
0
  6
CONTINUOUS
 62
1
 10
453.1
 20
474.3
 11
452.2
 21
474.4
  0
LINE
  8
0
  6
CONTINUOUS
 62
1
 10
440.7
 20
470.3
 11
441.2
 21
471.3
  0
LINE
  8
0
  6
CONTINUOUS
 62
1
 10
440.7
 20
450.5
 11
441.2
 21
449.5
  0
LINE
  8
0
  6
CONTINUOUS
 62
1
 10
458.0
 20
448.0
 11
457.5
 21
447.1
  0
LINE
  8
0
  6
CONTINUOUS
 62
1
 10
458.0
 20
472.8
 11
457.5
 21
473.7
  0
LINE
  8
0
  6
CONTINUOUS
 62
1
 10
456.4
 20
472.9
 11
457.0
 21
473.7
  0
LINE
  8
0
  6
CONTINUOUS
 62
1
 10
456.4
 20
447.9
 11
457.0
 21
447.1
  0
LINE
  8
0
  6
CONTINUOUS
 62
1
 10
440.3
 20
450.6
 11
439.8
 21
449.8
  0
LINE
  8
0
  6
CONTINUOUS
 62
1
 10
440.3
 20
470.2
 11
439.8
 21
470.9
  0
LINE
  8
0
  6
CONTINUOUS
 62
1
 10
454.0
 20
447.7
 11
453.3
 21
446.6
  0
LINE
  8
0
  6
CONTINUOUS
 62
1
 10
454.0
 20
473.1
 11
453.3
 21
474.2
  0
ARC
  8
0
  6
CONTINUOUS
 62
1
 10
457.2
 20
473.6
 40
0.3
 50
29.9
 51
142.5
  0
ARC
  8
0
  6
CONTINUOUS
 62
1
 10
457.2
 20
447.2
 40
0.2
 50
217.5
 51
330.1
  0
LINE
  8
0
  6
CONTINUOUS
 62
1
 10
416.7
 20
928.4
 11
389.8
 21
928.4
  0
LINE
  8
0
  6
CONTINUOUS
 62
1
 10
416.7
 20
529.4
 11
389.8
 21
529.4
  0
LINE
  8
0
  6
CONTINUOUS
 62
1
 10
389.9
 20
522.4
 11
389.8
 21
529.4
  0
LINE
  8
0
  6
CONTINUOUS
 62
1
 10
416.5
 20
522.4
 11
416.7
 21
529.4
  0
LINE
  8
0
  6
CONTINUOUS
 62
1
 10
416.5
 20
935.4
 11
416.7
 21
928.4
  0
LINE
  8
0
  6
CONTINUOUS
 62
1
 10
389.9
 20
935.4
 11
389.8
 21
928.4
  0
LINE
  8
0
  6
CONTINUOUS
 62
1
 10
416.7
 20
928.4
 11
416.7
 21
894.4
  0
LINE
  8
0
  6
CONTINUOUS
 62
1
 10
416.7
 20
890.4
 11
416.7
 21
529.4
  0
LINE
  8
0
  6
CONTINUOUS
 62
1
 10
389.8
 20
928.4
 11
389.8
 21
894.4
  0
LINE
  8
0
  6
CONTINUOUS
 62
1
 10
389.8
 20
890.4
 11
389.8
 21
529.4
  0
LINE
  8
0
  6
CONTINUOUS
 62
1
 10
384.0
 20
940.4
 11
422.5
 21
940.4
  0
LINE
  8
0
  6
CONTINUOUS
 62
1
 10
420.7
 20
941.4
 11
385.7
 21
941.4
  0
LINE
  8
0
  6
CONTINUOUS
 62
1
 10
422.5
 20
935.9
 11
384.0
 21
935.9
  0
LINE
  8
0
  6
CONTINUOUS
 62
1
 10
384.5
 20
935.4
 11
422.0
 21
935.4
  0
LINE
  8
0
  6
CONTINUOUS
 62
1
 10
420.7
 20
962.4
 11
385.7
 21
962.4
  0
LINE
  8
0
  6
CONTINUOUS
 62
1
 10
422.0
 20
940.9
 11
384.5
 21
940.9
  0
ARC
  8
0
  6
CONTINUOUS
 62
1
 10
403.2
 20
987.4
 40
17.5
 50
0.0
 51
180.0
  0
ARC
  8
0
  6
CONTINUOUS
 62
1
 10
422.0
 20
935.9
 40
0.5
 50
270.0
 51
0.0
  0
ARC
  8
0
  6
CONTINUOUS
 62
1
 10
384.5
 20
935.9
 40
0.5
 50
180.0
 51
270.0
  0
LINE
  8
0
  6
CONTINUOUS
 62
1
 10
384.0
 20
935.9
 11
384.0
 21
940.4
  0
LINE
  8
0
  6
CONTINUOUS
 62
1
 10
422.5
 20
935.9
 11
422.5
 21
940.4
  0
ARC
  8
0
  6
CONTINUOUS
 62
1
 10
385.2
 20
941.4
 40
0.5
 50
270.0
 51
0.0
  0
ARC
  8
0
  6
CONTINUOUS
 62
1
 10
421.2
 20
941.4
 40
0.5
 50
180.0
 51
270.0
  0
ARC
  8
0
  6
CONTINUOUS
 62
1
 10
384.5
 20
940.4
 40
0.5
 50
90.0
 51
180.0
  0
ARC
  8
0
  6
CONTINUOUS
 62
1
 10
422.0
 20
940.4
 40
0.5
 50
0.0
 51
90.0
  0
LINE
  8
0
  6
CONTINUOUS
 62
1
 10
1228.2
 20
848.6
 11
1223.2
 21
848.6
  0
LINE
  8
0
  6
CONTINUOUS
 62
1
 10
1216.2
 20
848.6
 11
1211.2
 21
848.6
  0
LINE
  8
0
  6
CONTINUOUS
 62
1
 10
1210.0
 20
848.4
 11
1228.9
 21
848.4
  0
LINE
  8
0
  6
CONTINUOUS
 62
1
 10
1226.2
 20
844.8
 11
1226.2
 21
844.9
  0
LINE
  8
0
  6
CONTINUOUS
 62
1
 10
1211.5
 20
848.4
 11
1211.2
 21
848.6
  0
LINE
  8
0
  6
CONTINUOUS
 62
1
 10
1228.0
 20
848.4
 11
1228.2
 21
848.6
  0
LINE
  8
0
  6
CONTINUOUS
 62
1
 10
1211.2
 20
848.6
 11
1211.2
 21
848.9
  0
LINE
  8
0
  6
CONTINUOUS
 62
1
 10
1228.2
 20
848.6
 11
1228.2
 21
848.9
  0
LINE
  8
0
  6
CONTINUOUS
 62
1
 10
1228.0
 20
354.4
 11
1210.0
 21
354.4
  0
LINE
  8
0
  6
CONTINUOUS
 62
1
 10
1211.2
 20
354.1
 11
1228.2
 21
354.1
  0
LINE
  8
0
  6
CONTINUOUS
 62
1
 10
1222.4
 20
361.6
 11
1222.5
 21
361.6
  0
LINE
  8
0
  6
CONTINUOUS
 62
1
 10
1228.2
 20
352.1
 11
1211.2
 21
352.1
  0
LINE
  8
0
  6
CONTINUOUS
 62
1
 10
1222.2
 20
361.9
 11
1222.2
 21
361.9
  0
LINE
  8
0
  6
CONTINUOUS
 62
1
 10
1228.0
 20
354.4
 11
1228.2
 21
354.1
  0
LINE
  8
0
  6
CONTINUOUS
 62
1
 10
1211.5
 20
354.4
 11
1211.2
 21
354.1
  0
LINE
  8
0
  6
CONTINUOUS
 62
1
 10
1226.2
 20
357.9
 11
1226.2
 21
357.8
  0
LINE
  8
0
  6
CONTINUOUS
 62
1
 10
1228.2
 20
354.1
 11
1228.2
 21
352.1
  0
LINE
  8
0
  6
CONTINUOUS
 62
1
 10
1211.2
 20
354.1
 11
1211.2
 21
352.1
  0
LINE
  8
0
  6
CONTINUOUS
 62
1
 10
1211.5
 20
351.9
 11
1211.2
 21
352.1
  0
LINE
  8
0
  6
CONTINUOUS
 62
1
 10
1228.0
 20
351.9
 11
1228.2
 21
352.1
  0
LINE
  8
0
  6
CONTINUOUS
 62
1
 10
1202.0
 20
646.9
 11
1207.4
 21
646.9
  0
LINE
  8
0
  6
CONTINUOUS
 62
1
 10
1202.0
 20
626.9
 11
1207.4
 21
626.9
  0
LINE
  8
0
  6
CONTINUOUS
 62
1
 10
1207.4
 20
844.4
 11
1207.4
 21
358.4
  0
LINE
  8
0
  6
CONTINUOUS
 62
1
 10
1208.2
 20
844.4
 11
1207.4
 21
844.4
  0
LINE
  8
0
  6
CONTINUOUS
 62
1
 10
1208.2
 20
846.6
 11
1208.2
 21
356.2
  0
LINE
  8
0
  6
CONTINUOUS
 62
1
 10
1242.4
 20
848.9
 11
1242.4
 21
849.2
  0
LINE
  8
0
  6
CONTINUOUS
 62
1
 10
1207.4
 20
848.9
 11
1241.0
 21
848.9
  0
LINE
  8
0
  6
CONTINUOUS
 62
1
 10
1241.9
 20
848.9
 11
1241.4
 21
848.6
  0
LINE
  8
0
  6
CONTINUOUS
 62
1
 10
1255.2
 20
828.7
 11
1253.5
 21
827.7
  0
ARC
  8
0
  6
CONTINUOUS
 62
1
 10
1241.0
 20
848.4
 40
0.5
 50
30.0
 51
90.0
  0
LINE
  8
0
  6
CONTINUOUS
 62
1
 10
1241.9
 20
848.9
 11
1242.4
 21
848.9
  0
LINE
  8
0
  6
CONTINUOUS
 62
1
 10
1241.0
 20
850.9
 11
1207.4
 21
850.9
  0
LINE
  8
0
  6
CONTINUOUS
 62
1
 10
1243.2
 20
849.6
 11
1258.0
 21
823.9
  0
ARC
  8
0
  6
CONTINUOUS
 62
1
 10
1207.4
 20
848.4
 40
0.5
 50
90.0
 51
180.0
  0
ARC
  8
0
  6
CONTINUOUS
 62
1
 10
1207.4
 20
848.4
 40
2.5
 50
90.0
 51
180.0
  0
ARC
  8
0
  6
CONTINUOUS
 62
1
 10
1241.0
 20
848.4
 40
2.5
 50
30.0
 51
90.0
  0
LINE
  8
0
  6
CONTINUOUS
 62
1
 10
1243.2
 20
849.6
 11
1242.4
 21
849.2
  0
LINE
  8
0
  6
CONTINUOUS
 62
1
 10
1253.8
 20
831.2
 11
1252.1
 21
830.2
  0
LINE
  8
0
  6
CONTINUOUS
 62
1
 10
1206.9
 20
828.9
 11
1204.9
 21
828.9
  0
LINE
  8
0
  6
CONTINUOUS
 62
1
 10
1206.9
 20
833.9
 11
1204.9
 21
833.9
  0
LINE
  8
0
  6
CONTINUOUS
 62
1
 10
1258.0
 20
823.9
 11
1256.3
 21
822.9
  0
LINE
  8
0
  6
CONTINUOUS
 62
1
 10
1228.0
 20
354.4
 11
1228.9
 21
354.4
  0
ARC
  8
0
  6
CONTINUOUS
 62
1
 10
1210.0
 20
846.6
 40
1.0
 50
90.0
 51
180.0
  0
LINE
  8
0
  6
CONTINUOUS
 62
1
 10
1214.7
 20
833.3
 11
1227.9
 21
846.5
  0
LINE
  8
0
  6
CONTINUOUS
 62
1
 10
1214.7
 20
833.4
 11
1208.2
 21
833.4
  0
LINE
  8
0
  6
CONTINUOUS
 62
1
 10
1228.9
 20
848.1
 11
1228.9
 21
848.4
  0
ARC
  8
0
  6
CONTINUOUS
 62
1
 10
1210.0
 20
356.2
 40
1.8
 50
180.0
 51
270.0
  0
ARC
  8
0
  6
CONTINUOUS
 62
1
 10
1210.0
 20
846.6
 40
1.8
 50
90.0
 51
180.0
  0
ARC
  8
0
  6
CONTINUOUS
 62
1
 10
1227.9
 20
846.6
 40
1.8
 50
0.0
 51
90.0
  0
ARC
  8
0
  6
CONTINUOUS
 62
1
 10
1210.0
 20
356.2
 40
1.0
 50
180.0
 51
270.0
  0
LINE
  8
0
  6
CONTINUOUS
 62
1
 10
1227.9
 20
847.6
 11
1227.9
 21
847.6
  0
LINE
  8
0
  6
CONTINUOUS
 62
1
 10
1210.0
 20
354.4
 11
1210.0
 21
356.2
  0
LINE
  8
0
  6
CONTINUOUS
 62
1
 10
1227.9
 20
356.2
 11
1214.6
 21
369.5
  0
LINE
  8
0
  6
CONTINUOUS
 62
1
 10
1214.7
 20
369.4
 11
1208.2
 21
369.4
  0
LINE
  8
0
  6
CONTINUOUS
 62
1
 10
1227.9
 20
356.2
 11
1229.7
 21
356.2
  0
ARC
  8
0
  6
CONTINUOUS
 62
1
 10
1227.9
 20
846.6
 40
1.0
 50
0.0
 51
90.0
  0
LINE
  8
0
  6
CONTINUOUS
 62
1
 10
1209.0
 20
833.4
 11
1209.0
 21
846.6
  0
LINE
  8
0
  6
CONTINUOUS
 62
1
 10
1210.0
 20
848.4
 11
1210.0
 21
846.6
  0
LINE
  8
0
  6
CONTINUOUS
 62
1
 10
1228.9
 20
354.4
 11
1228.9
 21
354.7
  0
LINE
  8
0
  6
CONTINUOUS
 62
1
 10
1208.2
 20
356.2
 11
1210.0
 21
356.2
  0
LINE
  8
0
  6
CONTINUOUS
 62
1
 10
1229.7
 20
846.6
 11
1227.9
 21
846.6
  0
ARC
  8
0
  6
CONTINUOUS
 62
1
 10
1227.9
 20
356.2
 40
1.0
 50
270.0
 51
0.0
  0
LINE
  8
0
  6
CONTINUOUS
 62
1
 10
1210.0
 20
833.3
 11
1210.0
 21
369.5
  0
ARC
  8
0
  6
CONTINUOUS
 62
1
 10
1227.9
 20
356.2
 40
1.8
 50
270.0
 51
0.0
  0
LINE
  8
0
  6
CONTINUOUS
 62
1
 10
1227.9
 20
354.4
 11
1227.9
 21
356.2
  0
LINE
  8
0
  6
CONTINUOUS
 62
1
 10
1209.0
 20
356.2
 11
1209.0
 21
369.4
  0
LINE
  8
0
  6
CONTINUOUS
 62
1
 10
1229.7
 20
846.6
 11
1229.7
 21
356.2
  0
LINE
  8
0
  6
CONTINUOUS
 62
1
 10
1214.7
 20
369.4
 11
1227.9
 21
356.2
  0
LINE
  8
0
  6
CONTINUOUS
 62
1
 10
1227.9
 20
846.6
 11
1227.9
 21
846.5
  0
LINE
  8
0
  6
CONTINUOUS
 62
1
 10
1227.9
 20
356.2
 11
1210.0
 21
356.2
  0
LINE
  8
0
  6
CONTINUOUS
 62
1
 10
1227.9
 20
356.2
 11
1227.9
 21
846.5
  0
LINE
  8
0
  6
CONTINUOUS
 62
1
 10
1229.8
 20
375.7
 11
1229.8
 21
440.0
  0
LINE
  8
0
  6
CONTINUOUS
 62
1
 10
1229.8
 20
401.6
 11
1230.8
 21
401.6
  0
LINE
  8
0
  6
CONTINUOUS
 62
1
 10
1230.8
 20
375.7
 11
1230.8
 21
440.0
  0
LINE
  8
0
  6
CONTINUOUS
 62
1
 10
1229.8
 20
399.8
 11
1230.8
 21
399.8
  0
LINE
  8
0
  6
CONTINUOUS
 62
1
 10
1229.8
 20
427.3
 11
1230.8
 21
427.3
  0
LINE
  8
0
  6
CONTINUOUS
 62
1
 10
1229.8
 20
376.4
 11
1230.8
 21
376.4
  0
LINE
  8
0
  6
CONTINUOUS
 62
1
 10
1229.8
 20
440.0
 11
1230.8
 21
440.0
  0
LINE
  8
0
  6
CONTINUOUS
 62
1
 10
1229.8
 20
387.1
 11
1230.8
 21
387.1
  0
LINE
  8
0
  6
CONTINUOUS
 62
1
 10
1229.8
 20
439.5
 11
1230.8
 21
439.5
  0
LINE
  8
0
  6
CONTINUOUS
 62
1
 10
1229.8
 20
430.2
 11
1230.8
 21
430.2
  0
LINE
  8
0
  6
CONTINUOUS
 62
1
 10
1229.8
 20
388.8
 11
1230.8
 21
388.8
  0
LINE
  8
0
  6
CONTINUOUS
 62
1
 10
1229.8
 20
388.5
 11
1230.8
 21
388.5
  0
LINE
  8
0
  6
CONTINUOUS
 62
1
 10
1229.8
 20
431.2
 11
1230.8
 21
431.2
  0
LINE
  8
0
  6
CONTINUOUS
 62
1
 10
1229.8
 20
438.4
 11
1230.8
 21
438.4
  0
LINE
  8
0
  6
CONTINUOUS
 62
1
 10
1229.8
 20
439.8
 11
1230.8
 21
439.8
  0
LINE
  8
0
  6
CONTINUOUS
 62
1
 10
1229.8
 20
398.7
 11
1230.8
 21
398.7
  0
LINE
  8
0
  6
CONTINUOUS
 62
1
 10
1229.8
 20
385.5
 11
1230.8
 21
385.5
  0
LINE
  8
0
  6
CONTINUOUS
 62
1
 10
1229.8
 20
383.6
 11
1230.8
 21
383.6
  0
LINE
  8
0
  6
CONTINUOUS
 62
1
 10
1229.8
 20
399.2
 11
1230.8
 21
399.2
  0
LINE
  8
0
  6
CONTINUOUS
 62
1
 10
1229.8
 20
389.4
 11
1230.8
 21
389.4
  0
LINE
  8
0
  6
CONTINUOUS
 62
1
 10
1229.8
 20
385.0
 11
1230.8
 21
385.0
  0
LINE
  8
0
  6
CONTINUOUS
 62
1
 10
1229.8
 20
429.1
 11
1230.8
 21
429.1
  0
LINE
  8
0
  6
CONTINUOUS
 62
1
 10
1229.8
 20
402.9
 11
1230.8
 21
402.9
  0
LINE
  8
0
  6
CONTINUOUS
 62
1
 10
1229.8
 20
376.1
 11
1230.8
 21
376.1
  0
LINE
  8
0
  6
CONTINUOUS
 62
1
 10
1229.8
 20
388.7
 11
1230.8
 21
388.7
  0
LINE
  8
0
  6
CONTINUOUS
 62
1
 10
1229.8
 20
398.6
 11
1230.8
 21
398.6
  0
LINE
  8
0
  6
CONTINUOUS
 62
1
 10
1229.8
 20
439.4
 11
1230.8
 21
439.4
  0
LINE
  8
0
  6
CONTINUOUS
 62
1
 10
1229.8
 20
375.9
 11
1230.8
 21
375.9
  0
LINE
  8
0
  6
CONTINUOUS
 62
1
 10
1229.8
 20
389.0
 11
1230.8
 21
389.0
  0
LINE
  8
0
  6
CONTINUOUS
 62
1
 10
1229.8
 20
428.3
 11
1230.8
 21
428.3
  0
LINE
  8
0
  6
CONTINUOUS
 62
1
 10
1229.8
 20
376.3
 11
1230.8
 21
376.3
  0
LINE
  8
0
  6
CONTINUOUS
 62
1
 10
1229.8
 20
440.0
 11
1230.8
 21
440.0
  0
LINE
  8
0
  6
CONTINUOUS
 62
1
 10
1229.8
 20
426.1
 11
1230.8
 21
426.1
  0
LINE
  8
0
  6
CONTINUOUS
 62
1
 10
1229.8
 20
377.4
 11
1230.8
 21
377.4
  0
LINE
  8
0
  6
CONTINUOUS
 62
1
 10
1229.8
 20
384.6
 11
1230.8
 21
384.6
  0
LINE
  8
0
  6
CONTINUOUS
 62
1
 10
1229.8
 20
430.3
 11
1230.8
 21
430.3
  0
LINE
  8
0
  6
CONTINUOUS
 62
1
 10
1229.8
 20
375.7
 11
1230.8
 21
375.7
  0
LINE
  8
0
  6
CONTINUOUS
 62
1
 10
1229.8
 20
384.7
 11
1230.8
 21
384.7
  0
LINE
  8
0
  6
CONTINUOUS
 62
1
 10
1229.8
 20
386.2
 11
1230.8
 21
386.2
  0
LINE
  8
0
  6
CONTINUOUS
 62
1
 10
1229.8
 20
387.8
 11
1230.8
 21
387.8
  0
LINE
  8
0
  6
CONTINUOUS
 62
1
 10
1229.8
 20
397.7
 11
1230.8
 21
397.7
  0
LINE
  8
0
  6
CONTINUOUS
 62
1
 10
1229.8
 20
375.7
 11
1230.8
 21
375.7
  0
LINE
  8
0
  6
CONTINUOUS
 62
1
 10
1229.8
 20
429.7
 11
1230.8
 21
429.7
  0
LINE
  8
0
  6
CONTINUOUS
 62
1
 10
1229.8
 20
400.6
 11
1230.8
 21
400.6
  0
LINE
  8
0
  6
CONTINUOUS
 62
1
 10
1229.8
 20
375.8
 11
1230.8
 21
375.8
  0
LINE
  8
0
  6
CONTINUOUS
 62
1
 10
1222.2
 20
840.9
 11
1222.3
 21
840.9
  0
LINE
  8
0
  6
CONTINUOUS
 62
1
 10
1222.1
 20
840.8
 11
1222.2
 21
840.8
  0
LINE
  8
0
  6
CONTINUOUS
 62
1
 10
1216.2
 20
848.4
 11
1216.2
 21
848.9
  0
LINE
  8
0
  6
CONTINUOUS
 62
1
 10
1223.2
 20
848.4
 11
1223.2
 21
848.9
  0
LINE
  8
0
  6
CONTINUOUS
 62
1
 10
1222.9
 20
841.5
 11
1222.9
 21
841.5
  0
LINE
  8
0
  6
CONTINUOUS
 62
1
 10
1202.0
 20
792.5
 11
1207.4
 21
793.9
  0
LINE
  8
0
  6
CONTINUOUS
 62
1
 10
1202.0
 20
784.2
 11
1207.4
 21
782.9
  0
LINE
  8
0
  6
CONTINUOUS
 62
1
 10
1202.0
 20
418.5
 11
1207.4
 21
419.9
  0
LINE
  8
0
  6
CONTINUOUS
 62
1
 10
1202.0
 20
410.2
 11
1207.4
 21
408.9
  0
LINE
  8
0
  6
CONTINUOUS
 62
1
 10
1231.7
 20
386.4
 11
1231.7
 21
435.4
  0
ARC
  8
0
  6
CONTINUOUS
 62
1
 10
1229.7
 20
386.4
 40
2.0
 50
270.3
 51
272.9
  0
ARC
  8
0
  6
CONTINUOUS
 62
1
 10
1229.7
 20
386.4
 40
2.0
 50
303.4
 51
0.0
  0
ARC
  8
0
  6
CONTINUOUS
 62
1
 10
1229.7
 20
435.4
 40
2.0
 50
0.0
 51
56.6
  0
ARC
  8
0
  6
CONTINUOUS
 62
1
 10
1229.7
 20
435.4
 40
2.0
 50
87.1
 51
90.0
  0
LINE
  8
0
  6
CONTINUOUS
 62
1
 10
1229.7
 20
384.4
 11
1229.7
 21
437.4
  0
LINE
  8
0
  6
CONTINUOUS
 62
1
 10
1229.7
 20
437.4
 11
1229.7
 21
437.4
  0
LINE
  8
0
  6
CONTINUOUS
 62
1
 10
1229.7
 20
384.4
 11
1229.7
 21
384.4
  0
LINE
  8
0
  6
CONTINUOUS
 62
1
 10
1229.7
 20
385.4
 11
1229.7
 21
385.4
  0
LINE
  8
0
  6
CONTINUOUS
 62
1
 10
1229.7
 20
436.4
 11
1229.7
 21
436.4
  0
LINE
  8
0
  6
CONTINUOUS
 62
1
 10
1200.0
 20
362.9
 11
1200.0
 21
1019.1
  0
LINE
  8
0
  6
CONTINUOUS
 62
1
 10
1141.2
 20
1021.2
 11
1141.2
 21
1022.4
  0
LINE
  8
0
  6
CONTINUOUS
 62
1
 10
1202.0
 20
362.9
 11
1200.0
 21
362.9
  0
LINE
  8
0
  6
CONTINUOUS
 62
1
 10
464.7
 20
1019.1
 11
464.7
 21
340.1
  0
LINE
  8
0
  6
CONTINUOUS
 62
1
 10
1202.0
 20
1020.4
 11
1202.0
 21
1015.0
  0
LINE
  8
0
  6
CONTINUOUS
 62
1
 10
1202.0
 20
856.6
 11
1202.0
 21
362.9
  0
LINE
  8
0
  6
CONTINUOUS
 62
1
 10
464.4
 20
340.1
 11
464.4
 21
338.1
  0
LINE
  8
0
  6
CONTINUOUS
 62
1
 10
464.4
 20
1019.1
 11
464.4
 21
1021.2
  0
LINE
  8
0
  6
CONTINUOUS
 62
1
 10
1200.0
 20
1019.1
 11
464.7
 21
1019.1
  0
LINE
  8
0
  6
CONTINUOUS
 62
1
 10
464.7
 20
1019.1
 11
462.6
 21
1019.1
  0
LINE
  8
0
  6
CONTINUOUS
 62
1
 10
1201.2
 20
338.1
 11
1201.2
 21
362.9
  0
LINE
  8
0
  6
CONTINUOUS
 62
1
 10
464.7
 20
340.1
 11
462.6
 21
340.1
  0
LINE
  8
0
  6
CONTINUOUS
 62
1
 10
463.4
 20
338.1
 11
463.4
 21
340.1
  0
LINE
  8
0
  6
CONTINUOUS
 62
1
 10
464.7
 20
340.1
 11
1201.2
 21
340.1
  0
LINE
  8
0
  6
CONTINUOUS
 62
1
 10
1200.0
 20
1019.4
 11
1202.0
 21
1019.4
  0
LINE
  8
0
  6
CONTINUOUS
 62
1
 10
488.4
 20
1021.2
 11
488.4
 21
1022.4
  0
LINE
  8
0
  6
CONTINUOUS
 62
1
 10
463.4
 20
339.9
 11
464.4
 21
339.9
  0
LINE
  8
0
  6
CONTINUOUS
 62
1
 10
1207.4
 20
546.1
 11
1202.0
 21
546.0
  0
LINE
  8
0
  6
CONTINUOUS
 62
1
 10
1207.4
 20
522.1
 11
1202.0
 21
522.0
  0
LINE
  8
0
  6
CONTINUOUS
 62
1
 10
1202.0
 20
521.0
 11
1207.4
 21
521.1
  0
LINE
  8
0
  6
CONTINUOUS
 62
1
 10
1202.0
 20
545.1
 11
1207.4
 21
545.2
  0
LINE
  8
0
  6
CONTINUOUS
 62
1
 10
1207.4
 20
533.1
 11
1202.0
 21
533.0
  0
LINE
  8
0
  6
CONTINUOUS
 62
1
 10
1202.0
 20
534.0
 11
1207.4
 21
534.1
  0
ARC
  8
0
  6
CONTINUOUS
 62
1
 10
1050.7
 20
1064.0
 40
9.5
 50
97.8
 51
171.0
  0
LINE
  8
0
  6
CONTINUOUS
 62
1
 10
1222.7
 20
1102.1
 11
1223.3
 21
1097.2
  0
LINE
  8
0
  6
CONTINUOUS
 62
1
 10
1265.6
 20
1103.0
 11
1265.6
 21
1108.0
  0
ARC
  8
0
  6
CONTINUOUS
 62
1
 10
1050.7
 20
1064.0
 40
14.5
 50
97.8
 51
171.0
  0
LINE
  8
0
  6
CONTINUOUS
 62
1
 10
1294.1
 20
1106.9
 11
1049.5
 21
1073.4
  0
LINE
  8
0
  6
CONTINUOUS
 62
1
 10
1294.1
 20
1106.9
 11
1293.4
 21
1111.8
  0
LINE
  8
0
  6
CONTINUOUS
 62
1
 10
1041.4
 20
1065.4
 11
1040.7
 21
1061.2
  0
LINE
  8
0
  6
CONTINUOUS
 62
1
 10
1035.6
 20
1061.2
 11
1036.4
 21
1066.2
  0
LINE
  8
0
  6
CONTINUOUS
 62
1
 10
1205.7
 20
1021.4
 11
1205.7
 21
1022.4
  0
LINE
  8
0
  6
CONTINUOUS
 62
1
 10
1205.7
 20
1021.4
 11
1198.9
 21
1021.4
  0
LINE
  8
0
  6
CONTINUOUS
 62
1
 10
1150.7
 20
1021.4
 11
1150.7
 21
1021.2
  0
LINE
  8
0
  6
CONTINUOUS
 62
1
 10
1205.5
 20
855.1
 11
1205.5
 21
855.8
  0
LINE
  8
0
  6
CONTINUOUS
 62
1
 10
1202.0
 20
855.1
 11
1205.5
 21
855.1
  0
LINE
  8
0
  6
CONTINUOUS
 62
1
 10
463.9
 20
1024.6
 11
461.7
 21
1024.6
  0
LINE
  8
0
  6
CONTINUOUS
 62
1
 10
1240.3
 20
1023.6
 11
1230.5
 21
1023.6
  0
LINE
  8
0
  6
CONTINUOUS
 62
1
 10
1230.5
 20
1022.4
 11
1230.5
 21
1024.6
  0
LINE
  8
0
  6
CONTINUOUS
 62
1
 10
462.9
 20
1024.6
 11
462.9
 21
1022.4
  0
LINE
  8
0
  6
CONTINUOUS
 62
1
 10
461.7
 20
1023.6
 11
461.7
 21
1059.2
  0
LINE
  8
0
  6
CONTINUOUS
 62
1
 10
1231.9
 20
1058.8
 11
1230.7
 21
1058.5
  0
LINE
  8
0
  6
CONTINUOUS
 62
1
 10
1230.5
 20
1022.4
 11
1239.2
 21
1022.4
  0
ARC
  8
0
  6
CONTINUOUS
 62
1
 10
1239.2
 20
1024.6
 40
2.2
 50
270.0
 51
15.7
  0
ARC
  8
0
  6
CONTINUOUS
 62
1
 10
1229.8
 20
1058.2
 40
2.2
 50
15.7
 51
90.0
  0
LINE
  8
0
  6
CONTINUOUS
 62
1
 10
463.9
 20
1058.2
 11
1229.8
 21
1058.2
  0
LINE
  8
0
  6
CONTINUOUS
 62
1
 10
463.9
 20
1023.6
 11
461.7
 21
1023.6
  0
LINE
  8
0
  6
CONTINUOUS
 62
1
 10
1230.0
 20
1024.6
 11
1230.0
 21
1022.4
  0
LINE
  8
0
  6
CONTINUOUS
 62
1
 10
463.9
 20
1024.6
 11
1230.0
 21
1024.6
  0
LINE
  8
0
  6
CONTINUOUS
 62
1
 10
1241.3
 20
1025.2
 11
1231.9
 21
1058.8
  0
LINE
  8
0
  6
CONTINUOUS
 62
1
 10
1230.0
 20
1024.6
 11
1230.5
 21
1024.6
  0
LINE
  8
0
  6
CONTINUOUS
 62
1
 10
1229.8
 20
1060.4
 11
1229.8
 21
1058.2
  0
LINE
  8
0
  6
CONTINUOUS
 62
1
 10
1230.0
 20
1022.4
 11
462.9
 21
1022.4
  0
LINE
  8
0
  6
CONTINUOUS
 62
1
 10
463.9
 20
1024.6
 11
463.9
 21
1022.4
  0
LINE
  8
0
  6
CONTINUOUS
 62
1
 10
1229.8
 20
1058.2
 11
1230.8
 21
1058.2
  0
LINE
  8
0
  6
CONTINUOUS
 62
1
 10
1240.3
 20
1024.6
 11
1240.3
 21
1023.6
  0
ARC
  8
0
  6
CONTINUOUS
 62
1
 10
1229.8
 20
1058.2
 40
1.0
 50
15.7
 51
90.0
  0
LINE
  8
0
  6
CONTINUOUS
 62
1
 10
463.9
 20
1058.2
 11
463.9
 21
1024.6
  0
LINE
  8
0
  6
CONTINUOUS
 62
1
 10
1220.9
 20
1021.9
 11
1227.9
 21
1021.9
  0
LINE
  8
0
  6
CONTINUOUS
 62
1
 10
1220.9
 20
1021.9
 11
1220.9
 21
1022.4
  0
LINE
  8
0
  6
CONTINUOUS
 62
1
 10
1227.9
 20
1021.9
 11
1227.9
 21
1022.4
  0
LINE
  8
0
  6
CONTINUOUS
 62
1
 10
1153.9
 20
1021.2
 11
1153.9
 21
1022.4
  0
LINE
  8
0
  6
CONTINUOUS
 62
1
 10
1198.4
 20
1021.2
 11
1198.4
 21
1022.4
  0
ARC
  8
0
  6
CONTINUOUS
 62
1
 10
1204.9
 20
855.9
 40
4.0
 50
223.5
 51
270.0
  0
LINE
  8
0
  6
CONTINUOUS
 62
1
 10
1204.9
 20
854.9
 11
1227.7
 21
854.9
  0
LINE
  8
0
  6
CONTINUOUS
 62
1
 10
1220.6
 20
854.9
 11
1220.6
 21
851.9
  0
LINE
  8
0
  6
CONTINUOUS
 62
1
 10
1204.9
 20
851.9
 11
1227.7
 21
851.9
  0
LINE
  8
0
  6
CONTINUOUS
 62
1
 10
1204.9
 20
854.9
 11
1204.9
 21
851.9
  0
ARC
  8
0
  6
CONTINUOUS
 62
1
 10
1204.9
 20
855.9
 40
1.0
 50
233.1
 51
270.0
  0
LINE
  8
0
  6
CONTINUOUS
 62
1
 10
1227.7
 20
854.9
 11
1227.7
 21
851.9
  0
LINE
  8
0
  6
CONTINUOUS
 62
1
 10
1215.3
 20
833.9
 11
1215.2
 21
833.9
  0
LINE
  8
0
  6
CONTINUOUS
 62
1
 10
1214.9
 20
833.5
 11
1214.9
 21
833.6
  0
LINE
  8
0
  6
CONTINUOUS
 62
1
 10
1224.7
 20
851.9
 11
1224.7
 21
850.9
  0
LINE
  8
0
  6
CONTINUOUS
 62
1
 10
1214.7
 20
851.9
 11
1214.7
 21
850.9
  0
LINE
  8
0
  6
CONTINUOUS
 62
1
 10
1123.9
 20
338.1
 11
1123.9
 21
297.9
  0
LINE
  8
0
  6
CONTINUOUS
 62
1
 10
1023.8
 20
337.8
 11
1023.8
 21
338.1
  0
LINE
  8
0
  6
CONTINUOUS
 62
1
 10
1123.9
 20
249.8
 11
1111.8
 21
249.8
  0
LINE
  8
0
  6
CONTINUOUS
 62
1
 10
1111.8
 20
249.8
 11
1111.8
 21
337.8
  0
LINE
  8
0
  6
CONTINUOUS
 62
1
 10
1112.1
 20
338.1
 11
1111.8
 21
337.8
  0
LINE
  8
0
  6
CONTINUOUS
 62
1
 10
1120.8
 20
249.8
 11
1120.8
 21
338.1
  0
LINE
  8
0
  6
CONTINUOUS
 62
1
 10
1111.8
 20
337.8
 11
1023.8
 21
337.8
  0
LINE
  8
0
  6
CONTINUOUS
 62
1
 10
1125.5
 20
297.9
 11
1125.5
 21
210.9
  0
LINE
  8
0
  6
CONTINUOUS
 62
1
 10
1088.3
 20
209.4
 11
1088.3
 21
207.8
  0
LINE
  8
0
  6
CONTINUOUS
 62
1
 10
1125.5
 20
210.9
 11
1122.4
 21
210.9
  0
LINE
  8
0
  6
CONTINUOUS
 62
1
 10
1083.9
 20
209.4
 11
1083.9
 21
207.8
  0
LINE
  8
0
  6
CONTINUOUS
 62
1
 10
1122.4
 20
207.8
 11
1122.4
 21
209.4
  0
LINE
  8
0
  6
CONTINUOUS
 62
1
 10
1125.5
 20
297.9
 11
1123.9
 21
297.9
  0
LINE
  8
0
  6
CONTINUOUS
 62
1
 10
1116.2
 20
207.8
 11
1122.4
 21
207.8
  0
LINE
  8
0
  6
CONTINUOUS
 62
1
 10
1113.4
 20
219.9
 11
1113.4
 21
249.8
  0
LINE
  8
0
  6
CONTINUOUS
 62
1
 10
1122.4
 20
209.4
 11
1116.2
 21
209.4
  0
LINE
  8
0
  6
CONTINUOUS
 62
1
 10
1122.4
 20
210.9
 11
1122.4
 21
249.8
  0
ARC
  8
0
  6
CONTINUOUS
 62
1
 10
1122.4
 20
210.9
 40
1.5
 50
270.0
 51
0.0
  0
ARC
  8
0
  6
CONTINUOUS
 62
1
 10
1122.4
 20
210.9
 40
3.1
 50
270.0
 51
0.0
  0
LINE
  8
0
  6
CONTINUOUS
 62
1
 10
1083.9
 20
207.8
 11
1091.2
 21
207.8
  0
LINE
  8
0
  6
CONTINUOUS
 62
1
 10
1122.4
 20
210.9
 11
1113.4
 21
219.9
  0
LINE
  8
0
  6
CONTINUOUS
 62
1
 10
1091.2
 20
194.4
 11
1116.2
 21
194.4
  0
LINE
  8
0
  6
CONTINUOUS
 62
1
 10
1116.2
 20
190.4
 11
1116.2
 21
212.9
  0
LINE
  8
0
  6
CONTINUOUS
 62
1
 10
1116.2
 20
208.9
 11
1091.2
 21
208.9
  0
LINE
  8
0
  6
CONTINUOUS
 62
1
 10
1091.2
 20
212.9
 11
1116.2
 21
212.9
  0
LINE
  8
0
  6
CONTINUOUS
 62
1
 10
1116.2
 20
192.9
 11
1091.2
 21
192.9
  0
LINE
  8
0
  6
CONTINUOUS
 62
1
 10
1091.2
 20
190.4
 11
1116.2
 21
190.4
  0
LINE
  8
0
  6
CONTINUOUS
 62
1
 10
467.1
 20
1021.2
 11
467.1
 21
1022.4
  0
LINE
  8
0
  6
CONTINUOUS
 62
1
 10
469.8
 20
1022.4
 11
469.8
 21
1021.2
  0
LINE
  8
0
  6
CONTINUOUS
 62
1
 10
1198.9
 20
1022.4
 11
1198.9
 21
1021.2
  0
LINE
  8
0
  6
CONTINUOUS
 62
1
 10
462.2
 20
833.4
 11
462.2
 21
486.9
  0
LINE
  8
0
  6
CONTINUOUS
 62
1
 10
462.6
 20
408.4
 11
462.2
 21
408.4
  0
LINE
  8
0
  6
CONTINUOUS
 62
1
 10
462.6
 20
828.4
 11
462.2
 21
828.4
  0
LINE
  8
0
  6
CONTINUOUS
 62
1
 10
462.2
 20
492.4
 11
462.6
 21
492.4
  0
LINE
  8
0
  6
CONTINUOUS
 62
1
 10
462.6
 20
497.4
 11
462.2
 21
497.4
  0
LINE
  8
0
  6
CONTINUOUS
 62
1
 10
462.6
 20
833.4
 11
462.2
 21
833.4
  0
LINE
  8
0
  6
CONTINUOUS
 62
1
 10
462.2
 20
487.4
 11
462.6
 21
487.4
  0
LINE
  8
0
  6
CONTINUOUS
 62
1
 10
462.2
 20
403.4
 11
462.6
 21
403.4
  0
LINE
  8
0
  6
CONTINUOUS
 62
1
 10
1166.1
 20
1060.4
 11
1166.1
 21
1061.2
  0
LINE
  8
0
  6
CONTINUOUS
 62
1
 10
1166.1
 20
1061.2
 11
592.6
 21
1061.2
  0
LINE
  8
0
  6
CONTINUOUS
 62
1
 10
1161.1
 20
1060.4
 11
1161.1
 21
1061.2
  0
LINE
  8
0
  6
CONTINUOUS
 62
1
 10
597.6
 20
1060.4
 11
597.6
 21
1061.2
  0
LINE
  8
0
  6
CONTINUOUS
 62
1
 10
592.6
 20
1060.4
 11
592.6
 21
1061.2
  0
LINE
  8
0
  6
CONTINUOUS
 62
1
 10
869.2
 20
1120.6
 11
869.2
 21
1120.7
  0
LINE
  8
0
  6
CONTINUOUS
 62
1
 10
869.2
 20
1120.7
 11
869.3
 21
1122.6
  0
LINE
  8
0
  6
CONTINUOUS
 62
1
 10
869.3
 20
1122.6
 11
869.4
 21
1124.2
  0
LINE
  8
0
  6
CONTINUOUS
 62
1
 10
869.4
 20
1124.2
 11
869.5
 21
1125.3
  0
LINE
  8
0
  6
CONTINUOUS
 62
1
 10
869.5
 20
1125.3
 11
869.5
 21
1125.6
  0
LINE
  8
0
  6
CONTINUOUS
 62
1
 10
961.9
 20
1088.6
 11
967.8
 21
1061.2
  0
ARC
  8
0
  6
CONTINUOUS
 62
1
 10
955.1
 20
1087.2
 40
7.0
 50
12.1
 51
82.1
  0
ARC
  8
0
  6
CONTINUOUS
 62
1
 10
800.9
 20
152.7
 40
954.1
 50
80.6
 51
84.8
  0
ARC
  8
0
  6
CONTINUOUS
 62
1
 10
868.9
 20
1118.7
 40
7.0
 50
85.0
 51
167.3
  0
LINE
  8
0
  6
CONTINUOUS
 62
1
 10
872.0
 20
1061.2
 11
879.7
 21
1097.4
  0
ARC
  8
0
  6
CONTINUOUS
 62
1
 10
823.9
 20
347.5
 40
779.5
 50
78.8
 51
86.6
  0
LINE
  8
0
  6
CONTINUOUS
 62
1
 10
975.6
 20
1105.7
 11
980.5
 21
1106.8
  0
LINE
  8
0
  6
CONTINUOUS
 62
1
 10
975.6
 20
1105.7
 11
985.2
 21
1061.2
  0
ARC
  8
0
  6
CONTINUOUS
 62
1
 10
868.9
 20
1118.7
 40
2.0
 50
83.5
 51
166.7
  0
LINE
  8
0
  6
CONTINUOUS
 62
1
 10
862.1
 20
1120.2
 11
863.5
 21
1119.9
  0
LINE
  8
0
  6
CONTINUOUS
 62
1
 10
863.5
 20
1119.9
 11
866.0
 21
1119.3
  0
LINE
  8
0
  6
CONTINUOUS
 62
1
 10
866.0
 20
1119.3
 11
867.0
 21
1119.1
  0
LINE
  8
0
  6
CONTINUOUS
 62
1
 10
867.0
 20
1119.1
 11
867.0
 21
1119.1
  0
ARC
  8
0
  6
CONTINUOUS
 62
1
 10
800.9
 20
152.7
 40
961.1
 50
80.6
 51
84.8
  0
ARC
  8
0
  6
CONTINUOUS
 62
1
 10
955.1
 20
1087.2
 40
14.0
 50
12.1
 51
81.7
  0
ARC
  8
0
  6
CONTINUOUS
 62
1
 10
886.6
 20
1095.9
 40
14.0
 50
83.5
 51
167.9
  0
LINE
  8
0
  6
CONTINUOUS
 62
1
 10
961.9
 20
1088.6
 11
968.8
 21
1090.1
  0
ARC
  8
0
  6
CONTINUOUS
 62
1
 10
823.9
 20
347.5
 40
774.5
 50
78.8
 51
86.6
  0
LINE
  8
0
  6
CONTINUOUS
 62
1
 10
956.0
 20
1094.1
 11
956.1
 21
1094.6
  0
LINE
  8
0
  6
CONTINUOUS
 62
1
 10
956.1
 20
1094.6
 11
956.3
 21
1096.1
  0
LINE
  8
0
  6
CONTINUOUS
 62
1
 10
956.3
 20
1096.1
 11
956.7
 21
1098.3
  0
LINE
  8
0
  6
CONTINUOUS
 62
1
 10
956.7
 20
1098.3
 11
957.1
 21
1100.7
  0
LINE
  8
0
  6
CONTINUOUS
 62
1
 10
957.1
 20
1100.7
 11
957.1
 21
1101.0
  0
LINE
  8
0
  6
CONTINUOUS
 62
1
 10
872.9
 20
1098.9
 11
864.8
 21
1061.2
  0
ARC
  8
0
  6
CONTINUOUS
 62
1
 10
886.6
 20
1095.9
 40
7.0
 50
82.9
 51
167.9
  0
ARC
  8
0
  6
CONTINUOUS
 62
1
 10
973.7
 20
1105.3
 40
2.0
 50
12.1
 51
78.8
  0
LINE
  8
0
  6
CONTINUOUS
 62
1
 10
990.3
 20
1061.2
 11
980.5
 21
1106.8
  0
LINE
  8
0
  6
CONTINUOUS
 62
1
 10
975.0
 20
1061.2
 11
968.8
 21
1090.1
  0
ARC
  8
0
  6
CONTINUOUS
 62
1
 10
973.7
 20
1105.3
 40
7.0
 50
12.1
 51
78.8
  0
LINE
  8
0
  6
CONTINUOUS
 62
1
 10
854.6
 20
1061.2
 11
867.0
 21
1119.1
  0
LINE
  8
0
  6
CONTINUOUS
 62
1
 10
862.1
 20
1120.2
 11
849.5
 21
1061.2
  0
LINE
  8
0
  6
CONTINUOUS
 62
1
 10
879.7
 20
1097.4
 11
872.9
 21
1098.9
  0
LINE
  8
0
  6
CONTINUOUS
 62
1
 10
887.4
 20
1102.9
 11
887.5
 21
1103.4
  0
LINE
  8
0
  6
CONTINUOUS
 62
1
 10
887.5
 20
1103.4
 11
887.6
 21
1104.9
  0
LINE
  8
0
  6
CONTINUOUS
 62
1
 10
887.6
 20
1104.9
 11
887.9
 21
1107.1
  0
LINE
  8
0
  6
CONTINUOUS
 62
1
 10
887.9
 20
1107.1
 11
888.0
 21
1108.4
  0
LINE
  8
0
  6
CONTINUOUS
 62
1
 10
888.0
 20
1108.4
 11
888.2
 21
1109.8
  0
LINE
  8
0
  6
CONTINUOUS
 62
1
 10
888.2
 20
1109.8
 11
888.2
 21
1109.8
  0
LINE
  8
0
  6
CONTINUOUS
 62
1
 10
974.1
 20
1107.3
 11
975.0
 21
1112.2
  0
LINE
  8
0
  6
CONTINUOUS
 62
1
 10
1225.9
 20
1019.8
 11
1225.9
 21
1020.6
  0
LINE
  8
0
  6
CONTINUOUS
 62
1
 10
1202.0
 20
856.6
 11
1203.6
 21
856.6
  0
LINE
  8
0
  6
CONTINUOUS
 62
1
 10
1203.6
 20
1019.6
 11
1202.0
 21
1019.6
  0
LINE
  8
0
  6
CONTINUOUS
 62
1
 10
1218.0
 20
1019.1
 11
1216.5
 21
1018.8
  0
LINE
  8
0
  6
CONTINUOUS
 62
1
 10
1202.8
 20
855.8
 11
1230.5
 21
855.8
  0
LINE
  8
0
  6
CONTINUOUS
 62
1
 10
1230.9
 20
1020.6
 11
1218.9
 21
1020.6
  0
ARC
  8
0
  6
CONTINUOUS
 62
1
 10
1230.5
 20
857.4
 40
1.6
 50
270.0
 51
333.5
  0
ARC
  8
0
  6
CONTINUOUS
 62
1
 10
1240.2
 20
876.9
 40
0.8
 50
333.5
 51
9.5
  0
LINE
  8
0
  6
CONTINUOUS
 62
1
 10
1203.6
 20
1019.6
 11
1203.6
 21
856.6
  0
LINE
  8
0
  6
CONTINUOUS
 62
1
 10
1230.5
 20
856.6
 11
1203.6
 21
856.6
  0
LINE
  8
0
  6
CONTINUOUS
 62
1
 10
1240.2
 20
876.9
 11
1241.8
 21
877.1
  0
LINE
  8
0
  6
CONTINUOUS
 62
1
 10
1202.8
 20
1019.6
 11
1202.8
 21
1020.4
  0
LINE
  8
0
  6
CONTINUOUS
 62
1
 10
1240.9
 20
876.5
 11
1231.2
 21
857.0
  0
LINE
  8
0
  6
CONTINUOUS
 62
1
 10
1240.2
 20
876.9
 11
1216.5
 21
1018.8
  0
LINE
  8
0
  6
CONTINUOUS
 62
1
 10
1218.0
 20
1019.1
 11
1241.8
 21
877.1
  0
ARC
  8
0
  6
CONTINUOUS
 62
1
 10
1218.9
 20
1019.0
 40
0.8
 50
90.0
 51
189.5
  0
LINE
  8
0
  6
CONTINUOUS
 62
1
 10
1216.5
 20
1020.4
 11
1202.8
 21
1020.4
  0
LINE
  8
0
  6
CONTINUOUS
 62
1
 10
1203.6
 20
856.6
 11
1203.6
 21
856.6
  0
ARC
  8
0
  6
CONTINUOUS
 62
1
 10
1218.9
 20
1019.0
 40
1.6
 50
90.0
 51
142.1
  0
LINE
  8
0
  6
CONTINUOUS
 62
1
 10
1231.2
 20
857.0
 11
1230.5
 21
856.6
  0
LINE
  8
0
  6
CONTINUOUS
 62
1
 10
1230.9
 20
1019.8
 11
1218.9
 21
1019.8
  0
LINE
  8
0
  6
CONTINUOUS
 62
1
 10
1203.6
 20
1019.6
 11
1203.6
 21
1019.6
  0
ARC
  8
0
  6
CONTINUOUS
 62
1
 10
1216.5
 20
1018.8
 40
0.8
 50
9.5
 51
90.0
  0
ARC
  8
0
  6
CONTINUOUS
 62
1
 10
1216.5
 20
1018.8
 40
1.6
 50
9.5
 51
90.0
  0
LINE
  8
0
  6
CONTINUOUS
 62
1
 10
1216.5
 20
1018.8
 11
1216.3
 21
1019.6
  0
ARC
  8
0
  6
CONTINUOUS
 62
1
 10
1240.2
 20
876.9
 40
1.6
 50
333.5
 51
9.5
  0
LINE
  8
0
  6
CONTINUOUS
 62
1
 10
1202.8
 20
1019.6
 11
1216.5
 21
1019.6
  0
LINE
  8
0
  6
CONTINUOUS
 62
1
 10
1204.8
 20
1019.6
 11
1204.8
 21
1020.4
  0
LINE
  8
0
  6
CONTINUOUS
 62
1
 10
1230.9
 20
1019.8
 11
1230.9
 21
1020.6
  0
ARC
  8
0
  6
CONTINUOUS
 62
1
 10
1230.5
 20
857.4
 40
0.8
 50
270.0
 51
333.5
  0
LINE
  8
0
  6
CONTINUOUS
 62
1
 10
1231.9
 20
856.7
 11
1241.6
 21
876.1
  0
LINE
  8
0
  6
CONTINUOUS
 62
1
 10
1202.8
 20
856.6
 11
1202.8
 21
855.8
  0
LINE
  8
0
  6
CONTINUOUS
 62
1
 10
1216.5
 20
1019.6
 11
1216.5
 21
1020.4
  0
LINE
  8
0
  6
CONTINUOUS
 62
1
 10
1240.6
 20
876.7
 11
1240.3
 21
876.6
  0
LINE
  8
0
  6
CONTINUOUS
 62
1
 10
1240.3
 20
876.6
 11
1240.2
 21
876.9
  0
POLYLINE
  8
0
  6
CONTINUOUS
 62
1
 66
1
 70
0
  0
VERTEX
  8
0
 10
433.3
 20
391.7
 70
0
 42
0.0
  0
VERTEX
  8
0
 10
433.3
 20
391.7
 70
0
 42
0.0
  0
VERTEX
  8
0
 10
433.2
 20
389.3
 70
0
 42
0.0
  0
VERTEX
  8
0
 10
433.2
 20
389.3
 70
0
 42
0.0
  0
VERTEX
  8
0
 10
433.0
 20
384.5
 70
0
 42
0.0
  0
VERTEX
  8
0
 10
433.0
 20
384.5
 70
0
 42
0.0
  0
VERTEX
  8
0
 10
432.9
 20
382.1
 70
0
  0
SEQEND
  0
POLYLINE
  8
0
  6
CONTINUOUS
 62
1
 66
1
 70
0
  0
VERTEX
  8
0
 10
432.9
 20
382.1
 70
0
 42
0.0
  0
VERTEX
  8
0
 10
432.9
 20
382.1
 70
0
 42
0.0
  0
VERTEX
  8
0
 10
432.9
 20
382.1
 70
0
  0
SEQEND
  0
LINE
  8
0
  6
CONTINUOUS
 62
1
 10
461.4
 20
475.9
 11
458.2
 21
475.9
  0
LINE
  8
0
  6
CONTINUOUS
 62
1
 10
461.4
 20
444.9
 11
458.2
 21
444.9
  0
LINE
  8
0
  6
CONTINUOUS
 62
1
 10
1177.9
 20
191.7
 11
1177.9
 21
204.4
  0
LINE
  8
0
  6
CONTINUOUS
 62
1
 10
577.2
 20
303.7
 11
589.8
 21
243.3
  0
LINE
  8
0
  6
CONTINUOUS
 62
1
 10
524.4
 20
300.0
 11
560.3
 21
242.7
  0
LINE
  8
0
  6
CONTINUOUS
 62
1
 10
578.3
 20
298.7
 11
559.8
 21
298.7
  0
LINE
  8
0
  6
CONTINUOUS
 62
1
 10
556.4
 20
316.4
 11
556.4
 21
326.9
  0
LINE
  8
0
  6
CONTINUOUS
 62
1
 10
531.4
 20
326.9
 11
531.4
 21
316.4
  0
LINE
  8
0
  6
CONTINUOUS
 62
1
 10
461.4
 20
486.9
 11
461.4
 21
429.9
  0
LINE
  8
0
  6
CONTINUOUS
 62
1
 10
451.6
 20
387.9
 11
451.6
 21
396.1
  0
LINE
  8
0
  6
CONTINUOUS
 62
1
 10
451.9
 20
387.9
 11
451.9
 21
393.5
  0
LINE
  8
0
  6
CONTINUOUS
 62
1
 10
449.0
 20
391.9
 11
445.4
 21
391.9
  0
LINE
  8
0
  6
CONTINUOUS
 62
1
 10
427.7
 20
488.2
 11
427.7
 21
507.8
  0
LINE
  8
0
  6
CONTINUOUS
 62
1
 10
378.7
 20
507.8
 11
378.7
 21
488.2
  0
LINE
  8
0
  6
CONTINUOUS
 62
1
 10
387.5
 20
522.3
 11
387.5
 21
507.9
  0
LINE
  8
0
  6
CONTINUOUS
 62
1
 10
385.7
 20
941.4
 11
385.7
 21
987.4
  0
LINE
  8
0
  6
CONTINUOUS
 62
1
 10
420.7
 20
987.4
 11
420.7
 21
941.4
  0
LINE
  8
0
  6
CONTINUOUS
 62
1
 10
1208.2
 20
358.4
 11
1207.4
 21
358.4
  0
LINE
  8
0
  6
CONTINUOUS
 62
1
 10
1204.9
 20
848.4
 11
1204.9
 21
828.9
  0
LINE
  8
0
  6
CONTINUOUS
 62
1
 10
1241.4
 20
848.6
 11
1256.3
 21
822.9
  0
LINE
  8
0
  6
CONTINUOUS
 62
1
 10
1206.9
 20
828.9
 11
1206.9
 21
848.4
  0
LINE
  8
0
  6
CONTINUOUS
 62
1
 10
1227.9
 20
848.4
 11
1227.9
 21
846.5
  0
LINE
  8
0
  6
CONTINUOUS
 62
1
 10
1210.0
 20
846.6
 11
1208.2
 21
846.6
  0
LINE
  8
0
  6
CONTINUOUS
 62
1
 10
1208.2
 20
833.3
 11
1214.7
 21
833.3
  0
LINE
  8
0
  6
CONTINUOUS
 62
1
 10
1214.6
 20
369.5
 11
1208.2
 21
369.5
  0
LINE
  8
0
  6
CONTINUOUS
 62
1
 10
1227.9
 20
846.5
 11
1214.6
 21
833.3
  0
LINE
  8
0
  6
CONTINUOUS
 62
1
 10
1227.9
 20
846.6
 11
1210.0
 21
846.6
  0
LINE
  8
0
  6
CONTINUOUS
 62
1
 10
1200.0
 20
1020.4
 11
1200.0
 21
1019.1
  0
LINE
  8
0
  6
CONTINUOUS
 62
1
 10
462.6
 20
1020.4
 11
464.4
 21
1020.4
  0
LINE
  8
0
  6
CONTINUOUS
 62
1
 10
1202.0
 20
1020.4
 11
1200.0
 21
1020.4
  0
LINE
  8
0
  6
CONTINUOUS
 62
1
 10
1201.2
 20
338.1
 11
463.4
 21
338.1
  0
LINE
  8
0
  6
CONTINUOUS
 62
1
 10
1201.2
 20
1021.2
 11
1201.2
 21
1019.4
  0
LINE
  8
0
  6
CONTINUOUS
 62
1
 10
463.4
 20
1021.2
 11
1201.2
 21
1021.2
  0
LINE
  8
0
  6
CONTINUOUS
 62
1
 10
462.6
 20
338.9
 11
462.6
 21
1020.4
  0
LINE
  8
0
  6
CONTINUOUS
 62
1
 10
1200.2
 20
1019.4
 11
1200.2
 21
1021.2
  0
LINE
  8
0
  6
CONTINUOUS
 62
1
 10
462.6
 20
338.9
 11
464.4
 21
338.9
  0
LINE
  8
0
  6
CONTINUOUS
 62
1
 10
1293.4
 20
1111.8
 11
1048.8
 21
1078.3
  0
LINE
  8
0
  6
CONTINUOUS
 62
1
 10
1153.9
 20
1021.4
 11
1141.2
 21
1021.4
  0
LINE
  8
0
  6
CONTINUOUS
 62
1
 10
1230.7
 20
1058.5
 11
1240.3
 21
1024.6
  0
LINE
  8
0
  6
CONTINUOUS
 62
1
 10
464.0
 20
1060.4
 11
1229.8
 21
1060.4
  0
LINE
  8
0
  6
CONTINUOUS
 62
1
 10
1091.2
 20
209.4
 11
1083.9
 21
209.4
  0
LINE
  8
0
  6
CONTINUOUS
 62
1
 10
1091.2
 20
212.9
 11
1091.2
 21
190.4
  0
LINE
  8
0
  6
CONTINUOUS
 62
1
 10
412.1
 20
432.5
 11
412.1
 21
432.6
  0
LINE
  8
0
  6
CONTINUOUS
 62
1
 10
412.1
 20
432.6
 11
411.8
 21
432.9
  0
LINE
  8
0
  6
CONTINUOUS
 62
1
 10
411.8
 20
432.9
 11
410.9
 21
433.6
  0
LINE
  8
0
  6
CONTINUOUS
 62
1
 10
410.9
 20
433.6
 11
409.7
 21
434.6
  0
LINE
  8
0
  6
CONTINUOUS
 62
1
 10
409.7
 20
434.6
 11
408.1
 21
435.6
  0
LINE
  8
0
  6
CONTINUOUS
 62
1
 10
408.1
 20
435.6
 11
406.6
 21
436.5
  0
LINE
  8
0
  6
CONTINUOUS
 62
1
 10
406.6
 20
436.5
 11
405.3
 21
437.3
  0
LINE
  8
0
  6
CONTINUOUS
 62
1
 10
405.3
 20
437.3
 11
404.4
 21
437.7
  0
LINE
  8
0
  6
CONTINUOUS
 62
1
 10
404.4
 20
437.7
 11
404.0
 21
437.8
  0
LINE
  8
0
  6
CONTINUOUS
 62
1
 10
404.0
 20
437.8
 11
404.0
 21
437.8
  0
LINE
  8
0
  6
CONTINUOUS
 62
1
 10
448.2
 20
902.8
 11
438.6
 21
902.8
  0
LINE
  8
0
  6
CONTINUOUS
 62
1
 10
448.2
 20
882.1
 11
448.0
 21
881.9
  0
LINE
  8
0
  6
CONTINUOUS
 62
1
 10
448.0
 20
881.9
 11
447.0
 21
881.6
  0
LINE
  8
0
  6
CONTINUOUS
 62
1
 10
447.0
 20
881.6
 11
445.5
 21
881.4
  0
LINE
  8
0
  6
CONTINUOUS
 62
1
 10
445.5
 20
881.4
 11
443.7
 21
881.3
  0
LINE
  8
0
  6
CONTINUOUS
 62
1
 10
443.7
 20
881.3
 11
441.9
 21
881.4
  0
LINE
  8
0
  6
CONTINUOUS
 62
1
 10
441.9
 20
881.4
 11
440.3
 21
881.5
  0
LINE
  8
0
  6
CONTINUOUS
 62
1
 10
440.3
 20
881.5
 11
439.1
 21
881.8
  0
LINE
  8
0
  6
CONTINUOUS
 62
1
 10
439.1
 20
881.8
 11
438.6
 21
882.1
  0
LINE
  8
0
  6
CONTINUOUS
 62
1
 10
438.6
 20
882.1
 11
438.6
 21
882.1
  0
LINE
  8
0
  6
CONTINUOUS
 62
1
 10
439.9
 20
976.4
 11
439.1
 21
976.4
  0
LINE
  8
0
  6
CONTINUOUS
 62
1
 10
448.2
 20
852.9
 11
448.1
 21
852.7
  0
LINE
  8
0
  6
CONTINUOUS
 62
1
 10
448.1
 20
852.7
 11
447.3
 21
852.4
  0
LINE
  8
0
  6
CONTINUOUS
 62
1
 10
447.3
 20
852.4
 11
445.9
 21
852.2
  0
LINE
  8
0
  6
CONTINUOUS
 62
1
 10
445.9
 20
852.2
 11
444.1
 21
852.1
  0
LINE
  8
0
  6
CONTINUOUS
 62
1
 10
444.1
 20
852.1
 11
442.3
 21
852.1
  0
LINE
  8
0
  6
CONTINUOUS
 62
1
 10
442.3
 20
852.1
 11
440.6
 21
852.2
  0
LINE
  8
0
  6
CONTINUOUS
 62
1
 10
440.6
 20
852.2
 11
439.3
 21
852.5
  0
LINE
  8
0
  6
CONTINUOUS
 62
1
 10
439.3
 20
852.5
 11
438.7
 21
852.8
  0
LINE
  8
0
  6
CONTINUOUS
 62
1
 10
438.7
 20
852.8
 11
438.6
 21
852.9
  0
LINE
  8
0
  6
CONTINUOUS
 62
1
 10
448.2
 20
785.4
 11
448.1
 21
785.5
  0
LINE
  8
0
  6
CONTINUOUS
 62
1
 10
448.1
 20
785.5
 11
447.2
 21
785.6
  0
LINE
  8
0
  6
CONTINUOUS
 62
1
 10
447.2
 20
785.6
 11
445.9
 21
785.7
  0
LINE
  8
0
  6
CONTINUOUS
 62
1
 10
445.9
 20
785.7
 11
444.1
 21
785.8
  0
LINE
  8
0
  6
CONTINUOUS
 62
1
 10
444.1
 20
785.8
 11
442.3
 21
785.7
  0
LINE
  8
0
  6
CONTINUOUS
 62
1
 10
442.3
 20
785.7
 11
440.6
 21
785.7
  0
LINE
  8
0
  6
CONTINUOUS
 62
1
 10
440.6
 20
785.7
 11
439.3
 21
785.6
  0
LINE
  8
0
  6
CONTINUOUS
 62
1
 10
439.3
 20
785.6
 11
438.7
 21
785.4
  0
LINE
  8
0
  6
CONTINUOUS
 62
1
 10
438.7
 20
785.4
 11
438.6
 21
785.4
  0
LINE
  8
0
  6
CONTINUOUS
 62
1
 10
448.2
 20
667.6
 11
448.0
 21
667.7
  0
LINE
  8
0
  6
CONTINUOUS
 62
1
 10
448.0
 20
667.7
 11
447.2
 21
667.9
  0
LINE
  8
0
  6
CONTINUOUS
 62
1
 10
447.2
 20
667.9
 11
445.7
 21
668.0
  0
LINE
  8
0
  6
CONTINUOUS
 62
1
 10
445.7
 20
668.0
 11
444.0
 21
668.1
  0
LINE
  8
0
  6
CONTINUOUS
 62
1
 10
444.0
 20
668.1
 11
442.1
 21
668.0
  0
LINE
  8
0
  6
CONTINUOUS
 62
1
 10
442.1
 20
668.0
 11
440.5
 21
667.9
  0
LINE
  8
0
  6
CONTINUOUS
 62
1
 10
440.5
 20
667.9
 11
439.3
 21
667.8
  0
LINE
  8
0
  6
CONTINUOUS
 62
1
 10
439.3
 20
667.8
 11
438.7
 21
667.6
  0
LINE
  8
0
  6
CONTINUOUS
 62
1
 10
438.7
 20
667.6
 11
438.6
 21
667.5
  0
LINE
  8
0
  6
CONTINUOUS
 62
1
 10
438.6
 20
667.5
 11
438.6
 21
667.5
  0
LINE
  8
0
  6
CONTINUOUS
 62
1
 10
448.2
 20
972.4
 11
448.2
 21
892.4
  0
LINE
  8
0
  6
CONTINUOUS
 62
1
 10
448.2
 20
890.4
 11
448.2
 21
667.6
  0
LINE
  8
0
  6
CONTINUOUS
 62
1
 10
438.6
 20
667.5
 11
438.6
 21
890.4
  0
LINE
  8
0
  6
CONTINUOUS
 62
1
 10
438.6
 20
892.4
 11
438.6
 21
972.4
  0
LINE
  8
0
  6
CONTINUOUS
 62
1
 10
449.0
 20
382.1
 11
432.9
 21
382.1
  0
LINE
  8
0
  6
CONTINUOUS
 62
1
 10
457.2
 20
391.7
 11
457.1
 21
391.7
  0
LINE
  8
0
  6
CONTINUOUS
 62
1
 10
451.9
 20
391.7
 11
451.6
 21
391.7
  0
LINE
  8
0
  6
CONTINUOUS
 62
1
 10
449.0
 20
391.7
 11
433.3
 21
391.7
  0
LINE
  8
0
  6
CONTINUOUS
 62
1
 10
419.1
 20
444.3
 11
418.6
 21
443.2
  0
LINE
  8
0
  6
CONTINUOUS
 62
1
 10
418.6
 20
443.2
 11
417.6
 21
441.3
  0
LINE
  8
0
  6
CONTINUOUS
 62
1
 10
417.6
 20
441.3
 11
416.6
 21
439.5
  0
LINE
  8
0
  6
CONTINUOUS
 62
1
 10
416.6
 20
439.5
 11
415.5
 21
437.7
  0
LINE
  8
0
  6
CONTINUOUS
 62
1
 10
415.5
 20
437.7
 11
414.4
 21
436.0
  0
LINE
  8
0
  6
CONTINUOUS
 62
1
 10
414.4
 20
436.0
 11
413.2
 21
434.2
  0
LINE
  8
0
  6
CONTINUOUS
 62
1
 10
413.2
 20
434.2
 11
412.1
 21
432.5
  0
LINE
  8
0
  6
CONTINUOUS
 62
1
 10
404.0
 20
437.8
 11
405.2
 21
439.4
  0
LINE
  8
0
  6
CONTINUOUS
 62
1
 10
405.2
 20
439.4
 11
406.3
 21
441.1
  0
LINE
  8
0
  6
CONTINUOUS
 62
1
 10
406.3
 20
441.1
 11
407.3
 21
442.8
  0
LINE
  8
0
  6
CONTINUOUS
 62
1
 10
407.3
 20
442.8
 11
408.4
 21
444.5
  0
LINE
  8
0
  6
CONTINUOUS
 62
1
 10
408.4
 20
444.5
 11
409.3
 21
446.2
  0
LINE
  8
0
  6
CONTINUOUS
 62
1
 10
409.3
 20
446.2
 11
409.6
 21
446.7
  0
LINE
  8
0
  6
CONTINUOUS
 62
1
 10
412.1
 20
432.5
 11
411.5
 21
431.6
  0
LINE
  8
0
  6
CONTINUOUS
 62
1
 10
411.5
 20
431.6
 11
411.0
 21
430.6
  0
LINE
  8
0
  6
CONTINUOUS
 62
1
 10
411.0
 20
430.6
 11
410.6
 21
429.5
  0
LINE
  8
0
  6
CONTINUOUS
 62
1
 10
410.6
 20
429.5
 11
410.2
 21
428.5
  0
LINE
  8
0
  6
CONTINUOUS
 62
1
 10
410.2
 20
428.5
 11
409.8
 21
427.5
  0
LINE
  8
0
  6
CONTINUOUS
 62
1
 10
409.8
 20
427.5
 11
409.5
 21
426.4
  0
LINE
  8
0
  6
CONTINUOUS
 62
1
 10
409.5
 20
426.4
 11
409.2
 21
425.3
  0
LINE
  8
0
  6
CONTINUOUS
 62
1
 10
409.2
 20
425.3
 11
408.9
 21
424.2
  0
LINE
  8
0
  6
CONTINUOUS
 62
1
 10
408.9
 20
424.2
 11
408.7
 21
423.1
  0
LINE
  8
0
  6
CONTINUOUS
 62
1
 10
408.7
 20
423.1
 11
408.6
 21
422.0
  0
LINE
  8
0
  6
CONTINUOUS
 62
1
 10
408.6
 20
422.0
 11
408.5
 21
420.9
  0
LINE
  8
0
  6
CONTINUOUS
 62
1
 10
408.5
 20
420.9
 11
408.4
 21
419.8
  0
LINE
  8
0
  6
CONTINUOUS
 62
1
 10
408.4
 20
419.8
 11
408.4
 21
418.7
  0
LINE
  8
0
  6
CONTINUOUS
 62
1
 10
408.4
 20
418.7
 11
408.4
 21
417.6
  0
LINE
  8
0
  6
CONTINUOUS
 62
1
 10
408.4
 20
417.6
 11
408.5
 21
416.4
  0
LINE
  8
0
  6
CONTINUOUS
 62
1
 10
408.5
 20
416.4
 11
408.6
 21
415.3
  0
LINE
  8
0
  6
CONTINUOUS
 62
1
 10
408.6
 20
415.3
 11
408.8
 21
414.2
  0
LINE
  8
0
  6
CONTINUOUS
 62
1
 10
408.8
 20
414.2
 11
409.0
 21
413.1
  0
LINE
  8
0
  6
CONTINUOUS
 62
1
 10
409.0
 20
413.1
 11
409.3
 21
412.0
  0
LINE
  8
0
  6
CONTINUOUS
 62
1
 10
409.3
 20
412.0
 11
409.6
 21
411.0
  0
LINE
  8
0
  6
CONTINUOUS
 62
1
 10
409.6
 20
411.0
 11
410.0
 21
409.9
  0
LINE
  8
0
  6
CONTINUOUS
 62
1
 10
410.0
 20
409.9
 11
410.3
 21
408.9
  0
LINE
  8
0
  6
CONTINUOUS
 62
1
 10
410.3
 20
408.9
 11
410.8
 21
407.8
  0
LINE
  8
0
  6
CONTINUOUS
 62
1
 10
410.8
 20
407.8
 11
411.3
 21
406.8
  0
LINE
  8
0
  6
CONTINUOUS
 62
1
 10
411.3
 20
406.8
 11
411.8
 21
405.8
  0
LINE
  8
0
  6
CONTINUOUS
 62
1
 10
411.8
 20
405.8
 11
412.3
 21
404.9
  0
LINE
  8
0
  6
CONTINUOUS
 62
1
 10
412.3
 20
404.9
 11
412.9
 21
403.9
  0
LINE
  8
0
  6
CONTINUOUS
 62
1
 10
412.9
 20
403.9
 11
413.6
 21
403.0
  0
LINE
  8
0
  6
CONTINUOUS
 62
1
 10
413.6
 20
403.0
 11
414.2
 21
402.1
  0
LINE
  8
0
  6
CONTINUOUS
 62
1
 10
414.2
 20
402.1
 11
415.0
 21
401.2
  0
LINE
  8
0
  6
CONTINUOUS
 62
1
 10
415.0
 20
401.2
 11
415.7
 21
400.4
  0
LINE
  8
0
  6
CONTINUOUS
 62
1
 10
415.7
 20
400.4
 11
416.5
 21
399.6
  0
LINE
  8
0
  6
CONTINUOUS
 62
1
 10
416.5
 20
399.6
 11
417.3
 21
398.8
  0
LINE
  8
0
  6
CONTINUOUS
 62
1
 10
417.3
 20
398.8
 11
418.1
 21
398.1
  0
LINE
  8
0
  6
CONTINUOUS
 62
1
 10
418.1
 20
398.1
 11
419.0
 21
397.4
  0
LINE
  8
0
  6
CONTINUOUS
 62
1
 10
419.0
 20
397.4
 11
419.9
 21
396.7
  0
LINE
  8
0
  6
CONTINUOUS
 62
1
 10
419.9
 20
396.7
 11
420.8
 21
396.1
  0
LINE
  8
0
  6
CONTINUOUS
 62
1
 10
420.8
 20
396.1
 11
421.8
 21
395.5
  0
LINE
  8
0
  6
CONTINUOUS
 62
1
 10
421.8
 20
395.5
 11
422.8
 21
394.9
  0
LINE
  8
0
  6
CONTINUOUS
 62
1
 10
422.8
 20
394.9
 11
423.8
 21
394.4
  0
LINE
  8
0
  6
CONTINUOUS
 62
1
 10
423.8
 20
394.4
 11
424.8
 21
393.9
  0
LINE
  8
0
  6
CONTINUOUS
 62
1
 10
424.8
 20
393.9
 11
425.8
 21
393.5
  0
LINE
  8
0
  6
CONTINUOUS
 62
1
 10
425.8
 20
393.5
 11
426.9
 21
393.1
  0
LINE
  8
0
  6
CONTINUOUS
 62
1
 10
426.9
 20
393.1
 11
427.9
 21
392.8
  0
LINE
  8
0
  6
CONTINUOUS
 62
1
 10
427.9
 20
392.8
 11
429.0
 21
392.4
  0
LINE
  8
0
  6
CONTINUOUS
 62
1
 10
429.0
 20
392.4
 11
430.1
 21
392.2
  0
LINE
  8
0
  6
CONTINUOUS
 62
1
 10
430.1
 20
392.2
 11
431.2
 21
392.0
  0
LINE
  8
0
  6
CONTINUOUS
 62
1
 10
431.2
 20
392.0
 11
432.3
 21
391.8
  0
LINE
  8
0
  6
CONTINUOUS
 62
1
 10
432.3
 20
391.8
 11
433.3
 21
391.7
  0
LINE
  8
0
  6
CONTINUOUS
 62
1
 10
432.9
 20
382.1
 11
431.7
 21
382.2
  0
LINE
  8
0
  6
CONTINUOUS
 62
1
 10
431.7
 20
382.2
 11
430.4
 21
382.4
  0
LINE
  8
0
  6
CONTINUOUS
 62
1
 10
430.4
 20
382.4
 11
429.1
 21
382.6
  0
LINE
  8
0
  6
CONTINUOUS
 62
1
 10
429.1
 20
382.6
 11
427.9
 21
382.8
  0
LINE
  8
0
  6
CONTINUOUS
 62
1
 10
427.9
 20
382.8
 11
426.7
 21
383.1
  0
LINE
  8
0
  6
CONTINUOUS
 62
1
 10
426.7
 20
383.1
 11
425.5
 21
383.5
  0
LINE
  8
0
  6
CONTINUOUS
 62
1
 10
425.5
 20
383.5
 11
424.2
 21
383.9
  0
LINE
  8
0
  6
CONTINUOUS
 62
1
 10
424.2
 20
383.9
 11
423.1
 21
384.3
  0
LINE
  8
0
  6
CONTINUOUS
 62
1
 10
423.1
 20
384.3
 11
421.8
 21
384.8
  0
LINE
  8
0
  6
CONTINUOUS
 62
1
 10
421.8
 20
384.8
 11
420.6
 21
385.3
  0
LINE
  8
0
  6
CONTINUOUS
 62
1
 10
420.6
 20
385.3
 11
419.3
 21
385.9
  0
LINE
  8
0
  6
CONTINUOUS
 62
1
 10
419.3
 20
385.9
 11
418.1
 21
386.5
  0
LINE
  8
0
  6
CONTINUOUS
 62
1
 10
418.1
 20
386.5
 11
416.9
 21
387.2
  0
LINE
  8
0
  6
CONTINUOUS
 62
1
 10
416.9
 20
387.2
 11
415.8
 21
387.9
  0
LINE
  8
0
  6
CONTINUOUS
 62
1
 10
415.8
 20
387.9
 11
414.7
 21
388.6
  0
LINE
  8
0
  6
CONTINUOUS
 62
1
 10
414.7
 20
388.6
 11
413.6
 21
389.4
  0
LINE
  8
0
  6
CONTINUOUS
 62
1
 10
413.6
 20
389.4
 11
412.5
 21
390.3
  0
LINE
  8
0
  6
CONTINUOUS
 62
1
 10
412.5
 20
390.3
 11
411.5
 21
391.1
  0
LINE
  8
0
  6
CONTINUOUS
 62
1
 10
411.5
 20
391.1
 11
410.5
 21
392.0
  0
LINE
  8
0
  6
CONTINUOUS
 62
1
 10
410.5
 20
392.0
 11
409.5
 21
393.0
  0
LINE
  8
0
  6
CONTINUOUS
 62
1
 10
409.5
 20
393.0
 11
408.6
 21
393.9
  0
LINE
  8
0
  6
CONTINUOUS
 62
1
 10
408.6
 20
393.9
 11
407.7
 21
394.9
  0
LINE
  8
0
  6
CONTINUOUS
 62
1
 10
407.7
 20
394.9
 11
406.8
 21
396.0
  0
LINE
  8
0
  6
CONTINUOUS
 62
1
 10
406.8
 20
396.0
 11
406.0
 21
397.0
  0
LINE
  8
0
  6
CONTINUOUS
 62
1
 10
406.0
 20
397.0
 11
405.2
 21
398.1
  0
LINE
  8
0
  6
CONTINUOUS
 62
1
 10
405.2
 20
398.1
 11
404.5
 21
399.3
  0
LINE
  8
0
  6
CONTINUOUS
 62
1
 10
404.5
 20
399.3
 11
403.8
 21
400.4
  0
LINE
  8
0
  6
CONTINUOUS
 62
1
 10
403.8
 20
400.4
 11
403.2
 21
401.6
  0
LINE
  8
0
  6
CONTINUOUS
 62
1
 10
403.2
 20
401.6
 11
402.5
 21
402.8
  0
LINE
  8
0
  6
CONTINUOUS
 62
1
 10
402.5
 20
402.8
 11
402.0
 21
404.0
  0
LINE
  8
0
  6
CONTINUOUS
 62
1
 10
402.0
 20
404.0
 11
401.5
 21
405.2
  0
LINE
  8
0
  6
CONTINUOUS
 62
1
 10
401.5
 20
405.2
 11
401.0
 21
406.5
  0
LINE
  8
0
  6
CONTINUOUS
 62
1
 10
401.0
 20
406.5
 11
400.5
 21
407.8
  0
LINE
  8
0
  6
CONTINUOUS
 62
1
 10
400.5
 20
407.8
 11
400.2
 21
409.0
  0
LINE
  8
0
  6
CONTINUOUS
 62
1
 10
400.2
 20
409.0
 11
399.8
 21
410.3
  0
LINE
  8
0
  6
CONTINUOUS
 62
1
 10
399.8
 20
410.3
 11
399.5
 21
411.6
  0
LINE
  8
0
  6
CONTINUOUS
 62
1
 10
399.5
 20
411.6
 11
399.3
 21
413.0
  0
LINE
  8
0
  6
CONTINUOUS
 62
1
 10
399.3
 20
413.0
 11
399.1
 21
414.3
  0
LINE
  8
0
  6
CONTINUOUS
 62
1
 10
399.1
 20
414.3
 11
399.0
 21
415.6
  0
LINE
  8
0
  6
CONTINUOUS
 62
1
 10
399.0
 20
415.6
 11
398.9
 21
417.0
  0
LINE
  8
0
  6
CONTINUOUS
 62
1
 10
398.9
 20
417.0
 11
398.8
 21
418.3
  0
LINE
  8
0
  6
CONTINUOUS
 62
1
 10
398.8
 20
418.3
 11
398.8
 21
419.6
  0
LINE
  8
0
  6
CONTINUOUS
 62
1
 10
398.8
 20
419.6
 11
398.9
 21
421.0
  0
LINE
  8
0
  6
CONTINUOUS
 62
1
 10
398.9
 20
421.0
 11
399.0
 21
422.3
  0
LINE
  8
0
  6
CONTINUOUS
 62
1
 10
399.0
 20
422.3
 11
399.1
 21
423.6
  0
LINE
  8
0
  6
CONTINUOUS
 62
1
 10
399.1
 20
423.6
 11
399.3
 21
425.0
  0
LINE
  8
0
  6
CONTINUOUS
 62
1
 10
399.3
 20
425.0
 11
399.6
 21
426.3
  0
LINE
  8
0
  6
CONTINUOUS
 62
1
 10
399.6
 20
426.3
 11
399.8
 21
427.6
  0
LINE
  8
0
  6
CONTINUOUS
 62
1
 10
399.8
 20
427.6
 11
400.2
 21
428.9
  0
LINE
  8
0
  6
CONTINUOUS
 62
1
 10
400.2
 20
428.9
 11
400.6
 21
430.2
  0
LINE
  8
0
  6
CONTINUOUS
 62
1
 10
400.6
 20
430.2
 11
401.0
 21
431.5
  0
LINE
  8
0
  6
CONTINUOUS
 62
1
 10
401.0
 20
431.5
 11
401.5
 21
432.7
  0
LINE
  8
0
  6
CONTINUOUS
 62
1
 10
401.5
 20
432.7
 11
402.0
 21
433.9
  0
LINE
  8
0
  6
CONTINUOUS
 62
1
 10
402.0
 20
433.9
 11
402.5
 21
434.9
  0
LINE
  8
0
  6
CONTINUOUS
 62
1
 10
402.5
 20
434.9
 11
402.9
 21
435.9
  0
LINE
  8
0
  6
CONTINUOUS
 62
1
 10
402.9
 20
435.9
 11
403.5
 21
436.8
  0
LINE
  8
0
  6
CONTINUOUS
 62
1
 10
403.5
 20
436.8
 11
404.0
 21
437.8
  0
LINE
  8
0
  6
CONTINUOUS
 62
1
 10
448.2
 20
667.6
 11
448.3
 21
662.6
  0
LINE
  8
0
  6
CONTINUOUS
 62
1
 10
448.3
 20
662.6
 11
448.3
 21
657.7
  0
LINE
  8
0
  6
CONTINUOUS
 62
1
 10
448.3
 20
657.7
 11
448.3
 21
651.7
  0
LINE
  8
0
  6
CONTINUOUS
 62
1
 10
448.3
 20
651.7
 11
448.2
 21
645.7
  0
LINE
  8
0
  6
CONTINUOUS
 62
1
 10
448.2
 20
645.7
 11
448.1
 21
639.8
  0
LINE
  8
0
  6
CONTINUOUS
 62
1
 10
448.1
 20
639.8
 11
448.0
 21
633.8
  0
LINE
  8
0
  6
CONTINUOUS
 62
1
 10
448.0
 20
633.8
 11
447.8
 21
627.8
  0
LINE
  8
0
  6
CONTINUOUS
 62
1
 10
447.8
 20
627.8
 11
447.6
 21
621.4
  0
LINE
  8
0
  6
CONTINUOUS
 62
1
 10
447.6
 20
621.4
 11
447.3
 21
615.0
  0
LINE
  8
0
  6
CONTINUOUS
 62
1
 10
447.3
 20
615.0
 11
447.0
 21
608.6
  0
LINE
  8
0
  6
CONTINUOUS
 62
1
 10
447.0
 20
608.6
 11
446.6
 21
602.2
  0
LINE
  8
0
  6
CONTINUOUS
 62
1
 10
446.6
 20
602.2
 11
446.2
 21
595.8
  0
LINE
  8
0
  6
CONTINUOUS
 62
1
 10
446.2
 20
595.8
 11
445.7
 21
589.5
  0
LINE
  8
0
  6
CONTINUOUS
 62
1
 10
445.7
 20
589.5
 11
445.1
 21
583.1
  0
LINE
  8
0
  6
CONTINUOUS
 62
1
 10
445.1
 20
583.1
 11
444.6
 21
576.7
  0
LINE
  8
0
  6
CONTINUOUS
 62
1
 10
444.6
 20
576.7
 11
443.9
 21
570.3
  0
LINE
  8
0
  6
CONTINUOUS
 62
1
 10
443.9
 20
570.3
 11
443.3
 21
563.9
  0
LINE
  8
0
  6
CONTINUOUS
 62
1
 10
443.3
 20
563.9
 11
442.5
 21
557.6
  0
LINE
  8
0
  6
CONTINUOUS
 62
1
 10
442.5
 20
557.6
 11
441.8
 21
551.2
  0
LINE
  8
0
  6
CONTINUOUS
 62
1
 10
441.8
 20
551.2
 11
441.0
 21
544.9
  0
LINE
  8
0
  6
CONTINUOUS
 62
1
 10
441.0
 20
544.9
 11
440.1
 21
538.5
  0
LINE
  8
0
  6
CONTINUOUS
 62
1
 10
440.1
 20
538.5
 11
439.2
 21
532.1
  0
LINE
  8
0
  6
CONTINUOUS
 62
1
 10
439.2
 20
532.1
 11
438.2
 21
525.7
  0
LINE
  8
0
  6
CONTINUOUS
 62
1
 10
438.2
 20
525.7
 11
437.2
 21
519.2
  0
LINE
  8
0
  6
CONTINUOUS
 62
1
 10
437.2
 20
519.2
 11
436.1
 21
512.8
  0
LINE
  8
0
  6
CONTINUOUS
 62
1
 10
436.1
 20
512.8
 11
435.0
 21
506.4
  0
LINE
  8
0
  6
CONTINUOUS
 62
1
 10
435.0
 20
506.4
 11
433.8
 21
500.0
  0
LINE
  8
0
  6
CONTINUOUS
 62
1
 10
433.8
 20
500.0
 11
432.6
 21
493.6
  0
LINE
  8
0
  6
CONTINUOUS
 62
1
 10
432.6
 20
493.6
 11
431.3
 21
487.3
  0
LINE
  8
0
  6
CONTINUOUS
 62
1
 10
431.3
 20
487.3
 11
430.0
 21
480.9
  0
LINE
  8
0
  6
CONTINUOUS
 62
1
 10
430.0
 20
480.9
 11
429.1
 21
476.7
  0
LINE
  8
0
  6
CONTINUOUS
 62
1
 10
419.8
 20
479.2
 11
419.9
 21
479.8
  0
LINE
  8
0
  6
CONTINUOUS
 62
1
 10
419.9
 20
479.8
 11
420.6
 21
483.1
  0
LINE
  8
0
  6
CONTINUOUS
 62
1
 10
425.5
 20
507.9
 11
425.7
 21
509.1
  0
LINE
  8
0
  6
CONTINUOUS
 62
1
 10
425.7
 20
509.1
 11
426.8
 21
515.4
  0
LINE
  8
0
  6
CONTINUOUS
 62
1
 10
426.8
 20
515.4
 11
427.8
 21
521.7
  0
LINE
  8
0
  6
CONTINUOUS
 62
1
 10
427.8
 20
521.7
 11
428.8
 21
528.1
  0
LINE
  8
0
  6
CONTINUOUS
 62
1
 10
428.8
 20
528.1
 11
429.8
 21
534.4
  0
LINE
  8
0
  6
CONTINUOUS
 62
1
 10
429.8
 20
534.4
 11
430.7
 21
540.7
  0
LINE
  8
0
  6
CONTINUOUS
 62
1
 10
430.7
 20
540.7
 11
431.6
 21
547.1
  0
LINE
  8
0
  6
CONTINUOUS
 62
1
 10
431.6
 20
547.1
 11
432.4
 21
553.5
  0
LINE
  8
0
  6
CONTINUOUS
 62
1
 10
432.4
 20
553.5
 11
433.1
 21
559.8
  0
LINE
  8
0
  6
CONTINUOUS
 62
1
 10
433.1
 20
559.8
 11
433.9
 21
566.2
  0
LINE
  8
0
  6
CONTINUOUS
 62
1
 10
433.9
 20
566.2
 11
434.5
 21
572.6
  0
LINE
  8
0
  6
CONTINUOUS
 62
1
 10
434.5
 20
572.6
 11
435.1
 21
578.9
  0
LINE
  8
0
  6
CONTINUOUS
 62
1
 10
435.1
 20
578.9
 11
435.7
 21
585.3
  0
LINE
  8
0
  6
CONTINUOUS
 62
1
 10
435.7
 20
585.3
 11
436.2
 21
591.7
  0
LINE
  8
0
  6
CONTINUOUS
 62
1
 10
436.2
 20
591.7
 11
436.7
 21
598.1
  0
LINE
  8
0
  6
CONTINUOUS
 62
1
 10
436.7
 20
598.1
 11
437.1
 21
604.4
  0
LINE
  8
0
  6
CONTINUOUS
 62
1
 10
437.1
 20
604.4
 11
437.5
 21
610.7
  0
LINE
  8
0
  6
CONTINUOUS
 62
1
 10
437.5
 20
610.7
 11
437.8
 21
617.0
  0
LINE
  8
0
  6
CONTINUOUS
 62
1
 10
437.8
 20
617.0
 11
438.1
 21
623.3
  0
LINE
  8
0
  6
CONTINUOUS
 62
1
 10
438.1
 20
623.3
 11
438.3
 21
629.6
  0
LINE
  8
0
  6
CONTINUOUS
 62
1
 10
438.3
 20
629.6
 11
438.5
 21
635.9
  0
LINE
  8
0
  6
CONTINUOUS
 62
1
 10
438.5
 20
635.9
 11
438.6
 21
642.3
  0
LINE
  8
0
  6
CONTINUOUS
 62
1
 10
438.6
 20
642.3
 11
438.7
 21
648.6
  0
LINE
  8
0
  6
CONTINUOUS
 62
1
 10
438.7
 20
648.6
 11
438.7
 21
654.9
  0
LINE
  8
0
  6
CONTINUOUS
 62
1
 10
438.7
 20
654.9
 11
438.7
 21
661.2
  0
LINE
  8
0
  6
CONTINUOUS
 62
1
 10
438.7
 20
661.2
 11
438.6
 21
667.5
  0
LINE
  8
0
  6
CONTINUOUS
 62
1
 10
449.7
 20
984.9
 11
451.0
 21
987.4
  0
LINE
  8
0
  6
CONTINUOUS
 62
1
 10
436.4
 20
1008.2
 11
439.4
 21
1009.4
  0
LINE
  8
0
  6
CONTINUOUS
 62
1
 10
439.4
 20
990.4
 11
439.4
 21
1036.4
  0
LINE
  8
0
  6
CONTINUOUS
 62
1
 10
439.4
 20
1029.1
 11
451.4
 21
1029.1
  0
LINE
  8
0
  6
CONTINUOUS
 62
1
 10
458.4
 20
990.4
 11
448.4
 21
972.4
  0
LINE
  8
0
  6
CONTINUOUS
 62
1
 10
434.4
 20
972.4
 11
448.4
 21
972.4
  0
LINE
  8
0
  6
CONTINUOUS
 62
1
 10
436.4
 20
1027.4
 11
436.4
 21
990.4
  0
LINE
  8
0
  6
CONTINUOUS
 62
1
 10
451.4
 20
1011.4
 11
451.4
 21
1033.7
  0
LINE
  8
0
  6
CONTINUOUS
 62
1
 10
436.5
 20
999.4
 11
436.6
 21
998.9
  0
LINE
  8
0
  6
CONTINUOUS
 62
1
 10
448.3
 20
982.4
 11
454.0
 21
982.4
  0
LINE
  8
0
  6
CONTINUOUS
 62
1
 10
451.4
 20
1033.7
 11
461.7
 21
1033.7
  0
LINE
  8
0
  6
CONTINUOUS
 62
1
 10
436.4
 20
1000.4
 11
462.6
 21
1000.4
  0
LINE
  8
0
  6
CONTINUOUS
 62
1
 10
446.9
 20
979.9
 11
448.3
 21
982.4
  0
LINE
  8
0
  6
CONTINUOUS
 62
1
 10
439.7
 20
974.9
 11
434.7
 21
974.9
  0
LINE
  8
0
  6
CONTINUOUS
 62
1
 10
435.0
 20
977.4
 11
440.0
 21
977.4
  0
LINE
  8
0
  6
CONTINUOUS
 62
1
 10
439.4
 20
1036.4
 11
461.7
 21
1036.4
  0
LINE
  8
0
  6
CONTINUOUS
 62
1
 10
455.4
 20
984.9
 11
449.7
 21
984.9
  0
LINE
  8
0
  6
CONTINUOUS
 62
1
 10
441.1
 20
987.4
 11
440.9
 21
984.9
  0
LINE
  8
0
  6
CONTINUOUS
 62
1
 10
451.0
 20
987.4
 11
456.8
 21
987.4
  0
LINE
  8
0
  6
CONTINUOUS
 62
1
 10
436.4
 20
1026.7
 11
439.4
 21
1029.1
  0
LINE
  8
0
  6
CONTINUOUS
 62
1
 10
436.1
 20
987.4
 11
441.1
 21
987.4
  0
LINE
  8
0
  6
CONTINUOUS
 62
1
 10
451.4
 20
1012.9
 11
462.6
 21
1012.9
  0
LINE
  8
0
  6
CONTINUOUS
 62
1
 10
439.4
 20
990.4
 11
462.6
 21
990.4
  0
LINE
  8
0
  6
CONTINUOUS
 62
1
 10
452.6
 20
979.9
 11
446.9
 21
979.9
  0
LINE
  8
0
  6
CONTINUOUS
 62
1
 10
434.4
 20
972.4
 11
436.4
 21
990.4
  0
LINE
  8
0
  6
CONTINUOUS
 62
1
 10
440.3
 20
979.9
 11
435.3
 21
979.9
  0
LINE
  8
0
  6
CONTINUOUS
 62
1
 10
440.9
 20
984.9
 11
435.8
 21
984.9
  0
LINE
  8
0
  6
CONTINUOUS
 62
1
 10
436.4
 20
1027.4
 11
439.4
 21
1036.4
  0
LINE
  8
0
  6
CONTINUOUS
 62
1
 10
462.6
 20
1011.4
 11
451.4
 21
1011.4
  0
LINE
  8
0
  6
CONTINUOUS
 62
1
 10
435.5
 20
982.4
 11
440.6
 21
982.4
  0
LINE
  8
0
  6
CONTINUOUS
 62
1
 10
440.0
 20
977.4
 11
439.7
 21
974.9
  0
LINE
  8
0
  6
CONTINUOUS
 62
1
 10
436.4
 20
999.4
 11
436.5
 21
999.4
  0
LINE
  8
0
  6
CONTINUOUS
 62
1
 10
439.4
 20
1009.4
 11
462.6
 21
1009.4
  0
LINE
  8
0
  6
CONTINUOUS
 62
1
 10
440.6
 20
982.4
 11
440.3
 21
979.9
  0
LINE
  8
0
  6
CONTINUOUS
 62
1
 10
436.4
 20
990.4
 11
439.4
 21
990.4
  0
LINE
  8
0
  6
CONTINUOUS
 62
1
 10
439.4
 20
990.4
 11
436.6
 21
998.9
  0
LINE
  8
0
  6
CONTINUOUS
 62
1
 10
462.2
 20
429.9
 11
462.2
 21
403.4
  0
LINE
  8
0
  6
CONTINUOUS
 62
1
 10
1240.6
 20
876.7
 11
1241.6
 21
876.1
  0
LINE
  8
0
  6
CONTINUOUS
 62
1
 10
461.4
 20
1026.4
 11
461.4
 21
1024.6
  0
POLYLINE
  8
0
  6
CONTINUOUS
 62
1
 66
1
 70
0
  0
VERTEX
  8
0
 10
579.4
 20
1305.6
 70
0
 42
0.0
  0
VERTEX
  8
0
 10
579.4
 20
1305.6
 70
0
 42
0.0
  0
VERTEX
  8
0
 10
582.2
 20
1306.8
 70
0
 42
0.0
  0
VERTEX
  8
0
 10
582.2
 20
1306.8
 70
0
 42
0.0
  0
VERTEX
  8
0
 10
583.3
 20
1309.6
 70
0
  0
SEQEND
  0
POLYLINE
  8
0
  6
CONTINUOUS
 62
1
 66
1
 70
0
  0
VERTEX
  8
0
 10
585.7
 20
1309.6
 70
0
 42
0.0
  0
VERTEX
  8
0
 10
585.7
 20
1309.6
 70
0
 42
0.0
  0
VERTEX
  8
0
 10
583.9
 20
1305.0
 70
0
 42
0.0
  0
VERTEX
  8
0
 10
583.9
 20
1305.0
 70
0
 42
0.0
  0
VERTEX
  8
0
 10
579.4
 20
1303.1
 70
0
  0
SEQEND
  0
POLYLINE
  8
0
  6
CONTINUOUS
 62
1
 66
1
 70
0
  0
VERTEX
  8
0
 10
584.6
 20
1303.1
 70
0
 42
0.0
  0
VERTEX
  8
0
 10
584.6
 20
1303.1
 70
0
 42
0.0
  0
VERTEX
  8
0
 10
589.0
 20
1305.0
 70
0
 42
0.0
  0
VERTEX
  8
0
 10
589.0
 20
1305.0
 70
0
 42
0.0
  0
VERTEX
  8
0
 10
590.9
 20
1309.6
 70
0
  0
SEQEND
  0
POLYLINE
  8
0
  6
CONTINUOUS
 62
1
 66
1
 70
0
  0
VERTEX
  8
0
 10
498.4
 20
1321.7
 70
0
 42
0.0
  0
VERTEX
  8
0
 10
498.4
 20
1321.7
 70
0
 42
0.0
  0
VERTEX
  8
0
 10
498.4
 20
1322.8
 70
0
  0
SEQEND
  0
POLYLINE
  8
0
  6
CONTINUOUS
 62
1
 66
1
 70
0
  0
VERTEX
  8
0
 10
498.4
 20
1322.8
 70
0
 42
0.0
  0
VERTEX
  8
0
 10
498.4
 20
1322.8
 70
0
 42
0.0
  0
VERTEX
  8
0
 10
498.4
 20
1327.4
 70
0
  0
SEQEND
  0
POLYLINE
  8
0
  6
CONTINUOUS
 62
1
 66
1
 70
0
  0
VERTEX
  8
0
 10
498.4
 20
1327.4
 70
0
 42
0.0
  0
VERTEX
  8
0
 10
498.4
 20
1327.4
 70
0
 42
0.0
  0
VERTEX
  8
0
 10
498.4
 20
1328.5
 70
0
  0
SEQEND
  0
POLYLINE
  8
0
  6
CONTINUOUS
 62
1
 66
1
 70
0
  0
VERTEX
  8
0
 10
500.9
 20
1315.1
 70
0
 42
0.0
  0
VERTEX
  8
0
 10
500.9
 20
1315.1
 70
0
 42
0.0
  0
VERTEX
  8
0
 10
500.8
 20
1315.1
 70
0
  0
SEQEND
  0
POLYLINE
  8
0
  6
CONTINUOUS
 62
1
 66
1
 70
0
  0
VERTEX
  8
0
 10
500.8
 20
1335.1
 70
0
 42
0.0
  0
VERTEX
  8
0
 10
500.8
 20
1335.1
 70
0
 42
0.0
  0
VERTEX
  8
0
 10
500.9
 20
1335.1
 70
0
  0
SEQEND
  0
POLYLINE
  8
0
  6
CONTINUOUS
 62
1
 66
1
 70
0
  0
VERTEX
  8
0
 10
498.4
 20
1328.5
 70
0
 42
0.0
  0
VERTEX
  8
0
 10
498.4
 20
1328.5
 70
0
 42
0.0
  0
VERTEX
  8
0
 10
499.0
 20
1331.9
 70
0
  0
SEQEND
  0
POLYLINE
  8
0
  6
CONTINUOUS
 62
1
 66
1
 70
0
  0
VERTEX
  8
0
 10
517.3
 20
1317.3
 70
0
 42
0.0
  0
VERTEX
  8
0
 10
517.3
 20
1317.3
 70
0
 42
0.0
  0
VERTEX
  8
0
 10
515.9
 20
1319.6
 70
0
 42
0.0
  0
VERTEX
  8
0
 10
515.9
 20
1319.6
 70
0
 42
0.0
  0
VERTEX
  8
0
 10
515.3
 20
1325.1
 70
0
 42
0.0
  0
VERTEX
  8
0
 10
515.3
 20
1325.1
 70
0
 42
0.0
  0
VERTEX
  8
0
 10
515.9
 20
1330.6
 70
0
 42
0.0
  0
VERTEX
  8
0
 10
515.9
 20
1330.6
 70
0
 42
0.0
  0
VERTEX
  8
0
 10
517.3
 20
1332.8
 70
0
  0
SEQEND
  0
POLYLINE
  8
0
  6
CONTINUOUS
 62
1
 66
1
 70
0
  0
VERTEX
  8
0
 10
500.4
 20
1334.9
 70
0
 42
0.0
  0
VERTEX
  8
0
 10
500.4
 20
1334.9
 70
0
 42
0.0
  0
VERTEX
  8
0
 10
500.8
 20
1335.1
 70
0
  0
SEQEND
  0
POLYLINE
  8
0
  6
CONTINUOUS
 62
1
 66
1
 70
0
  0
VERTEX
  8
0
 10
517.3
 20
1333.1
 70
0
 42
0.0
  0
VERTEX
  8
0
 10
517.3
 20
1333.1
 70
0
 42
0.0
  0
VERTEX
  8
0
 10
517.8
 20
1332.8
 70
0
  0
SEQEND
  0
POLYLINE
  8
0
  6
CONTINUOUS
 62
1
 66
1
 70
0
  0
VERTEX
  8
0
 10
517.8
 20
1317.3
 70
0
 42
0.0
  0
VERTEX
  8
0
 10
517.8
 20
1317.3
 70
0
 42
0.0
  0
VERTEX
  8
0
 10
517.3
 20
1317.1
 70
0
  0
SEQEND
  0
POLYLINE
  8
0
  6
CONTINUOUS
 62
1
 66
1
 70
0
  0
VERTEX
  8
0
 10
517.3
 20
1317.1
 70
0
 42
0.0
  0
VERTEX
  8
0
 10
517.3
 20
1317.1
 70
0
 42
0.0
  0
VERTEX
  8
0
 10
515.8
 20
1319.4
 70
0
 42
0.0
  0
VERTEX
  8
0
 10
515.8
 20
1319.4
 70
0
 42
0.0
  0
VERTEX
  8
0
 10
515.2
 20
1325.1
 70
0
 42
0.0
  0
VERTEX
  8
0
 10
515.2
 20
1325.1
 70
0
 42
0.0
  0
VERTEX
  8
0
 10
515.8
 20
1330.7
 70
0
 42
0.0
  0
VERTEX
  8
0
 10
515.8
 20
1330.7
 70
0
 42
0.0
  0
VERTEX
  8
0
 10
517.3
 20
1333.1
 70
0
  0
SEQEND
  0
POLYLINE
  8
0
  6
CONTINUOUS
 62
1
 66
1
 70
0
  0
VERTEX
  8
0
 10
500.4
 20
1315.2
 70
0
 42
0.0
  0
VERTEX
  8
0
 10
500.4
 20
1315.2
 70
0
 42
0.0
  0
VERTEX
  8
0
 10
499.0
 20
1318.3
 70
0
  0
SEQEND
  0
POLYLINE
  8
0
  6
CONTINUOUS
 62
1
 66
1
 70
0
  0
VERTEX
  8
0
 10
499.0
 20
1318.3
 70
0
 42
0.0
  0
VERTEX
  8
0
 10
499.0
 20
1318.3
 70
0
 42
0.0
  0
VERTEX
  8
0
 10
499.0
 20
1318.3
 70
0
  0
SEQEND
  0
POLYLINE
  8
0
  6
CONTINUOUS
 62
1
 66
1
 70
0
  0
VERTEX
  8
0
 10
500.8
 20
1315.1
 70
0
 42
0.0
  0
VERTEX
  8
0
 10
500.8
 20
1315.1
 70
0
 42
0.0
  0
VERTEX
  8
0
 10
500.4
 20
1315.2
 70
0
  0
SEQEND
  0
POLYLINE
  8
0
  6
CONTINUOUS
 62
1
 66
1
 70
0
  0
VERTEX
  8
0
 10
520.2
 20
1319.1
 70
0
 42
0.0
  0
VERTEX
  8
0
 10
520.2
 20
1319.1
 70
0
 42
0.0
  0
VERTEX
  8
0
 10
518.8
 20
1322.1
 70
0
 42
0.0
  0
VERTEX
  8
0
 10
518.8
 20
1322.1
 70
0
 42
0.0
  0
VERTEX
  8
0
 10
518.8
 20
1328.1
 70
0
 42
0.0
  0
VERTEX
  8
0
 10
518.8
 20
1328.1
 70
0
 42
0.0
  0
VERTEX
  8
0
 10
520.2
 20
1331.1
 70
0
  0
SEQEND
  0
POLYLINE
  8
0
  6
CONTINUOUS
 62
1
 66
1
 70
0
  0
VERTEX
  8
0
 10
520.2
 20
1332.8
 70
0
 42
0.0
  0
VERTEX
  8
0
 10
520.2
 20
1332.8
 70
0
 42
0.0
  0
VERTEX
  8
0
 10
521.5
 20
1331.1
 70
0
  0
SEQEND
  0
POLYLINE
  8
0
  6
CONTINUOUS
 62
1
 66
1
 70
0
  0
VERTEX
  8
0
 10
521.5
 20
1319.1
 70
0
 42
0.0
  0
VERTEX
  8
0
 10
521.5
 20
1319.1
 70
0
 42
0.0
  0
VERTEX
  8
0
 10
520.2
 20
1317.3
 70
0
  0
SEQEND
  0
POLYLINE
  8
0
  6
CONTINUOUS
 62
1
 66
1
 70
0
  0
VERTEX
  8
0
 10
520.2
 20
1317.3
 70
0
 42
0.0
  0
VERTEX
  8
0
 10
520.2
 20
1317.3
 70
0
 42
0.0
  0
VERTEX
  8
0
 10
518.8
 20
1319.6
 70
0
 42
0.0
  0
VERTEX
  8
0
 10
518.8
 20
1319.6
 70
0
 42
0.0
  0
VERTEX
  8
0
 10
518.2
 20
1325.1
 70
0
 42
0.0
  0
VERTEX
  8
0
 10
518.2
 20
1325.1
 70
0
 42
0.0
  0
VERTEX
  8
0
 10
518.8
 20
1330.6
 70
0
 42
0.0
  0
VERTEX
  8
0
 10
518.8
 20
1330.6
 70
0
 42
0.0
  0
VERTEX
  8
0
 10
520.2
 20
1332.8
 70
0
  0
SEQEND
  0
POLYLINE
  8
0
  6
CONTINUOUS
 62
1
 66
1
 70
0
  0
VERTEX
  8
0
 10
499.0
 20
1331.9
 70
0
 42
0.0
  0
VERTEX
  8
0
 10
499.0
 20
1331.9
 70
0
 42
0.0
  0
VERTEX
  8
0
 10
499.0
 20
1331.9
 70
0
  0
SEQEND
  0
POLYLINE
  8
0
  6
CONTINUOUS
 62
1
 66
1
 70
0
  0
VERTEX
  8
0
 10
499.0
 20
1331.9
 70
0
 42
0.0
  0
VERTEX
  8
0
 10
499.0
 20
1331.9
 70
0
 42
0.0
  0
VERTEX
  8
0
 10
500.4
 20
1334.9
 70
0
  0
SEQEND
  0
POLYLINE
  8
0
  6
CONTINUOUS
 62
1
 66
1
 70
0
  0
VERTEX
  8
0
 10
499.0
 20
1318.3
 70
0
 42
0.0
  0
VERTEX
  8
0
 10
499.0
 20
1318.3
 70
0
 42
0.0
  0
VERTEX
  8
0
 10
498.4
 20
1321.7
 70
0
  0
SEQEND
  0
POLYLINE
  8
0
  6
CONTINUOUS
 62
1
 66
1
 70
0
  0
VERTEX
  8
0
 10
520.2
 20
1331.1
 70
0
 42
0.0
  0
VERTEX
  8
0
 10
520.2
 20
1331.1
 70
0
 42
0.0
  0
VERTEX
  8
0
 10
518.8
 20
1328.1
 70
0
 42
0.0
  0
VERTEX
  8
0
 10
518.8
 20
1328.1
 70
0
 42
0.0
  0
VERTEX
  8
0
 10
518.8
 20
1322.1
 70
0
 42
0.0
  0
VERTEX
  8
0
 10
518.8
 20
1322.1
 70
0
 42
0.0
  0
VERTEX
  8
0
 10
520.2
 20
1319.1
 70
0
  0
SEQEND
  0
LINE
  8
0
  6
CONTINUOUS
 62
1
 10
463.5
 20
1059.2
 11
463.5
 21
1058.2
  0
LINE
  8
0
  6
CONTINUOUS
 62
1
 10
463.0
 20
1058.2
 11
463.0
 21
1060.4
  0
LINE
  8
0
  6
CONTINUOUS
 62
1
 10
464.0
 20
1058.2
 11
461.8
 21
1058.2
  0
LINE
  8
0
  6
CONTINUOUS
 62
1
 10
461.8
 20
1059.2
 11
464.0
 21
1059.2
  0
LINE
  8
0
  6
CONTINUOUS
 62
1
 10
464.0
 20
1060.4
 11
464.0
 21
1058.2
  0
LINE
  8
0
  6
CONTINUOUS
 62
1
 10
463.0
 20
1061.6
 11
463.0
 21
1063.1
  0
LINE
  8
0
  6
CONTINUOUS
 62
1
 10
527.5
 20
1207.5
 11
530.5
 21
1207.6
  0
LINE
  8
0
  6
CONTINUOUS
 62
1
 10
526.4
 20
1219.8
 11
530.3
 21
1220.0
  0
LINE
  8
0
  6
CONTINUOUS
 62
1
 10
526.9
 20
1219.5
 11
526.9
 21
1219.5
  0
LINE
  8
0
  6
CONTINUOUS
 62
1
 10
527.0
 20
1207.4
 11
526.0
 21
1226.3
  0
LINE
  8
0
  6
CONTINUOUS
 62
1
 10
531.0
 20
1207.7
 11
530.5
 21
1207.3
  0
LINE
  8
0
  6
CONTINUOUS
 62
1
 10
529.8
 20
1220.6
 11
529.8
 21
1220.6
  0
LINE
  8
0
  6
CONTINUOUS
 62
1
 10
526.6
 20
1225.1
 11
526.2
 21
1224.4
  0
LINE
  8
0
  6
CONTINUOUS
 62
1
 10
527.3
 20
1211.8
 11
527.3
 21
1211.8
  0
LINE
  8
0
  6
CONTINUOUS
 62
1
 10
529.5
 20
1227.0
 11
529.5
 21
1227.0
  0
LINE
  8
0
  6
CONTINUOUS
 62
1
 10
526.1
 20
1225.0
 11
526.6
 21
1225.1
  0
LINE
  8
0
  6
CONTINUOUS
 62
1
 10
526.8
 20
1211.6
 11
527.3
 21
1211.0
  0
LINE
  8
0
  6
CONTINUOUS
 62
1
 10
526.3
 20
1221.6
 11
526.8
 21
1221.4
  0
LINE
  8
0
  6
CONTINUOUS
 62
1
 10
527.2
 20
1214.6
 11
527.2
 21
1214.6
  0
LINE
  8
0
  6
CONTINUOUS
 62
1
 10
529.6
 20
1225.8
 11
529.6
 21
1225.8
  0
LINE
  8
0
  6
CONTINUOUS
 62
1
 10
527.4
 20
1209.5
 11
527.0
 21
1209.5
  0
LINE
  8
0
  6
CONTINUOUS
 62
1
 10
531.0
 20
1207.6
 11
530.6
 21
1207.1
  0
LINE
  8
0
  6
CONTINUOUS
 62
1
 10
527.0
 20
1208.0
 11
527.5
 21
1207.5
  0
LINE
  8
0
  6
CONTINUOUS
 62
1
 10
526.5
 20
1218.9
 11
530.4
 21
1219.1
  0
LINE
  8
0
  6
CONTINUOUS
 62
1
 10
526.9
 20
1219.5
 11
529.9
 21
1219.7
  0
LINE
  8
0
  6
CONTINUOUS
 62
1
 10
529.5
 20
1227.0
 11
529.5
 21
1227.0
  0
LINE
  8
0
  6
CONTINUOUS
 62
1
 10
526.2
 20
1224.4
 11
526.6
 21
1224.5
  0
LINE
  8
0
  6
CONTINUOUS
 62
1
 10
527.5
 20
1207.8
 11
530.5
 21
1208.0
  0
LINE
  8
0
  6
CONTINUOUS
 62
1
 10
526.5
 20
1226.4
 11
526.1
 21
1225.8
  0
LINE
  8
0
  6
CONTINUOUS
 62
1
 10
527.3
 20
1211.8
 11
526.8
 21
1211.6
  0
LINE
  8
0
  6
CONTINUOUS
 62
1
 10
530.1
 20
1215.7
 11
530.5
 21
1216.3
  0
LINE
  8
0
  6
CONTINUOUS
 62
1
 10
527.2
 20
1213.6
 11
527.2
 21
1213.6
  0
LINE
  8
0
  6
CONTINUOUS
 62
1
 10
530.5
 20
1207.3
 11
530.5
 21
1207.3
  0
LINE
  8
0
  6
CONTINUOUS
 62
1
 10
530.4
 20
1209.7
 11
530.4
 21
1209.7
  0
LINE
  8
0
  6
CONTINUOUS
 62
1
 10
527.5
 20
1207.8
 11
527.0
 21
1208.0
  0
LINE
  8
0
  6
CONTINUOUS
 62
1
 10
530.1
 20
1216.7
 11
530.1
 21
1216.7
  0
LINE
  8
0
  6
CONTINUOUS
 62
1
 10
526.9
 20
1219.5
 11
526.5
 21
1218.9
  0
LINE
  8
0
  6
CONTINUOUS
 62
1
 10
527.0
 20
1218.6
 11
527.0
 21
1218.6
  0
LINE
  8
0
  6
CONTINUOUS
 62
1
 10
527.3
 20
1212.7
 11
527.3
 21
1212.7
  0
LINE
  8
0
  6
CONTINUOUS
 62
1
 10
527.0
 20
1208.5
 11
527.5
 21
1207.8
  0
LINE
  8
0
  6
CONTINUOUS
 62
1
 10
527.5
 20
1207.5
 11
527.5
 21
1207.5
  0
LINE
  8
0
  6
CONTINUOUS
 62
1
 10
526.1
 20
1225.8
 11
526.6
 21
1226.1
  0
LINE
  8
0
  6
CONTINUOUS
 62
1
 10
530.3
 20
1212.0
 11
530.3
 21
1212.0
  0
LINE
  8
0
  6
CONTINUOUS
 62
1
 10
526.6
 20
1216.1
 11
530.5
 21
1216.3
  0
LINE
  8
0
  6
CONTINUOUS
 62
1
 10
527.2
 20
1214.6
 11
530.2
 21
1214.7
  0
LINE
  8
0
  6
CONTINUOUS
 62
1
 10
529.6
 20
1226.2
 11
529.6
 21
1226.2
  0
LINE
  8
0
  6
CONTINUOUS
 62
1
 10
527.6
 20
1206.9
 11
527.6
 21
1206.9
  0
LINE
  8
0
  6
CONTINUOUS
 62
1
 10
526.9
 20
1210.2
 11
530.9
 21
1210.4
  0
LINE
  8
0
  6
CONTINUOUS
 62
1
 10
527.4
 20
1209.5
 11
530.4
 21
1209.7
  0
LINE
  8
0
  6
CONTINUOUS
 62
1
 10
530.5
 20
1208.0
 11
530.5
 21
1208.0
  0
LINE
  8
0
  6
CONTINUOUS
 62
1
 10
530.0
 20
1226.5
 11
531.0
 21
1207.6
  0
LINE
  8
0
  6
CONTINUOUS
 62
1
 10
526.5
 20
1218.9
 11
527.0
 21
1218.6
  0
LINE
  8
0
  6
CONTINUOUS
 62
1
 10
527.0
 20
1218.6
 11
526.5
 21
1218.0
  0
LINE
  8
0
  6
CONTINUOUS
 62
1
 10
530.4
 20
1219.1
 11
529.9
 21
1219.7
  0
LINE
  8
0
  6
CONTINUOUS
 62
1
 10
530.0
 20
1217.7
 11
530.0
 21
1217.7
  0
LINE
  8
0
  6
CONTINUOUS
 62
1
 10
530.2
 20
1213.8
 11
530.6
 21
1214.4
  0
LINE
  8
0
  6
CONTINUOUS
 62
1
 10
527.2
 20
1213.6
 11
530.2
 21
1213.8
  0
LINE
  8
0
  6
CONTINUOUS
 62
1
 10
526.5
 20
1226.6
 11
529.5
 21
1226.8
  0
LINE
  8
0
  6
CONTINUOUS
 62
1
 10
527.4
 20
1210.2
 11
527.4
 21
1210.2
  0
LINE
  8
0
  6
CONTINUOUS
 62
1
 10
526.8
 20
1212.5
 11
530.7
 21
1212.7
  0
LINE
  8
0
  6
CONTINUOUS
 62
1
 10
527.1
 20
1215.6
 11
527.1
 21
1215.6
  0
LINE
  8
0
  6
CONTINUOUS
 62
1
 10
527.1
 20
1216.6
 11
530.1
 21
1216.7
  0
LINE
  8
0
  6
CONTINUOUS
 62
1
 10
526.7
 20
1215.1
 11
527.2
 21
1214.6
  0
LINE
  8
0
  6
CONTINUOUS
 62
1
 10
526.6
 20
1224.5
 11
529.6
 21
1224.7
  0
LINE
  8
0
  6
CONTINUOUS
 62
1
 10
530.5
 20
1207.3
 11
531.0
 21
1207.9
  0
LINE
  8
0
  6
CONTINUOUS
 62
1
 10
530.4
 20
1209.7
 11
530.9
 21
1210.4
  0
LINE
  8
0
  6
CONTINUOUS
 62
1
 10
526.9
 20
1210.2
 11
527.4
 21
1209.5
  0
LINE
  8
0
  6
CONTINUOUS
 62
1
 10
527.1
 20
1216.6
 11
527.1
 21
1216.6
  0
LINE
  8
0
  6
CONTINUOUS
 62
1
 10
529.9
 20
1218.7
 11
530.4
 21
1219.1
  0
LINE
  8
0
  6
CONTINUOUS
 62
1
 10
527.5
 20
1208.3
 11
527.0
 21
1208.5
  0
LINE
  8
0
  6
CONTINUOUS
 62
1
 10
530.2
 20
1214.7
 11
530.2
 21
1214.8
  0
LINE
  8
0
  6
CONTINUOUS
 62
1
 10
526.7
 20
1214.2
 11
527.2
 21
1213.6
  0
LINE
  8
0
  6
CONTINUOUS
 62
1
 10
530.0
 20
1226.3
 11
529.5
 21
1226.8
  0
LINE
  8
0
  6
CONTINUOUS
 62
1
 10
527.5
 20
1208.9
 11
527.5
 21
1208.9
  0
LINE
  8
0
  6
CONTINUOUS
 62
1
 10
530.3
 20
1212.0
 11
530.7
 21
1212.7
  0
LINE
  8
0
  6
CONTINUOUS
 62
1
 10
527.1
 20
1216.6
 11
526.6
 21
1216.1
  0
LINE
  8
0
  6
CONTINUOUS
 62
1
 10
527.1
 20
1215.6
 11
526.7
 21
1215.1
  0
LINE
  8
0
  6
CONTINUOUS
 62
1
 10
530.1
 20
1224.0
 11
529.6
 21
1224.7
  0
LINE
  8
0
  6
CONTINUOUS
 62
1
 10
526.5
 20
1226.8
 11
526.1
 21
1226.3
  0
LINE
  8
0
  6
CONTINUOUS
 62
1
 10
530.4
 20
1210.4
 11
530.4
 21
1210.4
  0
LINE
  8
0
  6
CONTINUOUS
 62
1
 10
527.4
 20
1210.2
 11
526.9
 21
1210.2
  0
LINE
  8
0
  6
CONTINUOUS
 62
1
 10
530.5
 20
1208.0
 11
530.9
 21
1208.7
  0
LINE
  8
0
  6
CONTINUOUS
 62
1
 10
530.5
 20
1216.3
 11
530.1
 21
1216.7
  0
LINE
  8
0
  6
CONTINUOUS
 62
1
 10
526.5
 20
1218.0
 11
527.0
 21
1217.6
  0
LINE
  8
0
  6
CONTINUOUS
 62
1
 10
530.5
 20
1208.5
 11
530.5
 21
1208.5
  0
LINE
  8
0
  6
CONTINUOUS
 62
1
 10
527.3
 20
1211.0
 11
527.3
 21
1211.0
  0
LINE
  8
0
  6
CONTINUOUS
 62
1
 10
527.2
 20
1214.6
 11
526.7
 21
1214.2
  0
LINE
  8
0
  6
CONTINUOUS
 62
1
 10
529.5
 20
1226.6
 11
530.0
 21
1226.3
  0
LINE
  8
0
  6
CONTINUOUS
 62
1
 10
527.5
 20
1208.3
 11
530.5
 21
1208.5
  0
LINE
  8
0
  6
CONTINUOUS
 62
1
 10
530.3
 20
1212.9
 11
530.3
 21
1212.9
  0
LINE
  8
0
  6
CONTINUOUS
 62
1
 10
526.6
 20
1225.1
 11
529.6
 21
1225.3
  0
LINE
  8
0
  6
CONTINUOUS
 62
1
 10
527.5
 20
1207.2
 11
530.5
 21
1207.3
  0
LINE
  8
0
  6
CONTINUOUS
 62
1
 10
529.7
 20
1224.0
 11
530.1
 21
1224.0
  0
LINE
  8
0
  6
CONTINUOUS
 62
1
 10
531.0
 20
1208.2
 11
530.5
 21
1208.0
  0
LINE
  8
0
  6
CONTINUOUS
 62
1
 10
526.1
 20
1226.3
 11
526.5
 21
1226.8
  0
LINE
  8
0
  6
CONTINUOUS
 62
1
 10
530.8
 20
1211.1
 11
530.3
 21
1211.1
  0
LINE
  8
0
  6
CONTINUOUS
 62
1
 10
527.6
 20
1206.9
 11
530.6
 21
1207.0
  0
LINE
  8
0
  6
CONTINUOUS
 62
1
 10
526.5
 20
1218.0
 11
530.4
 21
1218.2
  0
LINE
  8
0
  6
CONTINUOUS
 62
1
 10
529.9
 20
1218.7
 11
529.9
 21
1218.7
  0
LINE
  8
0
  6
CONTINUOUS
 62
1
 10
526.6
 20
1225.6
 11
529.6
 21
1225.8
  0
LINE
  8
0
  6
CONTINUOUS
 62
1
 10
526.5
 20
1226.4
 11
526.5
 21
1226.4
  0
LINE
  8
0
  6
CONTINUOUS
 62
1
 10
527.3
 20
1211.8
 11
530.3
 21
1212.0
  0
LINE
  8
0
  6
CONTINUOUS
 62
1
 10
527.0
 20
1208.9
 11
527.5
 21
1208.3
  0
LINE
  8
0
  6
CONTINUOUS
 62
1
 10
529.6
 20
1224.7
 11
529.6
 21
1224.7
  0
LINE
  8
0
  6
CONTINUOUS
 62
1
 10
529.7
 20
1224.0
 11
529.7
 21
1224.0
  0
LINE
  8
0
  6
CONTINUOUS
 62
1
 10
529.5
 20
1226.6
 11
529.5
 21
1226.6
  0
LINE
  8
0
  6
CONTINUOUS
 62
1
 10
530.1
 20
1224.6
 11
529.6
 21
1225.3
  0
LINE
  8
0
  6
CONTINUOUS
 62
1
 10
526.7
 20
1223.8
 11
526.7
 21
1223.8
  0
LINE
  8
0
  6
CONTINUOUS
 62
1
 10
527.1
 20
1207.7
 11
527.5
 21
1207.2
  0
LINE
  8
0
  6
CONTINUOUS
 62
1
 10
526.5
 20
1226.8
 11
526.5
 21
1226.8
  0
LINE
  8
0
  6
CONTINUOUS
 62
1
 10
530.9
 20
1209.1
 11
530.5
 21
1209.0
  0
LINE
  8
0
  6
CONTINUOUS
 62
1
 10
527.1
 20
1207.4
 11
527.6
 21
1206.9
  0
LINE
  8
0
  6
CONTINUOUS
 62
1
 10
526.6
 20
1217.0
 11
527.1
 21
1216.6
  0
LINE
  8
0
  6
CONTINUOUS
 62
1
 10
530.1
 20
1216.7
 11
530.5
 21
1217.2
  0
LINE
  8
0
  6
CONTINUOUS
 62
1
 10
530.5
 20
1208.5
 11
530.9
 21
1209.1
  0
LINE
  8
0
  6
CONTINUOUS
 62
1
 10
530.1
 20
1225.2
 11
529.6
 21
1225.8
  0
LINE
  8
0
  6
CONTINUOUS
 62
1
 10
526.9
 20
1210.9
 11
530.8
 21
1211.1
  0
LINE
  8
0
  6
CONTINUOUS
 62
1
 10
526.8
 20
1212.5
 11
527.3
 21
1211.8
  0
LINE
  8
0
  6
CONTINUOUS
 62
1
 10
527.5
 20
1208.9
 11
527.0
 21
1208.9
  0
LINE
  8
0
  6
CONTINUOUS
 62
1
 10
527.4
 20
1210.2
 11
530.4
 21
1210.4
  0
LINE
  8
0
  6
CONTINUOUS
 62
1
 10
529.6
 20
1225.3
 11
529.6
 21
1225.3
  0
LINE
  8
0
  6
CONTINUOUS
 62
1
 10
529.6
 20
1224.7
 11
530.1
 21
1224.6
  0
LINE
  8
0
  6
CONTINUOUS
 62
1
 10
526.2
 20
1223.1
 11
530.2
 21
1223.3
  0
LINE
  8
0
  6
CONTINUOUS
 62
1
 10
526.5
 20
1226.8
 11
529.5
 21
1227.0
  0
LINE
  8
0
  6
CONTINUOUS
 62
1
 10
527.6
 20
1207.0
 11
527.1
 21
1207.4
  0
LINE
  8
0
  6
CONTINUOUS
 62
1
 10
527.0
 20
1217.6
 11
527.0
 21
1217.6
  0
LINE
  8
0
  6
CONTINUOUS
 62
1
 10
529.9
 20
1219.7
 11
529.9
 21
1219.7
  0
LINE
  8
0
  6
CONTINUOUS
 62
1
 10
527.3
 20
1212.7
 11
530.3
 21
1212.9
  0
LINE
  8
0
  6
CONTINUOUS
 62
1
 10
529.5
 20
1226.8
 11
529.5
 21
1226.8
  0
LINE
  8
0
  6
CONTINUOUS
 62
1
 10
529.6
 20
1225.3
 11
530.1
 21
1225.2
  0
LINE
  8
0
  6
CONTINUOUS
 62
1
 10
530.4
 20
1210.4
 11
530.8
 21
1211.1
  0
LINE
  8
0
  6
CONTINUOUS
 62
1
 10
527.3
 20
1212.7
 11
526.8
 21
1212.5
  0
LINE
  8
0
  6
CONTINUOUS
 62
1
 10
530.5
 20
1209.0
 11
530.5
 21
1209.0
  0
LINE
  8
0
  6
CONTINUOUS
 62
1
 10
526.9
 20
1210.9
 11
527.4
 21
1210.2
  0
LINE
  8
0
  6
CONTINUOUS
 62
1
 10
527.5
 20
1207.5
 11
527.1
 21
1207.7
  0
LINE
  8
0
  6
CONTINUOUS
 62
1
 10
529.7
 20
1223.2
 11
529.7
 21
1223.2
  0
LINE
  8
0
  6
CONTINUOUS
 62
1
 10
526.6
 20
1224.5
 11
526.6
 21
1224.5
  0
LINE
  8
0
  6
CONTINUOUS
 62
1
 10
526.7
 20
1223.1
 11
526.7
 21
1223.1
  0
LINE
  8
0
  6
CONTINUOUS
 62
1
 10
530.0
 20
1226.5
 11
529.5
 21
1227.0
  0
LINE
  8
0
  6
CONTINUOUS
 62
1
 10
530.6
 20
1207.1
 11
530.6
 21
1207.1
  0
LINE
  8
0
  6
CONTINUOUS
 62
1
 10
527.0
 20
1217.6
 11
526.6
 21
1217.0
  0
LINE
  8
0
  6
CONTINUOUS
 62
1
 10
530.9
 20
1209.7
 11
530.4
 21
1209.7
  0
LINE
  8
0
  6
CONTINUOUS
 62
1
 10
527.0
 20
1218.6
 11
529.9
 21
1218.7
  0
LINE
  8
0
  6
CONTINUOUS
 62
1
 10
526.8
 20
1213.3
 11
527.3
 21
1212.7
  0
LINE
  8
0
  6
CONTINUOUS
 62
1
 10
526.6
 20
1225.1
 11
526.6
 21
1225.1
  0
LINE
  8
0
  6
CONTINUOUS
 62
1
 10
530.3
 20
1211.1
 11
530.3
 21
1211.1
  0
LINE
  8
0
  6
CONTINUOUS
 62
1
 10
526.6
 20
1226.1
 11
526.1
 21
1225.4
  0
LINE
  8
0
  6
CONTINUOUS
 62
1
 10
527.3
 20
1211.0
 11
526.9
 21
1210.9
  0
LINE
  8
0
  6
CONTINUOUS
 62
1
 10
527.6
 20
1207.0
 11
530.6
 21
1207.1
  0
LINE
  8
0
  6
CONTINUOUS
 62
1
 10
530.5
 20
1207.6
 11
530.5
 21
1207.6
  0
LINE
  8
0
  6
CONTINUOUS
 62
1
 10
526.7
 20
1223.1
 11
529.7
 21
1223.2
  0
LINE
  8
0
  6
CONTINUOUS
 62
1
 10
526.8
 20
1222.3
 11
529.8
 21
1222.4
  0
LINE
  8
0
  6
CONTINUOUS
 62
1
 10
530.9
 20
1207.5
 11
530.6
 21
1207.0
  0
LINE
  8
0
  6
CONTINUOUS
 62
1
 10
526.2
 20
1223.8
 11
530.1
 21
1224.0
  0
LINE
  8
0
  6
CONTINUOUS
 62
1
 10
526.7
 20
1223.1
 11
526.3
 21
1222.4
  0
LINE
  8
0
  6
CONTINUOUS
 62
1
 10
530.6
 20
1215.4
 11
530.1
 21
1215.7
  0
LINE
  8
0
  6
CONTINUOUS
 62
1
 10
526.5
 20
1226.8
 11
526.1
 21
1226.2
  0
LINE
  8
0
  6
CONTINUOUS
 62
1
 10
529.5
 20
1227.0
 11
530.0
 21
1226.5
  0
LINE
  8
0
  6
CONTINUOUS
 62
1
 10
530.4
 20
1218.2
 11
529.9
 21
1218.7
  0
LINE
  8
0
  6
CONTINUOUS
 62
1
 10
526.1
 20
1225.4
 11
526.6
 21
1225.6
  0
LINE
  8
0
  6
CONTINUOUS
 62
1
 10
530.8
 20
1211.8
 11
530.3
 21
1212.0
  0
LINE
  8
0
  6
CONTINUOUS
 62
1
 10
526.8
 20
1213.3
 11
530.7
 21
1213.5
  0
LINE
  8
0
  6
CONTINUOUS
 62
1
 10
526.5
 20
1226.4
 11
529.5
 21
1226.6
  0
LINE
  8
0
  6
CONTINUOUS
 62
1
 10
530.5
 20
1209.0
 11
530.9
 21
1209.7
  0
LINE
  8
0
  6
CONTINUOUS
 62
1
 10
527.1
 20
1207.5
 11
527.6
 21
1207.0
  0
LINE
  8
0
  6
CONTINUOUS
 62
1
 10
526.7
 20
1223.8
 11
529.7
 21
1224.0
  0
LINE
  8
0
  6
CONTINUOUS
 62
1
 10
530.2
 20
1222.6
 11
529.7
 21
1223.2
  0
LINE
  8
0
  6
CONTINUOUS
 62
1
 10
530.3
 20
1221.8
 11
529.8
 21
1222.4
  0
LINE
  8
0
  6
CONTINUOUS
 62
1
 10
526.3
 20
1222.4
 11
526.8
 21
1222.3
  0
LINE
  8
0
  6
CONTINUOUS
 62
1
 10
530.1
 20
1215.7
 11
530.1
 21
1215.7
  0
LINE
  8
0
  6
CONTINUOUS
 62
1
 10
526.1
 20
1226.2
 11
526.5
 21
1226.6
  0
LINE
  8
0
  6
CONTINUOUS
 62
1
 10
526.5
 20
1226.8
 11
526.5
 21
1226.8
  0
LINE
  8
0
  6
CONTINUOUS
 62
1
 10
530.6
 20
1207.1
 11
531.0
 21
1207.7
  0
LINE
  8
0
  6
CONTINUOUS
 62
1
 10
529.8
 20
1222.4
 11
529.8
 21
1222.4
  0
LINE
  8
0
  6
CONTINUOUS
 62
1
 10
530.0
 20
1217.7
 11
530.4
 21
1218.2
  0
LINE
  8
0
  6
CONTINUOUS
 62
1
 10
527.2
 20
1213.6
 11
526.8
 21
1213.3
  0
LINE
  8
0
  6
CONTINUOUS
 62
1
 10
526.6
 20
1226.1
 11
529.6
 21
1226.2
  0
LINE
  8
0
  6
CONTINUOUS
 62
1
 10
530.3
 20
1212.9
 11
530.7
 21
1213.5
  0
LINE
  8
0
  6
CONTINUOUS
 62
1
 10
530.0
 20
1226.0
 11
529.5
 21
1226.6
  0
LINE
  8
0
  6
CONTINUOUS
 62
1
 10
526.8
 20
1211.6
 11
530.8
 21
1211.8
  0
LINE
  8
0
  6
CONTINUOUS
 62
1
 10
527.5
 20
1207.2
 11
527.1
 21
1207.5
  0
LINE
  8
0
  6
CONTINUOUS
 62
1
 10
530.2
 20
1223.3
 11
529.7
 21
1224.0
  0
LINE
  8
0
  6
CONTINUOUS
 62
1
 10
530.5
 20
1207.6
 11
531.0
 21
1208.2
  0
LINE
  8
0
  6
CONTINUOUS
 62
1
 10
529.8
 20
1222.4
 11
530.2
 21
1222.6
  0
LINE
  8
0
  6
CONTINUOUS
 62
1
 10
529.8
 20
1221.5
 11
530.3
 21
1221.8
  0
LINE
  8
0
  6
CONTINUOUS
 62
1
 10
526.7
 20
1223.8
 11
526.2
 21
1223.1
  0
LINE
  8
0
  6
CONTINUOUS
 62
1
 10
527.6
 20
1206.9
 11
527.1
 21
1207.3
  0
LINE
  8
0
  6
CONTINUOUS
 62
1
 10
530.2
 20
1213.8
 11
530.2
 21
1213.8
  0
LINE
  8
0
  6
CONTINUOUS
 62
1
 10
530.1
 20
1225.6
 11
529.6
 21
1226.2
  0
LINE
  8
0
  6
CONTINUOUS
 62
1
 10
526.6
 20
1224.5
 11
526.2
 21
1223.8
  0
LINE
  8
0
  6
CONTINUOUS
 62
1
 10
530.7
 20
1213.5
 11
530.2
 21
1213.8
  0
LINE
  8
0
  6
CONTINUOUS
 62
1
 10
529.6
 20
1226.2
 11
530.0
 21
1226.0
  0
LINE
  8
0
  6
CONTINUOUS
 62
1
 10
530.9
 20
1210.4
 11
530.4
 21
1210.4
  0
LINE
  8
0
  6
CONTINUOUS
 62
1
 10
530.3
 20
1211.1
 11
530.8
 21
1211.8
  0
LINE
  8
0
  6
CONTINUOUS
 62
1
 10
526.5
 20
1226.8
 11
529.5
 21
1227.0
  0
LINE
  8
0
  6
CONTINUOUS
 62
1
 10
529.7
 20
1223.2
 11
530.2
 21
1223.3
  0
LINE
  8
0
  6
CONTINUOUS
 62
1
 10
526.8
 20
1222.3
 11
526.8
 21
1222.3
  0
LINE
  8
0
  6
CONTINUOUS
 62
1
 10
526.8
 20
1221.4
 11
526.8
 21
1221.4
  0
LINE
  8
0
  6
CONTINUOUS
 62
1
 10
526.2
 20
1223.1
 11
526.7
 21
1223.1
  0
LINE
  8
0
  6
CONTINUOUS
 62
1
 10
530.2
 20
1214.8
 11
530.6
 21
1215.4
  0
LINE
  8
0
  6
CONTINUOUS
 62
1
 10
527.5
 20
1207.8
 11
527.5
 21
1207.8
  0
LINE
  8
0
  6
CONTINUOUS
 62
1
 10
531.0
 20
1207.9
 11
530.5
 21
1207.6
  0
LINE
  8
0
  6
CONTINUOUS
 62
1
 10
526.8
 20
1221.4
 11
529.8
 21
1221.5
  0
LINE
  8
0
  6
CONTINUOUS
 62
1
 10
529.8
 20
1221.5
 11
529.8
 21
1221.5
  0
LINE
  8
0
  6
CONTINUOUS
 62
1
 10
530.6
 20
1207.0
 11
530.6
 21
1207.0
  0
LINE
  8
0
  6
CONTINUOUS
 62
1
 10
526.6
 20
1217.0
 11
530.5
 21
1217.2
  0
LINE
  8
0
  6
CONTINUOUS
 62
1
 10
526.7
 20
1214.2
 11
530.6
 21
1214.4
  0
LINE
  8
0
  6
CONTINUOUS
 62
1
 10
529.6
 20
1225.8
 11
530.1
 21
1225.6
  0
LINE
  8
0
  6
CONTINUOUS
 62
1
 10
526.2
 20
1223.8
 11
526.7
 21
1223.8
  0
LINE
  8
0
  6
CONTINUOUS
 62
1
 10
526.6
 20
1226.1
 11
526.6
 21
1226.1
  0
LINE
  8
0
  6
CONTINUOUS
 62
1
 10
530.0
 20
1226.5
 11
529.5
 21
1227.0
  0
LINE
  8
0
  6
CONTINUOUS
 62
1
 10
527.4
 20
1209.5
 11
527.4
 21
1209.5
  0
LINE
  8
0
  6
CONTINUOUS
 62
1
 10
530.9
 20
1208.7
 11
530.5
 21
1208.5
  0
LINE
  8
0
  6
CONTINUOUS
 62
1
 10
526.3
 20
1221.6
 11
530.3
 21
1221.8
  0
LINE
  8
0
  6
CONTINUOUS
 62
1
 10
526.4
 20
1220.7
 11
530.3
 21
1220.9
  0
LINE
  8
0
  6
CONTINUOUS
 62
1
 10
526.5
 20
1226.6
 11
526.1
 21
1226.1
  0
LINE
  8
0
  6
CONTINUOUS
 62
1
 10
527.6
 20
1207.0
 11
527.6
 21
1207.0
  0
LINE
  8
0
  6
CONTINUOUS
 62
1
 10
530.3
 20
1220.9
 11
529.8
 21
1221.5
  0
LINE
  8
0
  6
CONTINUOUS
 62
1
 10
526.9
 20
1220.5
 11
529.8
 21
1220.6
  0
LINE
  8
0
  6
CONTINUOUS
 62
1
 10
526.6
 20
1225.6
 11
526.6
 21
1225.6
  0
LINE
  8
0
  6
CONTINUOUS
 62
1
 10
530.7
 20
1212.7
 11
530.3
 21
1212.9
  0
LINE
  8
0
  6
CONTINUOUS
 62
1
 10
529.5
 20
1226.8
 11
530.0
 21
1226.5
  0
LINE
  8
0
  6
CONTINUOUS
 62
1
 10
526.3
 20
1222.4
 11
530.2
 21
1222.6
  0
LINE
  8
0
  6
CONTINUOUS
 62
1
 10
526.9
 20
1220.5
 11
526.9
 21
1220.5
  0
LINE
  8
0
  6
CONTINUOUS
 62
1
 10
527.1
 20
1215.6
 11
530.1
 21
1215.7
  0
LINE
  8
0
  6
CONTINUOUS
 62
1
 10
526.6
 20
1216.1
 11
527.1
 21
1215.6
  0
LINE
  8
0
  6
CONTINUOUS
 62
1
 10
526.1
 20
1226.1
 11
526.5
 21
1226.4
  0
LINE
  8
0
  6
CONTINUOUS
 62
1
 10
529.8
 20
1220.6
 11
530.3
 21
1220.9
  0
LINE
  8
0
  6
CONTINUOUS
 62
1
 10
530.3
 20
1220.0
 11
529.8
 21
1220.6
  0
LINE
  8
0
  6
CONTINUOUS
 62
1
 10
527.0
 20
1217.6
 11
530.0
 21
1217.7
  0
LINE
  8
0
  6
CONTINUOUS
 62
1
 10
530.6
 20
1207.0
 11
531.0
 21
1207.6
  0
LINE
  8
0
  6
CONTINUOUS
 62
1
 10
530.6
 20
1214.4
 11
530.2
 21
1214.7
  0
LINE
  8
0
  6
CONTINUOUS
 62
1
 10
527.5
 20
1207.2
 11
527.5
 21
1207.2
  0
LINE
  8
0
  6
CONTINUOUS
 62
1
 10
526.5
 20
1226.6
 11
526.5
 21
1226.6
  0
LINE
  8
0
  6
CONTINUOUS
 62
1
 10
526.8
 20
1221.4
 11
526.4
 21
1220.7
  0
LINE
  8
0
  6
CONTINUOUS
 62
1
 10
526.9
 20
1220.5
 11
526.4
 21
1219.8
  0
LINE
  8
0
  6
CONTINUOUS
 62
1
 10
526.7
 20
1215.1
 11
530.6
 21
1215.4
  0
LINE
  8
0
  6
CONTINUOUS
 62
1
 10
527.5
 20
1208.9
 11
530.5
 21
1209.0
  0
LINE
  8
0
  6
CONTINUOUS
 62
1
 10
529.9
 20
1219.7
 11
530.3
 21
1220.0
  0
LINE
  8
0
  6
CONTINUOUS
 62
1
 10
530.5
 20
1217.2
 11
530.0
 21
1217.7
  0
LINE
  8
0
  6
CONTINUOUS
 62
1
 10
526.6
 20
1225.6
 11
526.1
 21
1225.0
  0
LINE
  8
0
  6
CONTINUOUS
 62
1
 10
527.3
 20
1211.0
 11
530.3
 21
1211.1
  0
LINE
  8
0
  6
CONTINUOUS
 62
1
 10
526.8
 20
1222.3
 11
526.3
 21
1221.6
  0
LINE
  8
0
  6
CONTINUOUS
 62
1
 10
526.4
 20
1220.7
 11
526.9
 21
1220.5
  0
LINE
  8
0
  6
CONTINUOUS
 62
1
 10
526.4
 20
1219.8
 11
526.9
 21
1219.5
  0
LINE
  8
0
  6
CONTINUOUS
 62
1
 10
527.0
 20
1209.5
 11
527.5
 21
1208.9
  0
LINE
  8
0
  6
CONTINUOUS
 62
1
 10
527.5
 20
1208.3
 11
527.5
 21
1208.3
  0
LINE
  8
0
  6
CONTINUOUS
 62
1
 10
531.0
 20
1207.6
 11
530.9
 21
1207.5
  0
ARC
  8
0
  6
CONTINUOUS
 62
1
 10
526.4
 20
1211.4
 40
0.4
 50
3.0
 51
93.0
  0
LINE
  8
0
  6
CONTINUOUS
 62
1
 10
530.0
 20
1226.5
 11
529.5
 21
1227.0
  0
ARC
  8
0
  6
CONTINUOUS
 62
1
 10
525.9
 20
1222.2
 40
0.4
 50
273.0
 51
3.0
  0
LINE
  8
0
  6
CONTINUOUS
 62
1
 10
527.0
 20
1207.4
 11
527.1
 21
1207.3
  0
LINE
  8
0
  6
CONTINUOUS
 62
1
 10
526.0
 20
1226.3
 11
526.5
 21
1226.8
  0
LINE
  8
0
  6
CONTINUOUS
 62
1
 10
520.3
 20
1221.5
 11
525.9
 21
1221.8
  0
LINE
  8
0
  6
CONTINUOUS
 62
1
 10
520.8
 20
1211.5
 11
526.4
 21
1211.8
  0
LINE
  8
0
  6
CONTINUOUS
 62
1
 10
524.3
 20
1062.8
 11
524.3
 21
1062.8
  0
LINE
  8
0
  6
CONTINUOUS
 62
1
 10
524.3
 20
1063.1
 11
524.3
 21
1062.8
  0
LINE
  8
0
  6
CONTINUOUS
 62
1
 10
461.7
 20
1232.9
 11
461.7
 21
1205.4
  0
LINE
  8
0
  6
CONTINUOUS
 62
1
 10
517.0
 20
1232.7
 11
517.0
 21
1233.0
  0
LINE
  8
0
  6
CONTINUOUS
 62
1
 10
462.9
 20
1063.1
 11
462.9
 21
1060.4
  0
ARC
  8
0
  6
CONTINUOUS
 62
1
 10
464.2
 20
1232.9
 40
1.3
 50
90.0
 51
180.0
  0
LINE
  8
0
  6
CONTINUOUS
 62
1
 10
524.6
 20
1061.6
 11
524.3
 21
1061.6
  0
LINE
  8
0
  6
CONTINUOUS
 62
1
 10
462.9
 20
1205.4
 11
462.9
 21
1232.9
  0
LINE
  8
0
  6
CONTINUOUS
 62
1
 10
462.9
 20
1232.9
 11
461.7
 21
1232.9
  0
LINE
  8
0
  6
CONTINUOUS
 62
1
 10
525.9
 20
1062.9
 11
525.9
 21
1063.2
  0
LINE
  8
0
  6
CONTINUOUS
 62
1
 10
461.7
 20
1205.3
 11
471.7
 21
1205.3
  0
ARC
  8
0
  6
CONTINUOUS
 62
1
 10
464.2
 20
1232.9
 40
2.4
 50
90.0
 51
180.0
  0
LINE
  8
0
  6
CONTINUOUS
 62
1
 10
471.7
 20
1205.4
 11
461.7
 21
1205.4
  0
LINE
  8
0
  6
CONTINUOUS
 62
1
 10
461.7
 20
1061.6
 11
461.7
 21
1205.3
  0
LINE
  8
0
  6
CONTINUOUS
 62
1
 10
524.3
 20
1060.4
 11
524.3
 21
1062.8
  0
LINE
  8
0
  6
CONTINUOUS
 62
1
 10
464.4
 20
1232.7
 11
464.4
 21
1235.4
  0
ARC
  8
0
  6
CONTINUOUS
 62
1
 10
515.7
 20
1232.9
 40
1.3
 50
3.0
 51
90.0
  0
LINE
  8
0
  6
CONTINUOUS
 62
1
 10
519.8
 20
1202.2
 11
522.0
 21
1159.5
  0
LINE
  8
0
  6
CONTINUOUS
 62
1
 10
526.1
 20
1082.6
 11
527.1
 21
1063.0
  0
LINE
  8
0
  6
CONTINUOUS
 62
1
 10
464.2
 20
1235.4
 11
515.7
 21
1235.4
  0
LINE
  8
0
  6
CONTINUOUS
 62
1
 10
518.2
 20
1232.7
 11
515.5
 21
1232.6
  0
LINE
  8
0
  6
CONTINUOUS
 62
1
 10
461.7
 20
1061.6
 11
464.4
 21
1061.6
  0
ARC
  8
0
  6
CONTINUOUS
 62
1
 10
524.6
 20
1062.8
 40
1.2
 50
270.0
 51
3.0
  0
LINE
  8
0
  6
CONTINUOUS
 62
1
 10
517.0
 20
1233.0
 11
518.2
 21
1233.1
  0
LINE
  8
0
  6
CONTINUOUS
 62
1
 10
462.9
 20
1232.7
 11
464.4
 21
1232.7
  0
LINE
  8
0
  6
CONTINUOUS
 62
1
 10
527.1
 20
1063.2
 11
524.3
 21
1063.1
  0
LINE
  8
0
  6
CONTINUOUS
 62
1
 10
464.2
 20
1234.2
 11
464.2
 21
1235.4
  0
LINE
  8
0
  6
CONTINUOUS
 62
1
 10
515.5
 20
1232.7
 11
471.7
 21
1205.4
  0
ARC
  8
0
  6
CONTINUOUS
 62
1
 10
524.6
 20
1062.8
 40
2.5
 50
270.0
 51
3.0
  0
LINE
  8
0
  6
CONTINUOUS
 62
1
 10
515.5
 20
1232.7
 11
515.5
 21
1235.4
  0
LINE
  8
0
  6
CONTINUOUS
 62
1
 10
471.7
 20
1205.3
 11
515.5
 21
1232.6
  0
LINE
  8
0
  6
CONTINUOUS
 62
1
 10
464.2
 20
1062.8
 11
464.4
 21
1062.8
  0
ARC
  8
0
  6
CONTINUOUS
 62
1
 10
515.7
 20
1232.9
 40
2.4
 50
3.6
 51
90.0
  0
LINE
  8
0
  6
CONTINUOUS
 62
1
 10
524.4
 20
1061.6
 11
524.4
 21
1060.4
  0
LINE
  8
0
  6
CONTINUOUS
 62
1
 10
464.2
 20
1063.1
 11
461.7
 21
1063.1
  0
LINE
  8
0
  6
CONTINUOUS
 62
1
 10
527.1
 20
1063.0
 11
525.9
 21
1062.9
  0
LINE
  8
0
  6
CONTINUOUS
 62
1
 10
515.7
 20
1234.2
 11
515.5
 21
1234.2
  0
LINE
  8
0
  6
CONTINUOUS
 62
1
 10
464.4
 20
1062.8
 11
464.4
 21
1060.4
  0
LINE
  8
0
  6
CONTINUOUS
 62
1
 10
464.2
 20
1063.1
 11
464.2
 21
1062.8
  0
LINE
  8
0
  6
CONTINUOUS
 62
1
 10
515.7
 20
1235.4
 11
515.7
 21
1234.2
  0
LINE
  8
0
  6
CONTINUOUS
 62
1
 10
464.4
 20
1234.2
 11
464.2
 21
1234.2
  0
LINE
  8
0
  6
CONTINUOUS
 62
1
 10
461.2
 20
1045.4
 11
461.2
 21
1231.4
  0
LINE
  8
0
  6
CONTINUOUS
 62
1
 10
461.7
 20
1219.4
 11
461.2
 21
1219.4
  0
LINE
  8
0
  6
CONTINUOUS
 62
1
 10
461.7
 20
1211.4
 11
461.2
 21
1211.4
  0
LINE
  8
0
  6
CONTINUOUS
 62
1
 10
461.7
 20
1182.6
 11
461.2
 21
1182.6
  0
LINE
  8
0
  6
CONTINUOUS
 62
1
 10
461.7
 20
1190.6
 11
461.2
 21
1190.6
  0
LINE
  8
0
  6
CONTINUOUS
 62
1
 10
461.7
 20
1090.6
 11
461.2
 21
1090.6
  0
LINE
  8
0
  6
CONTINUOUS
 62
1
 10
461.7
 20
1082.6
 11
461.2
 21
1082.6
  0
LINE
  8
0
  6
CONTINUOUS
 62
1
 10
513.0
 20
1231.1
 11
513.2
 21
1231.2
  0
LINE
  8
0
  6
CONTINUOUS
 62
1
 10
471.9
 20
1205.4
 11
471.9
 21
1205.5
  0
ARC
  8
0
  6
CONTINUOUS
 62
1
 10
481.3
 20
1210.5
 40
1.7
 50
55.2
 51
59.1
  0
ARC
  8
0
  6
CONTINUOUS
 62
1
 10
478.0
 20
1210.3
 40
1.7
 50
242.7
 51
246.9
  0
CIRCLE
  8
0
  6
CONTINUOUS
 62
1
 10
478.8
 20
1225.3
 40
1.4
  0
CIRCLE
  8
0
  6
CONTINUOUS
 62
1
 10
478.8
 20
1225.3
 40
0.9
  0
CIRCLE
  8
0
  6
CONTINUOUS
 62
1
 10
478.8
 20
1225.3
 40
3.0
  0
CIRCLE
  8
0
  6
CONTINUOUS
 62
1
 10
502.0
 20
1204.5
 40
3.0
  0
CIRCLE
  8
0
  6
CONTINUOUS
 62
1
 10
502.0
 20
1204.5
 40
0.9
  0
CIRCLE
  8
0
  6
CONTINUOUS
 62
1
 10
502.0
 20
1204.5
 40
1.4
  0
LINE
  8
0
  6
CONTINUOUS
 62
1
 10
460.0
 20
1231.4
 11
460.0
 21
1045.4
  0
LINE
  8
0
  6
CONTINUOUS
 62
1
 10
460.0
 20
1061.4
 11
461.2
 21
1061.4
  0
LINE
  8
0
  6
CONTINUOUS
 62
1
 10
460.0
 20
1045.4
 11
461.2
 21
1045.4
  0
LINE
  8
0
  6
CONTINUOUS
 62
1
 10
460.0
 20
1231.4
 11
461.2
 21
1231.4
  0
LINE
  8
0
  6
CONTINUOUS
 62
1
 10
554.5
 20
1173.9
 11
553.6
 21
1191.2
  0
LINE
  8
0
  6
CONTINUOUS
 62
1
 10
522.0
 20
1159.5
 11
526.1
 21
1082.7
  0
LINE
  8
0
  6
CONTINUOUS
 62
1
 10
527.1
 20
1080.4
 11
549.4
 21
1060.4
  0
ARC
  8
0
  6
CONTINUOUS
 62
1
 10
525.3
 20
1159.7
 40
1.8
 50
108.0
 51
183.0
  0
LINE
  8
0
  6
CONTINUOUS
 62
1
 10
527.6
 20
1082.7
 11
523.5
 21
1159.6
  0
LINE
  8
0
  6
CONTINUOUS
 62
1
 10
510.6
 20
1268.0
 11
518.0
 21
1236.0
  0
LINE
  8
0
  6
CONTINUOUS
 62
1
 10
547.7
 20
1064.0
 11
546.7
 21
1062.8
  0
LINE
  8
0
  6
CONTINUOUS
 62
1
 10
518.0
 20
1235.7
 11
519.8
 21
1202.2
  0
LINE
  8
0
  6
CONTINUOUS
 62
1
 10
552.5
 20
1194.3
 11
522.7
 21
1200.7
  0
ARC
  8
0
  6
CONTINUOUS
 62
1
 10
525.3
 20
1159.7
 40
3.3
 50
108.0
 51
183.0
  0
ARC
  8
0
  6
CONTINUOUS
 62
1
 10
529.3
 20
1082.8
 40
1.8
 50
183.0
 51
228.0
  0
LINE
  8
0
  6
CONTINUOUS
 62
1
 10
519.5
 20
1236.3
 11
512.1
 21
1268.3
  0
ARC
  8
0
  6
CONTINUOUS
 62
1
 10
516.3
 20
1235.6
 40
3.2
 50
3.0
 51
13.0
  0
LINE
  8
0
  6
CONTINUOUS
 62
1
 10
551.6
 20
1060.4
 11
528.1
 21
1081.5
  0
ARC
  8
0
  6
CONTINUOUS
 62
1
 10
551.9
 20
1191.1
 40
1.7
 50
3.0
 51
78.0
  0
ARC
  8
0
  6
CONTINUOUS
 62
1
 10
552.8
 20
1173.8
 40
3.3
 50
288.0
 51
3.0
  0
LINE
  8
0
  6
CONTINUOUS
 62
1
 10
553.8
 20
1170.8
 11
524.7
 21
1161.3
  0
LINE
  8
0
  6
CONTINUOUS
 62
1
 10
510.6
 20
1268.0
 11
512.1
 21
1268.3
  0
ARC
  8
0
  6
CONTINUOUS
 62
1
 10
529.3
 20
1082.8
 40
3.3
 50
183.0
 51
228.0
  0
ARC
  8
0
  6
CONTINUOUS
 62
1
 10
523.0
 20
1202.4
 40
1.7
 50
183.0
 51
258.0
  0
ARC
  8
0
  6
CONTINUOUS
 62
1
 10
552.8
 20
1173.8
 40
1.8
 50
288.0
 51
3.0
  0
ARC
  8
0
  6
CONTINUOUS
 62
1
 10
523.0
 20
1202.4
 40
3.2
 50
183.0
 51
258.0
  0
LINE
  8
0
  6
CONTINUOUS
 62
1
 10
556.0
 20
1174.0
 11
555.1
 21
1191.3
  0
LINE
  8
0
  6
CONTINUOUS
 62
1
 10
553.3
 20
1172.2
 11
524.3
 21
1162.8
  0
LINE
  8
0
  6
CONTINUOUS
 62
1
 10
519.5
 20
1235.7
 11
521.3
 21
1202.3
  0
LINE
  8
0
  6
CONTINUOUS
 62
1
 10
522.4
 20
1199.2
 11
552.2
 21
1192.9
  0
ARC
  8
0
  6
CONTINUOUS
 62
1
 10
551.9
 20
1191.1
 40
3.2
 50
3.0
 51
78.0
  0
ARC
  8
0
  6
CONTINUOUS
 62
1
 10
516.3
 20
1235.6
 40
1.7
 50
3.0
 51
13.0
  0
LINE
  8
0
  6
CONTINUOUS
 62
1
 10
500.3
 20
1287.4
 11
478.3
 21
1287.4
  0
LINE
  8
0
  6
CONTINUOUS
 62
1
 10
499.3
 20
1258.4
 11
479.8
 21
1258.4
  0
LINE
  8
0
  6
CONTINUOUS
 62
1
 10
479.8
 20
1258.4
 11
479.3
 21
1258.4
  0
LINE
  8
0
  6
CONTINUOUS
 62
1
 10
500.3
 20
1289.9
 11
478.2
 21
1289.9
  0
LINE
  8
0
  6
CONTINUOUS
 62
1
 10
498.8
 20
1235.4
 11
498.8
 21
1258.4
  0
LINE
  8
0
  6
CONTINUOUS
 62
1
 10
489.3
 20
1235.4
 11
489.3
 21
1258.4
  0
LINE
  8
0
  6
CONTINUOUS
 62
1
 10
489.2
 20
1258.4
 11
489.2
 21
1235.4
  0
LINE
  8
0
  6
CONTINUOUS
 62
1
 10
479.8
 20
1235.4
 11
479.8
 21
1258.4
  0
LINE
  8
0
  6
CONTINUOUS
 62
1
 10
499.3
 20
1261.4
 11
499.3
 21
1258.4
  0
LINE
  8
0
  6
CONTINUOUS
 62
1
 10
478.9
 20
1287.4
 11
478.9
 21
1284.4
  0
LINE
  8
0
  6
CONTINUOUS
 62
1
 10
479.3
 20
1261.4
 11
479.3
 21
1258.4
  0
LINE
  8
0
  6
CONTINUOUS
 62
1
 10
478.3
 20
1289.9
 11
478.3
 21
1287.4
  0
LINE
  8
0
  6
CONTINUOUS
 62
1
 10
499.7
 20
1287.4
 11
499.7
 21
1284.4
  0
LINE
  8
0
  6
CONTINUOUS
 62
1
 10
500.3
 20
1289.9
 11
500.3
 21
1287.4
  0
LINE
  8
0
  6
CONTINUOUS
 62
1
 10
500.8
 20
1269.4
 11
477.8
 21
1269.4
  0
LINE
  8
0
  6
CONTINUOUS
 62
1
 10
500.3
 20
1276.4
 11
478.3
 21
1276.4
  0
LINE
  8
0
  6
CONTINUOUS
 62
1
 10
500.3
 20
1271.4
 11
478.3
 21
1271.4
  0
LINE
  8
0
  6
CONTINUOUS
 62
1
 10
500.8
 20
1278.4
 11
477.8
 21
1278.4
  0
LINE
  8
0
  6
CONTINUOUS
 62
1
 10
500.8
 20
1261.4
 11
477.8
 21
1261.4
  0
LINE
  8
0
  6
CONTINUOUS
 62
1
 10
500.8
 20
1284.4
 11
477.8
 21
1284.4
  0
LINE
  8
0
  6
CONTINUOUS
 62
1
 10
477.8
 20
1269.4
 11
477.8
 21
1261.4
  0
LINE
  8
0
  6
CONTINUOUS
 62
1
 10
478.3
 20
1271.4
 11
477.8
 21
1269.4
  0
LINE
  8
0
  6
CONTINUOUS
 62
1
 10
477.8
 20
1284.4
 11
477.8
 21
1278.4
  0
LINE
  8
0
  6
CONTINUOUS
 62
1
 10
478.8
 20
1276.4
 11
478.8
 21
1271.4
  0
LINE
  8
0
  6
CONTINUOUS
 62
1
 10
500.8
 20
1269.4
 11
500.8
 21
1261.4
  0
LINE
  8
0
  6
CONTINUOUS
 62
1
 10
500.3
 20
1271.4
 11
500.8
 21
1269.4
  0
LINE
  8
0
  6
CONTINUOUS
 62
1
 10
500.8
 20
1284.4
 11
500.8
 21
1278.4
  0
LINE
  8
0
  6
CONTINUOUS
 62
1
 10
478.3
 20
1276.4
 11
477.8
 21
1278.4
  0
LINE
  8
0
  6
CONTINUOUS
 62
1
 10
500.3
 20
1276.4
 11
500.8
 21
1278.4
  0
LINE
  8
0
  6
CONTINUOUS
 62
1
 10
499.8
 20
1276.4
 11
499.8
 21
1271.4
  0
LINE
  8
0
  6
CONTINUOUS
 62
1
 10
481.3
 20
1211.2
 11
481.3
 21
1211.4
  0
LINE
  8
0
  6
CONTINUOUS
 62
1
 10
579.4
 20
1305.6
 11
489.3
 21
1305.6
  0
LINE
  8
0
  6
CONTINUOUS
 62
1
 10
475.0
 20
1303.1
 11
584.6
 21
1303.1
  0
LINE
  8
0
  6
CONTINUOUS
 62
1
 10
483.6
 20
1305.6
 11
477.9
 21
1305.6
  0
LINE
  8
0
  6
CONTINUOUS
 62
1
 10
583.3
 20
1309.6
 11
583.3
 21
1341.6
  0
LINE
  8
0
  6
CONTINUOUS
 62
1
 10
590.9
 20
1341.6
 11
590.9
 21
1309.6
  0
LINE
  8
0
  6
CONTINUOUS
 62
1
 10
585.7
 20
1309.6
 11
585.7
 21
1341.6
  0
LINE
  8
0
  6
CONTINUOUS
 62
1
 10
477.9
 20
1304.6
 11
477.9
 21
1305.6
  0
LINE
  8
0
  6
CONTINUOUS
 62
1
 10
478.3
 20
1311.6
 11
500.3
 21
1311.6
  0
LINE
  8
0
  6
CONTINUOUS
 62
1
 10
481.8
 20
1314.6
 11
496.8
 21
1314.6
  0
LINE
  8
0
  6
CONTINUOUS
 62
1
 10
497.4
 20
1317.6
 11
497.9
 21
1317.6
  0
LINE
  8
0
  6
CONTINUOUS
 62
1
 10
497.9
 20
1332.6
 11
488.7
 21
1332.6
  0
LINE
  8
0
  6
CONTINUOUS
 62
1
 10
500.3
 20
1289.9
 11
500.3
 21
1289.9
  0
LINE
  8
0
  6
CONTINUOUS
 62
1
 10
499.0
 20
1331.8
 11
499.0
 21
1331.9
  0
LINE
  8
0
  6
CONTINUOUS
 62
1
 10
517.3
 20
1333.1
 11
511.3
 21
1333.1
  0
LINE
  8
0
  6
CONTINUOUS
 62
1
 10
504.0
 20
1315.1
 11
500.9
 21
1315.1
  0
LINE
  8
0
  6
CONTINUOUS
 62
1
 10
504.0
 20
1335.1
 11
500.9
 21
1335.1
  0
LINE
  8
0
  6
CONTINUOUS
 62
1
 10
478.2
 20
1306.6
 11
478.2
 21
1311.6
  0
ARC
  8
0
  6
CONTINUOUS
 62
1
 10
480.8
 20
1312.6
 40
1.0
 50
270.0
 51
0.0
  0
LINE
  8
0
  6
CONTINUOUS
 62
1
 10
488.7
 20
1332.6
 11
486.6
 21
1332.2
  0
LINE
  8
0
  6
CONTINUOUS
 62
1
 10
486.6
 20
1332.2
 11
484.7
 21
1331.3
  0
LINE
  8
0
  6
CONTINUOUS
 62
1
 10
484.7
 20
1331.3
 11
483.2
 21
1329.7
  0
LINE
  8
0
  6
CONTINUOUS
 62
1
 10
483.2
 20
1329.7
 11
482.2
 21
1327.8
  0
LINE
  8
0
  6
CONTINUOUS
 62
1
 10
482.2
 20
1327.8
 11
481.9
 21
1325.6
  0
LINE
  8
0
  6
CONTINUOUS
 62
1
 10
505.7
 20
1315.4
 11
505.4
 21
1315.3
  0
LINE
  8
0
  6
CONTINUOUS
 62
1
 10
505.4
 20
1315.3
 11
505.0
 21
1315.2
  0
LINE
  8
0
  6
CONTINUOUS
 62
1
 10
505.0
 20
1315.2
 11
504.7
 21
1315.1
  0
LINE
  8
0
  6
CONTINUOUS
 62
1
 10
504.7
 20
1315.1
 11
504.3
 21
1315.1
  0
LINE
  8
0
  6
CONTINUOUS
 62
1
 10
504.3
 20
1315.1
 11
504.0
 21
1315.1
  0
LINE
  8
0
  6
CONTINUOUS
 62
1
 10
517.3
 20
1317.1
 11
511.3
 21
1317.1
  0
LINE
  8
0
  6
CONTINUOUS
 62
1
 10
496.8
 20
1312.6
 11
496.8
 21
1314.6
  0
LINE
  8
0
  6
CONTINUOUS
 62
1
 10
499.0
 20
1318.3
 11
499.0
 21
1318.4
  0
LINE
  8
0
  6
CONTINUOUS
 62
1
 10
497.9
 20
1332.6
 11
498.8
 21
1332.7
  0
LINE
  8
0
  6
CONTINUOUS
 62
1
 10
498.8
 20
1332.7
 11
499.3
 21
1333.0
  0
LINE
  8
0
  6
CONTINUOUS
 62
1
 10
499.3
 20
1317.2
 11
499.0
 21
1317.4
  0
LINE
  8
0
  6
CONTINUOUS
 62
1
 10
499.0
 20
1317.4
 11
498.2
 21
1317.6
  0
LINE
  8
0
  6
CONTINUOUS
 62
1
 10
498.2
 20
1317.6
 11
497.9
 21
1317.6
  0
ARC
  8
0
  6
CONTINUOUS
 62
1
 10
497.8
 20
1312.6
 40
1.0
 50
180.0
 51
270.0
  0
LINE
  8
0
  6
CONTINUOUS
 62
1
 10
510.0
 20
1333.3
 11
505.7
 21
1334.8
  0
LINE
  8
0
  6
CONTINUOUS
 62
1
 10
481.9
 20
1325.6
 11
481.9
 21
1314.6
  0
LINE
  8
0
  6
CONTINUOUS
 62
1
 10
478.2
 20
1289.9
 11
478.2
 21
1303.1
  0
LINE
  8
0
  6
CONTINUOUS
 62
1
 10
496.6
 20
1316.6
 11
496.6
 21
1314.6
  0
LINE
  8
0
  6
CONTINUOUS
 62
1
 10
500.3
 20
1306.6
 11
500.3
 21
1311.6
  0
LINE
  8
0
  6
CONTINUOUS
 62
1
 10
511.3
 20
1333.1
 11
511.0
 21
1333.1
  0
LINE
  8
0
  6
CONTINUOUS
 62
1
 10
511.0
 20
1333.1
 11
510.7
 21
1333.1
  0
LINE
  8
0
  6
CONTINUOUS
 62
1
 10
510.7
 20
1333.1
 11
510.5
 21
1333.2
  0
LINE
  8
0
  6
CONTINUOUS
 62
1
 10
510.5
 20
1333.2
 11
510.2
 21
1333.2
  0
LINE
  8
0
  6
CONTINUOUS
 62
1
 10
510.2
 20
1333.2
 11
510.0
 21
1333.3
  0
LINE
  8
0
  6
CONTINUOUS
 62
1
 10
497.6
 20
1317.6
 11
497.3
 21
1317.5
  0
LINE
  8
0
  6
CONTINUOUS
 62
1
 10
497.3
 20
1317.5
 11
497.0
 21
1317.4
  0
LINE
  8
0
  6
CONTINUOUS
 62
1
 10
497.0
 20
1317.4
 11
496.8
 21
1317.2
  0
LINE
  8
0
  6
CONTINUOUS
 62
1
 10
496.8
 20
1317.2
 11
496.7
 21
1316.9
  0
LINE
  8
0
  6
CONTINUOUS
 62
1
 10
496.7
 20
1316.9
 11
496.6
 21
1316.6
  0
LINE
  8
0
  6
CONTINUOUS
 62
1
 10
496.6
 20
1316.6
 11
496.6
 21
1316.6
  0
LINE
  8
0
  6
CONTINUOUS
 62
1
 10
504.0
 20
1335.1
 11
504.3
 21
1335.1
  0
LINE
  8
0
  6
CONTINUOUS
 62
1
 10
504.3
 20
1335.1
 11
504.7
 21
1335.0
  0
LINE
  8
0
  6
CONTINUOUS
 62
1
 10
504.7
 20
1335.0
 11
505.0
 21
1335.0
  0
LINE
  8
0
  6
CONTINUOUS
 62
1
 10
505.0
 20
1335.0
 11
505.4
 21
1334.9
  0
LINE
  8
0
  6
CONTINUOUS
 62
1
 10
505.4
 20
1334.9
 11
505.7
 21
1334.8
  0
LINE
  8
0
  6
CONTINUOUS
 62
1
 10
510.0
 20
1316.9
 11
510.2
 21
1316.9
  0
LINE
  8
0
  6
CONTINUOUS
 62
1
 10
510.2
 20
1316.9
 11
510.5
 21
1317.0
  0
LINE
  8
0
  6
CONTINUOUS
 62
1
 10
510.5
 20
1317.0
 11
510.7
 21
1317.1
  0
LINE
  8
0
  6
CONTINUOUS
 62
1
 10
510.7
 20
1317.1
 11
511.0
 21
1317.1
  0
LINE
  8
0
  6
CONTINUOUS
 62
1
 10
511.0
 20
1317.1
 11
511.3
 21
1317.1
  0
LINE
  8
0
  6
CONTINUOUS
 62
1
 10
481.8
 20
1312.6
 11
481.8
 21
1314.6
  0
LINE
  8
0
  6
CONTINUOUS
 62
1
 10
510.0
 20
1316.9
 11
505.7
 21
1315.4
  0
LINE
  8
0
  6
CONTINUOUS
 62
1
 10
520.2
 20
1317.3
 11
517.3
 21
1317.3
  0
LINE
  8
0
  6
CONTINUOUS
 62
1
 10
500.3
 20
1289.9
 11
500.3
 21
1303.1
  0
LINE
  8
0
  6
CONTINUOUS
 62
1
 10
520.2
 20
1332.8
 11
517.3
 21
1332.8
  0
LINE
  8
0
  6
CONTINUOUS
 62
1
 10
566.7
 20
1304.6
 11
475.0
 21
1304.6
  0
LINE
  8
0
  6
CONTINUOUS
 62
1
 10
500.7
 20
1306.6
 11
477.9
 21
1306.6
  0
LINE
  8
0
  6
CONTINUOUS
 62
1
 10
477.9
 20
1306.6
 11
477.9
 21
1304.6
  0
LINE
  8
0
  6
CONTINUOUS
 62
1
 10
500.7
 20
1306.6
 11
500.7
 21
1305.6
  0
LINE
  8
0
  6
CONTINUOUS
 62
1
 10
475.0
 20
1303.1
 11
475.0
 21
1304.6
  0
LINE
  8
0
  6
CONTINUOUS
 62
1
 10
475.8
 20
1303.1
 11
475.8
 21
1304.6
  0
LINE
  8
0
  6
CONTINUOUS
 62
1
 10
520.2
 20
1319.1
 11
522.1
 21
1319.1
  0
LINE
  8
0
  6
CONTINUOUS
 62
1
 10
522.1
 20
1319.1
 11
536.9
 21
1316.7
  0
LINE
  8
0
  6
CONTINUOUS
 62
1
 10
536.9
 20
1316.7
 11
550.3
 21
1309.6
  0
LINE
  8
0
  6
CONTINUOUS
 62
1
 10
550.3
 20
1309.6
 11
555.0
 21
1305.6
  0
LINE
  8
0
  6
CONTINUOUS
 62
1
 10
557.4
 20
1303.1
 11
561.0
 21
1298.6
  0
LINE
  8
0
  6
CONTINUOUS
 62
1
 10
561.0
 20
1298.6
 11
567.8
 21
1284.6
  0
LINE
  8
0
  6
CONTINUOUS
 62
1
 10
567.8
 20
1284.6
 11
570.2
 21
1269.1
  0
LINE
  8
0
  6
CONTINUOUS
 62
1
 10
522.1
 20
1331.1
 11
540.7
 21
1328.0
  0
LINE
  8
0
  6
CONTINUOUS
 62
1
 10
540.7
 20
1328.0
 11
557.5
 21
1319.2
  0
LINE
  8
0
  6
CONTINUOUS
 62
1
 10
557.5
 20
1319.2
 11
570.7
 21
1305.6
  0
LINE
  8
0
  6
CONTINUOUS
 62
1
 10
572.4
 20
1303.1
 11
579.3
 21
1288.2
  0
LINE
  8
0
  6
CONTINUOUS
 62
1
 10
579.3
 20
1288.2
 11
582.2
 21
1269.1
  0
LINE
  8
0
  6
CONTINUOUS
 62
1
 10
520.2
 20
1331.1
 11
522.1
 21
1331.1
  0
LINE
  8
0
  6
CONTINUOUS
 62
1
 10
570.2
 20
1269.1
 11
570.2
 21
1060.4
  0
LINE
  8
0
  6
CONTINUOUS
 62
1
 10
582.2
 20
1269.1
 11
582.2
 21
1060.4
  0
LINE
  8
0
  6
CONTINUOUS
 62
1
 10
585.5
 20
1442.6
 11
589.1
 21
1442.6
  0
LINE
  8
0
  6
CONTINUOUS
 62
1
 10
582.0
 20
1341.6
 11
592.6
 21
1341.6
  0
LINE
  8
0
  6
CONTINUOUS
 62
1
 10
582.0
 20
1436.1
 11
582.0
 21
1341.6
  0
LINE
  8
0
  6
CONTINUOUS
 62
1
 10
585.5
 20
1442.6
 11
584.6
 21
1442.4
  0
LINE
  8
0
  6
CONTINUOUS
 62
1
 10
584.6
 20
1442.4
 11
583.9
 21
1442.1
  0
LINE
  8
0
  6
CONTINUOUS
 62
1
 10
583.9
 20
1442.1
 11
583.3
 21
1441.5
  0
LINE
  8
0
  6
CONTINUOUS
 62
1
 10
583.3
 20
1441.5
 11
582.8
 21
1440.6
  0
LINE
  8
0
  6
CONTINUOUS
 62
1
 10
582.8
 20
1440.6
 11
582.4
 21
1439.4
  0
LINE
  8
0
  6
CONTINUOUS
 62
1
 10
582.4
 20
1439.4
 11
582.1
 21
1438.1
  0
LINE
  8
0
  6
CONTINUOUS
 62
1
 10
582.1
 20
1438.1
 11
582.0
 21
1436.7
  0
LINE
  8
0
  6
CONTINUOUS
 62
1
 10
582.0
 20
1436.7
 11
582.0
 21
1436.1
  0
LINE
  8
0
  6
CONTINUOUS
 62
1
 10
592.6
 20
1436.1
 11
592.6
 21
1341.6
  0
LINE
  8
0
  6
CONTINUOUS
 62
1
 10
589.1
 20
1442.6
 11
590.0
 21
1442.4
  0
LINE
  8
0
  6
CONTINUOUS
 62
1
 10
590.0
 20
1442.4
 11
590.8
 21
1442.1
  0
LINE
  8
0
  6
CONTINUOUS
 62
1
 10
590.8
 20
1442.1
 11
591.4
 21
1441.5
  0
LINE
  8
0
  6
CONTINUOUS
 62
1
 10
591.4
 20
1441.5
 11
591.9
 21
1440.6
  0
LINE
  8
0
  6
CONTINUOUS
 62
1
 10
591.9
 20
1440.6
 11
592.3
 21
1439.4
  0
LINE
  8
0
  6
CONTINUOUS
 62
1
 10
592.3
 20
1439.4
 11
592.5
 21
1438.1
  0
LINE
  8
0
  6
CONTINUOUS
 62
1
 10
592.5
 20
1438.1
 11
592.6
 21
1436.7
  0
LINE
  8
0
  6
CONTINUOUS
 62
1
 10
592.6
 20
1436.7
 11
592.6
 21
1436.1
  0
LINE
  8
0
  6
CONTINUOUS
 62
1
 10
592.7
 20
1060.4
 11
592.7
 21
1061.2
  0
LINE
  8
0
  6
CONTINUOUS
 62
1
 10
1241.4
 20
1024.6
 11
1241.4
 21
1026.4
  0
LINE
  8
0
  6
CONTINUOUS
 62
1
 10
577.2
 20
190.4
 11
546.8
 21
190.4
  0
LINE
  8
0
  6
CONTINUOUS
 62
1
 10
449.0
 20
390.4
 11
462.6
 21
390.4
  0
ENDSEC
  0
EOF
