  0
SECTION
  2
HEADER
  9
$LIMMIN
 10
0.000000
 20
0.000000
  9
$LIMMAX
 10
840.896415
 20
594.603557
  9
$EXTMIN
 10
0.000000
 20
0.000000
  9
$EXTMAX
 10
3363.600000
 20
2378.420000
  9
$ANGBASE
 50
0.0
  9
$ANGDIR
 70
0
  9
$DIMRND
 40
0.100000
  9
$DIMSE1
 70
0
  9
$DIMSE2
 70
0
  9
$DIMTXT
 40
3.500000
  9
$LTSCALE
 40
1.000000
  9
$LUPREC
 70
5
  9
$AUPREC
 70
5
  9
$PDMODE
 70
2
  9
$PDSIZE
 40
16.818000
  0
ENDSEC
  0
SECTION
  2
TABLES
  0
TABLE
  2
VPORT
  70
1
  0
VPORT
  2
*ACTIVE
 70
0
  10
0.0
 20
0.0
 11
1.0
 21
1.0
 12
594.0
 22
420.0
 13
0.0
 23
0.0
 14
10.0
 24
10.0
 15
10.0
 25
10.0
 16
0.0
 26
0.0
 36
1.0
 17
594.0
 27
420.0
 37
100.0
 40
1000.0
 41
1.0
 42
50.0
 43
0.0
 44
0.0
 50
0.0
 51
0.0
 71
0
 72
2000
 73
1
 74
3
 75
0
 76
0
 77
0
 78
1
  0
ENDTAB
  0
TABLE
  2
LTYPE
 70
4
  0
LTYPE
  2
CONTINUOUS
 70
0
  3
Solid line
 72
65
 73
0
 40
0.0
  0
LTYPE
  2
DASHED
 70
0
  3
Dashed line
 72
65
 73
2
 40
6.000000
 49
3.000000
 49
-3.000000
  0
LTYPE
  2
CENTER
 70
0
  3
Chain line
 72
65
 73
4
 40
24.000000
 49
15.000000
 49
-3.000000
 49
3.000000
 49
-3.000000
  0
LTYPE
  2
RANDOM
 70
0
  3
Random line
 72
65
 73
4
 40
22.500000
 49
6.000000
 49
-3.000000
 49
4.500000
 49
-9.000000
  0
ENDTAB
  0
TABLE
  2
STYLE
 70
9
  0
STYLE
  2
STANDARD
 40
0
 41
1.0
 50
0.0
 71
0
 42
0
  3
simplex
  4

 70
0
  0
ENDTAB
  0
TABLE
  2
LAYER
 70
2
  0
LAYER
  2
0
 70
0
 62
7
  6
CONTINUOUS
  0
LAYER
  2
0
 62
1
  6
CONTINUOUS
 70
0
  0
ENDTAB
  0
ENDSEC
  0
SECTION
  2
BLOCKS
  0
ENDSEC
  0
SECTION
  2
ENTITIES
  0
LINE
  8
0
  6
CONTINUOUS
 62
1
 10
988.855658
 20
1496.812933
 11
999.615658
 21
1459.812933
  0
LINE
  8
0
  6
CONTINUOUS
 62
1
 10
999.615658
 20
1459.812933
 11
1595.755658
 21
1459.812933
  0
LINE
  8
0
  6
CONTINUOUS
 62
1
 10
1595.755658
 20
1459.812933
 11
1595.755658
 21
1496.812933
  0
LINE
  8
0
  6
CONTINUOUS
 62
1
 10
1595.755658
 20
1496.812933
 11
988.855658
 21
1496.812933
  0
LINE
  8
0
  6
CONTINUOUS
 62
1
 10
1578.485658
 20
1496.812933
 11
1560.755658
 21
1541.812933
  0
LINE
  8
0
  6
CONTINUOUS
 62
1
 10
1560.755658
 20
1541.812933
 11
975.755658
 21
1541.812933
  0
LINE
  8
0
  6
CONTINUOUS
 62
1
 10
975.755658
 20
1541.812933
 11
988.855658
 21
1496.812933
  0
LINE
  8
0
  6
CONTINUOUS
 62
1
 10
999.615658
 20
1459.812933
 11
999.615658
 21
1311.812933
  0
LINE
  8
0
  6
CONTINUOUS
 62
1
 10
1535.755658
 20
1311.812933
 11
1535.755658
 21
776.812933
  0
LINE
  8
0
  6
CONTINUOUS
 62
1
 10
1535.755658
 20
776.812933
 11
825.755658
 21
776.812933
  0
LINE
  8
0
  6
CONTINUOUS
 62
1
 10
825.755658
 20
776.812933
 11
825.755658
 21
1524.088413
  0
ARC
  8
0
  6
CONTINUOUS
 62
1
 10
940.755658
 20
1456.812933
 40
40.000000
 50
0.000000
 51
90.000000
  0
LINE
  8
0
  6
CONTINUOUS
 62
1
 10
980.755658
 20
1456.812933
 11
980.755658
 21
1311.812933
  0
LINE
  8
0
  6
CONTINUOUS
 62
1
 10
825.755658
 20
1311.812933
 11
1570.755658
 21
1311.812933
  0
ARC
  8
0
  6
CONTINUOUS
 62
1
 10
1570.755658
 20
1336.812933
 40
25.000000
 50
270.000000
 51
0.000000
  0
LINE
  8
0
  6
CONTINUOUS
 62
1
 10
1595.755658
 20
1336.812933
 11
1595.755658
 21
1459.812933
  0
LINE
  8
0
  6
CONTINUOUS
 62
1
 10
920.121043
 20
1471.812933
 11
927.105658
 21
1431.812933
  0
LINE
  8
0
  6
CONTINUOUS
 62
1
 10
927.105658
 20
1431.812933
 11
980.755658
 21
1431.812933
  0
LINE
  8
0
  6
CONTINUOUS
 62
1
 10
975.755658
 20
1541.812933
 11
929.455658
 21
1496.812933
  0
LINE
  8
0
  6
CONTINUOUS
 62
1
 10
985.325658
 20
1508.932933
 11
964.685658
 21
1488.862933
  0
LINE
  8
0
  6
CONTINUOUS
 62
1
 10
1543.755658
 20
776.812933
 11
1580.755658
 21
776.812933
  0
LINE
  8
0
  6
CONTINUOUS
 62
1
 10
1580.755658
 20
776.812933
 11
1580.755658
 21
951.812933
  0
LINE
  8
0
  6
CONTINUOUS
 62
1
 10
1580.755658
 20
951.812933
 11
1543.755658
 21
951.812933
  0
LINE
  8
0
  6
CONTINUOUS
 62
1
 10
1543.755658
 20
951.812933
 11
1543.755658
 21
776.812933
  0
LINE
  8
0
  6
CONTINUOUS
 62
1
 10
1543.755658
 20
951.812933
 11
1580.755658
 21
951.812933
  0
LINE
  8
0
  6
CONTINUOUS
 62
1
 10
1580.755658
 20
951.812933
 11
1580.755658
 21
1258.812933
  0
LINE
  8
0
  6
CONTINUOUS
 62
1
 10
1580.755658
 20
1258.812933
 11
1543.755658
 21
1258.812933
  0
LINE
  8
0
  6
CONTINUOUS
 62
1
 10
1543.755658
 20
1258.812933
 11
1543.755658
 21
951.812933
  0
LINE
  8
0
  6
CONTINUOUS
 62
1
 10
1602.755658
 20
1119.312933
 11
1635.755658
 21
1119.312933
  0
LINE
  8
0
  6
CONTINUOUS
 62
1
 10
1635.755658
 20
1119.312933
 11
1635.755658
 21
1264.312933
  0
LINE
  8
0
  6
CONTINUOUS
 62
1
 10
1635.755658
 20
1264.312933
 11
1602.755658
 21
1264.312933
  0
LINE
  8
0
  6
CONTINUOUS
 62
1
 10
1602.755658
 20
1264.312933
 11
1602.755658
 21
1219.937773
  0
LINE
  8
0
  6
CONTINUOUS
 62
1
 10
1580.755658
 20
1218.812933
 11
1580.755658
 21
1168.812933
  0
LINE
  8
0
  6
CONTINUOUS
 62
1
 10
1571.585658
 20
1514.312933
 11
1583.255658
 21
1514.312933
  0
ARC
  8
0
  6
CONTINUOUS
 62
1
 10
1583.255658
 20
1479.312933
 40
35.000000
 50
61.927000
 51
89.999000
  0
LINE
  8
0
  6
CONTINUOUS
 62
1
 10
1599.725658
 20
1510.192933
 11
1682.225658
 21
1466.192933
  0
ARC
  8
0
  6
CONTINUOUS
 62
1
 10
1685.755658
 20
1472.812933
 40
7.500000
 50
241.926000
 51
61.926000
  0
LINE
  8
0
  6
CONTINUOUS
 62
1
 10
1689.285658
 20
1479.432933
 11
1606.785658
 21
1523.432933
  0
ARC
  8
0
  6
CONTINUOUS
 62
1
 10
1583.255658
 20
1479.312933
 40
50.000000
 50
61.926000
 51
89.999000
  0
LINE
  8
0
  6
CONTINUOUS
 62
1
 10
1583.255658
 20
1529.312933
 11
1565.675658
 21
1529.312933
  0
ARC
  8
0
  6
CONTINUOUS
 62
1
 10
1581.595658
 20
1428.552933
 40
69.710000
 50
352.796000
 51
78.278000
  0
LINE
  8
0
  6
CONTINUOUS
 62
1
 10
1650.755658
 20
1419.812933
 11
1644.305658
 21
1419.812933
  0
ARC
  8
0
  6
CONTINUOUS
 62
1
 10
1626.015658
 20
1416.162933
 40
18.650000
 50
11.286000
 51
168.714000
  0
LINE
  8
0
  6
CONTINUOUS
 62
1
 10
1607.725658
 20
1419.812933
 11
1607.725658
 21
1404.812933
  0
LINE
  8
0
  6
CONTINUOUS
 62
1
 10
1607.725658
 20
1404.812933
 11
1596.635658
 21
1404.812933
  0
LINE
  8
0
  6
CONTINUOUS
 62
1
 10
825.755658
 20
836.812933
 11
815.755658
 21
836.812933
  0
LINE
  8
0
  6
CONTINUOUS
 62
1
 10
815.755658
 20
836.812933
 11
815.755658
 21
816.812933
  0
LINE
  8
0
  6
CONTINUOUS
 62
1
 10
815.755658
 20
816.812933
 11
825.755658
 21
816.812933
  0
LINE
  8
0
  6
CONTINUOUS
 62
1
 10
1524.755658
 20
766.812933
 11
1450.755658
 21
766.812933
  0
LINE
  8
0
  6
CONTINUOUS
 62
1
 10
1450.755658
 20
776.812933
 11
1450.755658
 21
766.812933
  0
LINE
  8
0
  6
CONTINUOUS
 62
1
 10
1465.317510
 20
760.875433
 11
1466.287564
 21
667.750425
  0
ARC
  8
0
  6
CONTINUOUS
 62
1
 10
1459.317838
 20
760.812933
 40
6.000000
 50
0.596809
 51
90.000000
  0
ARC
  8
0
  6
CONTINUOUS
 62
1
 10
1516.193494
 20
760.812933
 40
6.000000
 50
90.000000
 51
179.403198
  0
LINE
  8
0
  6
CONTINUOUS
 62
1
 10
1471.255658
 20
627.812933
 11
1471.755658
 21
627.812933
  0
LINE
  8
0
  6
CONTINUOUS
 62
1
 10
1471.755658
 20
627.812933
 11
1471.255658
 21
627.812933
  0
LINE
  8
0
  6
CONTINUOUS
 62
1
 10
1513.755658
 20
627.812933
 11
1502.755658
 21
631.812918
  0
LINE
  8
0
  6
CONTINUOUS
 62
1
 10
1461.755658
 20
627.812933
 11
1472.755658
 21
631.812918
  0
ARC
  8
0
  6
CONTINUOUS
 62
1
 10
1503.224088
 20
667.812925
 40
5.999996
 50
269.999969
 51
359.403160
  0
ARC
  8
0
  6
CONTINUOUS
 62
1
 10
1472.287244
 20
667.812925
 40
6.000000
 50
180.596802
 51
270.000000
  0
LINE
  8
0
  6
CONTINUOUS
 62
1
 10
1509.255658
 20
670.812925
 11
1466.255658
 21
670.812925
  0
LINE
  8
0
  6
CONTINUOUS
 62
1
 10
1510.193814
 20
760.875433
 11
1509.223767
 21
667.750425
  0
LINE
  8
0
  6
CONTINUOUS
 62
1
 10
1472.755658
 20
661.812925
 11
1472.755658
 21
631.812918
  0
LINE
  8
0
  6
CONTINUOUS
 62
1
 10
1502.755658
 20
661.812925
 11
1502.755658
 21
631.812918
  0
LINE
  8
0
  6
CONTINUOUS
 62
1
 10
1513.755658
 20
627.812933
 11
1503.755658
 21
627.812933
  0
LINE
  8
0
  6
CONTINUOUS
 62
1
 10
1461.755658
 20
627.812933
 11
1461.755658
 21
626.812933
  0
LINE
  8
0
  6
CONTINUOUS
 62
1
 10
1504.255658
 20
627.812933
 11
1461.755658
 21
627.812933
  0
LINE
  8
0
  6
CONTINUOUS
 62
1
 10
1502.755658
 20
631.812918
 11
1472.786603
 21
631.812918
  0
LINE
  8
0
  6
CONTINUOUS
 62
1
 10
1503.224088
 20
661.812925
 11
1472.287244
 21
661.812925
  0
LINE
  8
0
  6
CONTINUOUS
 62
1
 10
1513.755658
 20
626.812933
 11
1461.755658
 21
626.812933
  0
LINE
  8
0
  6
CONTINUOUS
 62
1
 10
1513.755658
 20
627.812933
 11
1513.755658
 21
626.812933
  0
LINE
  8
0
  6
CONTINUOUS
 62
1
 10
1524.755658
 20
766.812933
 11
1524.755658
 21
776.812933
  0
LINE
  8
0
  6
CONTINUOUS
 62
1
 10
932.755658
 20
766.812933
 11
858.755658
 21
766.812933
  0
LINE
  8
0
  6
CONTINUOUS
 62
1
 10
858.755658
 20
776.812933
 11
858.755658
 21
766.812933
  0
LINE
  8
0
  6
CONTINUOUS
 62
1
 10
873.317510
 20
760.875433
 11
874.287564
 21
667.750425
  0
ARC
  8
0
  6
CONTINUOUS
 62
1
 10
867.317838
 20
760.812933
 40
6.000000
 50
0.596809
 51
90.000000
  0
ARC
  8
0
  6
CONTINUOUS
 62
1
 10
924.193494
 20
760.812933
 40
6.000000
 50
90.000000
 51
179.403198
  0
LINE
  8
0
  6
CONTINUOUS
 62
1
 10
879.255658
 20
627.812933
 11
879.755658
 21
627.812933
  0
LINE
  8
0
  6
CONTINUOUS
 62
1
 10
879.755658
 20
627.812933
 11
879.255658
 21
627.812933
  0
LINE
  8
0
  6
CONTINUOUS
 62
1
 10
921.755658
 20
627.812933
 11
910.755658
 21
631.812918
  0
LINE
  8
0
  6
CONTINUOUS
 62
1
 10
869.755658
 20
627.812933
 11
880.755658
 21
631.812918
  0
ARC
  8
0
  6
CONTINUOUS
 62
1
 10
911.224088
 20
667.812925
 40
5.999996
 50
269.999969
 51
359.403160
  0
ARC
  8
0
  6
CONTINUOUS
 62
1
 10
880.287244
 20
667.812925
 40
6.000000
 50
180.596802
 51
270.000000
  0
LINE
  8
0
  6
CONTINUOUS
 62
1
 10
917.255658
 20
670.812925
 11
874.255658
 21
670.812925
  0
LINE
  8
0
  6
CONTINUOUS
 62
1
 10
918.193814
 20
760.875433
 11
917.223767
 21
667.750425
  0
LINE
  8
0
  6
CONTINUOUS
 62
1
 10
880.755658
 20
661.812925
 11
880.755658
 21
631.812918
  0
LINE
  8
0
  6
CONTINUOUS
 62
1
 10
910.755658
 20
661.812925
 11
910.755658
 21
631.812918
  0
LINE
  8
0
  6
CONTINUOUS
 62
1
 10
921.755658
 20
627.812933
 11
911.755658
 21
627.812933
  0
LINE
  8
0
  6
CONTINUOUS
 62
1
 10
869.755658
 20
627.812933
 11
869.755658
 21
626.812933
  0
LINE
  8
0
  6
CONTINUOUS
 62
1
 10
912.255658
 20
627.812933
 11
869.755658
 21
627.812933
  0
LINE
  8
0
  6
CONTINUOUS
 62
1
 10
910.755658
 20
631.812918
 11
880.786603
 21
631.812918
  0
LINE
  8
0
  6
CONTINUOUS
 62
1
 10
911.224088
 20
661.812925
 11
880.287244
 21
661.812925
  0
LINE
  8
0
  6
CONTINUOUS
 62
1
 10
921.755658
 20
626.812933
 11
869.755658
 21
626.812933
  0
LINE
  8
0
  6
CONTINUOUS
 62
1
 10
921.755658
 20
627.812933
 11
921.755658
 21
626.812933
  0
LINE
  8
0
  6
CONTINUOUS
 62
1
 10
932.755658
 20
766.812933
 11
932.755658
 21
776.812933
  0
LINE
  8
0
  6
CENTER
 62
4
 10
805.755658
 20
826.812933
 11
895.255658
 21
826.812933
  0
LINE
  8
0
  6
CENTER
 62
4
 10
805.755658
 20
826.812933
 11
895.255658
 21
826.812933
  0
LINE
  8
0
  6
CONTINUOUS
 62
1
 10
825.755658
 20
836.812933
 11
815.755658
 21
836.812933
  0
LINE
  8
0
  6
CONTINUOUS
 62
1
 10
1582.755658
 20
1228.482985
 11
1582.755658
 21
1189.642881
  0
LINE
  8
0
  6
CONTINUOUS
 62
1
 10
1612.755658
 20
1177.132151
 11
1612.755658
 21
1214.833726
  0
LINE
  8
0
  6
CONTINUOUS
 62
1
 10
1582.755658
 20
1189.642881
 11
1580.755658
 21
1189.642881
  0
LINE
  8
0
  6
CONTINUOUS
 62
1
 10
1580.755658
 20
1189.642881
 11
1580.755658
 21
1197.982985
  0
LINE
  8
0
  6
CONTINUOUS
 62
1
 10
1582.755658
 20
1189.642881
 11
1582.755658
 21
1163.482985
  0
LINE
  8
0
  6
CONTINUOUS
 62
1
 10
1582.755658
 20
1228.482985
 11
1592.755658
 21
1224.392560
  0
LINE
  8
0
  6
CONTINUOUS
 62
1
 10
1582.755658
 20
1163.482985
 11
1592.755658
 21
1167.570254
  0
LINE
  8
0
  6
CONTINUOUS
 62
1
 10
1582.755658
 20
1228.482985
 11
1592.755658
 21
1224.392560
  0
LINE
  8
0
  6
CONTINUOUS
 62
1
 10
1592.755658
 20
1167.570254
 11
1592.755658
 21
1224.392560
  0
LINE
  8
0
  6
CONTINUOUS
 62
1
 10
1580.755658
 20
1197.982985
 11
1582.755658
 21
1197.982985
  0
LINE
  8
0
  6
CONTINUOUS
 62
1
 10
1612.162585
 20
1215.747187
 11
1592.755658
 21
1224.392560
  0
LINE
  8
0
  6
CONTINUOUS
 62
1
 10
1612.162706
 20
1176.218744
 11
1592.755658
 21
1167.570254
  0
ARC
  8
0
  6
CONTINUOUS
 62
1
 10
1611.755658
 20
1214.833726
 40
1.000000
 50
0.000000
 51
65.988044
  0
ARC
  8
0
  6
CONTINUOUS
 62
1
 10
1611.755658
 20
1177.132151
 40
1.000000
 50
294.011956
 51
0.000000
  0
LINE
  8
0
  6
CONTINUOUS
 62
1
 10
1602.755658
 20
1172.026620
 11
1602.755658
 21
1119.312933
  0
LINE
  8
0
  6
CENTER
 62
4
 10
824.005683
 20
1468.812933
 11
829.058661
 21
1468.812933
  0
LINE
  8
0
  6
CONTINUOUS
 62
1
 10
878.105658
 20
1471.812933
 11
878.105658
 21
1508.339070
  0
LINE
  8
0
  6
CONTINUOUS
 62
1
 10
878.105658
 20
1471.812933
 11
920.121043
 21
1471.812933
  0
ARC
  8
0
  6
CONTINUOUS
 62
1
 10
914.436103
 20
1470.912909
 40
0.900000
 50
16.699249
 51
90.000000
  0
LINE
  8
0
  6
CONTINUOUS
 62
1
 10
825.755658
 20
1524.088413
 11
876.706784
 21
1510.158185
  0
LINE
  8
0
  6
CONTINUOUS
 62
1
 10
920.121043
 20
1471.812933
 11
920.121043
 21
1496.812933
  0
LINE
  8
0
  6
CONTINUOUS
 62
1
 10
920.121043
 20
1496.812933
 11
940.755658
 21
1496.812933
  0
ENDSEC
  0
EOF
