  0
SECTION
  2
HEADER
  9
$LIMMIN
 10
0.000000
 20
0.000000
  9
$LIMMAX
 10
840.896415
 20
594.603557
  9
$EXTMIN
 10
0.000000
 20
0.000000
  9
$EXTMAX
 10
3363.600000
 20
2378.420000
  9
$ANGBASE
 50
0.0
  9
$ANGDIR
 70
0
  9
$DIMRND
 40
0.100000
  9
$DIMSE1
 70
0
  9
$DIMSE2
 70
0
  9
$DIMTXT
 40
3.500000
  9
$LTSCALE
 40
1.000000
  9
$LUPREC
 70
5
  9
$AUPREC
 70
5
  9
$PDMODE
 70
2
  9
$PDSIZE
 40
16.818000
  0
ENDSEC
  0
SECTION
  2
TABLES
  0
TABLE
  2
VPORT
  70
1
  0
VPORT
  2
*ACTIVE
 70
0
  10
0.0
 20
0.0
 11
1.0
 21
1.0
 12
594.0
 22
420.0
 13
0.0
 23
0.0
 14
10.0
 24
10.0
 15
10.0
 25
10.0
 16
0.0
 26
0.0
 36
1.0
 17
594.0
 27
420.0
 37
100.0
 40
1000.0
 41
1.0
 42
50.0
 43
0.0
 44
0.0
 50
0.0
 51
0.0
 71
0
 72
2000
 73
1
 74
3
 75
0
 76
0
 77
0
 78
1
  0
ENDTAB
  0
TABLE
  2
LTYPE
 70
4
  0
LTYPE
  2
CONTINUOUS
 70
0
  3
Solid line
 72
65
 73
0
 40
0.0
  0
LTYPE
  2
DASHED
 70
0
  3
Dashed line
 72
65
 73
2
 40
6.000000
 49
3.000000
 49
-3.000000
  0
LTYPE
  2
CENTER
 70
0
  3
Chain line
 72
65
 73
4
 40
24.000000
 49
15.000000
 49
-3.000000
 49
3.000000
 49
-3.000000
  0
LTYPE
  2
RANDOM
 70
0
  3
Random line
 72
65
 73
4
 40
22.500000
 49
6.000000
 49
-3.000000
 49
4.500000
 49
-9.000000
  0
ENDTAB
  0
TABLE
  2
STYLE
 70
9
  0
STYLE
  2
STANDARD
 40
0
 41
1.0
 50
0.0
 71
0
 42
0
  3
simplex
  4

 70
0
  0
ENDTAB
  0
TABLE
  2
LAYER
 70
2
  0
LAYER
  2
0
 70
0
 62
7
  6
CONTINUOUS
  0
LAYER
  2
0
 62
1
  6
CONTINUOUS
 70
0
  0
ENDTAB
  0
ENDSEC
  0
SECTION
  2
BLOCKS
  0
ENDSEC
  0
SECTION
  2
ENTITIES
  0
LINE
  8
0
  6
CONTINUOUS
 62
1
 10
1280.183395
 20
1815.306236
 11
1100.413395
 21
1815.306236
  0
ARC
  8
0
  6
CONTINUOUS
 62
1
 10
1100.413395
 20
1795.306236
 40
20.000000
 50
89.999000
 51
153.740000
  0
LINE
  8
0
  6
CONTINUOUS
 62
1
 10
1082.473395
 20
1804.156236
 11
1080.333395
 21
1799.806236
  0
LINE
  8
0
  6
CONTINUOUS
 62
1
 10
1319.813395
 20
1815.306236
 11
1319.813395
 21
1860.306236
  0
LINE
  8
0
  6
CONTINUOUS
 62
1
 10
1319.813395
 20
1860.306236
 11
769.813395
 21
1860.306236
  0
LINE
  8
0
  6
CONTINUOUS
 62
1
 10
769.813395
 20
1860.306236
 11
769.813395
 21
1815.306236
  0
LINE
  8
0
  6
CONTINUOUS
 62
1
 10
1344.813395
 20
1815.306236
 11
1344.813395
 21
1840.306236
  0
LINE
  8
0
  6
CONTINUOUS
 62
1
 10
1344.813395
 20
1840.306236
 11
1319.813395
 21
1840.306236
  0
LINE
  8
0
  6
CONTINUOUS
 62
1
 10
1344.813395
 20
1830.306236
 11
1319.813395
 21
1830.306236
  0
LINE
  8
0
  6
CONTINUOUS
 62
1
 10
744.813395
 20
1815.306236
 11
744.813395
 21
1840.306236
  0
LINE
  8
0
  6
CONTINUOUS
 62
1
 10
744.813395
 20
1840.306236
 11
769.813395
 21
1840.306236
  0
LINE
  8
0
  6
CONTINUOUS
 62
1
 10
769.813395
 20
1830.306236
 11
744.813395
 21
1830.306236
  0
ARC
  8
0
  6
CONTINUOUS
 62
1
 10
1294.813395
 20
1840.306236
 40
7.500000
 50
0.000000
 51
180.000000
  0
LINE
  8
0
  6
CONTINUOUS
 62
1
 10
1302.313395
 20
1840.306236
 11
1302.313395
 21
1837.306236
  0
ARC
  8
0
  6
CONTINUOUS
 62
1
 10
1249.813395
 20
1837.306236
 40
52.500000
 50
270.000000
 51
0.000000
  0
LINE
  8
0
  6
CONTINUOUS
 62
1
 10
1249.813395
 20
1784.806236
 11
839.813395
 21
1784.806236
  0
ARC
  8
0
  6
CONTINUOUS
 62
1
 10
839.813395
 20
1837.306236
 40
52.500000
 50
180.000000
 51
270.000000
  0
LINE
  8
0
  6
CONTINUOUS
 62
1
 10
787.313395
 20
1837.306236
 11
787.313395
 21
1840.306236
  0
ARC
  8
0
  6
CONTINUOUS
 62
1
 10
794.813395
 20
1840.306236
 40
7.500000
 50
0.000000
 51
180.000000
  0
LINE
  8
0
  6
CONTINUOUS
 62
1
 10
802.313395
 20
1840.306236
 11
802.313395
 21
1837.306236
  0
ARC
  8
0
  6
CONTINUOUS
 62
1
 10
839.813395
 20
1837.306236
 40
37.500000
 50
180.000000
 51
270.000000
  0
LINE
  8
0
  6
CONTINUOUS
 62
1
 10
839.813395
 20
1799.806236
 11
1249.813395
 21
1799.806236
  0
ARC
  8
0
  6
CONTINUOUS
 62
1
 10
1249.813395
 20
1837.306236
 40
37.500000
 50
270.001000
 51
0.001000
  0
LINE
  8
0
  6
CONTINUOUS
 62
1
 10
1287.313395
 20
1837.306236
 11
1287.313395
 21
1840.306236
  0
LINE
  8
0
  6
CONTINUOUS
 62
1
 10
792.143395
 20
1815.306236
 11
744.813395
 21
1815.306236
  0
LINE
  8
0
  6
CONTINUOUS
 62
1
 10
744.813395
 20
1815.306236
 11
744.813395
 21
1095.306236
  0
LINE
  8
0
  6
CONTINUOUS
 62
1
 10
744.813395
 20
1095.306236
 11
1344.813395
 21
1095.306236
  0
LINE
  8
0
  6
CONTINUOUS
 62
1
 10
1344.813395
 20
1095.306236
 11
1344.813395
 21
1815.306236
  0
LINE
  8
0
  6
CONTINUOUS
 62
1
 10
1344.813395
 20
1815.306236
 11
1297.483395
 21
1815.306236
  0
LINE
  8
0
  6
CONTINUOUS
 62
1
 10
1344.813395
 20
1665.306236
 11
744.813395
 21
1665.306236
  0
LINE
  8
0
  6
CONTINUOUS
 62
1
 10
744.813395
 20
1630.306236
 11
1344.813395
 21
1630.306236
  0
LINE
  8
0
  6
CONTINUOUS
 62
1
 10
1344.813395
 20
1577.306236
 11
1292.513395
 21
1577.306236
  0
LINE
  8
0
  6
CONTINUOUS
 62
1
 10
744.813395
 20
1270.306236
 11
1344.813395
 21
1270.306236
  0
LINE
  8
0
  6
CONTINUOUS
 62
1
 10
744.813395
 20
1778.306236
 11
974.013395
 21
1778.306236
  0
ARC
  8
0
  6
CONTINUOUS
 62
1
 10
974.013395
 20
1758.306236
 40
20.000000
 50
26.257000
 51
89.999000
  0
LINE
  8
0
  6
CONTINUOUS
 62
1
 10
991.953395
 20
1767.156236
 11
999.763395
 21
1751.316236
  0
ARC
  8
0
  6
CONTINUOUS
 62
1
 10
1044.813395
 20
1773.536236
 40
50.230000
 50
206.257000
 51
333.743000
  0
LINE
  8
0
  6
CONTINUOUS
 62
1
 10
1089.853395
 20
1751.316236
 11
1097.673395
 21
1767.156236
  0
ARC
  8
0
  6
CONTINUOUS
 62
1
 10
1115.613395
 20
1758.306236
 40
20.000000
 50
90.001000
 51
153.743000
  0
LINE
  8
0
  6
CONTINUOUS
 62
1
 10
1115.603395
 20
1778.306236
 11
1344.813395
 21
1778.306236
  0
LINE
  8
0
  6
CONTINUOUS
 62
1
 10
999.973395
 20
1784.806236
 11
1013.223395
 21
1757.946236
  0
ARC
  8
0
  6
CONTINUOUS
 62
1
 10
1044.813395
 20
1773.536236
 40
35.230000
 50
206.257000
 51
333.743000
  0
LINE
  8
0
  6
CONTINUOUS
 62
1
 10
1076.403395
 20
1757.946236
 11
1089.653395
 21
1784.806236
  0
LINE
  8
0
  6
CONTINUOUS
 62
1
 10
989.213395
 20
1815.306236
 11
1100.413395
 21
1815.306236
  0
LINE
  8
0
  6
CONTINUOUS
 62
1
 10
1072.933395
 20
1784.806236
 11
1062.953395
 21
1764.586236
  0
ARC
  8
0
  6
CONTINUOUS
 62
1
 10
1044.813395
 20
1773.536236
 40
20.230000
 50
206.257000
 51
333.743000
  0
LINE
  8
0
  6
CONTINUOUS
 62
1
 10
1026.673395
 20
1764.586236
 11
1016.693395
 21
1784.806236
  0
LINE
  8
0
  6
CONTINUOUS
 62
1
 10
1009.293395
 20
1799.806236
 11
1007.153395
 21
1804.156236
  0
ARC
  8
0
  6
CONTINUOUS
 62
1
 10
989.213395
 20
1795.306236
 40
20.000000
 50
26.260000
 51
90.000000
  0
LINE
  8
0
  6
CONTINUOUS
 62
1
 10
989.213395
 20
1815.306236
 11
809.443395
 21
1815.306236
  0
ARC
  8
0
  6
CONTINUOUS
 62
1
 10
1264.813395
 20
1510.306236
 40
72.500000
 50
0.000000
 51
180.000000
  0
ARC
  8
0
  6
CONTINUOUS
 62
1
 10
1264.813395
 20
1510.306236
 40
72.500000
 50
180.000000
 51
0.000000
  0
ARC
  8
0
  6
CONTINUOUS
 62
1
 10
1264.813395
 20
1510.306236
 40
59.560000
 50
180.000000
 51
0.000000
  0
ARC
  8
0
  6
CONTINUOUS
 62
1
 10
1264.813395
 20
1510.306236
 40
59.560000
 50
0.000000
 51
180.000000
  0
ARC
  8
0
  6
CONTINUOUS
 62
1
 10
1264.813395
 20
1510.306236
 40
29.410000
 50
180.000000
 51
0.000000
  0
ARC
  8
0
  6
CONTINUOUS
 62
1
 10
1264.813395
 20
1510.306236
 40
29.410000
 50
0.000000
 51
180.000000
  0
ARC
  8
0
  6
CONTINUOUS
 62
1
 10
1264.813395
 20
1510.306236
 40
18.030000
 50
180.000000
 51
0.000000
  0
ARC
  8
0
  6
CONTINUOUS
 62
1
 10
1264.813395
 20
1510.306236
 40
18.030000
 50
0.000000
 51
180.000000
  0
LINE
  8
0
  6
CONTINUOUS
 62
1
 10
1237.113395
 20
1577.306236
 11
744.813395
 21
1577.306236
  0
LINE
  8
0
  6
CONTINUOUS
 62
1
 10
754.813395
 20
1095.306236
 11
759.813395
 21
1085.306236
  0
LINE
  8
0
  6
CONTINUOUS
 62
1
 10
759.813395
 20
1085.306236
 11
1329.813395
 21
1085.306236
  0
LINE
  8
0
  6
CONTINUOUS
 62
1
 10
1329.813395
 20
1085.306236
 11
1334.813395
 21
1095.306236
  0
LINE
  8
0
  6
CONTINUOUS
 62
1
 10
1305.813395
 20
1085.306236
 11
1231.813395
 21
1085.306236
  0
LINE
  8
0
  6
CENTER
 62
1
 10
1268.813395
 20
1095.306236
 11
1268.813395
 21
945.306236
  0
LINE
  8
0
  6
CONTINUOUS
 62
1
 10
1246.375246
 20
1079.368736
 11
1247.345301
 21
986.243728
  0
ARC
  8
0
  6
CONTINUOUS
 62
1
 10
1240.375574
 20
1079.306236
 40
6.000000
 50
0.596809
 51
90.000000
  0
ARC
  8
0
  6
CONTINUOUS
 62
1
 10
1297.251231
 20
1079.306236
 40
6.000000
 50
90.000000
 51
179.403198
  0
LINE
  8
0
  6
CONTINUOUS
 62
1
 10
1252.313395
 20
946.306236
 11
1252.813395
 21
946.306236
  0
LINE
  8
0
  6
CONTINUOUS
 62
1
 10
1252.813395
 20
946.306236
 11
1252.313395
 21
946.306236
  0
LINE
  8
0
  6
CONTINUOUS
 62
1
 10
1294.813395
 20
946.306236
 11
1283.813395
 21
950.306220
  0
LINE
  8
0
  6
CONTINUOUS
 62
1
 10
1242.813395
 20
946.306236
 11
1253.813395
 21
950.306220
  0
ARC
  8
0
  6
CONTINUOUS
 62
1
 10
1284.281824
 20
986.306228
 40
5.999996
 50
269.999969
 51
359.403160
  0
ARC
  8
0
  6
CONTINUOUS
 62
1
 10
1253.344981
 20
986.306228
 40
6.000000
 50
180.596802
 51
270.000000
  0
LINE
  8
0
  6
CONTINUOUS
 62
1
 10
1290.313395
 20
989.306228
 11
1247.313395
 21
989.306228
  0
LINE
  8
0
  6
CONTINUOUS
 62
1
 10
1291.251551
 20
1079.368736
 11
1290.281504
 21
986.243728
  0
LINE
  8
0
  6
CONTINUOUS
 62
1
 10
1253.813395
 20
980.306228
 11
1253.813395
 21
950.306220
  0
LINE
  8
0
  6
CONTINUOUS
 62
1
 10
1283.813395
 20
980.306228
 11
1283.813395
 21
950.306220
  0
LINE
  8
0
  6
CONTINUOUS
 62
1
 10
1294.813395
 20
946.306236
 11
1284.813395
 21
946.306236
  0
LINE
  8
0
  6
CONTINUOUS
 62
1
 10
1242.813395
 20
946.306236
 11
1242.813395
 21
945.306236
  0
LINE
  8
0
  6
CONTINUOUS
 62
1
 10
1285.313395
 20
946.306236
 11
1242.813395
 21
946.306236
  0
LINE
  8
0
  6
CONTINUOUS
 62
1
 10
1283.813395
 20
950.306220
 11
1253.844340
 21
950.306220
  0
LINE
  8
0
  6
CONTINUOUS
 62
1
 10
1284.281824
 20
980.306228
 11
1253.344981
 21
980.306228
  0
LINE
  8
0
  6
CONTINUOUS
 62
1
 10
1294.813395
 20
945.306236
 11
1242.813395
 21
945.306236
  0
LINE
  8
0
  6
CONTINUOUS
 62
1
 10
1294.813395
 20
946.306236
 11
1294.813395
 21
945.306236
  0
LINE
  8
0
  6
CONTINUOUS
 62
1
 10
857.813395
 20
1085.306236
 11
783.813395
 21
1085.306236
  0
LINE
  8
0
  6
CENTER
 62
1
 10
820.813395
 20
1095.306236
 11
820.813395
 21
945.306236
  0
LINE
  8
0
  6
CONTINUOUS
 62
1
 10
798.375246
 20
1079.368736
 11
799.345301
 21
986.243728
  0
ARC
  8
0
  6
CONTINUOUS
 62
1
 10
792.375574
 20
1079.306236
 40
6.000000
 50
0.596809
 51
90.000000
  0
ARC
  8
0
  6
CONTINUOUS
 62
1
 10
849.251231
 20
1079.306236
 40
6.000000
 50
90.000000
 51
179.403198
  0
LINE
  8
0
  6
CONTINUOUS
 62
1
 10
804.313395
 20
946.306236
 11
804.813395
 21
946.306236
  0
LINE
  8
0
  6
CONTINUOUS
 62
1
 10
804.813395
 20
946.306236
 11
804.313395
 21
946.306236
  0
LINE
  8
0
  6
CONTINUOUS
 62
1
 10
846.813395
 20
946.306236
 11
835.813395
 21
950.306220
  0
LINE
  8
0
  6
CONTINUOUS
 62
1
 10
794.813395
 20
946.306236
 11
805.813395
 21
950.306220
  0
ARC
  8
0
  6
CONTINUOUS
 62
1
 10
836.281824
 20
986.306228
 40
5.999996
 50
269.999969
 51
359.403160
  0
ARC
  8
0
  6
CONTINUOUS
 62
1
 10
805.344981
 20
986.306228
 40
6.000000
 50
180.596802
 51
270.000000
  0
LINE
  8
0
  6
CONTINUOUS
 62
1
 10
842.313395
 20
989.306228
 11
799.313395
 21
989.306228
  0
LINE
  8
0
  6
CONTINUOUS
 62
1
 10
843.251551
 20
1079.368736
 11
842.281504
 21
986.243728
  0
LINE
  8
0
  6
CONTINUOUS
 62
1
 10
805.813395
 20
980.306228
 11
805.813395
 21
950.306220
  0
LINE
  8
0
  6
CONTINUOUS
 62
1
 10
835.813395
 20
980.306228
 11
835.813395
 21
950.306220
  0
LINE
  8
0
  6
CONTINUOUS
 62
1
 10
846.813395
 20
946.306236
 11
836.813395
 21
946.306236
  0
LINE
  8
0
  6
CONTINUOUS
 62
1
 10
794.813395
 20
946.306236
 11
794.813395
 21
945.306236
  0
LINE
  8
0
  6
CONTINUOUS
 62
1
 10
837.313395
 20
946.306236
 11
794.813395
 21
946.306236
  0
LINE
  8
0
  6
CONTINUOUS
 62
1
 10
835.813395
 20
950.306220
 11
805.844340
 21
950.306220
  0
LINE
  8
0
  6
CONTINUOUS
 62
1
 10
836.281824
 20
980.306228
 11
805.344981
 21
980.306228
  0
LINE
  8
0
  6
CONTINUOUS
 62
1
 10
846.813395
 20
945.306236
 11
794.813395
 21
945.306236
  0
LINE
  8
0
  6
CONTINUOUS
 62
1
 10
846.813395
 20
946.306236
 11
846.813395
 21
945.306236
  0
CIRCLE
  8
0
  6
CONTINUOUS
 62
1
 10
842.846980
 20
1231.306236
 40
10.500000
  0
CIRCLE
  8
0
  6
CONTINUOUS
 62
1
 10
1242.846980
 20
1231.306236
 40
10.500000
  0
LINE
  8
0
  6
CONTINUOUS
 62
1
 10
1288.873195
 20
1131.306236
 11
1288.873195
 21
1184.306236
  0
LINE
  8
0
  6
CONTINUOUS
 62
1
 10
1323.873195
 20
1131.306236
 11
1323.873195
 21
1184.306236
  0
LINE
  8
0
  6
CONTINUOUS
 62
1
 10
1288.873195
 20
1184.306236
 11
1323.873195
 21
1184.306236
  0
LINE
  8
0
  6
CONTINUOUS
 62
1
 10
1288.873195
 20
1131.306236
 11
1323.873195
 21
1131.306236
  0
CIRCLE
  8
0
  6
CONTINUOUS
 62
1
 10
878.813822
 20
1546.806236
 40
3.000000
  0
CIRCLE
  8
0
  6
CONTINUOUS
 62
1
 10
828.813868
 20
1511.306205
 40
4.800000
  0
CIRCLE
  8
0
  6
CONTINUOUS
 62
1
 10
788.813868
 20
1511.306177
 40
4.800000
  0
LINE
  8
0
  6
CONTINUOUS
 62
1
 10
830.313868
 20
1496.356205
 11
830.313868
 21
1487.064304
  0
LINE
  8
0
  6
CONTINUOUS
 62
1
 10
827.313868
 20
1496.356205
 11
827.313868
 21
1487.064304
  0
ARC
  8
0
  6
CONTINUOUS
 62
1
 10
828.813868
 20
1496.356205
 40
1.500000
 50
0.000000
 51
180.000000
  0
LINE
  8
0
  6
CONTINUOUS
 62
1
 10
830.313868
 20
1489.361000
 11
827.313868
 21
1489.361000
  0
ARC
  8
0
  6
CONTINUOUS
 62
1
 10
828.813868
 20
1483.356205
 40
4.000000
 50
0.000000
 51
67.975687
  0
ARC
  8
0
  6
CONTINUOUS
 62
1
 10
828.813868
 20
1483.356205
 40
4.000000
 50
112.024313
 51
0.000000
  0
CIRCLE
  8
0
  6
CONTINUOUS
 62
1
 10
788.813883
 20
1488.556177
 40
9.250000
  0
ARC
  8
0
  6
CONTINUOUS
 62
1
 10
788.813883
 20
1488.556177
 40
7.250000
 50
0.920194
 51
168.059456
  0
LINE
  8
0
  6
CONTINUOUS
 62
1
 10
789.813883
 20
1493.056177
 11
789.813883
 21
1486.356177
  0
LINE
  8
0
  6
CONTINUOUS
 62
1
 10
787.813883
 20
1490.181822
 11
787.813883
 21
1483.481822
  0
LINE
  8
0
  6
CONTINUOUS
 62
1
 10
781.720753
 20
1490.056177
 11
789.813883
 21
1493.056177
  0
LINE
  8
0
  6
CONTINUOUS
 62
1
 10
787.813883
 20
1490.181822
 11
781.595779
 21
1487.876865
  0
LINE
  8
0
  6
CONTINUOUS
 62
1
 10
789.813883
 20
1486.356177
 11
796.062948
 21
1488.672610
  0
LINE
  8
0
  6
CONTINUOUS
 62
1
 10
795.742264
 20
1486.420751
 11
787.813883
 21
1483.481822
  0
ARC
  8
0
  6
CONTINUOUS
 62
1
 10
788.813883
 20
1488.556177
 40
7.250000
 50
185.376398
 51
342.869956
  0
POLYLINE
  8
0
  6
CONTINUOUS
 62
1
 66
1
 70
2
  0
VERTEX
  8
0
 10
881.313822
 20
1541.751774
 70
0
 42
0.305572
  0
VERTEX
  8
0
 10
880.063822
 20
1542.572333
 70
0
 42
0.101553
  0
VERTEX
  8
0
 10
877.563822
 20
1542.572333
 70
0
 42
0.305572
  0
VERTEX
  8
0
 10
876.313822
 20
1541.751774
 70
0
 42
0.305572
  0
VERTEX
  8
0
 10
877.563822
 20
1540.931215
 70
0
 42
0.101553
  0
VERTEX
  8
0
 10
880.063822
 20
1540.931215
 70
0
 42
0.305572
  0
VERTEX
  8
0
 10
881.313822
 20
1541.751774
 70
0
  0
SEQEND
  0
POLYLINE
  8
0
  6
CONTINUOUS
 62
1
 66
1
 70
2
  0
VERTEX
  8
0
 10
881.113822
 20
1541.751774
 70
0
 42
0.305572
  0
VERTEX
  8
0
 10
879.963822
 20
1542.506688
 70
0
 42
0.101553
  0
VERTEX
  8
0
 10
877.663822
 20
1542.506688
 70
0
 42
0.305572
  0
VERTEX
  8
0
 10
876.513822
 20
1541.751774
 70
0
 42
0.305572
  0
VERTEX
  8
0
 10
877.663822
 20
1540.996859
 70
0
 42
0.101553
  0
VERTEX
  8
0
 10
879.963822
 20
1540.996859
 70
0
 42
0.305572
  0
VERTEX
  8
0
 10
881.113822
 20
1541.751774
 70
0
  0
SEQEND
  0
POLYLINE
  8
0
  6
CONTINUOUS
 62
1
 66
1
 70
2
  0
VERTEX
  8
0
 10
880.913822
 20
1541.751774
 70
0
 42
0.305572
  0
VERTEX
  8
0
 10
879.863822
 20
1542.441043
 70
0
 42
0.101553
  0
VERTEX
  8
0
 10
877.763822
 20
1542.441043
 70
0
 42
0.305572
  0
VERTEX
  8
0
 10
876.713822
 20
1541.751774
 70
0
 42
0.305572
  0
VERTEX
  8
0
 10
877.763822
 20
1541.062504
 70
0
 42
0.101553
  0
VERTEX
  8
0
 10
879.863822
 20
1541.062504
 70
0
 42
0.305572
  0
VERTEX
  8
0
 10
880.913822
 20
1541.751774
 70
0
  0
SEQEND
  0
POLYLINE
  8
0
  6
CONTINUOUS
 62
1
 66
1
 70
2
  0
VERTEX
  8
0
 10
880.713822
 20
1541.751774
 70
0
 42
0.305572
  0
VERTEX
  8
0
 10
879.763822
 20
1542.375399
 70
0
 42
0.101553
  0
VERTEX
  8
0
 10
877.863822
 20
1542.375399
 70
0
 42
0.305572
  0
VERTEX
  8
0
 10
876.913822
 20
1541.751774
 70
0
 42
0.305572
  0
VERTEX
  8
0
 10
877.863822
 20
1541.128149
 70
0
 42
0.101553
  0
VERTEX
  8
0
 10
879.763822
 20
1541.128149
 70
0
 42
0.305572
  0
VERTEX
  8
0
 10
880.713822
 20
1541.751774
 70
0
  0
SEQEND
  0
POLYLINE
  8
0
  6
CONTINUOUS
 62
1
 66
1
 70
2
  0
VERTEX
  8
0
 10
880.513822
 20
1541.751774
 70
0
 42
0.305710
  0
VERTEX
  8
0
 10
879.339151
 20
1542.364539
 70
0
 42
0.135164
  0
VERTEX
  8
0
 10
877.438493
 20
1542.130484
 70
0
 42
0.857308
  0
VERTEX
  8
0
 10
877.438493
 20
1541.373064
 70
0
 42
0.135164
  0
VERTEX
  8
0
 10
879.339151
 20
1541.139008
 70
0
 42
0.305710
  0
VERTEX
  8
0
 10
880.513822
 20
1541.751774
 70
0
  0
SEQEND
  0
POLYLINE
  8
0
  6
CONTINUOUS
 62
1
 66
1
 70
2
  0
VERTEX
  8
0
 10
880.313822
 20
1541.751774
 70
0
 42
0.305710
  0
VERTEX
  8
0
 10
879.277348
 20
1542.292449
 70
0
 42
0.135164
  0
VERTEX
  8
0
 10
877.600297
 20
1542.085930
 70
0
 42
0.857308
  0
VERTEX
  8
0
 10
877.600297
 20
1541.417618
 70
0
 42
0.135164
  0
VERTEX
  8
0
 10
879.277348
 20
1541.211098
 70
0
 42
0.305710
  0
VERTEX
  8
0
 10
880.313822
 20
1541.751774
 70
0
  0
SEQEND
  0
POLYLINE
  8
0
  6
CONTINUOUS
 62
1
 66
1
 70
2
  0
VERTEX
  8
0
 10
880.113822
 20
1541.751774
 70
0
 42
0.305710
  0
VERTEX
  8
0
 10
879.215544
 20
1542.220359
 70
0
 42
0.135164
  0
VERTEX
  8
0
 10
877.762100
 20
1542.041376
 70
0
 42
0.857308
  0
VERTEX
  8
0
 10
877.762100
 20
1541.462172
 70
0
 42
0.135164
  0
VERTEX
  8
0
 10
879.215544
 20
1541.283188
 70
0
 42
0.305710
  0
VERTEX
  8
0
 10
880.113822
 20
1541.751774
 70
0
  0
SEQEND
  0
POLYLINE
  8
0
  6
CONTINUOUS
 62
1
 66
1
 70
2
  0
VERTEX
  8
0
 10
879.913822
 20
1541.751774
 70
0
 42
0.301311
  0
VERTEX
  8
0
 10
878.813822
 20
1542.168674
 70
0
 42
0.301311
  0
VERTEX
  8
0
 10
877.713822
 20
1541.751774
 70
0
 42
0.301311
  0
VERTEX
  8
0
 10
878.813822
 20
1541.334874
 70
0
 42
0.301311
  0
VERTEX
  8
0
 10
879.913822
 20
1541.751774
 70
0
  0
SEQEND
  0
POLYLINE
  8
0
  6
CONTINUOUS
 62
1
 66
1
 70
2
  0
VERTEX
  8
0
 10
879.713822
 20
1541.751774
 70
0
 42
0.301311
  0
VERTEX
  8
0
 10
878.813822
 20
1542.092874
 70
0
 42
0.301311
  0
VERTEX
  8
0
 10
877.913822
 20
1541.751774
 70
0
 42
0.301311
  0
VERTEX
  8
0
 10
878.813822
 20
1541.410674
 70
0
 42
0.301311
  0
VERTEX
  8
0
 10
879.713822
 20
1541.751774
 70
0
  0
SEQEND
  0
POLYLINE
  8
0
  6
CONTINUOUS
 62
1
 66
1
 70
2
  0
VERTEX
  8
0
 10
879.513822
 20
1541.751774
 70
0
 42
0.301311
  0
VERTEX
  8
0
 10
878.813822
 20
1542.017074
 70
0
 42
0.301311
  0
VERTEX
  8
0
 10
878.113822
 20
1541.751774
 70
0
 42
0.301311
  0
VERTEX
  8
0
 10
878.813822
 20
1541.486474
 70
0
 42
0.301311
  0
VERTEX
  8
0
 10
879.513822
 20
1541.751774
 70
0
  0
SEQEND
  0
POLYLINE
  8
0
  6
CONTINUOUS
 62
1
 66
1
 70
2
  0
VERTEX
  8
0
 10
879.313822
 20
1541.751774
 70
0
 42
0.301311
  0
VERTEX
  8
0
 10
878.813822
 20
1541.941274
 70
0
 42
0.301311
  0
VERTEX
  8
0
 10
878.313822
 20
1541.751774
 70
0
 42
0.301311
  0
VERTEX
  8
0
 10
878.813822
 20
1541.562274
 70
0
 42
0.301311
  0
VERTEX
  8
0
 10
879.313822
 20
1541.751774
 70
0
  0
SEQEND
  0
POLYLINE
  8
0
  6
CONTINUOUS
 62
1
 66
1
 70
2
  0
VERTEX
  8
0
 10
879.113822
 20
1541.751774
 70
0
 42
0.301311
  0
VERTEX
  8
0
 10
878.813822
 20
1541.865474
 70
0
 42
0.301311
  0
VERTEX
  8
0
 10
878.513822
 20
1541.751774
 70
0
 42
0.301311
  0
VERTEX
  8
0
 10
878.813822
 20
1541.638074
 70
0
 42
0.301311
  0
VERTEX
  8
0
 10
879.113822
 20
1541.751774
 70
0
  0
SEQEND
  0
ARC
  8
0
  6
CONTINUOUS
 62
1
 10
878.813822
 20
1511.306236
 40
32.500000
 50
90.502596
 51
90.000000
  0
ARC
  8
0
  6
CONTINUOUS
 62
1
 10
950.038822
 20
1511.306236
 40
61.225000
 50
156.778351
 51
203.221649
  0
ARC
  8
0
  6
CONTINUOUS
 62
1
 10
807.588822
 20
1511.306236
 40
61.225000
 50
336.778351
 51
23.221649
  0
ARC
  8
0
  6
CONTINUOUS
 62
1
 10
878.813822
 20
1539.706232
 40
0.250000
 50
180.251298
 51
359.748702
  0
LINE
  8
0
  6
CONTINUOUS
 62
1
 10
877.314586
 20
1530.748507
 11
878.563825
 21
1539.705135
  0
LINE
  8
0
  6
CONTINUOUS
 62
1
 10
879.063820
 20
1539.705135
 11
880.313058
 21
1530.748507
  0
LINE
  8
0
  6
CONTINUOUS
 62
1
 10
877.313822
 20
1494.359876
 11
877.313822
 21
1530.748458
  0
LINE
  8
0
  6
CONTINUOUS
 62
1
 10
880.313822
 20
1494.359876
 11
880.313822
 21
1530.748458
  0
ARC
  8
0
  6
CONTINUOUS
 62
1
 10
878.813822
 20
1525.809917
 40
4.651237
 50
71.196073
 51
108.803927
  0
CIRCLE
  8
0
  6
CONTINUOUS
 62
1
 10
878.813822
 20
1511.306236
 40
28.400000
  0
ARC
  8
0
  6
CONTINUOUS
 62
1
 10
878.813822
 20
1494.306236
 40
1.500000
 50
180.000000
 51
0.000000
  0
ARC
  8
0
  6
CONTINUOUS
 62
1
 10
878.813822
 20
1511.306236
 40
19.500000
 50
94.411726
 51
125.846828
  0
ARC
  8
0
  6
CONTINUOUS
 62
1
 10
878.813822
 20
1511.306236
 40
19.500000
 50
54.153171
 51
85.588274
  0
ARC
  8
0
  6
CONTINUOUS
 62
1
 10
867.979845
 20
1526.302067
 40
1.000000
 50
125.846828
 51
193.945195
  0
ARC
  8
0
  6
CONTINUOUS
 62
1
 10
889.647799
 20
1526.302067
 40
1.000000
 50
346.054805
 51
54.153172
  0
ARC
  8
0
  6
CONTINUOUS
 62
1
 10
878.813822
 20
1511.306236
 40
19.500000
 50
234.153172
 51
305.846828
  0
ARC
  8
0
  6
CONTINUOUS
 62
1
 10
867.979845
 20
1496.310405
 40
1.000000
 50
166.054805
 51
234.153172
  0
ARC
  8
0
  6
CONTINUOUS
 62
1
 10
889.647799
 20
1496.310405
 40
1.000000
 50
305.846828
 51
13.945195
  0
LINE
  8
0
  6
CONTINUOUS
 62
1
 10
854.550952
 20
1492.354606
 11
854.605913
 21
1492.085521
  0
LINE
  8
0
  6
CONTINUOUS
 62
1
 10
854.605913
 20
1492.085521
 11
853.222133
 21
1493.119659
  0
LINE
  8
0
  6
CONTINUOUS
 62
1
 10
853.222133
 20
1493.119659
 11
852.869462
 21
1493.605069
  0
LINE
  8
0
  6
CONTINUOUS
 62
1
 10
852.869462
 20
1493.605069
 11
853.482697
 21
1494.050610
  0
LINE
  8
0
  6
CONTINUOUS
 62
1
 10
853.482697
 20
1494.050610
 11
854.095932
 21
1494.496151
  0
LINE
  8
0
  6
CONTINUOUS
 62
1
 10
854.095932
 20
1494.496151
 11
854.360435
 21
1494.132094
  0
LINE
  8
0
  6
CONTINUOUS
 62
1
 10
854.360435
 20
1494.132094
 11
853.762531
 21
1493.697691
  0
LINE
  8
0
  6
CONTINUOUS
 62
1
 10
853.762531
 20
1493.697691
 11
853.256613
 21
1493.330120
  0
LINE
  8
0
  6
CONTINUOUS
 62
1
 10
853.256613
 20
1493.330120
 11
854.550952
 21
1492.354606
  0
LINE
  8
0
  6
CONTINUOUS
 62
1
 10
869.394660
 20
1482.570054
 11
869.435920
 21
1482.735538
  0
LINE
  8
0
  6
CONTINUOUS
 62
1
 10
869.435920
 20
1482.735538
 11
871.570570
 21
1482.203310
  0
LINE
  8
0
  6
CONTINUOUS
 62
1
 10
871.570570
 20
1482.203310
 11
873.705221
 21
1481.671082
  0
LINE
  8
0
  6
CONTINUOUS
 62
1
 10
873.705221
 20
1481.671082
 11
873.663961
 21
1481.505598
  0
POLYLINE
  8
0
  6
CONTINUOUS
 62
1
 66
1
 70
2
  0
VERTEX
  8
0
 10
873.663961
 20
1481.505598
 70
0
 42
-0.055305
  0
VERTEX
  8
0
 10
873.560433
 20
1481.297049
 70
0
  0
SEQEND
  0
POLYLINE
  8
0
  6
CONTINUOUS
 62
1
 66
1
 70
2
  0
VERTEX
  8
0
 10
873.560433
 20
1481.297049
 70
0
 42
-0.134337
  0
VERTEX
  8
0
 10
873.378213
 20
1481.186240
 70
0
  0
SEQEND
  0
POLYLINE
  8
0
  6
CONTINUOUS
 62
1
 66
1
 70
2
  0
VERTEX
  8
0
 10
873.378213
 20
1481.186240
 70
0
 42
-0.087551
  0
VERTEX
  8
0
 10
872.962589
 20
1481.172686
 70
0
  0
SEQEND
  0
POLYLINE
  8
0
  6
CONTINUOUS
 62
1
 66
1
 70
2
  0
VERTEX
  8
0
 10
872.962589
 20
1481.172686
 70
0
 42
-0.027068
  0
VERTEX
  8
0
 10
872.027054
 20
1481.347351
 70
0
  0
SEQEND
  0
LINE
  8
0
  6
CONTINUOUS
 62
1
 10
872.027054
 20
1481.347351
 11
870.218254
 21
1481.739745
  0
POLYLINE
  8
0
  6
CONTINUOUS
 62
1
 66
1
 70
2
  0
VERTEX
  8
0
 10
870.218254
 20
1481.739745
 70
0
 42
0.158884
  0
VERTEX
  8
0
 10
869.802629
 20
1481.726191
 70
0
  0
SEQEND
  0
POLYLINE
  8
0
  6
CONTINUOUS
 62
1
 66
1
 70
2
  0
VERTEX
  8
0
 10
869.802629
 20
1481.726191
 70
0
 42
0.317197
  0
VERTEX
  8
0
 10
869.680764
 20
1481.444093
 70
0
  0
SEQEND
  0
POLYLINE
  8
0
  6
CONTINUOUS
 62
1
 66
1
 70
2
  0
VERTEX
  8
0
 10
869.680764
 20
1481.444093
 70
0
 42
0.235432
  0
VERTEX
  8
0
 10
869.939762
 20
1481.242807
 70
0
  0
SEQEND
  0
POLYLINE
  8
0
  6
CONTINUOUS
 62
1
 66
1
 70
2
  0
VERTEX
  8
0
 10
869.939762
 20
1481.242807
 70
0
 42
0.039780
  0
VERTEX
  8
0
 10
870.367226
 20
1481.097168
 70
0
  0
SEQEND
  0
LINE
  8
0
  6
CONTINUOUS
 62
1
 10
870.367226
 20
1481.097168
 11
872.065243
 21
1480.673805
  0
POLYLINE
  8
0
  6
CONTINUOUS
 62
1
 66
1
 70
2
  0
VERTEX
  8
0
 10
872.065243
 20
1480.673805
 70
0
 42
0.045499
  0
VERTEX
  8
0
 10
872.661174
 20
1480.583813
 70
0
  0
SEQEND
  0
POLYLINE
  8
0
  6
CONTINUOUS
 62
1
 66
1
 70
2
  0
VERTEX
  8
0
 10
872.661174
 20
1480.583813
 70
0
 42
0.250514
  0
VERTEX
  8
0
 10
872.940423
 20
1480.670429
 70
0
  0
SEQEND
  0
LINE
  8
0
  6
CONTINUOUS
 62
1
 10
872.940423
 20
1480.670429
 11
872.990852
 21
1480.872687
  0
LINE
  8
0
  6
CONTINUOUS
 62
1
 10
872.990852
 20
1480.872687
 11
873.427485
 21
1480.763823
  0
LINE
  8
0
  6
CONTINUOUS
 62
1
 10
873.427485
 20
1480.763823
 11
873.381641
 21
1480.579952
  0
POLYLINE
  8
0
  6
CONTINUOUS
 62
1
 66
1
 70
2
  0
VERTEX
  8
0
 10
873.381641
 20
1480.579952
 70
0
 42
-0.296313
  0
VERTEX
  8
0
 10
873.074885
 20
1480.383013
 70
0
  0
SEQEND
  0
POLYLINE
  8
0
  6
CONTINUOUS
 62
1
 66
1
 70
2
  0
VERTEX
  8
0
 10
873.074885
 20
1480.383013
 70
0
 42
-0.066547
  0
VERTEX
  8
0
 10
872.566815
 20
1480.412038
 70
0
  0
SEQEND
  0
POLYLINE
  8
0
  6
CONTINUOUS
 62
1
 66
1
 70
2
  0
VERTEX
  8
0
 10
872.566815
 20
1480.412038
 70
0
 42
-0.018210
  0
VERTEX
  8
0
 10
870.039462
 20
1481.022648
 70
0
  0
SEQEND
  0
POLYLINE
  8
0
  6
CONTINUOUS
 62
1
 66
1
 70
2
  0
VERTEX
  8
0
 10
870.039462
 20
1481.022648
 70
0
 42
-0.111301
  0
VERTEX
  8
0
 10
869.348415
 20
1481.351186
 70
0
  0
SEQEND
  0
POLYLINE
  8
0
  6
CONTINUOUS
 62
1
 66
1
 70
2
  0
VERTEX
  8
0
 10
869.348415
 20
1481.351186
 70
0
 42
-0.336042
  0
VERTEX
  8
0
 10
869.227707
 20
1481.693764
 70
0
  0
SEQEND
  0
POLYLINE
  8
0
  6
CONTINUOUS
 62
1
 66
1
 70
2
  0
VERTEX
  8
0
 10
869.227707
 20
1481.693764
 70
0
 42
-0.266809
  0
VERTEX
  8
0
 10
869.442017
 20
1481.933282
 70
0
  0
SEQEND
  0
POLYLINE
  8
0
  6
CONTINUOUS
 62
1
 66
1
 70
2
  0
VERTEX
  8
0
 10
869.442017
 20
1481.933282
 70
0
 42
-0.113247
  0
VERTEX
  8
0
 10
870.060870
 20
1481.935226
 70
0
  0
SEQEND
  0
LINE
  8
0
  6
CONTINUOUS
 62
1
 10
870.060870
 20
1481.935226
 11
872.606561
 21
1481.398165
  0
POLYLINE
  8
0
  6
CONTINUOUS
 62
1
 66
1
 70
2
  0
VERTEX
  8
0
 10
872.606561
 20
1481.398165
 70
0
 42
0.100094
  0
VERTEX
  8
0
 10
873.013017
 20
1481.374944
 70
0
  0
SEQEND
  0
POLYLINE
  8
0
  6
CONTINUOUS
 62
1
 66
1
 70
2
  0
VERTEX
  8
0
 10
873.013017
 20
1481.374944
 70
0
 42
0.305118
  0
VERTEX
  8
0
 10
873.142138
 20
1481.479462
 70
0
  0
SEQEND
  0
LINE
  8
0
  6
CONTINUOUS
 62
1
 10
873.142138
 20
1481.479462
 11
873.178813
 21
1481.626559
  0
LINE
  8
0
  6
CONTINUOUS
 62
1
 10
873.178813
 20
1481.626559
 11
871.286736
 21
1482.098306
  0
LINE
  8
0
  6
CONTINUOUS
 62
1
 10
871.286736
 20
1482.098306
 11
869.394660
 21
1482.570054
  0
LINE
  8
0
  6
CONTINUOUS
 62
1
 10
894.159873
 20
1485.015711
 11
893.710476
 21
1484.796525
  0
LINE
  8
0
  6
CONTINUOUS
 62
1
 10
893.710476
 20
1484.796525
 11
893.652327
 21
1484.915750
  0
POLYLINE
  8
0
  6
CONTINUOUS
 62
1
 66
1
 70
2
  0
VERTEX
  8
0
 10
893.652327
 20
1484.915750
 70
0
 42
0.356158
  0
VERTEX
  8
0
 10
893.406111
 20
1484.964333
 70
0
  0
SEQEND
  0
POLYLINE
  8
0
  6
CONTINUOUS
 62
1
 66
1
 70
2
  0
VERTEX
  8
0
 10
893.406111
 20
1484.964333
 70
0
 42
0.043733
  0
VERTEX
  8
0
 10
893.029979
 20
1484.823049
 70
0
  0
SEQEND
  0
POLYLINE
  8
0
  6
CONTINUOUS
 62
1
 66
1
 70
2
  0
VERTEX
  8
0
 10
893.029979
 20
1484.823049
 70
0
 42
0.014896
  0
VERTEX
  8
0
 10
890.791301
 20
1483.710089
 70
0
  0
SEQEND
  0
POLYLINE
  8
0
  6
CONTINUOUS
 62
1
 66
1
 70
2
  0
VERTEX
  8
0
 10
890.791301
 20
1483.710089
 70
0
 42
0.118159
  0
VERTEX
  8
0
 10
890.554891
 20
1483.510449
 70
0
  0
SEQEND
  0
POLYLINE
  8
0
  6
CONTINUOUS
 62
1
 66
1
 70
2
  0
VERTEX
  8
0
 10
890.554891
 20
1483.510449
 70
0
 42
0.560835
  0
VERTEX
  8
0
 10
890.712727
 20
1483.186838
 70
0
  0
SEQEND
  0
POLYLINE
  8
0
  6
CONTINUOUS
 62
1
 66
1
 70
2
  0
VERTEX
  8
0
 10
890.712727
 20
1483.186838
 70
0
 42
0.141132
  0
VERTEX
  8
0
 10
891.113780
 20
1483.277026
 70
0
  0
SEQEND
  0
LINE
  8
0
  6
CONTINUOUS
 62
1
 10
891.113780
 20
1483.277026
 11
892.731609
 21
1484.066094
  0
LINE
  8
0
  6
CONTINUOUS
 62
1
 10
892.731609
 20
1484.066094
 11
892.798066
 21
1483.929837
  0
LINE
  8
0
  6
CONTINUOUS
 62
1
 10
892.798066
 20
1483.929837
 11
891.315056
 21
1483.206525
  0
POLYLINE
  8
0
  6
CONTINUOUS
 62
1
 66
1
 70
2
  0
VERTEX
  8
0
 10
891.315056
 20
1483.206525
 70
0
 42
0.084616
  0
VERTEX
  8
0
 10
890.980460
 20
1482.980080
 70
0
  0
SEQEND
  0
POLYLINE
  8
0
  6
CONTINUOUS
 62
1
 66
1
 70
2
  0
VERTEX
  8
0
 10
890.980460
 20
1482.980080
 70
0
 42
0.317106
  0
VERTEX
  8
0
 10
890.912098
 20
1482.778067
 70
0
  0
SEQEND
  0
LINE
  8
0
  6
CONTINUOUS
 62
1
 10
890.912098
 20
1482.778067
 11
890.970248
 21
1482.658842
  0
POLYLINE
  8
0
  6
CONTINUOUS
 62
1
 66
1
 70
2
  0
VERTEX
  8
0
 10
890.970248
 20
1482.658842
 70
0
 42
0.330723
  0
VERTEX
  8
0
 10
891.351283
 20
1482.676015
 70
0
  0
SEQEND
  0
POLYLINE
  8
0
  6
CONTINUOUS
 62
1
 66
1
 70
2
  0
VERTEX
  8
0
 10
891.351283
 20
1482.676015
 70
0
 42
0.014891
  0
VERTEX
  8
0
 10
893.643208
 20
1483.793861
 70
0
  0
SEQEND
  0
POLYLINE
  8
0
  6
CONTINUOUS
 62
1
 66
1
 70
2
  0
VERTEX
  8
0
 10
893.643208
 20
1483.793861
 70
0
 42
0.288339
  0
VERTEX
  8
0
 10
894.009533
 20
1484.183368
 70
0
  0
SEQEND
  0
LINE
  8
0
  6
CONTINUOUS
 62
1
 10
894.009533
 20
1484.183368
 11
893.959690
 21
1484.285561
  0
LINE
  8
0
  6
CONTINUOUS
 62
1
 10
893.959690
 20
1484.285561
 11
894.364148
 21
1484.482828
  0
LINE
  8
0
  6
CONTINUOUS
 62
1
 10
894.364148
 20
1484.482828
 11
894.422298
 21
1484.363603
  0
POLYLINE
  8
0
  6
CONTINUOUS
 62
1
 66
1
 70
2
  0
VERTEX
  8
0
 10
894.422298
 20
1484.363603
 70
0
 42
-0.349136
  0
VERTEX
  8
0
 10
894.224020
 20
1483.971723
 70
0
  0
SEQEND
  0
POLYLINE
  8
0
  6
CONTINUOUS
 62
1
 66
1
 70
2
  0
VERTEX
  8
0
 10
894.224020
 20
1483.971723
 70
0
 42
-0.045438
  0
VERTEX
  8
0
 10
893.844484
 20
1483.723359
 70
0
  0
SEQEND
  0
POLYLINE
  8
0
  6
CONTINUOUS
 62
1
 66
1
 70
2
  0
VERTEX
  8
0
 10
893.844484
 20
1483.723359
 70
0
 42
-0.018205
  0
VERTEX
  8
0
 10
891.282921
 20
1482.474002
 70
0
  0
SEQEND
  0
POLYLINE
  8
0
  6
CONTINUOUS
 62
1
 66
1
 70
2
  0
VERTEX
  8
0
 10
891.282921
 20
1482.474002
 70
0
 42
-0.158884
  0
VERTEX
  8
0
 10
890.668880
 20
1482.364268
 70
0
  0
SEQEND
  0
POLYLINE
  8
0
  6
CONTINUOUS
 62
1
 66
1
 70
2
  0
VERTEX
  8
0
 10
890.668880
 20
1482.364268
 70
0
 42
-0.359087
  0
VERTEX
  8
0
 10
890.486123
 20
1482.738976
 70
0
  0
SEQEND
  0
POLYLINE
  8
0
  6
CONTINUOUS
 62
1
 66
1
 70
2
  0
VERTEX
  8
0
 10
890.486123
 20
1482.738976
 70
0
 42
-0.111227
  0
VERTEX
  8
0
 10
890.877370
 20
1483.077386
 70
0
  0
SEQEND
  0
POLYLINE
  8
0
  6
CONTINUOUS
 62
1
 66
1
 70
2
  0
VERTEX
  8
0
 10
890.877370
 20
1483.077386
 70
0
 42
-0.104386
  0
VERTEX
  8
0
 10
890.386438
 20
1482.943361
 70
0
  0
SEQEND
  0
POLYLINE
  8
0
  6
CONTINUOUS
 62
1
 66
1
 70
2
  0
VERTEX
  8
0
 10
890.386438
 20
1482.943361
 70
0
 42
-0.316476
  0
VERTEX
  8
0
 10
890.127011
 20
1483.133088
 70
0
  0
SEQEND
  0
POLYLINE
  8
0
  6
CONTINUOUS
 62
1
 66
1
 70
2
  0
VERTEX
  8
0
 10
890.127011
 20
1483.133088
 70
0
 42
-0.187834
  0
VERTEX
  8
0
 10
890.153838
 20
1483.420261
 70
0
  0
SEQEND
  0
POLYLINE
  8
0
  6
CONTINUOUS
 62
1
 66
1
 70
2
  0
VERTEX
  8
0
 10
890.153838
 20
1483.420261
 70
0
 42
-0.108732
  0
VERTEX
  8
0
 10
890.545085
 20
1483.758672
 70
0
  0
SEQEND
  0
POLYLINE
  8
0
  6
CONTINUOUS
 62
1
 66
1
 70
2
  0
VERTEX
  8
0
 10
890.545085
 20
1483.758672
 70
0
 42
-0.011621
  0
VERTEX
  8
0
 10
891.921601
 20
1484.472212
 70
0
  0
SEQEND
  0
POLYLINE
  8
0
  6
CONTINUOUS
 62
1
 66
1
 70
2
  0
VERTEX
  8
0
 10
891.921601
 20
1484.472212
 70
0
 42
-0.011616
  0
VERTEX
  8
0
 10
893.421226
 20
1485.161460
 70
0
  0
SEQEND
  0
POLYLINE
  8
0
  6
CONTINUOUS
 62
1
 66
1
 70
2
  0
VERTEX
  8
0
 10
893.421226
 20
1485.161460
 70
0
 42
-0.151601
  0
VERTEX
  8
0
 10
893.945387
 20
1485.227356
 70
0
  0
SEQEND
  0
POLYLINE
  8
0
  6
CONTINUOUS
 62
1
 66
1
 70
2
  0
VERTEX
  8
0
 10
893.945387
 20
1485.227356
 70
0
 42
-0.209839
  0
VERTEX
  8
0
 10
894.159873
 20
1485.015711
 70
0
  0
SEQEND
  0
LINE
  8
0
  6
CONTINUOUS
 62
1
 10
907.352538
 20
1501.212461
 11
907.560278
 21
1501.119970
  0
LINE
  8
0
  6
CONTINUOUS
 62
1
 10
907.560278
 20
1501.119970
 11
907.336242
 21
1499.358835
  0
LINE
  8
0
  6
CONTINUOUS
 62
1
 10
907.336242
 20
1499.358835
 11
907.141617
 21
1497.803533
  0
LINE
  8
0
  6
CONTINUOUS
 62
1
 10
907.141617
 20
1497.803533
 11
906.877238
 21
1497.209729
  0
LINE
  8
0
  6
CONTINUOUS
 62
1
 10
906.877238
 20
1497.209729
 11
905.942407
 21
1497.625943
  0
LINE
  8
0
  6
CONTINUOUS
 62
1
 10
905.942407
 20
1497.625943
 11
905.657692
 21
1496.986461
  0
LINE
  8
0
  6
CONTINUOUS
 62
1
 10
905.657692
 20
1496.986461
 11
905.501886
 21
1497.055830
  0
LINE
  8
0
  6
CONTINUOUS
 62
1
 10
905.501886
 20
1497.055830
 11
905.786602
 21
1497.695311
  0
LINE
  8
0
  6
CONTINUOUS
 62
1
 10
905.786602
 20
1497.695311
 11
905.492303
 21
1497.826342
  0
LINE
  8
0
  6
CONTINUOUS
 62
1
 10
905.492303
 20
1497.826342
 11
905.675335
 21
1498.237437
  0
LINE
  8
0
  6
CONTINUOUS
 62
1
 10
905.675335
 20
1498.237437
 11
905.969634
 21
1498.106407
  0
LINE
  8
0
  6
CONTINUOUS
 62
1
 10
905.969634
 20
1498.106407
 11
906.864454
 21
1500.116207
  0
LINE
  8
0
  6
CONTINUOUS
 62
1
 10
906.864454
 20
1500.116207
 11
907.352538
 21
1501.212461
  0
LINE
  8
0
  6
CONTINUOUS
 62
1
 10
907.304975
 20
1500.686320
 11
906.125439
 21
1498.037038
  0
LINE
  8
0
  6
CONTINUOUS
 62
1
 10
906.125439
 20
1498.037038
 11
906.921776
 21
1497.682486
  0
LINE
  8
0
  6
CONTINUOUS
 62
1
 10
906.921776
 20
1497.682486
 11
907.304975
 21
1500.686320
  0
LINE
  8
0
  6
CONTINUOUS
 62
1
 10
909.383052
 20
1513.577944
 11
910.178952
 21
1513.577944
  0
LINE
  8
0
  6
CONTINUOUS
 62
1
 10
910.178952
 20
1513.577944
 11
910.178952
 21
1511.427944
  0
LINE
  8
0
  6
CONTINUOUS
 62
1
 10
910.178952
 20
1511.427944
 11
910.178952
 21
1509.327944
  0
LINE
  8
0
  6
CONTINUOUS
 62
1
 10
910.178952
 20
1509.327944
 11
910.027352
 21
1509.327944
  0
LINE
  8
0
  6
CONTINUOUS
 62
1
 10
910.027352
 20
1509.327944
 11
910.027352
 21
1511.327944
  0
LINE
  8
0
  6
CONTINUOUS
 62
1
 10
910.027352
 20
1511.327944
 11
910.027352
 21
1513.127944
  0
LINE
  8
0
  6
CONTINUOUS
 62
1
 10
910.027352
 20
1513.127944
 11
909.515702
 21
1513.127944
  0
POLYLINE
  8
0
  6
CONTINUOUS
 62
1
 66
1
 70
2
  0
VERTEX
  8
0
 10
909.515702
 20
1513.127944
 70
0
 42
-0.135220
  0
VERTEX
  8
0
 10
909.667302
 20
1512.677944
 70
0
  0
SEQEND
  0
POLYLINE
  8
0
  6
CONTINUOUS
 62
1
 66
1
 70
2
  0
VERTEX
  8
0
 10
909.667302
 20
1512.677944
 70
0
 42
-0.023491
  0
VERTEX
  8
0
 10
909.705202
 20
1511.877944
 70
0
  0
SEQEND
  0
LINE
  8
0
  6
CONTINUOUS
 62
1
 10
909.705202
 20
1511.877944
 11
909.705202
 21
1510.727944
  0
POLYLINE
  8
0
  6
CONTINUOUS
 62
1
 66
1
 70
2
  0
VERTEX
  8
0
 10
909.705202
 20
1510.727944
 70
0
 42
-0.018448
  0
VERTEX
  8
0
 10
909.667302
 20
1509.927944
 70
0
  0
SEQEND
  0
POLYLINE
  8
0
  6
CONTINUOUS
 62
1
 66
1
 70
2
  0
VERTEX
  8
0
 10
909.667302
 20
1509.927944
 70
0
 42
-0.191799
  0
VERTEX
  8
0
 10
909.420952
 20
1509.277944
 70
0
  0
SEQEND
  0
POLYLINE
  8
0
  6
CONTINUOUS
 62
1
 66
1
 70
2
  0
VERTEX
  8
0
 10
909.420952
 20
1509.277944
 70
0
 42
-0.207656
  0
VERTEX
  8
0
 10
908.947202
 20
1509.277944
 70
0
  0
SEQEND
  0
POLYLINE
  8
0
  6
CONTINUOUS
 62
1
 66
1
 70
2
  0
VERTEX
  8
0
 10
908.947202
 20
1509.277944
 70
0
 42
-0.225962
  0
VERTEX
  8
0
 10
908.757702
 20
1509.527944
 70
0
  0
SEQEND
  0
POLYLINE
  8
0
  6
CONTINUOUS
 62
1
 66
1
 70
2
  0
VERTEX
  8
0
 10
908.757702
 20
1509.527944
 70
0
 42
-0.060870
  0
VERTEX
  8
0
 10
908.662952
 20
1510.377944
 70
0
  0
SEQEND
  0
LINE
  8
0
  6
CONTINUOUS
 62
1
 10
908.662952
 20
1510.377944
 11
908.662952
 21
1512.577944
  0
POLYLINE
  8
0
  6
CONTINUOUS
 62
1
 66
1
 70
2
  0
VERTEX
  8
0
 10
908.662952
 20
1512.577944
 70
0
 42
-0.058327
  0
VERTEX
  8
0
 10
908.738752
 20
1513.327944
 70
0
  0
SEQEND
  0
POLYLINE
  8
0
  6
CONTINUOUS
 62
1
 66
1
 70
2
  0
VERTEX
  8
0
 10
908.738752
 20
1513.327944
 70
0
 42
-0.186290
  0
VERTEX
  8
0
 10
908.928252
 20
1513.627944
 70
0
  0
SEQEND
  0
POLYLINE
  8
0
  6
CONTINUOUS
 62
1
 66
1
 70
2
  0
VERTEX
  8
0
 10
908.928252
 20
1513.627944
 70
0
 42
-0.109888
  0
VERTEX
  8
0
 10
909.136702
 20
1513.677944
 70
0
  0
SEQEND
  0
LINE
  8
0
  6
CONTINUOUS
 62
1
 10
909.136702
 20
1513.677944
 11
909.136702
 21
1513.177944
  0
LINE
  8
0
  6
CONTINUOUS
 62
1
 10
909.136702
 20
1513.177944
 11
909.023002
 21
1513.177944
  0
POLYLINE
  8
0
  6
CONTINUOUS
 62
1
 66
1
 70
2
  0
VERTEX
  8
0
 10
909.023002
 20
1513.177944
 70
0
 42
0.303042
  0
VERTEX
  8
0
 10
908.833502
 20
1512.727944
 70
0
  0
SEQEND
  0
POLYLINE
  8
0
  6
CONTINUOUS
 62
1
 66
1
 70
2
  0
VERTEX
  8
0
 10
908.833502
 20
1512.727944
 70
0
 42
0.014891
  0
VERTEX
  8
0
 10
908.833502
 20
1510.277944
 70
0
  0
SEQEND
  0
POLYLINE
  8
0
  6
CONTINUOUS
 62
1
 66
1
 70
2
  0
VERTEX
  8
0
 10
908.833502
 20
1510.277944
 70
0
 42
0.116929
  0
VERTEX
  8
0
 10
908.947202
 20
1509.777944
 70
0
  0
SEQEND
  0
POLYLINE
  8
0
  6
CONTINUOUS
 62
1
 66
1
 70
2
  0
VERTEX
  8
0
 10
908.947202
 20
1509.777944
 70
0
 42
0.532705
  0
VERTEX
  8
0
 10
909.420952
 20
1509.827944
 70
0
  0
SEQEND
  0
POLYLINE
  8
0
  6
CONTINUOUS
 62
1
 66
1
 70
2
  0
VERTEX
  8
0
 10
909.420952
 20
1509.827944
 70
0
 42
0.113999
  0
VERTEX
  8
0
 10
909.534652
 20
1510.527944
 70
0
  0
SEQEND
  0
LINE
  8
0
  6
CONTINUOUS
 62
1
 10
909.534652
 20
1510.527944
 11
909.534652
 21
1512.327944
  0
POLYLINE
  8
0
  6
CONTINUOUS
 62
1
 66
1
 70
2
  0
VERTEX
  8
0
 10
909.534652
 20
1512.327944
 70
0
 42
0.034099
  0
VERTEX
  8
0
 10
909.496752
 20
1512.877944
 70
0
  0
SEQEND
  0
POLYLINE
  8
0
  6
CONTINUOUS
 62
1
 66
1
 70
2
  0
VERTEX
  8
0
 10
909.496752
 20
1512.877944
 70
0
 42
0.211956
  0
VERTEX
  8
0
 10
909.383052
 20
1513.127944
 70
0
  0
SEQEND
  0
LINE
  8
0
  6
CONTINUOUS
 62
1
 10
909.383052
 20
1513.127944
 11
909.383052
 21
1513.577944
  0
LINE
  8
0
  6
CONTINUOUS
 62
7
 10
879.683407
 20
1154.874020
 11
879.612791
 21
1156.313908
  0
LINE
  8
0
  6
CONTINUOUS
 62
7
 10
879.612791
 20
1156.313908
 11
879.402669
 21
1157.429808
  0
LINE
  8
0
  6
CONTINUOUS
 62
7
 10
879.402669
 20
1157.429808
 11
879.055511
 21
1158.226816
  0
LINE
  8
0
  6
CONTINUOUS
 62
7
 10
879.055511
 20
1158.226816
 11
878.550517
 21
1158.757966
  0
LINE
  8
0
  6
CONTINUOUS
 62
7
 10
878.550517
 20
1158.757966
 11
877.863615
 21
1159.074824
  0
LINE
  8
0
  6
CONTINUOUS
 62
7
 10
877.863615
 20
1159.074824
 11
876.992335
 21
1159.179858
  0
LINE
  8
0
  6
CONTINUOUS
 62
7
 10
876.992335
 20
1159.179858
 11
876.121005
 21
1159.071064
  0
LINE
  8
0
  6
CONTINUOUS
 62
7
 10
876.121005
 20
1159.071064
 11
875.434103
 21
1158.743008
  0
LINE
  8
0
  6
CONTINUOUS
 62
7
 10
875.434103
 20
1158.743008
 11
874.929083
 21
1158.193168
  0
LINE
  8
0
  6
CONTINUOUS
 62
7
 10
874.929083
 20
1158.193168
 11
874.581899
 21
1157.389956
  0
LINE
  8
0
  6
CONTINUOUS
 62
7
 10
874.581899
 20
1157.389956
 11
874.371777
 21
1156.282732
  0
LINE
  8
0
  6
CONTINUOUS
 62
7
 10
874.371777
 20
1156.282732
 11
874.301187
 21
1154.874020
  0
LINE
  8
0
  6
CONTINUOUS
 62
7
 10
874.301187
 20
1154.874020
 11
874.301187
 21
1142.494810
  0
LINE
  8
0
  6
CONTINUOUS
 62
7
 10
874.301187
 20
1142.494810
 11
874.368455
 21
1141.033014
  0
LINE
  8
0
  6
CONTINUOUS
 62
7
 10
874.368455
 20
1141.033014
 11
874.570263
 21
1139.897576
  0
LINE
  8
0
  6
CONTINUOUS
 62
7
 10
874.570263
 20
1139.897576
 11
874.906659
 21
1139.086074
  0
LINE
  8
0
  6
CONTINUOUS
 62
7
 10
874.906659
 20
1139.086074
 11
875.407535
 21
1138.551988
  0
LINE
  8
0
  6
CONTINUOUS
 62
7
 10
875.407535
 20
1138.551988
 11
876.102751
 21
1138.229750
  0
LINE
  8
0
  6
CONTINUOUS
 62
7
 10
876.102751
 20
1138.229750
 11
876.992335
 21
1138.121780
  0
LINE
  8
0
  6
CONTINUOUS
 62
7
 10
876.992335
 20
1138.121780
 11
877.848247
 21
1138.230574
  0
LINE
  8
0
  6
CONTINUOUS
 62
7
 10
877.848247
 20
1138.230574
 11
878.532213
 21
1138.558630
  0
LINE
  8
0
  6
CONTINUOUS
 62
7
 10
878.532213
 20
1138.558630
 11
879.044261
 21
1139.108470
  0
LINE
  8
0
  6
CONTINUOUS
 62
7
 10
879.044261
 20
1139.108470
 11
879.399349
 21
1139.924144
  0
LINE
  8
0
  6
CONTINUOUS
 62
7
 10
879.399349
 20
1139.924144
 11
879.612379
 21
1141.051268
  0
LINE
  8
0
  6
CONTINUOUS
 62
7
 10
879.612379
 20
1141.051268
 11
879.683407
 21
1142.494810
  0
LINE
  8
0
  6
CONTINUOUS
 62
7
 10
879.683407
 20
1142.494810
 11
879.683407
 21
1144.780312
  0
LINE
  8
0
  6
CONTINUOUS
 62
7
 10
880.683407
 20
1145.780312
 11
891.331821
 21
1145.780312
  0
LINE
  8
0
  6
CONTINUOUS
 62
7
 10
892.331821
 20
1144.780312
 11
892.331821
 21
1134.902300
  0
LINE
  8
0
  6
CONTINUOUS
 62
7
 10
891.941903
 20
1134.109962
 11
891.336635
 21
1133.643920
  0
LINE
  8
0
  6
CONTINUOUS
 62
7
 10
891.336635
 20
1133.643920
 11
890.279793
 21
1132.948368
  0
LINE
  8
0
  6
CONTINUOUS
 62
7
 10
890.279793
 20
1132.948368
 11
889.161293
 21
1132.323202
  0
LINE
  8
0
  6
CONTINUOUS
 62
7
 10
889.161293
 20
1132.323202
 11
887.981111
 21
1131.768110
  0
LINE
  8
0
  6
CONTINUOUS
 62
7
 10
887.981111
 20
1131.768110
 11
886.739273
 21
1131.282808
  0
LINE
  8
0
  6
CONTINUOUS
 62
7
 10
886.739273
 20
1131.282808
 11
885.435775
 21
1130.866940
  0
LINE
  8
0
  6
CONTINUOUS
 62
7
 10
885.435775
 20
1130.866940
 11
884.264629
 21
1130.559326
  0
LINE
  8
0
  6
CONTINUOUS
 62
7
 10
884.264629
 20
1130.559326
 11
883.038957
 21
1130.299568
  0
LINE
  8
0
  6
CONTINUOUS
 62
7
 10
883.038957
 20
1130.299568
 11
881.759173
 21
1130.087490
  0
LINE
  8
0
  6
CONTINUOUS
 62
7
 10
881.759173
 20
1130.087490
 11
880.425659
 21
1129.922882
  0
LINE
  8
0
  6
CONTINUOUS
 62
7
 10
880.425659
 20
1129.922882
 11
879.038777
 21
1129.805540
  0
LINE
  8
0
  6
CONTINUOUS
 62
7
 10
879.038777
 20
1129.805540
 11
877.598915
 21
1129.735286
  0
LINE
  8
0
  6
CONTINUOUS
 62
7
 10
877.598915
 20
1129.735286
 11
876.106511
 21
1129.711910
  0
LINE
  8
0
  6
CONTINUOUS
 62
7
 10
876.106511
 20
1129.711910
 11
874.455135
 21
1129.741516
  0
LINE
  8
0
  6
CONTINUOUS
 62
7
 10
874.455135
 20
1129.741516
 11
872.905295
 21
1129.830410
  0
LINE
  8
0
  6
CONTINUOUS
 62
7
 10
872.905295
 20
1129.830410
 11
871.456911
 21
1129.978644
  0
LINE
  8
0
  6
CONTINUOUS
 62
7
 10
871.456911
 20
1129.978644
 11
870.109909
 21
1130.186268
  0
LINE
  8
0
  6
CONTINUOUS
 62
7
 10
870.109909
 20
1130.186268
 11
868.864233
 21
1130.453388
  0
LINE
  8
0
  6
CONTINUOUS
 62
7
 10
868.864233
 20
1130.453388
 11
867.719835
 21
1130.780028
  0
LINE
  8
0
  6
CONTINUOUS
 62
7
 10
867.719835
 20
1130.780028
 11
866.676585
 21
1131.166292
  0
LINE
  8
0
  6
CONTINUOUS
 62
7
 10
866.676585
 20
1131.166292
 11
865.734483
 21
1131.612230
  0
LINE
  8
0
  6
CONTINUOUS
 62
7
 10
865.734483
 20
1131.612230
 11
864.893427
 21
1132.117918
  0
LINE
  8
0
  6
CONTINUOUS
 62
7
 10
864.893427
 20
1132.117918
 11
864.153391
 21
1132.683412
  0
LINE
  8
0
  6
CONTINUOUS
 62
7
 10
864.153391
 20
1132.683412
 11
863.429521
 21
1133.399816
  0
LINE
  8
0
  6
CONTINUOUS
 62
7
 10
863.429521
 20
1133.399816
 11
862.790477
 21
1134.225940
  0
LINE
  8
0
  6
CONTINUOUS
 62
7
 10
862.790477
 20
1134.225940
 11
862.236337
 21
1135.161916
  0
LINE
  8
0
  6
CONTINUOUS
 62
7
 10
862.236337
 20
1135.161916
 11
861.767205
 21
1136.207790
  0
LINE
  8
0
  6
CONTINUOUS
 62
7
 10
861.767205
 20
1136.207790
 11
861.383155
 21
1137.363670
  0
LINE
  8
0
  6
CONTINUOUS
 62
7
 10
861.383155
 20
1137.363670
 11
861.084293
 21
1138.629658
  0
LINE
  8
0
  6
CONTINUOUS
 62
7
 10
861.084293
 20
1138.629658
 11
860.870721
 21
1140.005830
  0
LINE
  8
0
  6
CONTINUOUS
 62
7
 10
860.870721
 20
1140.005830
 11
860.742491
 21
1141.492288
  0
LINE
  8
0
  6
CONTINUOUS
 62
7
 10
860.742491
 20
1141.492288
 11
860.699729
 21
1143.089162
  0
LINE
  8
0
  6
CONTINUOUS
 62
7
 10
860.699729
 20
1143.089162
 11
860.699729
 21
1154.257374
  0
LINE
  8
0
  6
CONTINUOUS
 62
7
 10
860.699729
 20
1154.257374
 11
860.742079
 21
1155.830538
  0
LINE
  8
0
  6
CONTINUOUS
 62
7
 10
860.742079
 20
1155.830538
 11
860.869177
 21
1157.298204
  0
LINE
  8
0
  6
CONTINUOUS
 62
7
 10
860.869177
 20
1157.298204
 11
861.080973
 21
1158.660396
  0
LINE
  8
0
  6
CONTINUOUS
 62
7
 10
861.080973
 20
1158.660396
 11
861.377465
 21
1159.917090
  0
LINE
  8
0
  6
CONTINUOUS
 62
7
 10
861.377465
 20
1159.917090
 11
861.758709
 21
1161.068284
  0
LINE
  8
0
  6
CONTINUOUS
 62
7
 10
861.758709
 20
1161.068284
 11
862.224675
 21
1162.114006
  0
LINE
  8
0
  6
CONTINUOUS
 62
7
 10
862.224675
 20
1162.114006
 11
862.775339
 21
1163.054228
  0
LINE
  8
0
  6
CONTINUOUS
 62
7
 10
862.775339
 20
1163.054228
 11
863.410753
 21
1163.888978
  0
LINE
  8
0
  6
CONTINUOUS
 62
7
 10
863.410753
 20
1163.888978
 11
864.130889
 21
1164.618228
  0
LINE
  8
0
  6
CONTINUOUS
 62
7
 10
864.130889
 20
1164.618228
 11
864.864233
 21
1165.196490
  0
LINE
  8
0
  6
CONTINUOUS
 62
7
 10
864.864233
 20
1165.196490
 11
865.691825
 21
1165.713584
  0
LINE
  8
0
  6
CONTINUOUS
 62
7
 10
865.691825
 20
1165.713584
 11
866.613771
 21
1166.169612
  0
LINE
  8
0
  6
CONTINUOUS
 62
7
 10
866.613771
 20
1166.169612
 11
867.630091
 21
1166.564602
  0
LINE
  8
0
  6
CONTINUOUS
 62
7
 10
867.630091
 20
1166.564602
 11
868.740869
 21
1166.898656
  0
LINE
  8
0
  6
CONTINUOUS
 62
7
 10
868.740869
 20
1166.898656
 11
869.946203
 21
1167.171826
  0
LINE
  8
0
  6
CONTINUOUS
 62
7
 10
869.946203
 20
1167.171826
 11
871.246095
 21
1167.384164
  0
LINE
  8
0
  6
CONTINUOUS
 62
7
 10
871.246095
 20
1167.384164
 11
872.640673
 21
1167.535744
  0
LINE
  8
0
  6
CONTINUOUS
 62
7
 10
872.640673
 20
1167.535744
 11
874.129963
 21
1167.626646
  0
LINE
  8
0
  6
CONTINUOUS
 62
7
 10
874.129963
 20
1167.626646
 11
875.714069
 21
1167.656946
  0
LINE
  8
0
  6
CONTINUOUS
 62
7
 10
875.714069
 20
1167.656946
 11
877.106973
 21
1167.632258
  0
LINE
  8
0
  6
CONTINUOUS
 62
7
 10
877.106973
 20
1167.632258
 11
878.469707
 21
1167.558346
  0
LINE
  8
0
  6
CONTINUOUS
 62
7
 10
878.469707
 20
1167.558346
 11
879.802217
 21
1167.435420
  0
LINE
  8
0
  6
CONTINUOUS
 62
7
 10
879.802217
 20
1167.435420
 11
881.104527
 21
1167.263630
  0
LINE
  8
0
  6
CONTINUOUS
 62
7
 10
881.104527
 20
1167.263630
 11
882.376643
 21
1167.043210
  0
LINE
  8
0
  6
CONTINUOUS
 62
7
 10
882.376643
 20
1167.043210
 11
883.618559
 21
1166.774340
  0
LINE
  8
0
  6
CONTINUOUS
 62
7
 10
883.618559
 20
1166.774340
 11
884.830277
 21
1166.457198
  0
LINE
  8
0
  6
CONTINUOUS
 62
7
 10
884.830277
 20
1166.457198
 11
886.201995
 21
1166.027352
  0
LINE
  8
0
  6
CONTINUOUS
 62
7
 10
886.201995
 20
1166.027352
 11
887.525107
 21
1165.533968
  0
LINE
  8
0
  6
CONTINUOUS
 62
7
 10
887.525107
 20
1165.533968
 11
888.799667
 21
1164.977048
  0
LINE
  8
0
  6
CONTINUOUS
 62
7
 10
888.799667
 20
1164.977048
 11
890.025623
 21
1164.356566
  0
LINE
  8
0
  6
CONTINUOUS
 62
7
 10
890.025623
 20
1164.356566
 11
891.203025
 21
1163.672548
  0
LINE
  8
0
  6
CONTINUOUS
 62
7
 10
891.203025
 20
1163.672548
 11
891.883961
 21
1163.221608
  0
LINE
  8
0
  6
CONTINUOUS
 62
7
 10
892.331821
 20
1162.387856
 11
892.331821
 21
1154.102446
  0
LINE
  8
0
  6
CONTINUOUS
 62
7
 10
891.331821
 20
1153.102446
 11
880.683407
 21
1153.102446
  0
LINE
  8
0
  6
CONTINUOUS
 62
7
 10
879.683407
 20
1154.102446
 11
879.683407
 21
1154.874020
  0
LINE
  8
0
  6
CONTINUOUS
 62
7
 10
777.227281
 20
1143.773104
 11
777.287085
 21
1142.370674
  0
LINE
  8
0
  6
CONTINUOUS
 62
7
 10
777.287085
 20
1142.370674
 11
777.466521
 21
1141.277196
  0
LINE
  8
0
  6
CONTINUOUS
 62
7
 10
777.466521
 20
1141.277196
 11
777.765589
 21
1140.487680
  0
LINE
  8
0
  6
CONTINUOUS
 62
7
 10
777.765589
 20
1140.487680
 11
778.221953
 21
1139.920822
  0
LINE
  8
0
  6
CONTINUOUS
 62
7
 10
778.221953
 20
1139.920822
 11
778.852783
 21
1139.481012
  0
LINE
  8
0
  6
CONTINUOUS
 62
7
 10
778.852783
 20
1139.481012
 11
779.014013
 21
1139.420082
  0
LINE
  8
0
  6
CONTINUOUS
 62
7
 10
779.660501
 20
1138.484652
 11
779.660501
 21
1131.306236
  0
LINE
  8
0
  6
CONTINUOUS
 62
7
 10
778.660501
 20
1130.306236
 11
760.813395
 21
1130.306236
  0
LINE
  8
0
  6
CONTINUOUS
 62
7
 10
759.813395
 20
1131.306236
 11
759.813395
 21
1138.634768
  0
LINE
  8
0
  6
CONTINUOUS
 62
7
 10
760.266219
 20
1139.471786
 11
760.423915
 21
1139.574874
  0
LINE
  8
0
  6
CONTINUOUS
 62
7
 10
760.423915
 20
1139.574874
 11
760.892377
 21
1140.073638
  0
LINE
  8
0
  6
CONTINUOUS
 62
7
 10
760.892377
 20
1140.073638
 11
761.226277
 21
1140.667090
  0
LINE
  8
0
  6
CONTINUOUS
 62
7
 10
761.226277
 20
1140.667090
 11
761.442631
 21
1141.444970
  0
LINE
  8
0
  6
CONTINUOUS
 62
7
 10
761.442631
 20
1141.444970
 11
761.574285
 21
1142.479468
  0
LINE
  8
0
  6
CONTINUOUS
 62
7
 10
761.574285
 20
1142.479468
 11
761.618719
 21
1143.773104
  0
LINE
  8
0
  6
CONTINUOUS
 62
7
 10
761.618719
 20
1143.773104
 11
761.618719
 21
1166.961756
  0
LINE
  8
0
  6
CONTINUOUS
 62
7
 10
761.618719
 20
1166.961756
 11
761.574285
 21
1168.254980
  0
LINE
  8
0
  6
CONTINUOUS
 62
7
 10
761.574285
 20
1168.254980
 11
761.442631
 21
1169.286620
  0
LINE
  8
0
  6
CONTINUOUS
 62
7
 10
761.442631
 20
1169.286620
 11
761.226277
 21
1170.056596
  0
LINE
  8
0
  6
CONTINUOUS
 62
7
 10
761.226277
 20
1170.056596
 11
760.892377
 21
1170.647164
  0
LINE
  8
0
  6
CONTINUOUS
 62
7
 10
760.892377
 20
1170.647164
 11
760.423915
 21
1171.140522
  0
LINE
  8
0
  6
CONTINUOUS
 62
7
 10
760.423915
 20
1171.140522
 11
760.269073
 21
1171.240994
  0
LINE
  8
0
  6
CONTINUOUS
 62
7
 10
759.813395
 20
1172.079870
 11
759.813395
 21
1179.305360
  0
LINE
  8
0
  6
CONTINUOUS
 62
7
 10
760.813395
 20
1180.305360
 11
795.087723
 21
1180.305360
  0
LINE
  8
0
  6
CONTINUOUS
 62
7
 10
796.087723
 20
1179.305360
 11
796.087723
 21
1165.186966
  0
LINE
  8
0
  6
CONTINUOUS
 62
7
 10
795.087723
 20
1164.186966
 11
783.620753
 21
1164.186966
  0
LINE
  8
0
  6
CONTINUOUS
 62
7
 10
782.519837
 20
1166.188894
 11
782.217113
 21
1167.573948
  0
LINE
  8
0
  6
CONTINUOUS
 62
7
 10
782.217113
 20
1167.573948
 11
781.712531
 21
1168.497978
  0
LINE
  8
0
  6
CONTINUOUS
 62
7
 10
781.712531
 20
1168.497978
 11
780.943815
 21
1169.069392
  0
LINE
  8
0
  6
CONTINUOUS
 62
7
 10
780.943815
 20
1169.069392
 11
779.831209
 21
1169.414104
  0
LINE
  8
0
  6
CONTINUOUS
 62
7
 10
779.831209
 20
1169.414104
 11
778.382235
 21
1169.529566
  0
LINE
  8
0
  6
CONTINUOUS
 62
7
 10
778.382235
 20
1169.529566
 11
778.227281
 21
1169.529566
  0
LINE
  8
0
  6
CONTINUOUS
 62
7
 10
777.227281
 20
1168.529566
 11
777.227281
 21
1161.099358
  0
LINE
  8
0
  6
CONTINUOUS
 62
7
 10
778.227281
 20
1160.099358
 11
786.083605
 21
1160.099358
  0
LINE
  8
0
  6
CONTINUOUS
 62
7
 10
787.083605
 20
1159.099358
 11
787.083605
 21
1151.276682
  0
LINE
  8
0
  6
CONTINUOUS
 62
7
 10
786.083605
 20
1150.276682
 11
778.227281
 21
1150.276682
  0
LINE
  8
0
  6
CONTINUOUS
 62
7
 10
777.227281
 20
1149.276682
 11
777.227281
 21
1143.773104
  0
LINE
  8
0
  6
CONTINUOUS
 62
7
 10
839.708843
 20
1168.116682
 11
839.664409
 21
1169.231372
  0
LINE
  8
0
  6
CONTINUOUS
 62
7
 10
839.664409
 20
1169.231372
 11
839.532753
 21
1170.111792
  0
LINE
  8
0
  6
CONTINUOUS
 62
7
 10
839.532753
 20
1170.111792
 11
839.316401
 21
1170.762934
  0
LINE
  8
0
  6
CONTINUOUS
 62
7
 10
839.316401
 20
1170.762934
 11
838.982501
 21
1171.263424
  0
LINE
  8
0
  6
CONTINUOUS
 62
7
 10
838.982501
 20
1171.263424
 11
838.233165
 21
1171.940368
  0
LINE
  8
0
  6
CONTINUOUS
 62
7
 10
837.903519
 20
1172.682408
 11
837.903519
 21
1179.305360
  0
LINE
  8
0
  6
CONTINUOUS
 62
7
 10
838.903519
 20
1180.305360
 11
852.444889
 21
1180.305360
  0
LINE
  8
0
  6
CONTINUOUS
 62
7
 10
853.444889
 20
1179.305360
 11
853.444889
 21
1143.414310
  0
LINE
  8
0
  6
CONTINUOUS
 62
7
 10
853.444889
 20
1143.414310
 11
853.486415
 21
1142.069134
  0
LINE
  8
0
  6
CONTINUOUS
 62
7
 10
853.486415
 20
1142.069134
 11
853.612663
 21
1140.973160
  0
LINE
  8
0
  6
CONTINUOUS
 62
7
 10
853.612663
 20
1140.973160
 11
853.826081
 21
1140.128886
  0
LINE
  8
0
  6
CONTINUOUS
 62
7
 10
853.826081
 20
1140.128886
 11
854.128419
 21
1139.471074
  0
LINE
  8
0
  6
CONTINUOUS
 62
7
 10
854.128419
 20
1139.471074
 11
854.840913
 21
1138.579022
  0
LINE
  8
0
  6
CONTINUOUS
 62
7
 10
855.059553
 20
1137.954940
 11
855.059553
 21
1131.306236
  0
LINE
  8
0
  6
CONTINUOUS
 62
7
 10
854.059553
 20
1130.306236
 11
838.903519
 21
1130.306236
  0
LINE
  8
0
  6
CONTINUOUS
 62
7
 10
837.903519
 20
1131.306236
 11
837.903519
 21
1137.871330
  0
LINE
  8
0
  6
CONTINUOUS
 62
7
 10
838.185599
 20
1138.567454
 11
838.916031
 21
1139.320756
  0
LINE
  8
0
  6
CONTINUOUS
 62
7
 10
838.916031
 20
1139.320756
 11
839.260357
 21
1139.983148
  0
LINE
  8
0
  6
CONTINUOUS
 62
7
 10
839.260357
 20
1139.983148
 11
839.511181
 21
1140.842792
  0
LINE
  8
0
  6
CONTINUOUS
 62
7
 10
839.511181
 20
1140.842792
 11
839.659851
 21
1141.919252
  0
LINE
  8
0
  6
CONTINUOUS
 62
7
 10
839.659851
 20
1141.919252
 11
839.708843
 21
1143.212502
  0
LINE
  8
0
  6
CONTINUOUS
 62
7
 10
839.708843
 20
1143.212502
 11
839.708843
 21
1168.116682
  0
LINE
  8
0
  6
CONTINUOUS
 62
7
 10
817.875527
 20
1131.161858
 11
817.819881
 21
1131.543242
  0
LINE
  8
0
  6
CONTINUOUS
 62
7
 10
816.246703
 20
1132.210866
 11
814.995709
 21
1131.311668
  0
LINE
  8
0
  6
CONTINUOUS
 62
7
 10
814.995709
 20
1131.311668
 11
813.560043
 21
1130.597736
  0
LINE
  8
0
  6
CONTINUOUS
 62
7
 10
813.560043
 20
1130.597736
 11
812.380555
 21
1130.208640
  0
LINE
  8
0
  6
CONTINUOUS
 62
7
 10
812.380555
 20
1130.208640
 11
811.079119
 21
1129.931970
  0
LINE
  8
0
  6
CONTINUOUS
 62
7
 10
811.079119
 20
1129.931970
 11
809.655733
 21
1129.766744
  0
LINE
  8
0
  6
CONTINUOUS
 62
7
 10
809.655733
 20
1129.766744
 11
808.110423
 21
1129.711910
  0
LINE
  8
0
  6
CONTINUOUS
 62
7
 10
808.110423
 20
1129.711910
 11
806.550903
 21
1129.788524
  0
LINE
  8
0
  6
CONTINUOUS
 62
7
 10
806.550903
 20
1129.788524
 11
805.112843
 21
1130.018392
  0
LINE
  8
0
  6
CONTINUOUS
 62
7
 10
805.112843
 20
1130.018392
 11
803.796243
 21
1130.401514
  0
LINE
  8
0
  6
CONTINUOUS
 62
7
 10
803.796243
 20
1130.401514
 11
802.601129
 21
1130.937890
  0
LINE
  8
0
  6
CONTINUOUS
 62
7
 10
802.601129
 20
1130.937890
 11
801.527477
 21
1131.627496
  0
LINE
  8
0
  6
CONTINUOUS
 62
7
 10
801.527477
 20
1131.627496
 11
800.575335
 21
1132.470354
  0
LINE
  8
0
  6
CONTINUOUS
 62
7
 10
800.575335
 20
1132.470354
 11
799.865495
 21
1133.305130
  0
LINE
  8
0
  6
CONTINUOUS
 62
7
 10
799.865495
 20
1133.305130
 11
799.264295
 21
1134.233072
  0
LINE
  8
0
  6
CONTINUOUS
 62
7
 10
799.264295
 20
1134.233072
 11
798.771993
 21
1135.253976
  0
LINE
  8
0
  6
CONTINUOUS
 62
7
 10
798.771993
 20
1135.253976
 11
798.388741
 21
1136.367662
  0
LINE
  8
0
  6
CONTINUOUS
 62
7
 10
798.388741
 20
1136.367662
 11
798.114749
 21
1137.573948
  0
LINE
  8
0
  6
CONTINUOUS
 62
7
 10
798.114749
 20
1137.573948
 11
797.950193
 21
1138.872630
  0
LINE
  8
0
  6
CONTINUOUS
 62
7
 10
797.950193
 20
1138.872630
 11
797.895307
 21
1140.263500
  0
LINE
  8
0
  6
CONTINUOUS
 62
7
 10
797.895307
 20
1140.263500
 11
797.930473
 21
1140.977614
  0
LINE
  8
0
  6
CONTINUOUS
 62
7
 10
797.930473
 20
1140.977614
 11
798.035971
 21
1141.680786
  0
LINE
  8
0
  6
CONTINUOUS
 62
7
 10
798.035971
 20
1141.680786
 11
798.211777
 21
1142.373042
  0
LINE
  8
0
  6
CONTINUOUS
 62
7
 10
798.211777
 20
1142.373042
 11
798.457915
 21
1143.054382
  0
LINE
  8
0
  6
CONTINUOUS
 62
7
 10
798.457915
 20
1143.054382
 11
798.774335
 21
1143.724808
  0
LINE
  8
0
  6
CONTINUOUS
 62
7
 10
798.774335
 20
1143.724808
 11
799.161061
 21
1144.384318
  0
LINE
  8
0
  6
CONTINUOUS
 62
7
 10
799.161061
 20
1144.384318
 11
799.618121
 21
1145.032912
  0
LINE
  8
0
  6
CONTINUOUS
 62
7
 10
799.618121
 20
1145.032912
 11
800.145435
 21
1145.670616
  0
LINE
  8
0
  6
CONTINUOUS
 62
7
 10
800.145435
 20
1145.670616
 11
800.743057
 21
1146.297432
  0
LINE
  8
0
  6
CONTINUOUS
 62
7
 10
800.743057
 20
1146.297432
 11
801.410933
 21
1146.913356
  0
LINE
  8
0
  6
CONTINUOUS
 62
7
 10
801.410933
 20
1146.913356
 11
802.149117
 21
1147.518418
  0
LINE
  8
0
  6
CONTINUOUS
 62
7
 10
802.149117
 20
1147.518418
 11
802.957555
 21
1148.112564
  0
LINE
  8
0
  6
CONTINUOUS
 62
7
 10
802.957555
 20
1148.112564
 11
803.836249
 21
1148.695872
  0
LINE
  8
0
  6
CONTINUOUS
 62
7
 10
803.836249
 20
1148.695872
 11
804.785225
 21
1149.268290
  0
LINE
  8
0
  6
CONTINUOUS
 62
7
 10
804.785225
 20
1149.268290
 11
805.804431
 21
1149.829868
  0
LINE
  8
0
  6
CONTINUOUS
 62
7
 10
805.804431
 20
1149.829868
 11
806.893917
 21
1150.380584
  0
LINE
  8
0
  6
CONTINUOUS
 62
7
 10
806.893917
 20
1150.380584
 11
808.053607
 21
1150.920436
  0
LINE
  8
0
  6
CONTINUOUS
 62
7
 10
808.053607
 20
1150.920436
 11
809.283551
 21
1151.449476
  0
LINE
  8
0
  6
CONTINUOUS
 62
7
 10
809.283551
 20
1151.449476
 11
810.583727
 21
1151.967650
  0
LINE
  8
0
  6
CONTINUOUS
 62
7
 10
810.583727
 20
1151.967650
 11
811.954131
 21
1152.475014
  0
LINE
  8
0
  6
CONTINUOUS
 62
7
 10
811.954131
 20
1152.475014
 11
813.394765
 21
1152.971538
  0
LINE
  8
0
  6
CONTINUOUS
 62
7
 10
813.394765
 20
1152.971538
 11
814.905605
 21
1153.457250
  0
LINE
  8
0
  6
CONTINUOUS
 62
7
 10
814.905605
 20
1153.457250
 11
816.486647
 21
1153.932150
  0
LINE
  8
0
  6
CONTINUOUS
 62
7
 10
816.486647
 20
1153.932150
 11
816.670965
 21
1153.983854
  0
LINE
  8
0
  6
CONTINUOUS
 62
7
 10
817.399475
 20
1154.999544
 11
817.335117
 21
1156.215462
  0
LINE
  8
0
  6
CONTINUOUS
 62
7
 10
817.335117
 20
1156.215462
 11
817.122059
 21
1157.300264
  0
LINE
  8
0
  6
CONTINUOUS
 62
7
 10
817.122059
 20
1157.300264
 11
816.766973
 21
1158.125874
  0
LINE
  8
0
  6
CONTINUOUS
 62
7
 10
816.766973
 20
1158.125874
 11
816.262391
 21
1158.713094
  0
LINE
  8
0
  6
CONTINUOUS
 62
7
 10
816.262391
 20
1158.713094
 11
815.600795
 21
1159.063598
  0
LINE
  8
0
  6
CONTINUOUS
 62
7
 10
815.600795
 20
1159.063598
 11
814.782265
 21
1159.179858
  0
LINE
  8
0
  6
CONTINUOUS
 62
7
 10
809.854077
 20
1158.372580
 11
809.535433
 21
1156.750178
  0
LINE
  8
0
  6
CONTINUOUS
 62
7
 10
808.554179
 20
1155.942898
 11
800.509995
 21
1155.942898
  0
LINE
  8
0
  6
CONTINUOUS
 62
7
 10
799.509995
 20
1156.942898
 11
799.509995
 21
1162.343336
  0
LINE
  8
0
  6
CONTINUOUS
 62
7
 10
799.928561
 20
1163.156930
 11
800.545445
 21
1163.597786
  0
LINE
  8
0
  6
CONTINUOUS
 62
7
 10
800.545445
 20
1163.597786
 11
801.656299
 21
1164.281418
  0
LINE
  8
0
  6
CONTINUOUS
 62
7
 10
801.656299
 20
1164.281418
 11
802.843123
 21
1164.908362
  0
LINE
  8
0
  6
CONTINUOUS
 62
7
 10
802.843123
 20
1164.908362
 11
804.106561
 21
1165.478308
  0
LINE
  8
0
  6
CONTINUOUS
 62
7
 10
804.106561
 20
1165.478308
 11
805.447233
 21
1165.990950
  0
LINE
  8
0
  6
CONTINUOUS
 62
7
 10
805.447233
 20
1165.990950
 11
806.865779
 21
1166.445948
  0
LINE
  8
0
  6
CONTINUOUS
 62
7
 10
806.865779
 20
1166.445948
 11
808.128341
 21
1166.785100
  0
LINE
  8
0
  6
CONTINUOUS
 62
7
 10
808.128341
 20
1166.785100
 11
809.417163
 21
1167.072042
  0
LINE
  8
0
  6
CONTINUOUS
 62
7
 10
809.417163
 20
1167.072042
 11
810.732449
 21
1167.306828
  0
LINE
  8
0
  6
CONTINUOUS
 62
7
 10
810.732449
 20
1167.306828
 11
812.074433
 21
1167.489456
  0
LINE
  8
0
  6
CONTINUOUS
 62
7
 10
812.074433
 20
1167.489456
 11
813.443267
 21
1167.619876
  0
LINE
  8
0
  6
CONTINUOUS
 62
7
 10
813.443267
 20
1167.619876
 11
814.839159
 21
1167.698136
  0
LINE
  8
0
  6
CONTINUOUS
 62
7
 10
814.839159
 20
1167.698136
 11
816.262339
 21
1167.724242
  0
LINE
  8
0
  6
CONTINUOUS
 62
7
 10
816.262339
 20
1167.724242
 11
817.751243
 21
1167.691958
  0
LINE
  8
0
  6
CONTINUOUS
 62
7
 10
817.751243
 20
1167.691958
 11
819.156763
 21
1167.595160
  0
LINE
  8
0
  6
CONTINUOUS
 62
7
 10
819.156763
 20
1167.595160
 11
820.479001
 21
1167.433900
  0
LINE
  8
0
  6
CONTINUOUS
 62
7
 10
820.479001
 20
1167.433900
 11
821.718007
 21
1167.208254
  0
LINE
  8
0
  6
CONTINUOUS
 62
7
 10
821.718007
 20
1167.208254
 11
822.873861
 21
1166.918300
  0
LINE
  8
0
  6
CONTINUOUS
 62
7
 10
822.873861
 20
1166.918300
 11
823.946639
 21
1166.564088
  0
LINE
  8
0
  6
CONTINUOUS
 62
7
 10
823.946639
 20
1166.564088
 11
824.936369
 21
1166.145696
  0
LINE
  8
0
  6
CONTINUOUS
 62
7
 10
824.936369
 20
1166.145696
 11
825.843175
 21
1165.663202
  0
LINE
  8
0
  6
CONTINUOUS
 62
7
 10
825.843175
 20
1165.663202
 11
826.667085
 21
1165.116658
  0
LINE
  8
0
  6
CONTINUOUS
 62
7
 10
826.667085
 20
1165.116658
 11
827.408179
 21
1164.506138
  0
LINE
  8
0
  6
CONTINUOUS
 62
7
 10
827.408179
 20
1164.506138
 11
828.142397
 21
1163.741104
  0
LINE
  8
0
  6
CONTINUOUS
 62
7
 10
828.142397
 20
1163.741104
 11
828.790271
 21
1162.881202
  0
LINE
  8
0
  6
CONTINUOUS
 62
7
 10
828.790271
 20
1162.881202
 11
829.351747
 21
1161.926280
  0
LINE
  8
0
  6
CONTINUOUS
 62
7
 10
829.351747
 20
1161.926280
 11
829.826853
 21
1160.876080
  0
LINE
  8
0
  6
CONTINUOUS
 62
7
 10
829.826853
 20
1160.876080
 11
830.215561
 21
1159.730472
  0
LINE
  8
0
  6
CONTINUOUS
 62
7
 10
830.215561
 20
1159.730472
 11
830.517899
 21
1158.489250
  0
LINE
  8
0
  6
CONTINUOUS
 62
7
 10
830.517899
 20
1158.489250
 11
830.733865
 21
1157.152236
  0
LINE
  8
0
  6
CONTINUOUS
 62
7
 10
830.733865
 20
1157.152236
 11
830.863435
 21
1155.719248
  0
LINE
  8
0
  6
CONTINUOUS
 62
7
 10
830.863435
 20
1155.719248
 11
830.906633
 21
1154.190080
  0
LINE
  8
0
  6
CONTINUOUS
 62
7
 10
830.906633
 20
1154.190080
 11
830.906633
 21
1142.954548
  0
LINE
  8
0
  6
CONTINUOUS
 62
7
 10
830.906633
 20
1142.954548
 11
830.951891
 21
1141.743576
  0
LINE
  8
0
  6
CONTINUOUS
 62
7
 10
830.951891
 20
1141.743576
 11
831.089365
 21
1140.756808
  0
LINE
  8
0
  6
CONTINUOUS
 62
7
 10
831.089365
 20
1140.756808
 11
831.321473
 21
1139.994296
  0
LINE
  8
0
  6
CONTINUOUS
 62
7
 10
831.321473
 20
1139.994296
 11
831.647109
 21
1139.396288
  0
LINE
  8
0
  6
CONTINUOUS
 62
7
 10
831.647109
 20
1139.396288
 11
832.375203
 21
1138.617310
  0
LINE
  8
0
  6
CONTINUOUS
 62
7
 10
832.644637
 20
1137.934468
 11
832.644637
 21
1131.306236
  0
LINE
  8
0
  6
CONTINUOUS
 62
7
 10
831.644637
 20
1130.306236
 11
818.865051
 21
1130.306236
  0
LINE
  8
0
  6
CONTINUOUS
 62
7
 10
817.406119
 20
1140.842074
 11
817.406119
 21
1144.660602
  0
LINE
  8
0
  6
CONTINUOUS
 62
7
 10
816.014651
 20
1145.580794
 11
815.200861
 21
1145.234590
  0
LINE
  8
0
  6
CONTINUOUS
 62
7
 10
815.200861
 20
1145.234590
 11
813.631019
 21
1144.438458
  0
LINE
  8
0
  6
CONTINUOUS
 62
7
 10
813.631019
 20
1144.438458
 11
812.696589
 21
1143.784354
  0
LINE
  8
0
  6
CONTINUOUS
 62
7
 10
812.696589
 20
1143.784354
 11
812.173341
 21
1143.160164
  0
LINE
  8
0
  6
CONTINUOUS
 62
7
 10
812.173341
 20
1143.160164
 11
811.859367
 21
1142.431326
  0
LINE
  8
0
  6
CONTINUOUS
 62
7
 10
811.859367
 20
1142.431326
 11
811.754719
 21
1141.597812
  0
LINE
  8
0
  6
CONTINUOUS
 62
7
 10
811.754719
 20
1141.597812
 11
811.821575
 21
1140.812904
  0
LINE
  8
0
  6
CONTINUOUS
 62
7
 10
811.821575
 20
1140.812904
 11
812.020499
 21
1140.162532
  0
LINE
  8
0
  6
CONTINUOUS
 62
7
 10
812.020499
 20
1140.162532
 11
812.349045
 21
1139.646752
  0
LINE
  8
0
  6
CONTINUOUS
 62
7
 10
812.349045
 20
1139.646752
 11
812.797145
 21
1139.272950
  0
LINE
  8
0
  6
CONTINUOUS
 62
7
 10
812.797145
 20
1139.272950
 11
813.354863
 21
1139.048694
  0
LINE
  8
0
  6
CONTINUOUS
 62
7
 10
813.354863
 20
1139.048694
 11
814.019779
 21
1138.973958
  0
LINE
  8
0
  6
CONTINUOUS
 62
7
 10
814.019779
 20
1138.973958
 11
814.628599
 21
1139.014660
  0
LINE
  8
0
  6
CONTINUOUS
 62
7
 10
814.628599
 20
1139.014660
 11
815.219989
 21
1139.135090
  0
LINE
  8
0
  6
CONTINUOUS
 62
7
 10
815.219989
 20
1139.135090
 11
815.791455
 21
1139.332752
  0
LINE
  8
0
  6
CONTINUOUS
 62
7
 10
815.791455
 20
1139.332752
 11
816.352083
 21
1139.613516
  0
LINE
  8
0
  6
CONTINUOUS
 62
7
 10
816.352083
 20
1139.613516
 11
816.951843
 21
1140.004110
  0
LINE
  8
0
  6
CONTINUOUS
 62
7
 10
951.592891
 20
1143.414310
 11
951.637325
 21
1142.102806
  0
LINE
  8
0
  6
CONTINUOUS
 62
7
 10
951.637325
 20
1142.102806
 11
951.768981
 21
1141.018058
  0
LINE
  8
0
  6
CONTINUOUS
 62
7
 10
951.768981
 20
1141.018058
 11
951.985333
 21
1140.162532
  0
LINE
  8
0
  6
CONTINUOUS
 62
7
 10
951.985333
 20
1140.162532
 11
952.299333
 21
1139.486006
  0
LINE
  8
0
  6
CONTINUOUS
 62
7
 10
952.299333
 20
1139.486006
 11
952.725421
 21
1138.959000
  0
LINE
  8
0
  6
CONTINUOUS
 62
7
 10
952.725421
 20
1138.959000
 11
952.837837
 21
1138.880152
  0
LINE
  8
0
  6
CONTINUOUS
 62
7
 10
953.263601
 20
1138.061462
 11
953.263601
 21
1131.306236
  0
LINE
  8
0
  6
CONTINUOUS
 62
7
 10
952.263601
 20
1130.306236
 11
937.118919
 21
1130.306236
  0
LINE
  8
0
  6
CONTINUOUS
 62
7
 10
936.118919
 20
1131.306236
 11
936.118919
 21
1137.871426
  0
LINE
  8
0
  6
CONTINUOUS
 62
7
 10
936.401019
 20
1138.567572
 11
937.131379
 21
1139.320756
  0
LINE
  8
0
  6
CONTINUOUS
 62
7
 10
937.131379
 20
1139.320756
 11
937.475653
 21
1139.983148
  0
LINE
  8
0
  6
CONTINUOUS
 62
7
 10
937.475653
 20
1139.983148
 11
937.726477
 21
1140.842792
  0
LINE
  8
0
  6
CONTINUOUS
 62
7
 10
937.726477
 20
1140.842792
 11
937.875123
 21
1141.919252
  0
LINE
  8
0
  6
CONTINUOUS
 62
7
 10
937.875123
 20
1141.919252
 11
937.924139
 21
1143.212502
  0
LINE
  8
0
  6
CONTINUOUS
 62
7
 10
937.924139
 20
1143.212502
 11
937.924139
 21
1154.885270
  0
LINE
  8
0
  6
CONTINUOUS
 62
7
 10
937.924139
 20
1154.885270
 11
937.879705
 21
1155.976688
  0
LINE
  8
0
  6
CONTINUOUS
 62
7
 10
937.879705
 20
1155.976688
 11
937.748077
 21
1156.851314
  0
LINE
  8
0
  6
CONTINUOUS
 62
7
 10
937.748077
 20
1156.851314
 11
937.531699
 21
1157.509150
  0
LINE
  8
0
  6
CONTINUOUS
 62
7
 10
937.531699
 20
1157.509150
 11
937.197799
 21
1158.013706
  0
LINE
  8
0
  6
CONTINUOUS
 62
7
 10
937.197799
 20
1158.013706
 11
936.729361
 21
1158.428598
  0
LINE
  8
0
  6
CONTINUOUS
 62
7
 10
936.729361
 20
1158.428598
 11
936.648777
 21
1158.471522
  0
LINE
  8
0
  6
CONTINUOUS
 62
7
 10
936.118919
 20
1159.354114
 11
936.118919
 21
1166.029050
  0
LINE
  8
0
  6
CONTINUOUS
 62
7
 10
937.118919
 20
1167.029050
 11
950.065835
 21
1167.029050
  0
LINE
  8
0
  6
CONTINUOUS
 62
7
 10
952.576129
 20
1165.478090
 11
952.482013
 21
1165.418918
  0
LINE
  8
0
  6
CONTINUOUS
 62
7
 10
952.482013
 20
1165.418918
 11
953.970453
 21
1166.142376
  0
LINE
  8
0
  6
CONTINUOUS
 62
7
 10
953.970453
 20
1166.142376
 11
955.528687
 21
1166.703904
  0
LINE
  8
0
  6
CONTINUOUS
 62
7
 10
955.528687
 20
1166.703904
 11
957.144225
 21
1167.107158
  0
LINE
  8
0
  6
CONTINUOUS
 62
7
 10
957.144225
 20
1167.107158
 11
958.787131
 21
1167.350928
  0
LINE
  8
0
  6
CONTINUOUS
 62
7
 10
958.787131
 20
1167.350928
 11
960.462395
 21
1167.432742
  0
LINE
  8
0
  6
CONTINUOUS
 62
7
 10
960.462395
 20
1167.432742
 11
961.939045
 21
1167.376466
  0
LINE
  8
0
  6
CONTINUOUS
 62
7
 10
961.939045
 20
1167.376466
 11
963.293103
 21
1167.207816
  0
LINE
  8
0
  6
CONTINUOUS
 62
7
 10
963.293103
 20
1167.207816
 11
964.524155
 21
1166.926976
  0
LINE
  8
0
  6
CONTINUOUS
 62
7
 10
964.524155
 20
1166.926976
 11
965.631843
 21
1166.534122
  0
LINE
  8
0
  6
CONTINUOUS
 62
7
 10
965.631843
 20
1166.534122
 11
966.615727
 21
1166.029462
  0
LINE
  8
0
  6
CONTINUOUS
 62
7
 10
966.615727
 20
1166.029462
 11
967.475473
 21
1165.413202
  0
LINE
  8
0
  6
CONTINUOUS
 62
7
 10
967.475473
 20
1165.413202
 11
968.210645
 21
1164.685522
  0
LINE
  8
0
  6
CONTINUOUS
 62
7
 10
968.210645
 20
1164.685522
 11
968.766225
 21
1163.941778
  0
LINE
  8
0
  6
CONTINUOUS
 62
7
 10
968.766225
 20
1163.941778
 11
969.247329
 21
1163.081362
  0
LINE
  8
0
  6
CONTINUOUS
 62
7
 10
969.247329
 20
1163.081362
 11
969.654033
 21
1162.104222
  0
LINE
  8
0
  6
CONTINUOUS
 62
7
 10
969.654033
 20
1162.104222
 11
969.986517
 21
1161.010412
  0
LINE
  8
0
  6
CONTINUOUS
 62
7
 10
969.986517
 20
1161.010412
 11
970.244909
 21
1159.799928
  0
LINE
  8
0
  6
CONTINUOUS
 62
7
 10
970.244909
 20
1159.799928
 11
970.429289
 21
1158.472748
  0
LINE
  8
0
  6
CONTINUOUS
 62
7
 10
970.429289
 20
1158.472748
 11
970.539833
 21
1157.028896
  0
LINE
  8
0
  6
CONTINUOUS
 62
7
 10
970.539833
 20
1157.028896
 11
970.576647
 21
1155.468372
  0
LINE
  8
0
  6
CONTINUOUS
 62
7
 10
970.576647
 20
1155.468372
 11
970.576647
 21
1143.346988
  0
LINE
  8
0
  6
CONTINUOUS
 62
7
 10
970.576647
 20
1143.346988
 11
970.614439
 21
1141.822454
  0
LINE
  8
0
  6
CONTINUOUS
 62
7
 10
970.614439
 20
1141.822454
 11
970.729437
 21
1140.659238
  0
LINE
  8
0
  6
CONTINUOUS
 62
7
 10
970.729437
 20
1140.659238
 11
970.924191
 21
1139.859810
  0
LINE
  8
0
  6
CONTINUOUS
 62
7
 10
970.924191
 20
1139.859810
 11
971.215355
 21
1139.311616
  0
LINE
  8
0
  6
CONTINUOUS
 62
7
 10
971.215355
 20
1139.311616
 11
971.638535
 21
1138.883004
  0
LINE
  8
0
  6
CONTINUOUS
 62
7
 10
971.638535
 20
1138.883004
 11
971.670141
 21
1138.865768
  0
LINE
  8
0
  6
CONTINUOUS
 62
7
 10
972.191337
 20
1137.987846
 11
972.191337
 21
1131.306236
  0
LINE
  8
0
  6
CONTINUOUS
 62
7
 10
971.191337
 20
1130.306236
 11
958.868917
 21
1130.306236
  0
LINE
  8
0
  6
CONTINUOUS
 62
7
 10
957.884209
 20
1131.132022
 11
957.795625
 21
1131.632722
  0
LINE
  8
0
  6
CONTINUOUS
 62
7
 10
957.795625
 20
1131.632722
 11
957.610809
 21
1133.166008
  0
LINE
  8
0
  6
CONTINUOUS
 62
7
 10
957.610809
 20
1133.166008
 11
957.480879
 21
1134.903574
  0
LINE
  8
0
  6
CONTINUOUS
 62
7
 10
957.480879
 20
1134.903574
 11
957.441415
 21
1135.659932
  0
LINE
  8
0
  6
CONTINUOUS
 62
7
 10
957.441415
 20
1135.659932
 11
957.407251
 21
1136.549800
  0
LINE
  8
0
  6
CONTINUOUS
 62
7
 10
957.407251
 20
1136.549800
 11
957.378315
 21
1137.573176
  0
LINE
  8
0
  6
CONTINUOUS
 62
7
 10
957.378315
 20
1137.573176
 11
957.354683
 21
1138.730060
  0
LINE
  8
0
  6
CONTINUOUS
 62
7
 10
957.354683
 20
1138.730060
 11
957.336275
 21
1140.020426
  0
LINE
  8
0
  6
CONTINUOUS
 62
7
 10
957.336275
 20
1140.020426
 11
957.323121
 21
1141.444302
  0
LINE
  8
0
  6
CONTINUOUS
 62
7
 10
957.323121
 20
1141.444302
 11
957.315243
 21
1143.001684
  0
LINE
  8
0
  6
CONTINUOUS
 62
7
 10
957.315243
 20
1143.001684
 11
957.312617
 21
1144.692576
  0
LINE
  8
0
  6
CONTINUOUS
 62
7
 10
957.312617
 20
1144.692576
 11
957.312617
 21
1152.709902
  0
LINE
  8
0
  6
CONTINUOUS
 62
7
 10
957.312617
 20
1152.709902
 11
957.234123
 21
1154.413486
  0
LINE
  8
0
  6
CONTINUOUS
 62
7
 10
957.234123
 20
1154.413486
 11
956.998669
 21
1155.708384
  0
LINE
  8
0
  6
CONTINUOUS
 62
7
 10
956.998669
 20
1155.708384
 11
956.606175
 21
1156.589652
  0
LINE
  8
0
  6
CONTINUOUS
 62
7
 10
956.606175
 20
1156.589652
 11
956.027297
 21
1157.158234
  0
LINE
  8
0
  6
CONTINUOUS
 62
7
 10
956.027297
 20
1157.158234
 11
955.234073
 21
1157.497540
  0
LINE
  8
0
  6
CONTINUOUS
 62
7
 10
955.234073
 20
1157.497540
 11
954.229027
 21
1157.610092
  0
LINE
  8
0
  6
CONTINUOUS
 62
7
 10
953.757009
 20
1157.610092
 11
953.447207
 21
1157.598868
  0
LINE
  8
0
  6
CONTINUOUS
 62
7
 10
953.447207
 20
1157.598868
 11
953.124943
 21
1157.565220
  0
LINE
  8
0
  6
CONTINUOUS
 62
7
 10
953.124943
 20
1157.565220
 11
952.792717
 21
1157.509150
  0
LINE
  8
0
  6
CONTINUOUS
 62
7
 10
952.792717
 20
1157.509150
 11
952.434309
 21
1157.426074
  0
LINE
  8
0
  6
CONTINUOUS
 62
7
 10
952.434309
 20
1157.426074
 11
952.310601
 21
1157.389672
  0
LINE
  8
0
  6
CONTINUOUS
 62
7
 10
951.592891
 20
1156.430344
 11
951.592891
 21
1143.414310
  0
LINE
  8
0
  6
CONTINUOUS
 62
7
 10
930.377697
 20
1154.257374
 11
930.377697
 21
1143.077912
  0
LINE
  8
0
  6
CONTINUOUS
 62
7
 10
930.377697
 20
1143.077912
 11
930.334087
 21
1141.456992
  0
LINE
  8
0
  6
CONTINUOUS
 62
7
 10
930.334087
 20
1141.456992
 11
930.203153
 21
1139.950712
  0
LINE
  8
0
  6
CONTINUOUS
 62
7
 10
930.203153
 20
1139.950712
 11
929.984845
 21
1138.559042
  0
LINE
  8
0
  6
CONTINUOUS
 62
7
 10
929.984845
 20
1138.559042
 11
929.679031
 21
1137.282010
  0
LINE
  8
0
  6
CONTINUOUS
 62
7
 10
929.679031
 20
1137.282010
 11
929.285637
 21
1136.119592
  0
LINE
  8
0
  6
CONTINUOUS
 62
7
 10
929.285637
 20
1136.119592
 11
928.804585
 21
1135.071786
  0
LINE
  8
0
  6
CONTINUOUS
 62
7
 10
928.804585
 20
1135.071786
 11
928.235771
 21
1134.138616
  0
LINE
  8
0
  6
CONTINUOUS
 62
7
 10
928.235771
 20
1134.138616
 11
927.579093
 21
1133.320060
  0
LINE
  8
0
  6
CONTINUOUS
 62
7
 10
927.579093
 20
1133.320060
 11
926.834447
 21
1132.616116
  0
LINE
  8
0
  6
CONTINUOUS
 62
7
 10
926.834447
 20
1132.616116
 11
926.142191
 21
1132.111250
  0
LINE
  8
0
  6
CONTINUOUS
 62
7
 10
926.142191
 20
1132.111250
 11
925.355969
 21
1131.654682
  0
LINE
  8
0
  6
CONTINUOUS
 62
7
 10
925.355969
 20
1131.654682
 11
924.475783
 21
1131.246406
  0
LINE
  8
0
  6
CONTINUOUS
 62
7
 10
924.475783
 20
1131.246406
 11
923.501629
 21
1130.886352
  0
LINE
  8
0
  6
CONTINUOUS
 62
7
 10
923.501629
 20
1130.886352
 11
922.433511
 21
1130.574462
  0
LINE
  8
0
  6
CONTINUOUS
 62
7
 10
922.433511
 20
1130.574462
 11
921.271427
 21
1130.310690
  0
LINE
  8
0
  6
CONTINUOUS
 62
7
 10
921.271427
 20
1130.310690
 11
920.015403
 21
1130.095006
  0
LINE
  8
0
  6
CONTINUOUS
 62
7
 10
920.015403
 20
1130.095006
 11
918.665387
 21
1129.927310
  0
LINE
  8
0
  6
CONTINUOUS
 62
7
 10
918.665387
 20
1129.927310
 11
917.221405
 21
1129.807600
  0
LINE
  8
0
  6
CONTINUOUS
 62
7
 10
917.221405
 20
1129.807600
 11
915.683459
 21
1129.735826
  0
LINE
  8
0
  6
CONTINUOUS
 62
7
 10
915.683459
 20
1129.735826
 11
914.051547
 21
1129.711910
  0
LINE
  8
0
  6
CONTINUOUS
 62
7
 10
914.051547
 20
1129.711910
 11
912.419891
 21
1129.735826
  0
LINE
  8
0
  6
CONTINUOUS
 62
7
 10
912.419891
 20
1129.735826
 11
910.882717
 21
1129.807600
  0
LINE
  8
0
  6
CONTINUOUS
 62
7
 10
910.882717
 20
1129.807600
 11
909.439973
 21
1129.927310
  0
LINE
  8
0
  6
CONTINUOUS
 62
7
 10
909.439973
 20
1129.927310
 11
908.091579
 21
1130.095006
  0
LINE
  8
0
  6
CONTINUOUS
 62
7
 10
908.091579
 20
1130.095006
 11
906.837511
 21
1130.310690
  0
LINE
  8
0
  6
CONTINUOUS
 62
7
 10
906.837511
 20
1130.310690
 11
905.677719
 21
1130.574462
  0
LINE
  8
0
  6
CONTINUOUS
 62
7
 10
905.677719
 20
1130.574462
 11
904.612149
 21
1130.886352
  0
LINE
  8
0
  6
CONTINUOUS
 62
7
 10
904.612149
 20
1130.886352
 11
903.640749
 21
1131.246406
  0
LINE
  8
0
  6
CONTINUOUS
 62
7
 10
903.640749
 20
1131.246406
 11
902.763445
 21
1131.654682
  0
LINE
  8
0
  6
CONTINUOUS
 62
7
 10
902.763445
 20
1131.654682
 11
901.980235
 21
1132.111250
  0
LINE
  8
0
  6
CONTINUOUS
 62
7
 10
901.980235
 20
1132.111250
 11
901.291017
 21
1132.616116
  0
LINE
  8
0
  6
CONTINUOUS
 62
7
 10
901.291017
 20
1132.616116
 11
900.549719
 21
1133.320060
  0
LINE
  8
0
  6
CONTINUOUS
 62
7
 10
900.549719
 20
1133.320060
 11
899.895615
 21
1134.138616
  0
LINE
  8
0
  6
CONTINUOUS
 62
7
 10
899.895615
 20
1134.138616
 11
899.328733
 21
1135.071786
  0
LINE
  8
0
  6
CONTINUOUS
 62
7
 10
899.328733
 20
1135.071786
 11
898.849071
 21
1136.119592
  0
LINE
  8
0
  6
CONTINUOUS
 62
7
 10
898.849071
 20
1136.119592
 11
898.456629
 21
1137.282010
  0
LINE
  8
0
  6
CONTINUOUS
 62
7
 10
898.456629
 20
1137.282010
 11
898.151381
 21
1138.559042
  0
LINE
  8
0
  6
CONTINUOUS
 62
7
 10
898.151381
 20
1138.559042
 11
897.933357
 21
1139.950712
  0
LINE
  8
0
  6
CONTINUOUS
 62
7
 10
897.933357
 20
1139.950712
 11
897.802525
 21
1141.456992
  0
LINE
  8
0
  6
CONTINUOUS
 62
7
 10
897.802525
 20
1141.456992
 11
897.758941
 21
1143.077912
  0
LINE
  8
0
  6
CONTINUOUS
 62
7
 10
897.758941
 20
1143.077912
 11
897.758941
 21
1154.257374
  0
LINE
  8
0
  6
CONTINUOUS
 62
7
 10
897.758941
 20
1154.257374
 11
897.802525
 21
1155.878320
  0
LINE
  8
0
  6
CONTINUOUS
 62
7
 10
897.802525
 20
1155.878320
 11
897.933357
 21
1157.384704
  0
LINE
  8
0
  6
CONTINUOUS
 62
7
 10
897.933357
 20
1157.384704
 11
898.151381
 21
1158.776656
  0
LINE
  8
0
  6
CONTINUOUS
 62
7
 10
898.151381
 20
1158.776656
 11
898.456629
 21
1160.054254
  0
LINE
  8
0
  6
CONTINUOUS
 62
7
 10
898.456629
 20
1160.054254
 11
898.849071
 21
1161.217600
  0
LINE
  8
0
  6
CONTINUOUS
 62
7
 10
898.849071
 20
1161.217600
 11
899.328733
 21
1162.266796
  0
LINE
  8
0
  6
CONTINUOUS
 62
7
 10
899.328733
 20
1162.266796
 11
899.895615
 21
1163.201922
  0
LINE
  8
0
  6
CONTINUOUS
 62
7
 10
899.895615
 20
1163.201922
 11
900.549719
 21
1164.023052
  0
LINE
  8
0
  6
CONTINUOUS
 62
7
 10
900.549719
 20
1164.023052
 11
901.291017
 21
1164.730342
  0
LINE
  8
0
  6
CONTINUOUS
 62
7
 10
901.291017
 20
1164.730342
 11
901.980235
 21
1165.238246
  0
LINE
  8
0
  6
CONTINUOUS
 62
7
 10
901.980235
 20
1165.238246
 11
902.763445
 21
1165.697802
  0
LINE
  8
0
  6
CONTINUOUS
 62
7
 10
902.763445
 20
1165.697802
 11
903.640749
 21
1166.108986
  0
LINE
  8
0
  6
CONTINUOUS
 62
7
 10
903.640749
 20
1166.108986
 11
904.612149
 21
1166.471770
  0
LINE
  8
0
  6
CONTINUOUS
 62
7
 10
904.612149
 20
1166.471770
 11
905.677719
 21
1166.786208
  0
LINE
  8
0
  6
CONTINUOUS
 62
7
 10
905.677719
 20
1166.786208
 11
906.837511
 21
1167.052272
  0
LINE
  8
0
  6
CONTINUOUS
 62
7
 10
906.837511
 20
1167.052272
 11
908.091579
 21
1167.269936
  0
LINE
  8
0
  6
CONTINUOUS
 62
7
 10
908.091579
 20
1167.269936
 11
909.439973
 21
1167.439256
  0
LINE
  8
0
  6
CONTINUOUS
 62
7
 10
909.439973
 20
1167.439256
 11
910.882717
 21
1167.560200
  0
LINE
  8
0
  6
CONTINUOUS
 62
7
 10
910.882717
 20
1167.560200
 11
912.419891
 21
1167.632748
  0
LINE
  8
0
  6
CONTINUOUS
 62
7
 10
912.419891
 20
1167.632748
 11
914.051547
 21
1167.656946
  0
LINE
  8
0
  6
CONTINUOUS
 62
7
 10
914.051547
 20
1167.656946
 11
915.689019
 21
1167.632748
  0
LINE
  8
0
  6
CONTINUOUS
 62
7
 10
915.689019
 20
1167.632748
 11
917.231471
 21
1167.560200
  0
LINE
  8
0
  6
CONTINUOUS
 62
7
 10
917.231471
 20
1167.560200
 11
918.678929
 21
1167.439256
  0
LINE
  8
0
  6
CONTINUOUS
 62
7
 10
918.678929
 20
1167.439256
 11
920.031467
 21
1167.269936
  0
LINE
  8
0
  6
CONTINUOUS
 62
7
 10
920.031467
 20
1167.269936
 11
921.289139
 21
1167.052272
  0
LINE
  8
0
  6
CONTINUOUS
 62
7
 10
921.289139
 20
1167.052272
 11
922.451995
 21
1166.786208
  0
LINE
  8
0
  6
CONTINUOUS
 62
7
 10
922.451995
 20
1166.786208
 11
923.520061
 21
1166.471770
  0
LINE
  8
0
  6
CONTINUOUS
 62
7
 10
923.520061
 20
1166.471770
 11
924.493391
 21
1166.108986
  0
LINE
  8
0
  6
CONTINUOUS
 62
7
 10
924.493391
 20
1166.108986
 11
925.372059
 21
1165.697802
  0
LINE
  8
0
  6
CONTINUOUS
 62
7
 10
925.372059
 20
1165.697802
 11
926.156119
 21
1165.238246
  0
LINE
  8
0
  6
CONTINUOUS
 62
7
 10
926.156119
 20
1165.238246
 11
926.845595
 21
1164.730342
  0
LINE
  8
0
  6
CONTINUOUS
 62
7
 10
926.845595
 20
1164.730342
 11
927.586919
 21
1164.023052
  0
LINE
  8
0
  6
CONTINUOUS
 62
7
 10
927.586919
 20
1164.023052
 11
928.240997
 21
1163.201922
  0
LINE
  8
0
  6
CONTINUOUS
 62
7
 10
928.240997
 20
1163.201922
 11
928.807879
 21
1162.266796
  0
LINE
  8
0
  6
CONTINUOUS
 62
7
 10
928.807879
 20
1162.266796
 11
929.287567
 21
1161.217600
  0
LINE
  8
0
  6
CONTINUOUS
 62
7
 10
929.287567
 20
1161.217600
 11
929.680009
 21
1160.054254
  0
LINE
  8
0
  6
CONTINUOUS
 62
7
 10
929.680009
 20
1160.054254
 11
929.985255
 21
1158.776656
  0
LINE
  8
0
  6
CONTINUOUS
 62
7
 10
929.985255
 20
1158.776656
 11
930.203281
 21
1157.384704
  0
LINE
  8
0
  6
CONTINUOUS
 62
7
 10
930.203281
 20
1157.384704
 11
930.334087
 21
1155.878320
  0
LINE
  8
0
  6
CONTINUOUS
 62
7
 10
930.334087
 20
1155.878320
 11
930.377697
 21
1154.257374
  0
ARC
  8
0
  6
CONTINUOUS
 62
7
 10
795.087723
 20
1179.305360
 40
1.000000
 50
0.000000
 51
90.000000
  0
ARC
  8
0
  6
CONTINUOUS
 62
7
 10
760.813395
 20
1179.305360
 40
1.000000
 50
90.000000
 51
180.000000
  0
ARC
  8
0
  6
CONTINUOUS
 62
7
 10
760.813395
 20
1131.306236
 40
1.000000
 50
180.000000
 51
270.000000
  0
ARC
  8
0
  6
CONTINUOUS
 62
7
 10
778.660501
 20
1131.306236
 40
1.000000
 50
270.000000
 51
0.000000
  0
ARC
  8
0
  6
CONTINUOUS
 62
7
 10
786.083605
 20
1151.276682
 40
1.000000
 50
270.000000
 51
0.000000
  0
ARC
  8
0
  6
CONTINUOUS
 62
7
 10
786.083605
 20
1159.099358
 40
1.000000
 50
0.000000
 51
90.000000
  0
ARC
  8
0
  6
CONTINUOUS
 62
7
 10
778.227281
 20
1161.099358
 40
1.000000
 50
180.000000
 51
270.000000
  0
ARC
  8
0
  6
CONTINUOUS
 62
7
 10
778.227281
 20
1149.276682
 40
1.000000
 50
90.000000
 51
180.000000
  0
ARC
  8
0
  6
CONTINUOUS
 62
7
 10
795.087723
 20
1165.186966
 40
1.000000
 50
270.000000
 51
0.000000
  0
ARC
  8
0
  6
CONTINUOUS
 62
7
 10
778.227281
 20
1168.529566
 40
1.000000
 50
90.000000
 51
180.000000
  0
ARC
  8
0
  6
CONTINUOUS
 62
7
 10
783.620753
 20
1165.186966
 40
1.000000
 50
180.000000
 51
270.000000
  0
ARC
  8
0
  6
CONTINUOUS
 62
7
 10
778.660501
 20
1138.484652
 40
1.000000
 50
0.000000
 51
69.297802
  0
ARC
  8
0
  6
CONTINUOUS
 62
7
 10
760.813395
 20
1138.634768
 40
1.000000
 50
123.173499
 51
180.000000
  0
ARC
  8
0
  6
CONTINUOUS
 62
7
 10
760.813395
 20
1172.079870
 40
1.000000
 50
180.000000
 51
237.021589
  0
ARC
  8
0
  6
CONTINUOUS
 62
7
 10
800.509995
 20
1162.343336
 40
1.000000
 50
125.551555
 51
180.000000
  0
ARC
  8
0
  6
CONTINUOUS
 62
7
 10
816.406119
 20
1144.660602
 40
1.000000
 50
0.000000
 51
113.045927
  0
ARC
  8
0
  6
CONTINUOUS
 62
7
 10
816.406119
 20
1140.842074
 40
1.000000
 50
303.074124
 51
0.000000
  0
ARC
  8
0
  6
CONTINUOUS
 62
7
 10
818.865051
 20
1131.306236
 40
1.000000
 50
188.301213
 51
270.000000
  0
ARC
  8
0
  6
CONTINUOUS
 62
7
 10
831.644637
 20
1131.306236
 40
1.000000
 50
270.000000
 51
0.000000
  0
ARC
  8
0
  6
CONTINUOUS
 62
7
 10
831.644637
 20
1137.934468
 40
1.000000
 50
0.000000
 51
43.066215
  0
ARC
  8
0
  6
CONTINUOUS
 62
7
 10
816.400873
 20
1154.946690
 40
1.000000
 50
285.669793
 51
3.029812
  0
ARC
  8
0
  6
CONTINUOUS
 62
7
 10
816.830359
 20
1131.398866
 40
1.000000
 50
8.301213
 51
125.708090
  0
ARC
  8
0
  6
CONTINUOUS
 62
7
 10
838.903519
 20
1179.305360
 40
1.000000
 50
90.000000
 51
180.000000
  0
ARC
  8
0
  6
CONTINUOUS
 62
7
 10
852.444889
 20
1179.305360
 40
1.000000
 50
0.000000
 51
90.000000
  0
ARC
  8
0
  6
CONTINUOUS
 62
7
 10
854.059553
 20
1131.306236
 40
1.000000
 50
270.000000
 51
0.000000
  0
ARC
  8
0
  6
CONTINUOUS
 62
7
 10
838.903519
 20
1131.306236
 40
1.000000
 50
180.000000
 51
270.000000
  0
ARC
  8
0
  6
CONTINUOUS
 62
7
 10
838.903519
 20
1137.871330
 40
1.000000
 50
135.883037
 51
180.000000
  0
ARC
  8
0
  6
CONTINUOUS
 62
7
 10
854.059553
 20
1137.954940
 40
1.000000
 50
0.000000
 51
38.614793
  0
ARC
  8
0
  6
CONTINUOUS
 62
7
 10
838.903519
 20
1172.682408
 40
1.000000
 50
180.000000
 51
227.905636
  0
ARC
  8
0
  6
CONTINUOUS
 62
7
 10
891.331821
 20
1162.387856
 40
1.000000
 50
0.000000
 51
56.486096
  0
ARC
  8
0
  6
CONTINUOUS
 62
7
 10
891.331821
 20
1154.102446
 40
1.000000
 50
270.000000
 51
0.000000
  0
ARC
  8
0
  6
CONTINUOUS
 62
7
 10
880.683407
 20
1154.102446
 40
1.000000
 50
180.000000
 51
270.000000
  0
ARC
  8
0
  6
CONTINUOUS
 62
7
 10
880.683407
 20
1144.780312
 40
1.000000
 50
90.000000
 51
180.000000
  0
ARC
  8
0
  6
CONTINUOUS
 62
7
 10
891.331821
 20
1144.780312
 40
1.000000
 50
0.000000
 51
90.000000
  0
ARC
  8
0
  6
CONTINUOUS
 62
7
 10
891.331821
 20
1134.902300
 40
1.000000
 50
307.595443
 51
0.000000
  0
ARC
  8
0
  6
CONTINUOUS
 62
7
 10
937.118919
 20
1166.029050
 40
1.000000
 50
90.000000
 51
180.000000
  0
ARC
  8
0
  6
CONTINUOUS
 62
7
 10
950.065835
 20
1166.029050
 40
1.000000
 50
8.500025
 51
90.000000
  0
ARC
  8
0
  6
CONTINUOUS
 62
7
 10
952.592891
 20
1156.430344
 40
1.000000
 50
106.396912
 51
180.000000
  0
ARC
  8
0
  6
CONTINUOUS
 62
7
 10
952.263601
 20
1138.061462
 40
1.000000
 50
0.000000
 51
54.953752
  0
ARC
  8
0
  6
CONTINUOUS
 62
7
 10
952.263601
 20
1131.306236
 40
1.000000
 50
270.000000
 51
0.000000
  0
ARC
  8
0
  6
CONTINUOUS
 62
7
 10
958.868917
 20
1131.306236
 40
1.000000
 50
190.032971
 51
270.000000
  0
ARC
  8
0
  6
CONTINUOUS
 62
7
 10
971.191337
 20
1131.306236
 40
1.000000
 50
270.000000
 51
0.000000
  0
ARC
  8
0
  6
CONTINUOUS
 62
7
 10
971.191337
 20
1137.987846
 40
1.000000
 50
0.000000
 51
61.392719
  0
ARC
  8
0
  6
CONTINUOUS
 62
7
 10
937.118919
 20
1131.306236
 40
1.000000
 50
180.000000
 51
270.000000
  0
ARC
  8
0
  6
CONTINUOUS
 62
7
 10
937.118919
 20
1159.354114
 40
1.000000
 50
180.000000
 51
241.956492
  0
ARC
  8
0
  6
CONTINUOUS
 62
7
 10
952.043867
 20
1166.324670
 40
1.000000
 50
188.500025
 51
302.158481
  0
ARC
  8
0
  6
CONTINUOUS
 62
7
 10
937.118919
 20
1137.871426
 40
1.000000
 50
135.881404
 51
180.000000
  0
ARC
  8
0
  6
CONTINUOUS
 62
7
 10
808.554179
 20
1156.942898
 40
1.000000
 50
270.000000
 51
348.888409
  0
ARC
  8
0
  6
CONTINUOUS
 62
7
 10
800.509995
 20
1156.942898
 40
1.000000
 50
180.000000
 51
270.000000
  0
LINE
  8
0
  6
CONTINUOUS
 62
7
 10
911.357959
 20
1156.657464
 11
911.357959
 21
1140.727206
  0
ARC
  8
0
  6
CONTINUOUS
 62
7
 10
913.957957
 20
1140.727204
 40
2.599998
 50
179.999957
 51
270.000043
  0
LINE
  8
0
  6
CONTINUOUS
 62
7
 10
913.957959
 20
1138.127206
 11
914.139725
 21
1138.127206
  0
ARC
  8
0
  6
CONTINUOUS
 62
7
 10
914.139727
 20
1140.727204
 40
2.599998
 50
269.999957
 51
0.000043
  0
LINE
  8
0
  6
CONTINUOUS
 62
7
 10
916.739725
 20
1140.727206
 11
916.739725
 21
1156.657464
  0
ARC
  8
0
  6
CONTINUOUS
 62
7
 10
914.139727
 20
1156.657466
 40
2.599998
 50
0.000000
 51
90.000043
  0
LINE
  8
0
  6
CONTINUOUS
 62
7
 10
914.139725
 20
1159.257464
 11
913.957959
 21
1159.257464
  0
ARC
  8
0
  6
CONTINUOUS
 62
7
 10
913.957957
 20
1156.657466
 40
2.599998
 50
89.999957
 51
180.000043
  0
LINE
  8
0
  6
CONTINUOUS
 62
7
 10
782.519837
 20
1166.188894
 11
782.620753
 21
1165.186966
  0
LINE
  8
0
  6
CONTINUOUS
 62
7
 10
814.782265
 20
1159.179858
 11
810.835331
 21
1159.179858
  0
ARC
  8
0
  6
CONTINUOUS
 62
7
 10
810.835331
 20
1158.179858
 40
1.000000
 50
90.000000
 51
168.888409
  0
LINE
  8
0
  6
CONTINUOUS
 62
7
 10
954.229027
 20
1157.610092
 11
953.757009
 21
1157.610092
  0
ENDSEC
  0
EOF
